  0
SECTION
  2
HEADER
  9
$ACADVER
  1
AC1021
  9
$ACADMAINTVER
 70
    25
  9
$DWGCODEPAGE
  3
ANSI_1252
  9
$LASTSAVEDBY
  1
noseda_d
  9
$INSBASE
 10
0.0
 20
0.0
 30
0.0
  9
$EXTMIN
 10
167.274107
 20
317.717582
 30
-0.0000000000000018
  9
$EXTMAX
 10
1066.101635
 20
600.012115
 30
0.0000000000000057
  9
$LIMMIN
 10
0.0
 20
0.0
  9
$LIMMAX
 10
12.0
 20
9.0
  9
$ORTHOMODE
 70
     0
  9
$REGENMODE
 70
     1
  9
$FILLMODE
 70
     1
  9
$QTEXTMODE
 70
     0
  9
$MIRRTEXT
 70
     1
  9
$LTSCALE
 40
1.0
  9
$ATTMODE
 70
     1
  9
$TEXTSIZE
 40
0.2
  9
$TRACEWID
 40
0.05
  9
$TEXTSTYLE
  7
Standard
  9
$CLAYER
  8
1
  9
$CELTYPE
  6
ByLayer
  9
$CECOLOR
 62
   256
  9
$CELTSCALE
 40
1.0
  9
$DISPSILH
 70
     0
  9
$DIMSCALE
 40
1.0
  9
$DIMASZ
 40
0.18
  9
$DIMEXO
 40
0.0625
  9
$DIMDLI
 40
0.38
  9
$DIMRND
 40
0.0
  9
$DIMDLE
 40
0.0
  9
$DIMEXE
 40
0.18
  9
$DIMTP
 40
0.0
  9
$DIMTM
 40
0.0
  9
$DIMTXT
 40
0.18
  9
$DIMCEN
 40
0.09
  9
$DIMTSZ
 40
0.0
  9
$DIMTOL
 70
     0
  9
$DIMLIM
 70
     0
  9
$DIMTIH
 70
     1
  9
$DIMTOH
 70
     1
  9
$DIMSE1
 70
     0
  9
$DIMSE2
 70
     0
  9
$DIMTAD
 70
     0
  9
$DIMZIN
 70
     0
  9
$DIMBLK
  1

  9
$DIMASO
 70
     1
  9
$DIMSHO
 70
     1
  9
$DIMPOST
  1

  9
$DIMAPOST
  1

  9
$DIMALT
 70
     0
  9
$DIMALTD
 70
     2
  9
$DIMALTF
 40
25.4
  9
$DIMLFAC
 40
1.0
  9
$DIMTOFL
 70
     0
  9
$DIMTVP
 40
0.0
  9
$DIMTIX
 70
     0
  9
$DIMSOXD
 70
     0
  9
$DIMSAH
 70
     0
  9
$DIMBLK1
  1

  9
$DIMBLK2
  1

  9
$DIMSTYLE
  2
STANDARD_ACAD
  9
$DIMCLRD
 70
     0
  9
$DIMCLRE
 70
     0
  9
$DIMCLRT
 70
     0
  9
$DIMTFAC
 40
1.0
  9
$DIMGAP
 40
0.09
  9
$DIMJUST
 70
     0
  9
$DIMSD1
 70
     0
  9
$DIMSD2
 70
     0
  9
$DIMTOLJ
 70
     1
  9
$DIMTZIN
 70
     0
  9
$DIMALTZ
 70
     0
  9
$DIMALTTZ
 70
     0
  9
$DIMUPT
 70
     0
  9
$DIMDEC
 70
     4
  9
$DIMTDEC
 70
     4
  9
$DIMALTU
 70
     2
  9
$DIMALTTD
 70
     2
  9
$DIMTXSTY
  7
Standard
  9
$DIMAUNIT
 70
     0
  9
$DIMADEC
 70
     0
  9
$DIMALTRND
 40
0.0
  9
$DIMAZIN
 70
     0
  9
$DIMDSEP
 70
    46
  9
$DIMATFIT
 70
     3
  9
$DIMFRAC
 70
     0
  9
$DIMLDRBLK
  1

  9
$DIMLUNIT
 70
     2
  9
$DIMLWD
 70
    -2
  9
$DIMLWE
 70
    -2
  9
$DIMTMOVE
 70
     2
  9
$DIMFXL
 40
1.0
  9
$DIMFXLON
 70
     0
  9
$DIMJOGANG
 40
0.7853981633974483
  9
$DIMTFILL
 70
     0
  9
$DIMTFILLCLR
 70
     0
  9
$DIMARCSYM
 70
     0
  9
$DIMLTYPE
  6

  9
$DIMLTEX1
  6

  9
$DIMLTEX2
  6

  9
$LUNITS
 70
     2
  9
$LUPREC
 70
     3
  9
$SKETCHINC
 40
0.1
  9
$FILLETRAD
 40
0.0
  9
$AUNITS
 70
     0
  9
$AUPREC
 70
     0
  9
$MENU
  1
.
  9
$ELEVATION
 40
0.0
  9
$PELEVATION
 40
0.0
  9
$THICKNESS
 40
0.0
  9
$LIMCHECK
 70
     0
  9
$CHAMFERA
 40
0.0
  9
$CHAMFERB
 40
0.0
  9
$CHAMFERC
 40
0.0
  9
$CHAMFERD
 40
0.0
  9
$SKPOLY
 70
     0
  9
$TDCREATE
 40
2460640.732389387
  9
$TDUCREATE
 40
2460640.69072272
  9
$TDUPDATE
 40
2460640.732404399
  9
$TDUUPDATE
 40
2460640.690737732
  9
$TDINDWG
 40
0.0000000116
  9
$TDUSRTIMER
 40
0.0000000116
  9
$USRTIMER
 70
     1
  9
$ANGBASE
 50
0.0
  9
$ANGDIR
 70
     0
  9
$PDMODE
 70
     0
  9
$PDSIZE
 40
0.0
  9
$PLINEWID
 40
0.0
  9
$SPLFRAME
 70
     0
  9
$SPLINETYPE
 70
     6
  9
$SPLINESEGS
 70
     8
  9
$HANDSEED
  5
294
  9
$SURFTAB1
 70
     6
  9
$SURFTAB2
 70
     6
  9
$SURFTYPE
 70
     6
  9
$SURFU
 70
     6
  9
$SURFV
 70
     6
  9
$UCSBASE
  2

  9
$UCSNAME
  2

  9
$UCSORG
 10
0.0
 20
0.0
 30
0.0
  9
$UCSXDIR
 10
1.0
 20
0.0
 30
0.0
  9
$UCSYDIR
 10
0.0
 20
1.0
 30
0.0
  9
$UCSORTHOREF
  2

  9
$UCSORTHOVIEW
 70
     0
  9
$UCSORGTOP
 10
0.0
 20
0.0
 30
0.0
  9
$UCSORGBOTTOM
 10
0.0
 20
0.0
 30
0.0
  9
$UCSORGLEFT
 10
0.0
 20
0.0
 30
0.0
  9
$UCSORGRIGHT
 10
0.0
 20
0.0
 30
0.0
  9
$UCSORGFRONT
 10
0.0
 20
0.0
 30
0.0
  9
$UCSORGBACK
 10
0.0
 20
0.0
 30
0.0
  9
$PUCSBASE
  2

  9
$PUCSNAME
  2

  9
$PUCSORG
 10
0.0
 20
0.0
 30
0.0
  9
$PUCSXDIR
 10
1.0
 20
0.0
 30
0.0
  9
$PUCSYDIR
 10
0.0
 20
1.0
 30
0.0
  9
$PUCSORTHOREF
  2

  9
$PUCSORTHOVIEW
 70
     0
  9
$PUCSORGTOP
 10
0.0
 20
0.0
 30
0.0
  9
$PUCSORGBOTTOM
 10
0.0
 20
0.0
 30
0.0
  9
$PUCSORGLEFT
 10
0.0
 20
0.0
 30
0.0
  9
$PUCSORGRIGHT
 10
0.0
 20
0.0
 30
0.0
  9
$PUCSORGFRONT
 10
0.0
 20
0.0
 30
0.0
  9
$PUCSORGBACK
 10
0.0
 20
0.0
 30
0.0
  9
$USERI1
 70
     0
  9
$USERI2
 70
     0
  9
$USERI3
 70
     0
  9
$USERI4
 70
     0
  9
$USERI5
 70
     0
  9
$USERR1
 40
0.0
  9
$USERR2
 40
0.0
  9
$USERR3
 40
0.0
  9
$USERR4
 40
0.0
  9
$USERR5
 40
0.0
  9
$WORLDVIEW
 70
     1
  9
$SHADEDGE
 70
     3
  9
$SHADEDIF
 70
    70
  9
$TILEMODE
 70
     1
  9
$MAXACTVP
 70
    64
  9
$PINSBASE
 10
0.0
 20
0.0
 30
0.0
  9
$PLIMCHECK
 70
     0
  9
$PEXTMIN
 10
1.000000000000000E+20
 20
1.000000000000000E+20
 30
1.000000000000000E+20
  9
$PEXTMAX
 10
-1.000000000000000E+20
 20
-1.000000000000000E+20
 30
-1.000000000000000E+20
  9
$PLIMMIN
 10
0.0
 20
0.0
  9
$PLIMMAX
 10
12.0
 20
9.0
  9
$UNITMODE
 70
     0
  9
$VISRETAIN
 70
     1
  9
$PLINEGEN
 70
     0
  9
$PSLTSCALE
 70
     1
  9
$TREEDEPTH
 70
  3020
  9
$CMLSTYLE
  2
Standard
  9
$CMLJUST
 70
     0
  9
$CMLSCALE
 40
1.0
  9
$PROXYGRAPHICS
 70
     1
  9
$MEASUREMENT
 70
     1
  9
$CELWEIGHT
370
    -1
  9
$ENDCAPS
280
     0
  9
$JOINSTYLE
280
     0
  9
$LWDISPLAY
290
     0
  9
$INSUNITS
 70
     4
  9
$HYPERLINKBASE
  1

  9
$STYLESHEET
  1

  9
$XEDIT
290
     1
  9
$CEPSNTYPE
380
     0
  9
$PSTYLEMODE
290
     1
  9
$FINGERPRINTGUID
  2
{48fa02e3-b5aa-6f4b-92d3-f6e3066fbce0}
  9
$VERSIONGUID
  2
{FAEB1C32-E019-11D5-929B-00C0DF256EC4}
  9
$EXTNAMES
290
     1
  9
$PSVPSCALE
 40
0.0
  9
$OLESTARTUP
290
     0
  9
$SORTENTS
280
   127
  9
$INDEXCTL
280
     0
  9
$HIDETEXT
280
     1
  9
$XCLIPFRAME
290
     0
  9
$HALOGAP
280
     0
  9
$OBSCOLOR
 70
   257
  9
$OBSLTYPE
280
     0
  9
$INTERSECTIONDISPLAY
280
     0
  9
$INTERSECTIONCOLOR
 70
   257
  9
$DIMASSOC
280
     2
  9
$PROJECTNAME
  1

  9
$CAMERADISPLAY
290
     0
  9
$LENSLENGTH
 40
50.0
  9
$CAMERAHEIGHT
 40
0.0
  9
$STEPSPERSEC
 40
2.0
  9
$STEPSIZE
 40
6.0
  9
$3DDWFPREC
 40
2.0
  9
$PSOLWIDTH
 40
0.25
  9
$PSOLHEIGHT
 40
4.0
  9
$LOFTANG1
 40
1.570796326794897
  9
$LOFTANG2
 40
1.570796326794897
  9
$LOFTMAG1
 40
0.0
  9
$LOFTMAG2
 40
0.0
  9
$LOFTPARAM
 70
     7
  9
$LOFTNORMALS
280
     1
  9
$LATITUDE
 40
37.795
  9
$LONGITUDE
 40
-122.394
  9
$NORTHDIRECTION
 40
0.0
  9
$TIMEZONE
 70
 -8000
  9
$LIGHTGLYPHDISPLAY
280
     1
  9
$TILEMODELIGHTSYNCH
280
     1
  9
$CMATERIAL
347
44
  9
$SOLIDHIST
280
     0
  9
$SHOWHIST
280
     1
  9
$DWFFRAME
280
     2
  9
$DGNFRAME
280
     2
  9
$REALWORLDSCALE
290
     1
  9
$INTERFERECOLOR
 62
   256
  9
$CSHADOW
280
     0
  9
$SHADOWPLANELOCATION
 40
0.0
  0
ENDSEC
  0
SECTION
  2
CLASSES
  0
CLASS
  1
ACDBDICTIONARYWDFLT
  2
AcDbDictionaryWithDefault
  3
ObjectDBX Classes
 90
        0
 91
        3
280
     0
281
     0
  0
CLASS
  1
VISUALSTYLE
  2
AcDbVisualStyle
  3
ObjectDBX Classes
 90
     4095
 91
        3
280
     0
281
     0
  0
CLASS
  1
MATERIAL
  2
AcDbMaterial
  3
ObjectDBX Classes
 90
     1153
 91
        3
280
     0
281
     0
  0
CLASS
  1
SCALE
  2
AcDbScale
  3
ObjectDBX Classes
 90
     1153
 91
        3
280
     0
281
     0
  0
CLASS
  1
TABLESTYLE
  2
AcDbTableStyle
  3
ObjectDBX Classes
 90
     4095
 91
        3
280
     0
281
     0
  0
CLASS
  1
MLEADERSTYLE
  2
AcDbMLeaderStyle
  3
ACDB_MLEADERSTYLE_CLASS
 90
     4095
 91
        3
280
     0
281
     0
  0
CLASS
  1
SUN
  2
AcDbSun
  3
SCENEOE
 90
     1153
 91
        3
280
     0
281
     0
  0
CLASS
  1
DICTIONARYVAR
  2
AcDbDictionaryVar
  3
ObjectDBX Classes
 90
        0
 91
        3
280
     0
281
     0
  0
CLASS
  1
CELLSTYLEMAP
  2
AcDbCellStyleMap
  3
ObjectDBX Classes
 90
     1152
 91
        3
280
     0
281
     0
  0
ENDSEC
  0
SECTION
  2
TABLES
  0
TABLE
  2
VPORT
  5
8
330
0
100
AcDbSymbolTable
 70
     1
  0
VPORT
  5
29
330
8
100
AcDbSymbolTableRecord
100
AcDbViewportTableRecord
  2
*Active
 70
     0
 10
0.0
 20
0.0
 11
1.0
 21
1.0
 12
10.42990654205607
 22
4.5
 13
0.0
 23
0.0
 14
0.5
 24
0.5
 15
0.5
 25
0.5
 16
0.0
 26
0.0
 36
1.0
 17
0.0
 27
0.0
 37
0.0
 40
9.0
 41
1.972972972850329
 42
50.0
 43
0.0
 44
0.0
 50
0.0
 51
0.0
 71
     0
 72
   100
 73
     1
 74
     3
 75
     0
 76
     0
 77
     0
 78
     0
281
     0
 65
     1
110
0.0
120
0.0
130
0.0
111
1.0
121
0.0
131
0.0
112
0.0
122
1.0
132
0.0
 79
     0
146
0.0
348
2F
 60
     3
 61
     5
292
     1
282
     1
141
0.0
142
0.0
 63
   250
361
5D
  0
ENDTAB
  0
TABLE
  2
LTYPE
  5
5
330
0
100
AcDbSymbolTable
 70
     1
  0
LTYPE
  5
14
330
5
100
AcDbSymbolTableRecord
100
AcDbLinetypeTableRecord
  2
ByBlock
 70
     0
  3

 72
    65
 73
     0
 40
0.0
  0
LTYPE
  5
15
330
5
100
AcDbSymbolTableRecord
100
AcDbLinetypeTableRecord
  2
ByLayer
 70
     0
  3

 72
    65
 73
     0
 40
0.0
  0
LTYPE
  5
16
330
5
100
AcDbSymbolTableRecord
100
AcDbLinetypeTableRecord
  2
Continuous
 70
     0
  3
Solid line
 72
    65
 73
     0
 40
0.0
  0
ENDTAB
  0
TABLE
  2
LAYER
  5
2
330
0
100
AcDbSymbolTable
 70
     2
  0
LAYER
  5
10
330
2
100
AcDbSymbolTableRecord
100
AcDbLayerTableRecord
  2
0
 70
     0
 62
     7
  6
Continuous
370
    -3
390
F
347
46
  0
LAYER
  5
5F
330
2
100
AcDbSymbolTableRecord
100
AcDbLayerTableRecord
  2
1
 70
     0
 62
     7
420
 16777215
  6
Continuous
370
    -3
390
F
347
46
  0
ENDTAB
  0
TABLE
  2
STYLE
  5
3
330
0
100
AcDbSymbolTable
 70
     1
  0
STYLE
  5
11
330
3
100
AcDbSymbolTableRecord
100
AcDbTextStyleTableRecord
  2
Standard
 70
     0
 40
0.0
 41
1.0
 50
0.0
 71
     0
 42
0.2
  3
txt
  4

  0
ENDTAB
  0
TABLE
  2
VIEW
  5
6
330
0
100
AcDbSymbolTable
 70
     0
  0
ENDTAB
  0
TABLE
  2
UCS
  5
7
330
0
100
AcDbSymbolTable
 70
     0
  0
ENDTAB
  0
TABLE
  2
APPID
  5
9
330
0
100
AcDbSymbolTable
 70
     3
  0
APPID
  5
12
330
9
100
AcDbSymbolTableRecord
100
AcDbRegAppTableRecord
  2
ACAD
 70
     0
  0
APPID
  5
5E
330
9
100
AcDbSymbolTableRecord
100
AcDbRegAppTableRecord
  2
Rhino
 70
     0
  0
APPID
  5
28C
330
9
100
AcDbSymbolTableRecord
100
AcDbRegAppTableRecord
  2
ACAD_MLEADERVER
 70
     0
  0
ENDTAB
  0
TABLE
  2
DIMSTYLE
  5
A
330
0
100
AcDbSymbolTable
 70
     1
100
AcDbDimStyleTable
  0
DIMSTYLE
105
27
330
A
100
AcDbSymbolTableRecord
100
AcDbDimStyleTableRecord
  2
STANDARD_ACAD
 70
     0
178
     0
340
11
  0
ENDTAB
  0
TABLE
  2
BLOCK_RECORD
  5
1
330
0
100
AcDbSymbolTable
 70
     1
  0
BLOCK_RECORD
  5
1F
330
1
100
AcDbSymbolTableRecord
100
AcDbBlockTableRecord
  2
*Model_Space
340
22
 70
     0
280
     1
281
     0
  0
BLOCK_RECORD
  5
1B
330
1
100
AcDbSymbolTableRecord
100
AcDbBlockTableRecord
  2
*Paper_Space
340
1E
 70
     0
280
     1
281
     0
  0
BLOCK_RECORD
  5
23
330
1
100
AcDbSymbolTableRecord
100
AcDbBlockTableRecord
  2
*Paper_Space0
340
26
 70
     0
280
     1
281
     0
  0
ENDTAB
  0
ENDSEC
  0
SECTION
  2
BLOCKS
  0
BLOCK
  5
20
330
1F
100
AcDbEntity
  8
0
100
AcDbBlockBegin
  2
*Model_Space
 70
     0
 10
0.0
 20
0.0
 30
0.0
  3
*Model_Space
  1

  0
ENDBLK
  5
21
330
1F
100
AcDbEntity
  8
0
100
AcDbBlockEnd
  0
BLOCK
  5
1C
330
1B
100
AcDbEntity
 67
     1
  8
0
100
AcDbBlockBegin
  2
*Paper_Space
 70
     0
 10
0.0
 20
0.0
 30
0.0
  3
*Paper_Space
  1

  0
ENDBLK
  5
1D
330
1B
100
AcDbEntity
 67
     1
  8
0
100
AcDbBlockEnd
  0
BLOCK
  5
24
330
23
100
AcDbEntity
  8
0
100
AcDbBlockBegin
  2
*Paper_Space0
 70
     0
 10
0.0
 20
0.0
 30
0.0
  3
*Paper_Space0
  1

  0
ENDBLK
  5
25
330
23
100
AcDbEntity
  8
0
100
AcDbBlockEnd
  0
ENDSEC
  0
SECTION
  2
ENTITIES
  0
SPLINE
  5
60
330
1F
100
AcDbEntity
  8
1
  6
Continuous
 62
   155
420
  5010073
370
    18
100
AcDbSpline
210
0.0
220
0.0
230
1.0
 70
     8
 71
     3
 72
    38
 73
    34
 74
     0
 42
0.0000000001
 43
0.0000000001
 40
0.0
 40
0.0
 40
0.0
 40
0.0
 40
0.1250000000000054
 40
0.1250000000000054
 40
0.187500000000008
 40
0.187500000000008
 40
0.2187500000000092
 40
0.2187500000000092
 40
0.2500000000000105
 40
0.2500000000000105
 40
0.3750000000000159
 40
0.3750000000000159
 40
0.4062500000000165
 40
0.4062500000000165
 40
0.4375000000000172
 40
0.4375000000000172
 40
0.5000000000000178
 40
0.5000000000000178
 40
0.6250000000000212
 40
0.6250000000000212
 40
0.6562500000000209
 40
0.6562500000000209
 40
0.6875000000000204
 40
0.6875000000000204
 40
0.7500000000000169
 40
0.7500000000000169
 40
0.8125000000000133
 40
0.8125000000000133
 40
0.8437500000000115
 40
0.8437500000000115
 40
0.8750000000000098
 40
0.8750000000000098
 40
1.0
 40
1.0
 40
1.0
 40
1.0
 10
842.7440992729887
 20
458.0884890109888
 30
0.0000000000000017
 10
842.7717261578483
 20
457.9564924278089
 30
0.0000000000000017
 10
842.79896310814
 20
457.8263733340791
 30
0.0000000000000017
 10
842.839996023635
 20
457.6340851291861
 30
0.0000000000000017
 10
842.8537029928035
 20
457.5704740187612
 30
0.0000000000000017
 10
842.8744064437017
 20
457.4758247551652
 30
0.0000000000000017
 10
842.8813008308837
 20
457.4445443085486
 30
0.0000000000000017
 10
842.8950275276527
 20
457.3828086971608
 30
0.0000000000000017
 10
842.9018700144264
 20
457.3523068689948
 30
0.0000000000000017
 10
842.9360173479124
 20
457.201608278181
 30
0.0000000000000017
 10
842.9631320443783
 20
457.086795079453
 30
0.0000000000000017
 10
842.9973938331656
 20
456.9506501992599
 30
0.0000000000000017
 10
843.0042648999787
 20
456.9237929453536
 30
0.0000000000000017
 10
843.018061573077
 20
456.8708397510877
 30
0.0000000000000017
 10
843.0249600604224
 20
456.8448501346649
 30
0.0000000000000017
 10
843.0455534472436
 20
456.7688011747296
 30
0.0000000000000017
 10
843.0591989046858
 20
456.7204568463534
 30
0.0000000000000017
 10
843.1000715502272
 20
456.5823568491778
 30
0.0000000000000017
 10
843.1272355963072
 20
456.4994704478003
 30
0.0000000000000017
 10
843.1617182596686
 20
456.4078568136511
 30
0.0000000000000017
 10
843.1686199243758
 20
456.3902002466015
 30
0.0000000000000017
 10
843.1823509599554
 20
456.356455474286
 30
0.0000000000000017
 10
843.1891951880799
 20
456.3403274515608
 30
0.0000000000000017
 10
843.2096885791199
 20
456.2941452777889
 30
0.0000000000000017
 10
843.2232987565544
 20
456.2662881476277
 30
0.0000000000000017
 10
843.2505365045314
 20
456.2163911709168
 30
0.0000000000000017
 10
843.2641655330327
 20
456.1943513310136
 30
0.0000000000000017
 10
843.2847168328396
 20
456.16574030109
 30
0.0000000000000017
 10
843.2915853160835
 20
456.1569459980196
 30
0.0000000000000017
 10
843.3053752785913
 20
456.1408730780172
 30
0.0000000000000017
 10
843.3122827532022
 20
456.1336144834966
 30
0.0000000000000017
 10
843.3466872637428
 20
456.1014367297278
 30
0.0000000000000017
 10
843.3740077162887
 20
456.0884890109888
 30
0.0000000000000018
 10
843.4016346153846
 20
456.0884890109888
 30
0.0000000000000018
  0
SPLINE
  5
61
330
1F
100
AcDbEntity
  8
1
  6
Continuous
 62
   155
420
  5010073
370
    18
100
AcDbSpline
210
0.0
220
0.0
230
1.0
 70
     8
 71
     3
 72
    38
 73
    34
 74
     0
 42
0.0000000001
 43
0.0000000001
 40
0.0
 40
0.0
 40
0.0
 40
0.0
 40
0.1249999999999898
 40
0.1249999999999898
 40
0.1874999999999846
 40
0.1874999999999846
 40
0.2187499999999823
 40
0.2187499999999823
 40
0.2499999999999799
 40
0.2499999999999799
 40
0.3749999999999784
 40
0.3749999999999784
 40
0.4062499999999793
 40
0.4062499999999793
 40
0.4374999999999802
 40
0.4374999999999802
 40
0.4999999999999821
 40
0.4999999999999821
 40
0.6249999999999832
 40
0.6249999999999832
 40
0.6562499999999843
 40
0.6562499999999843
 40
0.6874999999999855
 40
0.6874999999999855
 40
0.7499999999999878
 40
0.7499999999999878
 40
0.8124999999999902
 40
0.8124999999999902
 40
0.8437499999999915
 40
0.8437499999999915
 40
0.8749999999999927
 40
0.8749999999999927
 40
1.0
 40
1.0
 40
1.0
 40
1.0
 10
988.8016346153847
 20
456.0884890109888
 30
-0.0000000000000018
 10
988.8292615139558
 20
456.0884890109888
 30
-0.0000000000000018
 10
988.8564984641209
 20
456.1014361085178
 30
-0.0000000000000017
 10
988.8975313745071
 20
456.1396975701962
 30
-0.0000000000000017
 10
988.9112383411236
 20
456.1556131360575
 30
-0.0000000000000017
 10
988.9319417888271
 20
456.184354120819
 30
-0.0000000000000017
 10
988.9388361750555
 20
456.1947069619486
 30
-0.0000000000000017
 10
988.9525628704606
 20
456.2168345227342
 30
-0.0000000000000017
 10
988.959405356831
 20
456.2286232712717
 30
-0.0000000000000017
 10
988.9935526903113
 20
456.2911359510658
 30
-0.0000000000000017
 10
989.0206673867698
 20
456.3524703270078
 30
-0.0000000000000017
 10
989.0549291755451
 20
456.4433766093893
 30
-0.0000000000000017
 10
989.0618002423556
 20
456.4622757882032
 30
-0.0000000000000017
 10
989.0755969154484
 20
456.5015370107114
 30
-0.0000000000000017
 10
989.0824954027996
 20
456.5218244060871
 30
-0.0000000000000017
 10
989.103088789628
 20
456.584252802788
 30
-0.0000000000000017
 10
989.1167342470737
 20
456.6281037040344
 30
-0.0000000000000017
 10
989.1576068926224
 20
456.7661747881829
 30
-0.0000000000000017
 10
989.1847709387027
 20
456.8668534418593
 30
-0.0000000000000017
 10
989.2192536020588
 20
457.0037949257992
 30
-0.0000000000000017
 10
989.2261552667683
 20
457.0316582147452
 30
-0.0000000000000017
 10
989.2398863023504
 20
457.0879212287531
 30
-0.0000000000000017
 10
989.246730530476
 20
457.1163797675949
 30
-0.0000000000000017
 10
989.2672239215194
 20
457.2027173457649
 30
-0.0000000000000017
 10
989.2808340989559
 20
457.2615561669742
 30
-0.0000000000000017
 10
989.308071846936
 20
457.381747479644
 30
-0.0000000000000017
 10
989.3217008770592
 20
457.4430996395057
 30
-0.0000000000000017
 10
989.3422521800272
 20
457.5370285433229
 30
-0.0000000000000017
 10
989.3491206644389
 20
457.5686554763491
 30
-0.0000000000000017
 10
989.3629106291933
 20
457.6325531683385
 30
-0.0000000000000017
 10
989.3698181048826
 20
457.6647597267577
 30
-0.0000000000000017
 10
989.4042226197352
 20
457.825966630396
 30
-0.0000000000000017
 10
989.4315430724002
 20
457.9564924253185
 30
-0.0000000000000017
 10
989.459169957781
 20
458.0884890109887
 30
-0.0000000000000017
  0
SPLINE
  5
62
330
1F
100
AcDbEntity
  8
1
  6
Continuous
 62
   155
420
  5010073
370
    18
100
AcDbSpline
210
0.0
220
0.0
230
1.0
 70
     8
 71
     3
 72
    38
 73
    34
 74
     0
 42
0.0000000001
 43
0.0000000001
 40
0.0
 40
0.0
 40
0.0
 40
0.0
 40
0.1250000000000079
 40
0.1250000000000079
 40
0.1875000000000057
 40
0.1875000000000057
 40
0.2187500000000046
 40
0.2187500000000046
 40
0.2500000000000034
 40
0.2500000000000034
 40
0.3749999999999871
 40
0.3749999999999871
 40
0.4062499999999885
 40
0.4062499999999885
 40
0.4374999999999898
 40
0.4374999999999898
 40
0.4999999999999926
 40
0.4999999999999926
 40
0.6250000000000071
 40
0.6250000000000071
 40
0.6562500000000072
 40
0.6562500000000072
 40
0.6875000000000074
 40
0.6875000000000074
 40
0.7500000000000084
 40
0.7500000000000084
 40
0.8125000000000094
 40
0.8125000000000094
 40
0.8437500000000077
 40
0.8437500000000077
 40
0.8750000000000058
 40
0.8750000000000058
 40
1.0
 40
1.0
 40
1.0
 40
1.0
 10
988.8016346153847
 20
456.0884890109888
 30
-0.0000000000000018
 10
988.9336311956565
 20
456.0884890109888
 30
-0.0000000000000017
 10
989.0637502894916
 20
456.1014361085177
 30
-0.0000000000000017
 10
989.2560384955009
 20
456.1396975701996
 30
-0.0000000000000017
 10
989.3196496064679
 20
456.1556131360626
 30
-0.0000000000000017
 10
989.4142988707382
 20
456.1843541208282
 30
-0.0000000000000017
 10
989.445579317539
 20
456.1947069619556
 30
-0.0000000000000017
 10
989.5073149291887
 20
456.2168345227398
 30
-0.0000000000000017
 10
989.5378167574264
 20
456.2286232712767
 30
-0.0000000000000017
 10
989.688515348205
 20
456.291135951068
 30
-0.0000000000000016
 10
989.8033285469035
 20
456.3524703270099
 30
-0.0000000000000016
 10
989.9394734270618
 20
456.4433766093991
 30
-0.0000000000000016
 10
989.9663306809612
 20
456.462275788215
 30
-0.0000000000000016
 10
990.0192838752137
 20
456.501537010728
 30
-0.0000000000000016
 10
990.0452734916535
 20
456.5218244060993
 30
-0.0000000000000016
 10
990.12132245161
 20
456.5842528027951
 30
-0.0000000000000016
 10
990.1696667799965
 20
456.6281037040391
 30
-0.0000000000000016
 10
990.3077667771943
 20
456.7661747881845
 30
-0.0000000000000016
 10
990.3906531785748
 20
456.8668534418642
 30
-0.0000000000000016
 10
990.4822668127196
 20
457.0037949258196
 30
-0.0000000000000015
 10
990.4999233797716
 20
457.0316582147599
 30
-0.0000000000000015
 10
990.5336681520902
 20
457.0879212287629
 30
-0.0000000000000015
 10
990.5497961748168
 20
457.1163797676026
 30
-0.0000000000000015
 10
990.595978348593
 20
457.2027173457677
 30
-0.0000000000000015
 10
990.6238354787566
 20
457.2615561669755
 30
-0.0000000000000015
 10
990.6737324554713
 20
457.381747479646
 30
-0.0000000000000015
 10
990.6957722952518
 20
457.4430996395101
 30
-0.0000000000000015
 10
990.7243833250167
 20
457.5370285433341
 30
-0.0000000000000015
 10
990.7331776280375
 20
457.5686554763631
 30
-0.0000000000000015
 10
990.7492505479687
 20
457.6325531683594
 30
-0.0000000000000015
 10
990.756509142469
 20
457.664759726774
 30
-0.0000000000000015
 10
990.7886868962278
 20
457.8259666304012
 30
-0.0000000000000015
 10
990.8016346153847
 20
457.956492425319
 30
-0.0000000000000015
 10
990.8016346153847
 20
458.0884890109887
 30
-0.0000000000000015
  0
SPLINE
  5
63
330
1F
100
AcDbEntity
  8
1
  6
Continuous
 62
   155
420
  5010073
370
    18
100
AcDbSpline
210
0.0
220
0.0
230
1.0
 70
     8
 71
     3
 72
    20
 73
    16
 74
     0
 42
0.0000000001
 43
0.0000000001
 40
0.0
 40
0.0
 40
0.0
 40
0.0
 40
0.084275430074149
 40
0.084275430074149
 40
0.2621820891253083
 40
0.2621820891253083
 40
0.4466365668439807
 40
0.4466365668439807
 40
0.624560009131825
 40
0.624560009131825
 40
0.8024547340419482
 40
0.8024547340419482
 40
0.9803520897283546
 40
0.9803520897283546
 40
1.0
 40
1.0
 40
1.0
 40
1.0
 10
989.3643963289068
 20
457.5198960487352
 30
-0.0000000000000017
 10
989.3770237158332
 20
457.5323938583703
 30
-0.0000000000000017
 10
989.3892351132446
 20
457.5453119669278
 30
-0.0000000000000017
 10
989.4258433368963
 20
457.5867220207192
 30
-0.0000000000000017
 10
989.4487048496427
 20
457.6165708480912
 30
-0.0000000000000017
 10
989.4907784227564
 20
457.6803310746895
 30
-0.0000000000000017
 10
989.509824600595
 20
457.7143512916252
 30
-0.0000000000000017
 10
989.5421884842942
 20
457.7835515203641
 30
-0.0000000000000017
 10
989.5556852165066
 20
457.8186472112376
 30
-0.0000000000000017
 10
989.577623538691
 20
457.890378832729
 30
-0.0000000000000017
 10
989.5860658026448
 20
457.9270140461251
 30
-0.0000000000000017
 10
989.5977319139993
 20
458.0011071790015
 30
-0.0000000000000017
 10
989.6009556081087
 20
458.0385646280329
 30
-0.0000000000000017
 10
989.6016024460962
 20
458.0802049035695
 30
-0.0000000000000017
 10
989.6016346153847
 20
458.0843469572771
 30
-0.0000000000000017
 10
989.6016346153847
 20
458.0884890109888
 30
-0.0000000000000017
  0
SPLINE
  5
64
330
1F
100
AcDbEntity
  8
1
  6
Continuous
 62
   155
420
  5010073
370
    18
100
AcDbSpline
210
0.0
220
0.0
230
1.0
 70
     8
 71
     3
 72
    18
 73
    14
 74
     0
 42
0.0000000001
 43
0.0000000001
 40
0.0
 40
0.0
 40
0.0
 40
0.0
 40
0.177072002658424
 40
0.177072002658424
 40
0.3541367049159225
 40
0.3541367049159225
 40
0.53119479190566
 40
0.53119479190566
 40
0.7119913147463888
 40
0.7119913147463888
 40
0.8890905604359016
 40
0.8890905604359016
 40
1.0
 40
1.0
 40
1.0
 40
1.0
 10
842.6016346153847
 20
458.0884890109888
 30
0.0000000000000017
 10
842.6016346153847
 20
458.0509824445973
 30
0.0000000000000017
 10
842.6042765972404
 20
458.0134761226057
 30
0.0000000000000017
 10
842.614792197992
 20
457.9392052653196
 30
0.0000000000000017
 10
842.6226655323244
 20
457.9024411833595
 30
0.0000000000000017
 10
842.6434878174739
 20
457.8303805953109
 30
0.0000000000000017
 10
842.656436442696
 20
457.795084503785
 30
0.0000000000000017
 10
842.6874779761821
 20
457.7259330315403
 30
0.0000000000000017
 10
842.705673689504
 20
457.6921243642325
 30
0.0000000000000017
 10
842.7462969640497
 20
457.628119878486
 30
0.0000000000000017
 10
842.7686299499469
 20
457.5978646445408
 30
0.0000000000000017
 10
842.8082192829885
 20
457.5514507140256
 30
0.0000000000000017
 10
842.8242532932737
 20
457.534249857714
 30
0.0000000000000017
 10
842.8410119779285
 20
457.5177867108568
 30
0.0000000000000017
  0
SPLINE
  5
65
330
1F
100
AcDbEntity
  8
1
  6
Continuous
 62
   155
420
  5010073
370
    18
100
AcDbSpline
210
0.0
220
0.0
230
1.0
 70
     8
 71
     3
 72
    38
 73
    34
 74
     0
 42
0.0000000001
 43
0.0000000001
 40
0.0
 40
0.0
 40
0.0
 40
0.0
 40
0.1250000000000076
 40
0.1250000000000076
 40
0.1875000000000114
 40
0.1875000000000114
 40
0.2187500000000135
 40
0.2187500000000135
 40
0.2500000000000155
 40
0.2500000000000155
 40
0.3750000000000137
 40
0.3750000000000137
 40
0.4062500000000165
 40
0.4062500000000165
 40
0.4375000000000193
 40
0.4375000000000193
 40
0.500000000000025
 40
0.500000000000025
 40
0.6250000000000272
 40
0.6250000000000272
 40
0.656250000000025
 40
0.656250000000025
 40
0.6875000000000228
 40
0.6875000000000228
 40
0.7500000000000183
 40
0.7500000000000183
 40
0.812500000000014
 40
0.812500000000014
 40
0.8437500000000118
 40
0.8437500000000118
 40
0.8750000000000095
 40
0.8750000000000095
 40
1.0
 40
1.0
 40
1.0
 40
1.0
 10
841.4016346153846
 20
458.0884890109888
 30
0.0000000000000015
 10
841.4016346153846
 20
457.9564924278093
 30
0.0000000000000015
 10
841.4145817133314
 20
457.8263733340756
 30
0.0000000000000015
 10
841.4528431750043
 20
457.6340851291711
 30
0.0000000000000015
 10
841.468758740786
 20
457.5704740187414
 30
0.0000000000000015
 10
841.4974997253885
 20
457.4758247551367
 30
0.0000000000000015
 10
841.507852566458
 20
457.4445443085282
 30
0.0000000000000015
 10
841.5299801271527
 20
457.3828086971461
 30
0.0000000000000015
 10
841.5417688756585
 20
457.3523068689824
 30
0.0000000000000015
 10
841.6042815554579
 20
457.2016082781775
 30
0.0000000000000015
 10
841.6656159314149
 20
457.0867950794482
 30
0.0000000000000015
 10
841.7565222138405
 20
456.9506501992457
 30
0.0000000000000016
 10
841.7754213926644
 20
456.9237929453371
 30
0.0000000000000016
 10
841.8146826151957
 20
456.8708397510659
 30
0.0000000000000016
 10
841.8349700105513
 20
456.8448501346497
 30
0.0000000000000016
 10
841.8973984072286
 20
456.7688011747217
 30
0.0000000000000016
 10
841.9412493084623
 20
456.7204568463484
 30
0.0000000000000016
 10
842.0793203925854
 20
456.5823568491767
 30
0.0000000000000016
 10
842.1799990462622
 20
456.4994704477953
 30
0.0000000000000016
 10
842.3169405302405
 20
456.4078568136377
 30
0.0000000000000016
 10
842.3448038191711
 20
456.3902002465924
 30
0.0000000000000016
 10
842.4010668331641
 20
456.3564554742804
 30
0.0000000000000016
 10
842.4295253719989
 20
456.3403274515565
 30
0.0000000000000016
 10
842.5158629501499
 20
456.2941452777876
 30
0.0000000000000016
 10
842.574701771349
 20
456.2662881476272
 30
0.0000000000000017
 10
842.6948930840058
 20
456.216391170916
 30
0.0000000000000017
 10
842.7562452441828
 20
456.1943513310119
 30
0.0000000000000017
 10
842.8501741486584
 20
456.1657403010867
 30
0.0000000000000017
 10
842.8818010819331
 20
456.1569459980158
 30
0.0000000000000017
 10
842.9456987744143
 20
456.1408730780122
 30
0.0000000000000017
 10
842.9779053330533
 20
456.1336144834931
 30
0.0000000000000017
 10
843.1391122375994
 20
456.1014367297277
 30
0.0000000000000017
 10
843.2696380326042
 20
456.0884890109888
 30
0.0000000000000017
 10
843.4016346153846
 20
456.0884890109888
 30
0.0000000000000018
  0
SPLINE
  5
66
330
1F
100
AcDbEntity
  8
1
  6
Continuous
 62
   155
420
  5010073
370
    18
100
AcDbSpline
210
0.0
220
0.0
230
1.0
 70
     8
 71
     3
 72
    38
 73
    34
 74
     0
 42
0.0000000001
 43
0.0000000001
 40
0.0
 40
0.0
 40
0.0
 40
0.0
 40
0.1250000000000076
 40
0.1250000000000076
 40
0.1875000000000114
 40
0.1875000000000114
 40
0.2187500000000135
 40
0.2187500000000135
 40
0.2500000000000155
 40
0.2500000000000155
 40
0.3750000000000137
 40
0.3750000000000137
 40
0.4062500000000165
 40
0.4062500000000165
 40
0.4375000000000193
 40
0.4375000000000193
 40
0.500000000000025
 40
0.500000000000025
 40
0.6250000000000272
 40
0.6250000000000272
 40
0.656250000000025
 40
0.656250000000025
 40
0.6875000000000228
 40
0.6875000000000228
 40
0.7500000000000183
 40
0.7500000000000183
 40
0.812500000000014
 40
0.812500000000014
 40
0.8437500000000118
 40
0.8437500000000118
 40
0.8750000000000095
 40
0.8750000000000095
 40
1.0
 40
1.0
 40
1.0
 40
1.0
 10
214.3316424852534
 20
458.0884890109887
 30
0.0000000000000057
 10
214.3040156003939
 20
457.9564924278092
 30
0.0000000000000054
 10
214.2767786501012
 20
457.8263733340755
 30
0.0000000000000051
 10
214.2357457346035
 20
457.634085129171
 30
0.0000000000000047
 10
214.2220387654338
 20
457.5704740187413
 30
0.0000000000000046
 10
214.2013353145336
 20
457.4758247551366
 30
0.0000000000000044
 10
214.1944409273532
 20
457.4445443085281
 30
0.0000000000000043
 10
214.1807142305855
 20
457.3828086971459
 30
0.0000000000000042
 10
214.1738717438122
 20
457.3523068689823
 30
0.0000000000000041
 10
214.1397244103282
 20
457.2016082781774
 30
0.0000000000000038
 10
214.1126097138623
 20
457.0867950794481
 30
0.0000000000000035
 10
214.0783479250726
 20
456.9506501992456
 30
0.0000000000000032
 10
214.071476858259
 20
456.923792945337
 30
0.0000000000000032
 10
214.0576801851592
 20
456.8708397510658
 30
0.000000000000003
 10
214.0507816978155
 20
456.8448501346496
 30
0.000000000000003
 10
214.0301883109961
 20
456.7688011747216
 30
0.0000000000000028
 10
214.0165428535547
 20
456.7204568463483
 30
0.0000000000000027
 10
213.9756702080141
 20
456.5823568491766
 30
0.0000000000000024
 10
213.9485061619331
 20
456.4994704477952
 30
0.0000000000000022
 10
213.9140234985681
 20
456.4078568136376
 30
0.000000000000002
 10
213.9071218338625
 20
456.3902002465923
 30
0.000000000000002
 10
213.8933907982841
 20
456.3564554742803
 30
0.0000000000000019
 10
213.8865465701602
 20
456.3403274515564
 30
0.0000000000000019
 10
213.8660531791214
 20
456.2941452777875
 30
0.0000000000000018
 10
213.8524430016872
 20
456.2662881476271
 30
0.0000000000000017
 10
213.8252052537099
 20
456.2163911709159
 30
0.0000000000000016
 10
213.811576225208
 20
456.1943513310118
 30
0.0000000000000015
 10
213.7910249253996
 20
456.1657403010866
 30
0.0000000000000015
 10
213.7841564421551
 20
456.1569459980157
 30
0.0000000000000015
 10
213.7703664796459
 20
456.1408730780121
 30
0.0000000000000014
 10
213.763459005036
 20
456.133614483493
 30
0.0000000000000014
 10
213.729054494498
 20
456.1014367297276
 30
0.0000000000000013
 10
213.7017340419532
 20
456.0884890109887
 30
0.0000000000000013
 10
213.6741071428571
 20
456.0884890109887
 30
0.0000000000000013
  0
SPLINE
  5
67
330
1F
100
AcDbEntity
  8
1
  6
Continuous
 62
   155
420
  5010073
370
    18
100
AcDbSpline
210
0.0
220
0.0
230
1.0
 70
     8
 71
     3
 72
    38
 73
    34
 74
     0
 42
0.0000000001
 43
0.0000000001
 40
0.0
 40
0.0
 40
0.0
 40
0.0
 40
0.1250000000000145
 40
0.1250000000000145
 40
0.1875000000000155
 40
0.1875000000000155
 40
0.218750000000022
 40
0.218750000000022
 40
0.2500000000000285
 40
0.2500000000000285
 40
0.3750000000000442
 40
0.3750000000000442
 40
0.406250000000043
 40
0.406250000000043
 40
0.4375000000000418
 40
0.4375000000000418
 40
0.5000000000000401
 40
0.5000000000000401
 40
0.6250000000000275
 40
0.6250000000000275
 40
0.6562500000000259
 40
0.6562500000000259
 40
0.6875000000000241
 40
0.6875000000000241
 40
0.7500000000000213
 40
0.7500000000000213
 40
0.8125000000000185
 40
0.8125000000000185
 40
0.8437500000000152
 40
0.8437500000000152
 40
0.8750000000000118
 40
0.8750000000000118
 40
1.0
 40
1.0
 40
1.0
 40
1.0
 10
169.2741071428571
 20
456.0884890109887
 30
0.0000000000000013
 10
169.246480244286
 20
456.0884890109887
 30
0.0000000000000013
 10
169.2192432941201
 20
456.1014361085176
 30
0.0000000000000013
 10
169.1782103837314
 20
456.1396975701995
 30
0.0000000000000014
 10
169.1645034171138
 20
456.1556131360625
 30
0.0000000000000015
 10
169.1437999694084
 20
456.1843541208281
 30
0.0000000000000015
 10
169.1369055831817
 20
456.1947069619555
 30
0.0000000000000016
 10
169.1231788877778
 20
456.2168345227397
 30
0.0000000000000016
 10
169.1163364014079
 20
456.2286232712766
 30
0.0000000000000016
 10
169.0821890679295
 20
456.2911359510679
 30
0.0000000000000018
 10
169.0550743714707
 20
456.3524703270098
 30
0.0000000000000019
 10
169.020812582693
 20
456.443376609399
 30
0.0000000000000021
 10
169.0139415158819
 20
456.4622757882149
 30
0.0000000000000021
 10
169.0001448427876
 20
456.5015370107279
 30
0.0000000000000022
 10
168.993246355438
 20
456.5218244060992
 30
0.0000000000000023
 10
168.9726529686115
 20
456.584252802795
 30
0.0000000000000024
 10
168.9590075111666
 20
456.628103704039
 30
0.0000000000000025
 10
168.9181348656188
 20
456.7661747881843
 30
0.0000000000000028
 10
168.8909708195375
 20
456.8668534418641
 30
0.000000000000003
 10
168.8564881561779
 20
457.0037949258196
 30
0.0000000000000033
 10
168.8495864914698
 20
457.0316582147598
 30
0.0000000000000034
 10
168.835855455889
 20
457.0879212287628
 30
0.0000000000000035
 10
168.8290112277638
 20
457.1163797676026
 30
0.0000000000000036
 10
168.8085178367218
 20
457.2027173457677
 30
0.0000000000000038
 10
168.7949076592856
 20
457.2615561669754
 30
0.0000000000000039
 10
168.7676699113054
 20
457.3817474796459
 30
0.0000000000000042
 10
168.7540408811816
 20
457.44309963951
 30
0.0000000000000043
 10
168.7334895782122
 20
457.537028543334
 30
0.0000000000000045
 10
168.7266210937998
 20
457.5686554763631
 30
0.0000000000000046
 10
168.712831129044
 20
457.6325531683594
 30
0.0000000000000047
 10
168.7059236533558
 20
457.6647597267739
 30
0.0000000000000048
 10
168.6715191385055
 20
457.8259666304012
 30
0.0000000000000051
 10
168.6441986858414
 20
457.9564924253189
 30
0.0000000000000054
 10
168.6165718004606
 20
458.0884890109886
 30
0.0000000000000057
  0
SPLINE
  5
68
330
1F
100
AcDbEntity
  8
1
  6
Continuous
 62
   155
420
  5010073
370
    18
100
AcDbSpline
210
0.0
220
0.0
230
1.0
 70
     8
 71
     3
 72
    20
 73
    16
 74
     0
 42
0.0000000001
 43
0.0000000001
 40
0.0
 40
0.0
 40
0.0
 40
0.0
 40
0.0065197154725112
 40
0.0065197154725112
 40
0.1844256645227591
 40
0.1844256645227591
 40
0.362359401029014
 40
0.362359401029014
 40
0.5032598577362557
 40
0.5032598577362557
 40
0.6821592988132151
 40
0.6821592988132151
 40
0.861074703567379
 40
0.861074703567379
 40
1.0
 40
1.0
 40
1.0
 40
1.0
 10
168.7113448665494
 20
457.5198954792025
 30
0.0000000000000045
 10
168.7103679856268
 20
457.5208623327343
 30
0.0000000000000045
 10
168.7093935982116
 20
457.5218317057357
 30
0.0000000000000045
 10
168.6819016514224
 20
457.5493236525249
 30
0.0000000000000045
 10
168.6572497541322
 20
457.5777115723331
 30
0.0000000000000046
 10
168.6121649950419
 20
457.6376679131546
 30
0.0000000000000047
 10
168.5917330879024
 20
457.6692364400989
 30
0.0000000000000048
 10
168.5592677600876
 20
457.7280906594966
 30
0.0000000000000049
 10
168.5463706565343
 20
457.7548995623006
 30
0.000000000000005
 10
168.5205708103541
 20
457.8171859008561
 30
0.0000000000000051
 10
168.5086068908813
 20
457.8530498141521
 30
0.0000000000000052
 10
168.489852376122
 20
457.9261099302265
 30
0.0000000000000054
 10
168.4830623617602
 20
457.9633057915625
 30
0.0000000000000054
 10
168.4757174579608
 20
458.0299083778025
 30
0.0000000000000056
 10
168.4741071428571
 20
458.0591975054349
 30
0.0000000000000057
 10
168.4741071428571
 20
458.0884890109887
 30
0.0000000000000057
  0
SPLINE
  5
69
330
1F
100
AcDbEntity
  8
1
  6
Continuous
 62
   155
420
  5010073
370
    18
100
AcDbSpline
210
0.0
220
0.0
230
1.0
 70
     8
 71
     3
 72
    38
 73
    34
 74
     0
 42
0.0000000001
 43
0.0000000001
 40
0.0
 40
0.0
 40
0.0
 40
0.0
 40
0.1249999999999782
 40
0.1249999999999782
 40
0.1874999999999686
 40
0.1874999999999686
 40
0.2187499999999639
 40
0.2187499999999639
 40
0.2499999999999591
 40
0.2499999999999591
 40
0.3749999999999514
 40
0.3749999999999514
 40
0.4062499999999501
 40
0.4062499999999501
 40
0.4374999999999488
 40
0.4374999999999488
 40
0.4999999999999514
 40
0.4999999999999514
 40
0.624999999999956
 40
0.624999999999956
 40
0.656249999999958
 40
0.656249999999958
 40
0.6874999999999601
 40
0.6874999999999601
 40
0.7499999999999686
 40
0.7499999999999686
 40
0.8124999999999771
 40
0.8124999999999771
 40
0.8437499999999809
 40
0.8437499999999809
 40
0.8749999999999847
 40
0.8749999999999847
 40
1.0
 40
1.0
 40
1.0
 40
1.0
 10
169.2741071428571
 20
456.0884890109887
 30
0.0000000000000013
 10
169.1421105625847
 20
456.0884890109887
 30
0.0000000000000013
 10
169.0119914687535
 20
456.1014361085177
 30
0.0000000000000013
 10
168.819703262756
 20
456.1396975701961
 30
0.0000000000000014
 10
168.7560921517938
 20
456.1556131360574
 30
0.0000000000000015
 10
168.6614428875322
 20
456.184354120819
 30
0.0000000000000015
 10
168.6301624407234
 20
456.1947069619484
 30
0.0000000000000016
 10
168.5684268290679
 20
456.2168345227341
 30
0.0000000000000016
 10
168.5379250008279
 20
456.2286232712716
 30
0.0000000000000016
 10
168.3872264100403
 20
456.2911359510657
 30
0.0000000000000018
 10
168.2724132113431
 20
456.3524703270077
 30
0.0000000000000019
 10
168.1362683311942
 20
456.4433766093892
 30
0.0000000000000021
 10
168.1094110772971
 20
456.4622757882032
 30
0.0000000000000021
 10
168.0564578830498
 20
456.5015370107113
 30
0.0000000000000022
 10
168.0304682666036
 20
456.521824406087
 30
0.0000000000000023
 10
167.9544193066396
 20
456.5842528027879
 30
0.0000000000000024
 10
167.9060749782502
 20
456.6281037040343
 30
0.0000000000000025
 10
167.7679749810485
 20
456.7661747881828
 30
0.0000000000000028
 10
167.6850885796719
 20
456.8668534418592
 30
0.000000000000003
 10
167.5934749455355
 20
457.0037949257991
 30
0.0000000000000033
 10
167.5758183784792
 20
457.0316582147451
 30
0.0000000000000034
 10
167.5420736061572
 20
457.087921228753
 30
0.0000000000000035
 10
167.5259455834292
 20
457.1163797675948
 30
0.0000000000000036
 10
167.47976340965
 20
457.2027173457648
 30
0.0000000000000038
 10
167.4519062794857
 20
457.2615561669741
 30
0.0000000000000039
 10
167.4020093027713
 20
457.3817474796438
 30
0.0000000000000042
 10
167.3799694629916
 20
457.4430996395056
 30
0.0000000000000043
 10
167.3513584332283
 20
457.5370285433228
 30
0.0000000000000045
 10
167.3425641302081
 20
457.568655476349
 30
0.0000000000000046
 10
167.326491210278
 20
457.6325531683384
 30
0.0000000000000047
 10
167.3192326157762
 20
457.6647597267577
 30
0.0000000000000048
 10
167.2870548620141
 20
457.8259666303959
 30
0.0000000000000051
 10
167.2741071428571
 20
457.9564924253185
 30
0.0000000000000054
 10
167.2741071428571
 20
458.0884890109886
 30
0.0000000000000057
  0
SPLINE
  5
6A
330
1F
100
AcDbEntity
  8
1
  6
Continuous
 62
   155
420
  5010073
370
    18
100
AcDbSpline
210
0.0
220
0.0
230
1.0
 70
     8
 71
     3
 72
    38
 73
    34
 74
     0
 42
0.0000000001
 43
0.0000000001
 40
0.0
 40
0.0
 40
0.0
 40
0.0
 40
0.1250000000000054
 40
0.1250000000000054
 40
0.187500000000008
 40
0.187500000000008
 40
0.2187500000000092
 40
0.2187500000000092
 40
0.2500000000000105
 40
0.2500000000000105
 40
0.3750000000000159
 40
0.3750000000000159
 40
0.4062500000000165
 40
0.4062500000000165
 40
0.4375000000000172
 40
0.4375000000000172
 40
0.5000000000000178
 40
0.5000000000000178
 40
0.6250000000000212
 40
0.6250000000000212
 40
0.6562500000000209
 40
0.6562500000000209
 40
0.6875000000000204
 40
0.6875000000000204
 40
0.7500000000000169
 40
0.7500000000000169
 40
0.8125000000000133
 40
0.8125000000000133
 40
0.8437500000000115
 40
0.8437500000000115
 40
0.8750000000000098
 40
0.8750000000000098
 40
1.0
 40
1.0
 40
1.0
 40
1.0
 10
215.6741071428571
 20
458.0884890109887
 30
0.0000000000000057
 10
215.6741071428571
 20
457.9564924278088
 30
0.0000000000000054
 10
215.6611600449103
 20
457.8263733340789
 30
0.0000000000000051
 10
215.6228985832407
 20
457.634085129186
 30
0.0000000000000047
 10
215.6069830174608
 20
457.5704740187611
 30
0.0000000000000046
 10
215.5782420328624
 20
457.4758247551651
 30
0.0000000000000044
 10
215.5678891917907
 20
457.4445443085485
 30
0.0000000000000043
 10
215.5457616310946
 20
457.3828086971607
 30
0.0000000000000042
 10
215.5339728825882
 20
457.3523068689947
 30
0.0000000000000041
 10
215.4714602027861
 20
457.2016082781809
 30
0.0000000000000038
 10
215.4101258268289
 20
457.0867950794529
 30
0.0000000000000035
 10
215.3192195444111
 20
456.9506501992598
 30
0.0000000000000032
 10
215.300320365589
 20
456.9237929453536
 30
0.0000000000000032
 10
215.2610591430627
 20
456.8708397510876
 30
0.000000000000003
 10
215.2407717477026
 20
456.8448501346648
 30
0.000000000000003
 10
215.1783433510203
 20
456.7688011747294
 30
0.0000000000000028
 10
215.1344924497843
 20
456.7204568463533
 30
0.0000000000000027
 10
214.9964213656579
 20
456.5823568491777
 30
0.0000000000000024
 10
214.8957427119844
 20
456.4994704478001
 30
0.0000000000000022
 10
214.7588012280218
 20
456.4078568136509
 30
0.000000000000002
 10
214.7309379390853
 20
456.3902002466014
 30
0.000000000000002
 10
214.6746749250875
 20
456.3564554742858
 30
0.0000000000000019
 10
214.6462163862506
 20
456.3403274515607
 30
0.0000000000000019
 10
214.5598788080947
 20
456.2941452777888
 30
0.0000000000000018
 10
214.501039986894
 20
456.2662881476276
 30
0.0000000000000017
 10
214.3808486742379
 20
456.2163911709167
 30
0.0000000000000016
 10
214.3194965140634
 20
456.1943513310135
 30
0.0000000000000015
 10
214.2255676095945
 20
456.1657403010898
 30
0.0000000000000015
 10
214.1939406763226
 20
456.1569459980195
 30
0.0000000000000015
 10
214.1300429838483
 20
456.1408730780171
 30
0.0000000000000014
 10
214.0978364252047
 20
456.1336144834965
 30
0.0000000000000014
 10
213.9366295206476
 20
456.1014367297277
 30
0.0000000000000013
 10
213.8061037256381
 20
456.0884890109887
 30
0.0000000000000013
 10
213.6741071428571
 20
456.0884890109887
 30
0.0000000000000013
  0
SPLINE
  5
6B
330
1F
100
AcDbEntity
  8
1
  6
Continuous
 62
   155
420
  5010073
370
    18
100
AcDbSpline
210
0.0
220
0.0
230
1.0
 70
     8
 71
     3
 72
    20
 73
    16
 74
     0
 42
0.0000000001
 43
0.0000000001
 40
0.0
 40
0.0
 40
0.0
 40
0.0
 40
0.1769957862585635
 40
0.1769957862585635
 40
0.35403010383485
 40
0.35403010383485
 40
0.491491061006321
 40
0.491491061006321
 40
0.667517067800575
 40
0.667517067800575
 40
0.8435705684192751
 40
0.8435705684192751
 40
0.9829821220126419
 40
0.9829821220126419
 40
1.0
 40
1.0
 40
1.0
 40
1.0
 10
214.4741071428571
 20
458.0884890109887
 30
0.0000000000000057
 10
214.4741071428571
 20
458.0507720299456
 30
0.0000000000000056
 10
214.4714354845773
 20
458.0130591328622
 30
0.0000000000000056
 10
214.4608030280866
 20
457.9383812015689
 30
0.0000000000000054
 10
214.4528411469687
 20
457.9014168023785
 30
0.0000000000000053
 10
214.4341390951857
 20
457.8370747105398
 30
0.0000000000000052
 10
214.424418863614
 20
457.8094009994452
 30
0.0000000000000051
 10
214.3988582123087
 20
457.7476921284011
 30
0.000000000000005
 10
214.3820650668969
 20
457.7140531584675
 30
0.0000000000000049
 10
214.3439258211242
 20
457.6494559740187
 30
0.0000000000000048
 10
214.322579257563
 20
457.618498600957
 30
0.0000000000000047
 10
214.2806289919404
 20
457.5659820143838
 30
0.0000000000000046
 10
214.2607963032055
 20
457.5438073214386
 30
0.0000000000000045
 10
214.2372286554397
 20
457.5202396736728
 30
0.0000000000000045
 10
214.2346472848554
 20
457.5176932224763
 30
0.0000000000000045
 10
214.2320487090159
 20
457.515164452128
 30
0.0000000000000045
  0
SPLINE
  5
6C
330
1F
100
AcDbEntity
  8
1
  6
Continuous
 62
   155
420
  5010073
370
    18
100
AcDbSpline
210
0.0
220
0.0
230
1.0
 70
     8
 71
     3
 72
    38
 73
    34
 74
     0
 42
0.0000000001
 43
0.0000000001
 40
0.0
 40
0.0
 40
0.0
 40
0.0
 40
0.1250000000000138
 40
0.1250000000000138
 40
0.1875000000000207
 40
0.1875000000000207
 40
0.2187500000000239
 40
0.2187500000000239
 40
0.2500000000000271
 40
0.2500000000000271
 40
0.3750000000000439
 40
0.3750000000000439
 40
0.4062500000000447
 40
0.4062500000000447
 40
0.4375000000000455
 40
0.4375000000000455
 40
0.5000000000000397
 40
0.5000000000000397
 40
0.6250000000000375
 40
0.6250000000000375
 40
0.6562500000000346
 40
0.6562500000000346
 40
0.6875000000000316
 40
0.6875000000000316
 40
0.7500000000000249
 40
0.7500000000000249
 40
0.8125000000000181
 40
0.8125000000000181
 40
0.8437500000000151
 40
0.8437500000000151
 40
0.8750000000000121
 40
0.8750000000000121
 40
1.0
 40
1.0
 40
1.0
 40
1.0
 10
700.2027139138252
 20
458.0884890109888
 30
0.0000000000000025
 10
700.1750870289658
 20
457.9564924278093
 30
0.0000000000000025
 10
700.147850078673
 20
457.8263733340756
 30
0.0000000000000025
 10
700.1068171631753
 20
457.6340851291711
 30
0.0000000000000025
 10
700.0931101940055
 20
457.5704740187414
 30
0.0000000000000025
 10
700.0724067431053
 20
457.4758247551367
 30
0.0000000000000025
 10
700.065512355925
 20
457.4445443085282
 30
0.0000000000000025
 10
700.0517856591572
 20
457.3828086971461
 30
0.0000000000000025
 10
700.044943172384
 20
457.3523068689824
 30
0.0000000000000025
 10
700.0107958388999
 20
457.2016082781775
 30
0.0000000000000025
 10
699.9836811424341
 20
457.0867950794482
 30
0.0000000000000024
 10
699.9494193536443
 20
456.9506501992457
 30
0.0000000000000024
 10
699.9425482868307
 20
456.9237929453371
 30
0.0000000000000024
 10
699.9287516137309
 20
456.8708397510659
 30
0.0000000000000024
 10
699.9218531263872
 20
456.8448501346497
 30
0.0000000000000024
 10
699.9012597395679
 20
456.7688011747217
 30
0.0000000000000024
 10
699.8876142821265
 20
456.7204568463484
 30
0.0000000000000024
 10
699.8467416365859
 20
456.5823568491767
 30
0.0000000000000024
 10
699.8195775905049
 20
456.4994704477953
 30
0.0000000000000024
 10
699.7850949271399
 20
456.4078568136377
 30
0.0000000000000024
 10
699.7781932624342
 20
456.3902002465924
 30
0.0000000000000024
 10
699.7644622268558
 20
456.3564554742804
 30
0.0000000000000024
 10
699.7576179987319
 20
456.3403274515565
 30
0.0000000000000024
 10
699.7371246076931
 20
456.2941452777876
 30
0.0000000000000024
 10
699.7235144302589
 20
456.2662881476272
 30
0.0000000000000024
 10
699.6962766822816
 20
456.216391170916
 30
0.0000000000000024
 10
699.6826476537797
 20
456.1943513310119
 30
0.0000000000000024
 10
699.6620963539714
 20
456.1657403010867
 30
0.0000000000000024
 10
699.6552278707269
 20
456.1569459980158
 30
0.0000000000000024
 10
699.6414379082177
 20
456.1408730780122
 30
0.0000000000000024
 10
699.6345304336078
 20
456.1336144834931
 30
0.0000000000000024
 10
699.6001259230698
 20
456.1014367297277
 30
0.0000000000000024
 10
699.5728054705248
 20
456.0884890109888
 30
0.0000000000000024
 10
699.5451785714288
 20
456.0884890109888
 30
0.0000000000000024
  0
SPLINE
  5
6D
330
1F
100
AcDbEntity
  8
1
  6
Continuous
 62
   155
420
  5010073
370
    18
100
AcDbSpline
210
0.0
220
0.0
230
1.0
 70
     8
 71
     3
 72
    38
 73
    34
 74
     0
 42
0.0000000001
 43
0.0000000001
 40
0.0
 40
0.0
 40
0.0
 40
0.0
 40
0.1250000000000079
 40
0.1250000000000079
 40
0.1875000000000057
 40
0.1875000000000057
 40
0.2187500000000046
 40
0.2187500000000046
 40
0.2500000000000034
 40
0.2500000000000034
 40
0.3749999999999871
 40
0.3749999999999871
 40
0.4062499999999885
 40
0.4062499999999885
 40
0.4374999999999898
 40
0.4374999999999898
 40
0.4999999999999926
 40
0.4999999999999926
 40
0.6250000000000071
 40
0.6250000000000071
 40
0.6562500000000072
 40
0.6562500000000072
 40
0.6875000000000074
 40
0.6875000000000074
 40
0.7500000000000084
 40
0.7500000000000084
 40
0.8125000000000094
 40
0.8125000000000094
 40
0.8437500000000077
 40
0.8437500000000077
 40
0.8750000000000058
 40
0.8750000000000058
 40
1.0
 40
1.0
 40
1.0
 40
1.0
 10
655.1451785714288
 20
456.0884890109888
 30
-0.0000000000000004
 10
655.1175516728579
 20
456.0884890109888
 30
-0.0000000000000004
 10
655.0903147226919
 20
456.1014361085177
 30
-0.0000000000000004
 10
655.0492818123032
 20
456.1396975701996
 30
-0.0000000000000004
 10
655.0355748456856
 20
456.1556131360626
 30
-0.0000000000000004
 10
655.0148713979802
 20
456.1843541208282
 30
-0.0000000000000004
 10
655.0079770117535
 20
456.1947069619556
 30
-0.0000000000000004
 10
654.9942503163496
 20
456.2168345227398
 30
-0.0000000000000004
 10
654.9874078299797
 20
456.2286232712767
 30
-0.0000000000000004
 10
654.9532604965012
 20
456.291135951068
 30
-0.0000000000000004
 10
654.9261458000425
 20
456.3524703270099
 30
-0.0000000000000004
 10
654.8918840112648
 20
456.4433766093991
 30
-0.0000000000000004
 10
654.8850129444536
 20
456.462275788215
 30
-0.0000000000000004
 10
654.8712162713593
 20
456.501537010728
 30
-0.0000000000000004
 10
654.8643177840097
 20
456.5218244060993
 30
-0.0000000000000004
 10
654.8437243971832
 20
456.5842528027951
 30
-0.0000000000000003
 10
654.8300789397383
 20
456.6281037040391
 30
-0.0000000000000003
 10
654.7892062941906
 20
456.7661747881845
 30
-0.0000000000000003
 10
654.7620422481093
 20
456.8668534418642
 30
-0.0000000000000003
 10
654.7275595847497
 20
457.0037949258196
 30
-0.0000000000000003
 10
654.7206579200416
 20
457.0316582147599
 30
-0.0000000000000003
 10
654.7069268844607
 20
457.0879212287629
 30
-0.0000000000000003
 10
654.7000826563356
 20
457.1163797676026
 30
-0.0000000000000003
 10
654.6795892652934
 20
457.2027173457677
 30
-0.0000000000000003
 10
654.6659790878574
 20
457.2615561669755
 30
-0.0000000000000003
 10
654.6387413398771
 20
457.381747479646
 30
-0.0000000000000003
 10
654.6251123097534
 20
457.4430996395101
 30
-0.0000000000000003
 10
654.6045610067839
 20
457.5370285433341
 30
-0.0000000000000003
 10
654.5976925223715
 20
457.5686554763631
 30
-0.0000000000000003
 10
654.5839025576157
 20
457.6325531683594
 30
-0.0000000000000003
 10
654.5769950819275
 20
457.664759726774
 30
-0.0000000000000003
 10
654.5425905670772
 20
457.8259666304012
 30
-0.0000000000000003
 10
654.5152701144132
 20
457.956492425319
 30
-0.0000000000000003
 10
654.4876432290325
 20
458.0884890109887
 30
-0.0000000000000003
  0
SPLINE
  5
6E
330
1F
100
AcDbEntity
  8
1
  6
Continuous
 62
   155
420
  5010073
370
    18
100
AcDbSpline
210
0.0
220
0.0
230
1.0
 70
     8
 71
     3
 72
    38
 73
    34
 74
     0
 42
0.0000000001
 43
0.0000000001
 40
0.0
 40
0.0
 40
0.0
 40
0.0
 40
0.1249999999999967
 40
0.1249999999999967
 40
0.1874999999999963
 40
0.1874999999999963
 40
0.218749999999997
 40
0.218749999999997
 40
0.2499999999999977
 40
0.2499999999999977
 40
0.3750000000000034
 40
0.3750000000000034
 40
0.4062500000000042
 40
0.4062500000000042
 40
0.4375000000000049
 40
0.4375000000000049
 40
0.5000000000000064
 40
0.5000000000000064
 40
0.625000000000007
 40
0.625000000000007
 40
0.6562500000000064
 40
0.6562500000000064
 40
0.687500000000006
 40
0.687500000000006
 40
0.7500000000000078
 40
0.7500000000000078
 40
0.8125000000000095
 40
0.8125000000000095
 40
0.8437500000000089
 40
0.8437500000000089
 40
0.8750000000000083
 40
0.8750000000000083
 40
1.0
 40
1.0
 40
1.0
 40
1.0
 10
701.5451785714288
 20
458.0884890109888
 30
0.0000000000000026
 10
701.5451785714288
 20
457.9564924278088
 30
0.0000000000000026
 10
701.532231473482
 20
457.8263733340791
 30
0.0000000000000026
 10
701.4939700118125
 20
457.6340851291861
 30
0.0000000000000026
 10
701.4780544460326
 20
457.5704740187613
 30
0.0000000000000026
 10
701.4493134614341
 20
457.4758247551653
 30
0.0000000000000026
 10
701.4389606203624
 20
457.4445443085487
 30
0.0000000000000026
 10
701.4168330596664
 20
457.3828086971608
 30
0.0000000000000026
 10
701.4050443111599
 20
457.3523068689948
 30
0.0000000000000025
 10
701.3425316313579
 20
457.2016082781811
 30
0.0000000000000025
 10
701.2811972554007
 20
457.086795079453
 30
0.0000000000000025
 10
701.1902909729829
 20
456.9506501992599
 30
0.0000000000000025
 10
701.1713917941609
 20
456.9237929453536
 30
0.0000000000000025
 10
701.1321305716344
 20
456.8708397510877
 30
0.0000000000000025
 10
701.1118431762744
 20
456.8448501346649
 30
0.0000000000000025
 10
701.049414779592
 20
456.7688011747295
 30
0.0000000000000025
 10
701.005563878356
 20
456.7204568463534
 30
0.0000000000000025
 10
700.8674927942297
 20
456.5823568491778
 30
0.0000000000000025
 10
700.7668141405562
 20
456.4994704478003
 30
0.0000000000000025
 10
700.6298726565935
 20
456.407856813651
 30
0.0000000000000024
 10
700.602009367657
 20
456.3902002466014
 30
0.0000000000000024
 10
700.5457463536592
 20
456.356455474286
 30
0.0000000000000024
 10
700.5172878148223
 20
456.3403274515608
 30
0.0000000000000024
 10
700.4309502366665
 20
456.2941452777889
 30
0.0000000000000024
 10
700.3721114154657
 20
456.2662881476277
 30
0.0000000000000024
 10
700.2519201028097
 20
456.2163911709168
 30
0.0000000000000024
 10
700.1905679426352
 20
456.1943513310136
 30
0.0000000000000024
 10
700.0966390381664
 20
456.16574030109
 30
0.0000000000000024
 10
700.0650121048944
 20
456.1569459980196
 30
0.0000000000000024
 10
700.0011144124201
 20
456.1408730780172
 30
0.0000000000000024
 10
699.9689078537765
 20
456.1336144834966
 30
0.0000000000000024
 10
699.8077009492193
 20
456.1014367297278
 30
0.0000000000000024
 10
699.6771751542099
 20
456.0884890109888
 30
0.0000000000000024
 10
699.5451785714288
 20
456.0884890109888
 30
0.0000000000000024
  0
SPLINE
  5
6F
330
1F
100
AcDbEntity
  8
1
  6
Continuous
 62
   155
420
  5010073
370
    18
100
AcDbSpline
210
0.0
220
0.0
230
1.0
 70
     8
 71
     3
 72
    20
 73
    16
 74
     0
 42
0.0000000001
 43
0.0000000001
 40
0.0
 40
0.0
 40
0.0
 40
0.0
 40
0.1769957862591001
 40
0.1769957862591001
 40
0.3540301038358939
 40
0.3540301038358939
 40
0.491491061006269
 40
0.491491061006269
 40
0.6675170677990083
 40
0.6675170677990083
 40
0.8435705684161918
 40
0.8435705684161918
 40
0.9829821220125381
 40
0.9829821220125381
 40
1.0
 40
1.0
 40
1.0
 40
1.0
 10
700.3451785714288
 20
458.0884890109888
 30
0.0000000000000025
 10
700.3451785714288
 20
458.0507720299456
 30
0.0000000000000025
 10
700.342506913149
 20
458.0130591328621
 30
0.0000000000000025
 10
700.3318744566582
 20
457.9383812015685
 30
0.0000000000000025
 10
700.3239125755404
 20
457.901416802378
 30
0.0000000000000025
 10
700.3052105237572
 20
457.8370747105394
 30
0.0000000000000025
 10
700.2954902921856
 20
457.8094009994451
 30
0.0000000000000025
 10
700.2699296408806
 20
457.7476921284015
 30
0.0000000000000025
 10
700.2531364954689
 20
457.7140531584681
 30
0.0000000000000025
 10
700.2149972496966
 20
457.6494559740199
 30
0.0000000000000025
 10
700.1936506861357
 20
457.6184986009583
 30
0.0000000000000025
 10
700.1517004205131
 20
457.5659820143848
 30
0.0000000000000025
 10
700.1318677317777
 20
457.5438073214392
 30
0.0000000000000025
 10
700.1083000840115
 20
457.5202396736728
 30
0.0000000000000025
 10
700.1057187134271
 20
457.5176932224763
 30
0.0000000000000025
 10
700.1031201375877
 20
457.515164452128
 30
0.0000000000000025
  0
SPLINE
  5
70
330
1F
100
AcDbEntity
  8
1
  6
Continuous
 62
   155
420
  5010073
370
    18
100
AcDbSpline
210
0.0
220
0.0
230
1.0
 70
     8
 71
     3
 72
    20
 73
    16
 74
     0
 42
0.0000000001
 43
0.0000000001
 40
0.0
 40
0.0
 40
0.0
 40
0.0
 40
0.0065197154724384
 40
0.0065197154724384
 40
0.1844256645208018
 40
0.1844256645208018
 40
0.3623594010252379
 40
0.3623594010252379
 40
0.5032598577362193
 40
0.5032598577362193
 40
0.6821592988124386
 40
0.6821592988124386
 40
0.8610747035659244
 40
0.8610747035659244
 40
1.0
 40
1.0
 40
1.0
 40
1.0
 10
654.582416295121
 20
457.5198954792026
 30
-0.0000000000000003
 10
654.5814394141985
 20
457.5208623327343
 30
-0.0000000000000003
 10
654.5804650267834
 20
457.5218317057358
 30
-0.0000000000000003
 10
654.5529730799944
 20
457.5493236525247
 30
-0.0000000000000003
 10
654.5283211827044
 20
457.5777115723326
 30
-0.0000000000000003
 10
654.4832364236145
 20
457.6376679131534
 30
-0.0000000000000003
 10
654.4628045164752
 20
457.6692364400973
 30
-0.0000000000000003
 10
654.43033918866
 20
457.7280906594953
 30
-0.0000000000000003
 10
654.4174420851064
 20
457.7548995623
 30
-0.0000000000000003
 10
654.3916422389259
 20
457.817185900856
 30
-0.0000000000000003
 10
654.3796783194531
 20
457.8530498141519
 30
-0.0000000000000003
 10
654.3609238046938
 20
457.9261099302259
 30
-0.0000000000000003
 10
654.3541337903321
 20
457.9633057915618
 30
-0.0000000000000003
 10
654.3467888865326
 20
458.029908377802
 30
-0.0000000000000003
 10
654.3451785714288
 20
458.0591975054347
 30
-0.0000000000000003
 10
654.3451785714288
 20
458.0884890109888
 30
-0.0000000000000003
  0
SPLINE
  5
71
330
1F
100
AcDbEntity
  8
1
  6
Continuous
 62
   155
420
  5010073
370
    18
100
AcDbSpline
210
0.0
220
0.0
230
1.0
 70
     8
 71
     3
 72
    38
 73
    34
 74
     0
 42
0.0000000001
 43
0.0000000001
 40
0.0
 40
0.0
 40
0.0
 40
0.0
 40
0.1249999999999898
 40
0.1249999999999898
 40
0.1874999999999846
 40
0.1874999999999846
 40
0.2187499999999823
 40
0.2187499999999823
 40
0.2499999999999799
 40
0.2499999999999799
 40
0.3749999999999784
 40
0.3749999999999784
 40
0.4062499999999793
 40
0.4062499999999793
 40
0.4374999999999802
 40
0.4374999999999802
 40
0.4999999999999821
 40
0.4999999999999821
 40
0.6249999999999832
 40
0.6249999999999832
 40
0.6562499999999843
 40
0.6562499999999843
 40
0.6874999999999855
 40
0.6874999999999855
 40
0.7499999999999878
 40
0.7499999999999878
 40
0.8124999999999902
 40
0.8124999999999902
 40
0.8437499999999915
 40
0.8437499999999915
 40
0.8749999999999927
 40
0.8749999999999927
 40
1.0
 40
1.0
 40
1.0
 40
1.0
 10
655.1451785714288
 20
456.0884890109888
 30
-0.0000000000000004
 10
655.0131819911566
 20
456.0884890109888
 30
-0.0000000000000004
 10
654.8830628973253
 20
456.1014361085178
 30
-0.0000000000000004
 10
654.6907746913278
 20
456.1396975701962
 30
-0.0000000000000004
 10
654.6271635803655
 20
456.1556131360575
 30
-0.0000000000000004
 10
654.532514316104
 20
456.184354120819
 30
-0.0000000000000004
 10
654.5012338692951
 20
456.1947069619486
 30
-0.0000000000000004
 10
654.4394982576396
 20
456.2168345227342
 30
-0.0000000000000004
 10
654.4089964293996
 20
456.2286232712717
 30
-0.0000000000000004
 10
654.2582978386121
 20
456.2911359510658
 30
-0.0000000000000004
 10
654.1434846399148
 20
456.3524703270078
 30
-0.0000000000000004
 10
654.007339759766
 20
456.4433766093893
 30
-0.0000000000000004
 10
653.9804825058688
 20
456.4622757882032
 30
-0.0000000000000004
 10
653.9275293116216
 20
456.5015370107114
 30
-0.0000000000000004
 10
653.9015396951753
 20
456.5218244060871
 30
-0.0000000000000004
 10
653.8254907352112
 20
456.584252802788
 30
-0.0000000000000004
 10
653.7771464068219
 20
456.6281037040344
 30
-0.0000000000000004
 10
653.6390464096203
 20
456.7661747881829
 30
-0.0000000000000004
 10
653.5561600082436
 20
456.8668534418593
 30
-0.0000000000000004
 10
653.4645463741073
 20
457.0037949257992
 30
-0.0000000000000004
 10
653.4468898070509
 20
457.0316582147452
 30
-0.0000000000000004
 10
653.4131450347289
 20
457.0879212287531
 30
-0.0000000000000004
 10
653.3970170120009
 20
457.1163797675949
 30
-0.0000000000000004
 10
653.3508348382217
 20
457.2027173457649
 30
-0.0000000000000004
 10
653.3229777080574
 20
457.2615561669742
 30
-0.0000000000000004
 10
653.2730807313429
 20
457.381747479644
 30
-0.0000000000000004
 10
653.2510408915633
 20
457.4430996395057
 30
-0.0000000000000004
 10
653.2224298618
 20
457.5370285433229
 30
-0.0000000000000004
 10
653.2136355587799
 20
457.5686554763491
 30
-0.0000000000000004
 10
653.1975626388497
 20
457.6325531683385
 30
-0.0000000000000004
 10
653.190304044348
 20
457.6647597267577
 30
-0.0000000000000004
 10
653.1581262905859
 20
457.825966630396
 30
-0.0000000000000004
 10
653.1451785714288
 20
457.9564924253185
 30
-0.0000000000000004
 10
653.1451785714288
 20
458.0884890109887
 30
-0.0000000000000004
  0
SPLINE
  5
72
330
1F
100
AcDbEntity
  8
1
  6
Continuous
 62
   155
420
  5010073
370
    18
100
AcDbSpline
210
0.0
220
0.0
230
1.0
 70
     8
 71
     3
 72
    21
 73
    17
 74
     0
 42
0.0000000001
 43
0.0000000001
 40
0.0
 40
0.0
 40
0.0
 40
0.0
 40
0.1609371351687628
 40
0.1609371351687628
 40
0.3218742703375257
 40
0.3218742703375257
 40
0.4023428379219035
 40
0.4023428379219035
 40
0.4828114055062813
 40
0.4828114055062813
 40
0.6437485406750288
 40
0.6437485406750288
 40
0.8046856758437766
 40
0.8046856758437766
 40
0.9656228110125242
 40
1.0
 40
1.0
 40
1.0
 40
1.0
 10
366.6137623574899
 20
324.0589410400565
 30
-0.0000000000000006
 10
366.6115503425855
 20
324.0955234913876
 30
-0.0000000000000006
 10
366.6106113011462
 20
324.1294485789903
 30
-0.0000000000000006
 10
366.6103756297305
 20
324.192194986199
 30
-0.0000000000000006
 10
366.611082414476
 20
324.2210156823534
 30
-0.0000000000000006
 10
366.6128257472889
 20
324.2603660923642
 30
-0.0000000000000006
 10
366.6135220591806
 20
324.2728397788048
 30
-0.0000000000000006
 10
366.6150593788131
 20
324.2964301903499
 30
-0.0000000000000006
 10
366.6158919061568
 20
324.3074248621276
 30
-0.0000000000000006
 10
366.6184558223444
 20
324.3380728184874
 30
-0.0000000000000006
 10
366.6202488144266
 20
324.3554004205953
 30
-0.0000000000000006
 10
366.6234719278019
 20
324.3839281014138
 30
-0.0000000000000006
 10
366.624904260376
 20
324.3951380922704
 30
-0.0000000000000006
 10
366.627015226881
 20
324.4111305920946
 30
-0.0000000000000006
 10
366.6278104145431
 20
324.4167439056719
 30
-0.0000000000000006
 10
366.6279265998684
 20
324.4175849476262
 30
-0.0000000000000006
 10
366.6279256478882
 20
324.4175835895089
 30
-0.0000000000000006
  0
SPLINE
  5
73
330
1F
100
AcDbEntity
  8
1
  6
Continuous
 62
   155
420
  5010073
370
    18
100
AcDbSpline
210
0.0
220
0.0
230
1.0
 70
     8
 71
     3
 72
    16
 73
    12
 74
     0
 42
0.0000000001
 43
0.0000000001
 40
0.0
 40
0.0
 40
0.0
 40
0.0
 40
0.2029895131427912
 40
0.2029895131427912
 40
0.4059790262855825
 40
0.4059790262855825
 40
0.6089685394283737
 40
0.6089685394283737
 40
0.8119580525711649
 40
0.8119580525711649
 40
1.0
 40
1.0
 40
1.0
 40
1.0
 10
483.8044570599635
 20
324.0589410400564
 30
-0.0000000000000005
 10
483.8000231256954
 20
324.0466004733415
 30
-0.0000000000000005
 10
483.7958202841706
 20
324.0353237990561
 30
-0.0000000000000005
 10
483.7879921428752
 20
324.0148375726301
 30
-0.0000000000000005
 10
483.7843639564945
 20
324.0056221932484
 30
-0.0000000000000005
 10
483.7778621768125
 20
323.9894117127776
 30
-0.0000000000000005
 10
483.7750829874028
 20
323.9826486520158
 30
-0.0000000000000005
 10
483.7705572802205
 20
323.9717514139497
 30
-0.0000000000000005
 10
483.7688090977828
 20
323.967613911318
 30
-0.0000000000000005
 10
483.7665839439693
 20
323.9623662891916
 30
-0.0000000000000005
 10
483.7660539945362
 20
323.961127722639
 30
-0.0000000000000005
 10
483.7660545455487
 20
323.9611296032217
 30
-0.0000000000000005
  0
SPLINE
  5
74
330
1F
100
AcDbEntity
  8
1
  6
Continuous
 62
   155
420
  5010073
370
    18
100
AcDbSpline
210
0.0
220
0.0
230
1.0
 70
     8
 71
     3
 72
    26
 73
    22
 74
     0
 42
0.0000000001
 43
0.0000000001
 40
0.0
 40
0.0
 40
0.0
 40
0.0
 40
0.1940733288392676
 40
0.1940733288392676
 40
0.3881466576785352
 40
0.3881466576785352
 40
0.485183322098124
 40
0.485183322098124
 40
0.5822199865177128
 40
0.5822199865177128
 40
0.6792566509373017
 40
0.6792566509373017
 40
0.7762933153568905
 40
0.7762933153568905
 40
0.8733299797764793
 40
0.8733299797764793
 40
0.9218483119862824
 40
0.9218483119862824
 40
0.9703666441960852
 40
0.9703666441960852
 40
1.0
 40
1.0
 40
1.0
 40
1.0
 10
367.5693043699677
 20
322.5762237951085
 30
-0.0000000000000004
 10
367.5529515230998
 20
322.5848677479245
 30
-0.0000000000000004
 10
367.5372538669028
 20
322.5934890646991
 30
-0.0000000000000004
 10
367.5073703010088
 20
322.6104419008888
 30
-0.0000000000000004
 10
367.493179735004
 20
322.6187768485384
 30
-0.0000000000000004
 10
367.4732931626952
 20
322.6307872589229
 30
-0.0000000000000004
 10
367.4668990128633
 20
322.6347075466119
 30
-0.0000000000000004
 10
367.4546592269551
 20
322.6423096287592
 30
-0.0000000000000004
 10
367.4488803607861
 20
322.645950250832
 30
-0.0000000000000004
 10
367.4382384208331
 20
322.6527277669995
 30
-0.0000000000000004
 10
367.4333496371537
 20
322.6558806312018
 30
-0.0000000000000004
 10
367.4245516279522
 20
322.661603908905
 30
-0.0000000000000004
 10
367.4206355057876
 20
322.6641791390908
 30
-0.0000000000000004
 10
367.4141614783105
 20
322.6684616973333
 30
-0.0000000000000004
 10
367.4115637451397
 20
322.6701946640577
 30
-0.0000000000000004
 10
367.4086920288977
 20
322.6721157191577
 30
-0.0000000000000004
 10
367.4079061072334
 20
322.6726427603642
 30
-0.0000000000000004
 10
367.4066953515323
 20
322.6734554595166
 30
-0.0000000000000004
 10
367.4062707645787
 20
322.6737409457222
 30
-0.0000000000000004
 10
367.405901080516
 20
322.6739895421454
 30
-0.0000000000000004
 10
367.4058319119552
 20
322.6740360074477
 30
-0.0000000000000004
 10
367.4058329687767
 20
322.6740352559635
 30
-0.0000000000000004
  0
SPLINE
  5
75
330
1F
100
AcDbEntity
  8
1
  6
Continuous
 62
   155
420
  5010073
370
    18
100
AcDbSpline
210
0.0
220
0.0
230
1.0
 70
     8
 71
     3
 72
    15
 73
    11
 74
     0
 42
0.0000000001
 43
0.0000000001
 40
0.0
 40
0.0
 40
0.0
 40
0.0
 40
0.1853292006098143
 40
0.1853292006098143
 40
0.3889969004573607
 40
0.3889969004573607
 40
0.5926646003049071
 40
0.5926646003049071
 40
0.7963323001524535
 40
1.0
 40
1.0
 40
1.0
 40
1.0
 10
366.6223595811346
 20
323.9611296502459
 30
-0.0000000000000006
 10
366.6223598317125
 20
323.9611255891031
 30
-0.0000000000000006
 10
366.6222234924367
 20
323.9622980124061
 30
-0.0000000000000006
 10
366.6216549260972
 20
323.9673099097728
 30
-0.0000000000000006
 10
366.6212032867332
 20
323.9713296728646
 30
-0.0000000000000006
 10
366.6200601047179
 20
323.9820483418253
 30
-0.0000000000000006
 10
366.6193660008439
 20
323.9887704946099
 30
-0.0000000000000006
 10
366.6178269534345
 20
324.0049229141965
 30
-0.0000000000000006
 10
366.6161762467511
 20
324.0233922863598
 30
-0.0000000000000006
 10
366.6145259137422
 20
324.0463132953784
 30
-0.0000000000000006
 10
366.6137623574899
 20
324.0589410400565
 30
-0.0000000000000006
  0
SPLINE
  5
76
330
1F
100
AcDbEntity
  8
1
  6
Continuous
 62
   155
420
  5010073
370
    18
100
AcDbSpline
210
0.0
220
0.0
230
1.0
 70
     8
 71
     3
 72
    30
 73
    26
 74
     0
 42
0.0000000001
 43
0.0000000001
 40
0.0
 40
0.0
 40
0.0
 40
0.0
 40
0.0900294639717251
 40
0.0900294639717251
 40
0.180078520493926
 40
0.180078520493926
 40
0.25
 40
0.25
 40
0.339536728520974
 40
0.339536728520974
 40
0.429087441947574
 40
0.429087441947574
 40
0.5
 40
0.5
 40
0.58953672851941
 40
0.58953672851941
 40
0.6790874419444289
 40
0.6790874419444289
 40
0.75
 40
0.75
 40
0.840036734429031
 40
0.840036734429031
 40
0.930081503077489
 40
0.930081503077489
 40
1.0
 40
1.0
 40
1.0
 40
1.0
 10
498.1104807692309
 20
319.7175824175823
 30
-0.0000000000000011
 10
498.1302160664048
 20
319.6798656723469
 30
-0.0000000000000011
 10
498.149949362019
 20
319.6421530067842
 30
-0.0000000000000011
 10
498.1894184067535
 20
319.5674755236244
 30
-0.0000000000000011
 10
498.2091541554732
 20
319.5305113410042
 30
-0.0000000000000011
 10
498.2442146458422
 20
319.466168992645
 30
-0.0000000000000011
 10
498.2595393235075
 20
319.438494833477
 30
-0.0000000000000011
 10
498.2944891259783
 20
319.3767855349937
 30
-0.0000000000000011
 10
498.3141136471266
 20
319.3431465650592
 30
-0.0000000000000011
 10
498.3533657546134
 20
319.2785493806088
 30
-0.0000000000000011
 10
498.3729933409517
 20
319.2475920075463
 30
-0.0000000000000011
 10
498.4081634316697
 20
319.1950754209743
 30
-0.0000000000000011
 10
498.4237059360494
 20
319.1729007280308
 30
-0.0000000000000011
 10
498.458872961577
 20
319.1253769261476
 30
-0.0000000000000011
 10
498.4784974827249
 20
319.1007250288574
 30
-0.0000000000000011
 10
498.5177495902109
 20
319.0556402697671
 30
-0.0000000000000011
 10
498.5373771765491
 20
319.0352083626276
 30
-0.0000000000000011
 10
498.5725472672676
 20
319.0027430348129
 30
-0.0000000000000011
 10
498.5880897716481
 20
318.9898459312595
 30
-0.000000000000001
 10
498.6233663876957
 20
318.9640460850793
 30
-0.000000000000001
 10
498.6430995010051
 20
318.9520821656066
 30
-0.000000000000001
 10
498.6825676490869
 20
318.9333276508472
 30
-0.000000000000001
 10
498.7023026838738
 20
318.9265376364854
 30
-0.000000000000001
 10
498.7373637551603
 20
318.919192732686
 30
-0.000000000000001
 10
498.7526893313462
 20
318.9175824175823
 30
-0.000000000000001
 10
498.768016111627
 20
318.9175824175823
 30
-0.000000000000001
  0
SPLINE
  5
77
330
1F
100
AcDbEntity
  8
1
  6
Continuous
 62
   155
420
  5010073
370
    18
100
AcDbSpline
210
0.0
220
0.0
230
1.0
 70
     8
 71
     3
 72
    30
 73
    26
 74
     0
 42
0.0000000001
 43
0.0000000001
 40
0.0
 40
0.0
 40
0.0
 40
0.0
 40
0.0900300129043662
 40
0.0900300129043662
 40
0.180079625004298
 40
0.180079625004298
 40
0.25
 40
0.25
 40
0.33953672851768
 40
0.33953672851768
 40
0.429087441941
 40
0.429087441941
 40
0.5
 40
0.5
 40
0.589536728520907
 40
0.589536728520907
 40
0.679087441947447
 40
0.679087441947447
 40
0.75
 40
0.75
 40
0.840036177638821
 40
0.840036177638821
 40
0.930080396401263
 40
0.930080396401263
 40
1.0
 40
1.0
 40
1.0
 40
1.0
 10
352.0529454268346
 20
318.9175824175823
 30
0.0000000000000006
 10
352.0726808371654
 20
318.9175824175823
 30
0.0000000000000006
 10
352.0924142510792
 20
318.9202540758621
 30
0.0000000000000006
 10
352.1318835386122
 20
318.9308865323529
 30
0.0000000000000006
 10
352.1516194118317
 20
318.9388484134709
 30
0.0000000000000006
 10
352.1866797860381
 20
318.9575504652539
 30
0.0000000000000006
 10
352.202004223196
 20
318.9672706968256
 30
0.0000000000000006
 10
352.2369537835814
 20
318.9928313481306
 30
0.0000000000000006
 10
352.256578304729
 20
319.0096244935422
 30
0.0000000000000006
 10
352.2958304122142
 20
319.0477637393145
 30
0.0000000000000006
 10
352.3154579985517
 20
319.0691103028754
 30
0.0000000000000006
 10
352.3506280892705
 20
319.1110605684981
 30
0.0000000000000006
 10
352.3661705936515
 20
319.1308932572334
 30
0.0000000000000006
 10
352.4013376191812
 20
319.1784170591191
 30
0.0000000000000006
 10
352.4209621403294
 20
319.2068049789277
 30
0.0000000000000006
 10
352.4602142478161
 20
319.2667613197503
 30
0.0000000000000006
 10
352.4798418341544
 20
319.2983298466953
 30
0.0000000000000006
 10
352.5150119248723
 20
319.3571840660925
 30
0.0000000000000006
 10
352.5305544292522
 20
319.3839929688954
 30
0.0000000000000006
 10
352.5658309232625
 20
319.4462790919754
 30
0.0000000000000006
 10
352.5855639119638
 20
319.482142779152
 30
0.0000000000000006
 10
352.6250318127431
 20
319.5552024336768
 30
0.0000000000000006
 10
352.6447667248354
 20
319.5923980596693
 30
0.0000000000000006
 10
352.679827919588
 20
319.65900086374
 30
0.0000000000000006
 10
352.6951537407846
 20
319.6882904529348
 30
0.0000000000000006
 10
352.710480769231
 20
319.7175824175823
 30
0.0000000000000006
  0
SPLINE
  5
78
330
1F
100
AcDbEntity
  8
1
  6
Continuous
 62
   155
420
  5010073
370
    18
100
AcDbSpline
210
0.0
220
0.0
230
1.0
 70
     8
 71
     3
 72
    30
 73
    26
 74
     0
 42
0.0000000001
 43
0.0000000001
 40
0.0
 40
0.0
 40
0.0
 40
0.0
 40
0.0895403315942964
 40
0.0895403315942964
 40
0.179076971581162
 40
0.179076971581162
 40
0.268610266413156
 40
0.268610266413156
 40
0.360033983111511
 40
0.360033983111511
 40
0.449588090740417
 40
0.449588090740417
 40
0.5391329937919319
 40
0.5391329937919319
 40
0.62867007954255
 40
0.62867007954255
 40
0.721502559656912
 40
0.721502559656912
 40
0.811048092095848
 40
0.811048092095848
 40
0.9005791716170619
 40
0.9005791716170619
 40
0.990111575158638
 40
0.990111575158638
 40
1.0
 40
1.0
 40
1.0
 40
1.0
 10
351.910480769231
 20
319.0600470751859
 30
0.0000000000000006
 10
351.910480769231
 20
319.0796723860503
 30
0.0000000000000006
 10
351.9131227510866
 20
319.0992976969147
 30
0.0000000000000006
 10
351.9236383518382
 20
319.1385475095227
 30
0.0000000000000006
 10
351.9315116861707
 20
319.1581720112662
 30
0.0000000000000006
 10
351.9523339713202
 20
319.1974202815676
 30
0.0000000000000006
 10
351.9652825965422
 20
319.2170440501253
 30
0.0000000000000006
 10
351.9963241300284
 20
319.2567059269705
 30
0.0000000000000006
 10
352.0145198433503
 20
319.276744035258
 30
0.0000000000000006
 10
352.0551431178961
 20
319.3164104738197
 30
0.0000000000000006
 10
352.0774761037931
 20
319.336038804094
 30
0.0000000000000006
 10
352.1261613071375
 20
319.3752934471975
 30
0.0000000000000006
 10
352.152512793226
 20
319.3949197600268
 30
0.0000000000000006
 10
352.2087137789613
 20
319.4341706723015
 30
0.0000000000000006
 10
352.2385626063333
 20
319.4537952717469
 30
0.0000000000000006
 10
352.3023228329317
 20
319.4937667500581
 30
0.0000000000000006
 10
352.3363430498674
 20
319.514113628924
 30
0.0000000000000006
 10
352.4055432786063
 20
319.5540869585672
 30
0.0000000000000006
 10
352.4406389694797
 20
319.5737134093447
 30
0.0000000000000006
 10
352.512370590971
 20
319.6129631431315
 30
0.0000000000000006
 10
352.5490058043673
 20
319.6325864261408
 30
0.0000000000000006
 10
352.6230989372436
 20
319.6718332823563
 30
0.0000000000000006
 10
352.6605563862752
 20
319.6914568555624
 30
0.0000000000000006
 10
352.7021966618116
 20
319.7132477583731
 30
0.0000000000000006
 10
352.7063387155192
 20
319.7154150879777
 30
0.0000000000000006
 10
352.710480769231
 20
319.7175824175823
 30
0.0000000000000006
  0
SPLINE
  5
79
330
1F
100
AcDbEntity
  8
1
  6
Continuous
 62
   155
420
  5010073
370
    18
100
AcDbSpline
210
0.0
220
0.0
230
1.0
 70
     8
 71
     3
 72
    30
 73
    26
 74
     0
 42
0.0000000001
 43
0.0000000001
 40
0.0
 40
0.0
 40
0.0
 40
0.0
 40
0.0895403315942882
 40
0.0895403315942882
 40
0.17907697158117
 40
0.17907697158117
 40
0.268610266413157
 40
0.268610266413157
 40
0.360033983111513
 40
0.360033983111513
 40
0.449588090740417
 40
0.449588090740417
 40
0.5391329937919389
 40
0.5391329937919389
 40
0.6286700795425431
 40
0.6286700795425431
 40
0.721502559656907
 40
0.721502559656907
 40
0.811048092095849
 40
0.811048092095849
 40
0.9005791716170349
 40
0.9005791716170349
 40
0.990111575158597
 40
0.990111575158597
 40
1.0
 40
1.0
 40
1.0
 40
1.0
 10
352.710480769231
 20
364.1175824175823
 30
0.0000000000000015
 10
352.6729742028394
 20
364.1372077284468
 30
0.0000000000000015
 10
352.6354678808478
 20
364.1568330393112
 30
0.0000000000000015
 10
352.5611970235618
 20
364.196082851919
 30
0.0000000000000015
 10
352.5244329416016
 20
364.2157073536627
 30
0.0000000000000014
 10
352.4523723535531
 20
364.254955623964
 30
0.0000000000000014
 10
352.4170762620272
 20
364.2745793925217
 30
0.0000000000000014
 10
352.3479247897824
 20
364.3142412693669
 30
0.0000000000000014
 10
352.3141161224747
 20
364.3342793776544
 30
0.0000000000000014
 10
352.2501116367281
 20
364.3739458162161
 30
0.0000000000000014
 10
352.219856402783
 20
364.3935741464904
 30
0.0000000000000014
 10
352.162778612592
 20
364.4328287895939
 30
0.0000000000000014
 10
352.1359560753135
 20
364.4524551024232
 30
0.0000000000000014
 10
352.0862720477194
 20
364.4917060146979
 30
0.0000000000000014
 10
352.0634105349729
 20
364.5113306141433
 30
0.0000000000000014
 10
352.0213369618593
 20
364.5513020924545
 30
0.0000000000000014
 10
352.0022907840207
 20
364.5716489713203
 30
0.0000000000000014
 10
351.9699269003215
 20
364.6116223009636
 30
0.0000000000000014
 10
351.9564301681091
 20
364.6312487517411
 30
0.0000000000000014
 10
351.9344918459246
 20
364.6704984855278
 30
0.0000000000000014
 10
351.9260495819707
 20
364.6901217685372
 30
0.0000000000000014
 10
351.9143834706164
 20
364.7293686247526
 30
0.0000000000000014
 10
351.911159776507
 20
364.7489921979587
 30
0.0000000000000014
 10
351.9105129385194
 20
364.7707831007694
 30
0.0000000000000014
 10
351.910480769231
 20
364.7729504303741
 30
0.0000000000000014
 10
351.910480769231
 20
364.7751177599787
 30
0.0000000000000014
  0
SPLINE
  5
7A
330
1F
100
AcDbEntity
  8
1
  6
Continuous
 62
   155
420
  5010073
370
    18
100
AcDbSpline
210
0.0
220
0.0
230
1.0
 70
     8
 71
     3
 72
    30
 73
    26
 74
     0
 42
0.0000000001
 43
0.0000000001
 40
0.0
 40
0.0
 40
0.0
 40
0.0
 40
0.0900294639699007
 40
0.0900294639699007
 40
0.180078520490309
 40
0.180078520490309
 40
0.25
 40
0.25
 40
0.339536728520704
 40
0.339536728520704
 40
0.42908744194704
 40
0.42908744194704
 40
0.5
 40
0.5
 40
0.589536728518455
 40
0.589536728518455
 40
0.679087441942552
 40
0.679087441942552
 40
0.75
 40
0.75
 40
0.840036734428652
 40
0.840036734428652
 40
0.9300815030767621
 40
0.9300815030767621
 40
1.0
 40
1.0
 40
1.0
 40
1.0
 10
352.710480769231
 20
364.1175824175823
 30
0.0000000000000015
 10
352.6907454720574
 20
364.1552991628169
 30
0.0000000000000015
 10
352.6710121764436
 20
364.1930118283788
 30
0.0000000000000015
 10
352.63154313171
 20
364.2676893115373
 30
0.0000000000000015
 10
352.6118073829908
 20
364.3046534941568
 30
0.0000000000000014
 10
352.5767468926214
 20
364.3689958425168
 30
0.0000000000000014
 10
352.5614222149553
 20
364.3966700016862
 30
0.0000000000000014
 10
352.5264724124835
 20
364.4583793001708
 30
0.0000000000000014
 10
352.5068478913353
 20
364.4920182701052
 30
0.0000000000000014
 10
352.4675957838488
 20
364.5566154545554
 30
0.0000000000000014
 10
352.4479681975106
 20
364.5875728276178
 30
0.0000000000000014
 10
352.4127981067925
 20
364.64008941419
 30
0.0000000000000014
 10
352.3972556024127
 20
364.6622641071336
 30
0.0000000000000014
 10
352.362088576885
 20
364.7097879090167
 30
0.0000000000000014
 10
352.3424640557371
 20
364.7344398063067
 30
0.0000000000000014
 10
352.3032119482517
 20
364.7795245653966
 30
0.0000000000000014
 10
352.283584361914
 20
364.7999564725359
 30
0.0000000000000014
 10
352.2484142711954
 20
364.8324218003511
 30
0.0000000000000014
 10
352.2328717668146
 20
364.8453189039049
 30
0.0000000000000014
 10
352.1975951507667
 20
364.8711187500852
 30
0.0000000000000014
 10
352.1778620374574
 20
364.883082669558
 30
0.0000000000000014
 10
352.1383938893755
 20
364.9018371843173
 30
0.0000000000000014
 10
352.1186588545887
 20
364.9086271986791
 30
0.0000000000000014
 10
352.0835977833018
 20
364.9159721024785
 30
0.0000000000000014
 10
352.0682722071157
 20
364.9175824175823
 30
0.0000000000000014
 10
352.0529454268346
 20
364.9175824175823
 30
0.0000000000000014
  0
SPLINE
  5
7B
330
1F
100
AcDbEntity
  8
1
  6
Continuous
 62
   155
420
  5010073
370
    18
100
AcDbSpline
210
0.0
220
0.0
230
1.0
 70
     8
 71
     3
 72
    30
 73
    26
 74
     0
 42
0.0000000001
 43
0.0000000001
 40
0.0
 40
0.0
 40
0.0
 40
0.0
 40
0.0895403315942916
 40
0.0895403315942916
 40
0.179076971581159
 40
0.179076971581159
 40
0.268610266413174
 40
0.268610266413174
 40
0.360033983111527
 40
0.360033983111527
 40
0.44958809074043
 40
0.44958809074043
 40
0.5391329937919509
 40
0.5391329937919509
 40
0.628670079542581
 40
0.628670079542581
 40
0.721502559656936
 40
0.721502559656936
 40
0.811048092095885
 40
0.811048092095885
 40
0.9005791716170639
 40
0.9005791716170639
 40
0.990111575158649
 40
0.990111575158649
 40
1.0
 40
1.0
 40
1.0
 40
1.0
 10
498.910480769231
 20
364.7751177599787
 30
-0.0000000000000003
 10
498.910480769231
 20
364.7554924491143
 30
-0.0000000000000003
 10
498.9078387873753
 20
364.7358671382499
 30
-0.0000000000000003
 10
498.8973231866237
 20
364.6966173256419
 30
-0.0000000000000003
 10
498.8894498522912
 20
364.6769928238983
 30
-0.0000000000000003
 10
498.8686275671417
 20
364.637744553597
 30
-0.0000000000000003
 10
498.8556789419197
 20
364.6181207850393
 30
-0.0000000000000003
 10
498.8246374084335
 20
364.578458908194
 30
-0.0000000000000003
 10
498.8064416951116
 20
364.5584207999066
 30
-0.0000000000000003
 10
498.7658184205658
 20
364.5187543613448
 30
-0.0000000000000003
 10
498.7434854346687
 20
364.4991260310706
 30
-0.0000000000000003
 10
498.6948002313244
 20
364.459871387967
 30
-0.0000000000000003
 10
498.6684487452359
 20
364.4402450751379
 30
-0.0000000000000003
 10
498.6122477595006
 20
364.4009941628631
 30
-0.0000000000000003
 10
498.5823989321286
 20
364.3813695634177
 30
-0.0000000000000003
 10
498.5186387055302
 20
364.3413980851064
 30
-0.0000000000000003
 10
498.4846184885945
 20
364.3210512062406
 30
-0.0000000000000003
 10
498.4154182598556
 20
364.2810778765974
 30
-0.0000000000000003
 10
498.3803225689821
 20
364.2614514258199
 30
-0.0000000000000003
 10
498.3085909474908
 20
364.2222016920331
 30
-0.0000000000000003
 10
498.2719557340945
 20
364.2025784090238
 30
-0.0000000000000003
 10
498.1978626012183
 20
364.1633315528083
 30
-0.0000000000000003
 10
498.1604051521867
 20
364.1437079796023
 30
-0.0000000000000003
 10
498.1187648766503
 20
364.1219170767915
 30
-0.0000000000000003
 10
498.1146228229427
 20
364.1197497471869
 30
-0.0000000000000003
 10
498.1104807692309
 20
364.1175824175823
 30
-0.0000000000000003
  0
SPLINE
  5
7C
330
1F
100
AcDbEntity
  8
1
  6
Continuous
 62
   155
420
  5010073
370
    18
100
AcDbSpline
210
0.0
220
0.0
230
1.0
 70
     8
 71
     3
 72
    30
 73
    26
 74
     0
 42
0.0000000001
 43
0.0000000001
 40
0.0
 40
0.0
 40
0.0
 40
0.0
 40
0.0895403315942882
 40
0.0895403315942882
 40
0.17907697158117
 40
0.17907697158117
 40
0.268610266413157
 40
0.268610266413157
 40
0.360033983111513
 40
0.360033983111513
 40
0.449588090740416
 40
0.449588090740416
 40
0.5391329937919369
 40
0.5391329937919369
 40
0.628670079542551
 40
0.628670079542551
 40
0.721502559656914
 40
0.721502559656914
 40
0.811048092095863
 40
0.811048092095863
 40
0.9005791716170519
 40
0.9005791716170519
 40
0.990111575158639
 40
0.990111575158639
 40
1.0
 40
1.0
 40
1.0
 40
1.0
 10
498.1104807692309
 20
319.7175824175823
 30
-0.0000000000000011
 10
498.1479873356225
 20
319.6979571067179
 30
-0.0000000000000011
 10
498.1854936576141
 20
319.6783317958535
 30
-0.0000000000000011
 10
498.2597645149002
 20
319.6390819832456
 30
-0.0000000000000011
 10
498.2965285968604
 20
319.619457481502
 30
-0.0000000000000011
 10
498.3685891849088
 20
319.5802092112006
 30
-0.0000000000000011
 10
498.4038852764347
 20
319.5605854426429
 30
-0.0000000000000011
 10
498.4730367486795
 20
319.5209235657977
 30
-0.0000000000000011
 10
498.5068454159872
 20
319.5008854575102
 30
-0.0000000000000011
 10
498.5708499017338
 20
319.4612190189486
 30
-0.0000000000000011
 10
498.6011051356789
 20
319.4415906886742
 30
-0.0000000000000011
 10
498.6581829258699
 20
319.4023360455707
 30
-0.0000000000000011
 10
498.6850054631485
 20
319.3827097327414
 30
-0.0000000000000011
 10
498.7346894907425
 20
319.3434588204667
 30
-0.0000000000000011
 10
498.757551003489
 20
319.3238342210213
 30
-0.0000000000000011
 10
498.7996245766026
 20
319.2838627427101
 30
-0.0000000000000011
 10
498.8186707544413
 20
319.2635158638442
 30
-0.0000000000000011
 10
498.8510346381404
 20
319.223542534201
 30
-0.000000000000001
 10
498.8645313703528
 20
319.2039160834235
 30
-0.000000000000001
 10
498.8864696925373
 20
319.1646663496367
 30
-0.000000000000001
 10
498.8949119564912
 20
319.1450430666274
 30
-0.000000000000001
 10
498.9065780678455
 20
319.1057962104119
 30
-0.000000000000001
 10
498.909801761955
 20
319.0861726372058
 30
-0.000000000000001
 10
498.9104485999425
 20
319.0643817343951
 30
-0.000000000000001
 10
498.910480769231
 20
319.0622144047906
 30
-0.000000000000001
 10
498.910480769231
 20
319.0600470751859
 30
-0.000000000000001
  0
SPLINE
  5
7D
330
1F
100
AcDbEntity
  8
1
  6
Continuous
 62
   155
420
  5010073
370
    18
100
AcDbSpline
210
0.0
220
0.0
230
1.0
 70
     8
 71
     3
 72
    30
 73
    26
 74
     0
 42
0.0000000001
 43
0.0000000001
 40
0.0
 40
0.0
 40
0.0
 40
0.0
 40
0.0900300129040837
 40
0.0900300129040837
 40
0.180079625003748
 40
0.180079625003748
 40
0.25
 40
0.25
 40
0.339536728518441
 40
0.339536728518441
 40
0.429087441942523
 40
0.429087441942523
 40
0.5
 40
0.5
 40
0.589536728520713
 40
0.589536728520713
 40
0.679087441947046
 40
0.679087441947046
 40
0.75
 40
0.75
 40
0.840036177636787
 40
0.840036177636787
 40
0.930080396397189
 40
0.930080396397189
 40
1.0
 40
1.0
 40
1.0
 40
1.0
 10
498.768016111627
 20
364.9175824175823
 30
-0.0000000000000003
 10
498.7482807012964
 20
364.9175824175823
 30
-0.0000000000000003
 10
498.7285472873829
 20
364.9149107593025
 30
-0.0000000000000003
 10
498.6890779998502
 20
364.9042783028118
 30
-0.0000000000000003
 10
498.6693421266307
 20
364.8963164216939
 30
-0.0000000000000003
 10
498.6342817524244
 20
364.8776143699109
 30
-0.0000000000000003
 10
498.6189573152665
 20
364.8678941383392
 30
-0.0000000000000003
 10
498.5840077548806
 20
364.842333487034
 30
-0.0000000000000003
 10
498.5643832337328
 20
364.8255403416221
 30
-0.0000000000000003
 10
498.5251311262471
 20
364.7874010958494
 30
-0.0000000000000003
 10
498.5055035399092
 20
364.7660545322883
 30
-0.0000000000000003
 10
498.4703334491905
 20
364.7241042666656
 30
-0.0000000000000003
 10
498.4547909448098
 20
364.7042715779307
 30
-0.0000000000000003
 10
498.4196239192809
 20
364.6567477760457
 30
-0.0000000000000003
 10
498.3999993981325
 20
364.628359856237
 30
-0.0000000000000003
 10
498.3607472906459
 20
364.5684035154146
 30
-0.0000000000000003
 10
498.3411197043076
 20
364.5368349884698
 30
-0.0000000000000003
 10
498.3059496135896
 20
364.4779807690724
 30
-0.0000000000000003
 10
498.2904071092098
 20
364.4511718662693
 30
-0.0000000000000003
 10
498.2551306152
 20
364.3888857431899
 30
-0.0000000000000003
 10
498.2353976264991
 20
364.3530220560142
 30
-0.0000000000000003
 10
498.1959297257206
 20
364.2799624014911
 30
-0.0000000000000003
 10
498.1761948136286
 20
364.2427667754995
 30
-0.0000000000000003
 10
498.1411336188755
 20
364.176163971428
 30
-0.0000000000000003
 10
498.1258077976781
 20
364.1468743822315
 30
-0.0000000000000003
 10
498.1104807692309
 20
364.1175824175823
 30
-0.0000000000000003
  0
SPLINE
  5
7E
330
1F
100
AcDbEntity
  8
1
  6
Continuous
 62
   155
420
  5010073
370
    18
100
AcDbSpline
210
0.0
220
0.0
230
1.0
 70
     8
 71
     3
 72
    38
 73
    34
 74
     0
 42
0.0000000001
 43
0.0000000001
 40
0.0
 40
0.0
 40
0.0
 40
0.0
 40
0.1249999999999782
 40
0.1249999999999782
 40
0.1874999999999686
 40
0.1874999999999686
 40
0.2187499999999639
 40
0.2187499999999639
 40
0.2499999999999591
 40
0.2499999999999591
 40
0.3749999999999514
 40
0.3749999999999514
 40
0.4062499999999501
 40
0.4062499999999501
 40
0.4374999999999488
 40
0.4374999999999488
 40
0.4999999999999514
 40
0.4999999999999514
 40
0.624999999999956
 40
0.624999999999956
 40
0.656249999999958
 40
0.656249999999958
 40
0.6874999999999601
 40
0.6874999999999601
 40
0.7499999999999686
 40
0.7499999999999686
 40
0.8124999999999771
 40
0.8124999999999771
 40
0.8437499999999809
 40
0.8437499999999809
 40
0.8749999999999847
 40
0.8749999999999847
 40
1.0
 40
1.0
 40
1.0
 40
1.0
 10
498.1104807692309
 20
456.0884890109888
 30
0.0
 10
498.1381076678018
 20
456.0884890109888
 30
0.0
 10
498.165344617967
 20
456.1014361085178
 30
0.0
 10
498.2063775283534
 20
456.1396975701962
 30
0.0
 10
498.22008449497
 20
456.1556131360575
 30
0.0
 10
498.2407879426734
 20
456.1843541208191
 30
0.0
 10
498.2476823289019
 20
456.1947069619486
 30
0.0
 10
498.2614090243069
 20
456.2168345227342
 30
0.0
 10
498.2682515106773
 20
456.2286232712717
 30
0.0
 10
498.3023988441574
 20
456.2911359510658
 30
0.0
 10
498.3295135406161
 20
456.3524703270078
 30
0.0
 10
498.3637753293913
 20
456.4433766093894
 30
0.0
 10
498.3706463962019
 20
456.4622757882033
 30
0.0
 10
498.3844430692948
 20
456.5015370107114
 30
0.0
 10
498.391341556646
 20
456.5218244060871
 30
0.0
 10
498.4119349434744
 20
456.584252802788
 30
0.0
 10
498.42558040092
 20
456.6281037040344
 30
0.0
 10
498.4664530464685
 20
456.7661747881829
 30
0.0
 10
498.4936170925489
 20
456.8668534418593
 30
0.0
 10
498.528099755905
 20
457.0037949257992
 30
0.0
 10
498.5350014206145
 20
457.0316582147452
 30
0.0
 10
498.5487324561967
 20
457.0879212287531
 30
0.0
 10
498.5555766843225
 20
457.1163797675949
 30
0.0
 10
498.5760700753659
 20
457.2027173457649
 30
0.0
 10
498.5896802528025
 20
457.2615561669742
 30
0.0
 10
498.6169180007826
 20
457.3817474796439
 30
0.0
 10
498.6305470309057
 20
457.4430996395057
 30
0.0
 10
498.6510983338737
 20
457.5370285433228
 30
0.0
 10
498.6579668182853
 20
457.5686554763491
 30
0.0
 10
498.6717567830395
 20
457.6325531683385
 30
0.0
 10
498.6786642587288
 20
457.6647597267578
 30
0.0
 10
498.7130687735812
 20
457.825966630396
 30
0.0
 10
498.7403892262462
 20
457.9564924253186
 30
0.0
 10
498.7680161116269
 20
458.0884890109887
 30
0.0
  0
SPLINE
  5
7F
330
1F
100
AcDbEntity
  8
1
  6
Continuous
 62
   155
420
  5010073
370
    18
100
AcDbSpline
210
0.0
220
0.0
230
1.0
 70
     8
 71
     3
 72
    38
 73
    34
 74
     0
 42
0.0000000001
 43
0.0000000001
 40
0.0
 40
0.0
 40
0.0
 40
0.0
 40
0.1249999999999967
 40
0.1249999999999967
 40
0.1874999999999963
 40
0.1874999999999963
 40
0.218749999999997
 40
0.218749999999997
 40
0.2499999999999977
 40
0.2499999999999977
 40
0.3750000000000034
 40
0.3750000000000034
 40
0.4062500000000042
 40
0.4062500000000042
 40
0.4375000000000049
 40
0.4375000000000049
 40
0.5000000000000064
 40
0.5000000000000064
 40
0.625000000000007
 40
0.625000000000007
 40
0.6562500000000064
 40
0.6562500000000064
 40
0.687500000000006
 40
0.687500000000006
 40
0.7500000000000078
 40
0.7500000000000078
 40
0.8125000000000095
 40
0.8125000000000095
 40
0.8437500000000089
 40
0.8437500000000089
 40
0.8750000000000083
 40
0.8750000000000083
 40
1.0
 40
1.0
 40
1.0
 40
1.0
 10
352.0529454268345
 20
458.0884890109888
 30
0.0
 10
352.0805723116941
 20
457.9564924278088
 30
0.0
 10
352.1078092619862
 20
457.8263733340791
 30
0.0
 10
352.1488421774813
 20
457.6340851291861
 30
0.0
 10
352.16254914665
 20
457.5704740187613
 30
0.0
 10
352.1832525975482
 20
457.4758247551653
 30
0.0
 10
352.1901469847303
 20
457.4445443085487
 30
0.0
 10
352.2038736814993
 20
457.3828086971608
 30
0.0
 10
352.210716168273
 20
457.3523068689948
 30
0.0
 10
352.244863501759
 20
457.2016082781811
 30
0.0
 10
352.2719781982247
 20
457.086795079453
 30
0.0
 10
352.3062399870118
 20
456.9506501992599
 30
0.0
 10
352.3131110538249
 20
456.9237929453536
 30
0.0
 10
352.3269077269231
 20
456.8708397510877
 30
0.0
 10
352.3338062142685
 20
456.8448501346649
 30
0.0
 10
352.3543996010897
 20
456.7688011747295
 30
0.0
 10
352.3680450585319
 20
456.7204568463534
 30
0.0
 10
352.4089177040735
 20
456.5823568491778
 30
0.0
 10
352.4360817501535
 20
456.4994704478003
 30
0.0
 10
352.4705644135149
 20
456.407856813651
 30
0.0
 10
352.477466078222
 20
456.3902002466014
 30
0.0
 10
352.4911971138016
 20
456.356455474286
 30
0.0
 10
352.4980413419261
 20
456.3403274515608
 30
0.0
 10
352.518534732966
 20
456.2941452777889
 30
0.0
 10
352.5321449104006
 20
456.2662881476277
 30
0.0
 10
352.5593826583777
 20
456.2163911709168
 30
0.0
 10
352.5730116868791
 20
456.1943513310136
 30
0.0
 10
352.593562986686
 20
456.16574030109
 30
0.0
 10
352.6004314699298
 20
456.1569459980196
 30
0.0
 10
352.6142214324376
 20
456.1408730780172
 30
0.0
 10
352.6211289070485
 20
456.1336144834966
 30
0.0
 10
352.6555334175889
 20
456.1014367297278
 30
0.0
 10
352.6828538701348
 20
456.0884890109888
 30
0.0
 10
352.710480769231
 20
456.0884890109888
 30
0.0
  0
SPLINE
  5
80
330
1F
100
AcDbEntity
  8
1
  6
Continuous
 62
   155
420
  5010073
370
    18
100
AcDbSpline
210
0.0
220
0.0
230
1.0
 70
     8
 71
     3
 72
    38
 73
    34
 74
     0
 42
0.0000000001
 43
0.0000000001
 40
0.0
 40
0.0
 40
0.0
 40
0.0
 40
0.1250000000000138
 40
0.1250000000000138
 40
0.1875000000000207
 40
0.1875000000000207
 40
0.2187500000000239
 40
0.2187500000000239
 40
0.2500000000000271
 40
0.2500000000000271
 40
0.3750000000000439
 40
0.3750000000000439
 40
0.4062500000000447
 40
0.4062500000000447
 40
0.4375000000000455
 40
0.4375000000000455
 40
0.5000000000000397
 40
0.5000000000000397
 40
0.6250000000000375
 40
0.6250000000000375
 40
0.6562500000000346
 40
0.6562500000000346
 40
0.6875000000000316
 40
0.6875000000000316
 40
0.7500000000000249
 40
0.7500000000000249
 40
0.8125000000000181
 40
0.8125000000000181
 40
0.8437500000000151
 40
0.8437500000000151
 40
0.8750000000000121
 40
0.8750000000000121
 40
1.0
 40
1.0
 40
1.0
 40
1.0
 10
350.710480769231
 20
458.0884890109888
 30
0.0
 10
350.710480769231
 20
457.9564924278093
 30
0.0
 10
350.7234278671776
 20
457.8263733340756
 30
0.0
 10
350.7616893288507
 20
457.6340851291711
 30
0.0
 10
350.7776048946323
 20
457.5704740187414
 30
0.0
 10
350.8063458792348
 20
457.4758247551367
 30
0.0
 10
350.8166987203044
 20
457.4445443085282
 30
0.0
 10
350.8388262809991
 20
457.3828086971461
 30
0.0
 10
350.8506150295048
 20
457.3523068689824
 30
0.0
 10
350.9131277093042
 20
457.2016082781775
 30
0.0
 10
350.9744620852612
 20
457.0867950794482
 30
0.0
 10
351.0653683676867
 20
456.9506501992457
 30
0.0
 10
351.0842675465107
 20
456.9237929453371
 30
0.0
 10
351.123528769042
 20
456.8708397510659
 30
0.0
 10
351.1438161643975
 20
456.8448501346497
 30
0.0
 10
351.2062445610748
 20
456.7688011747217
 30
0.0
 10
351.2500954623085
 20
456.7204568463484
 30
0.0
 10
351.3881665464316
 20
456.5823568491767
 30
0.0
 10
351.4888452001085
 20
456.4994704477953
 30
0.0
 10
351.6257866840868
 20
456.4078568136377
 30
0.0
 10
351.6536499730174
 20
456.3902002465924
 30
0.0
 10
351.7099129870104
 20
456.3564554742804
 30
0.0
 10
351.7383715258451
 20
456.3403274515565
 30
0.0
 10
351.8247091039962
 20
456.2941452777876
 30
0.0
 10
351.8835479251953
 20
456.2662881476272
 30
0.0
 10
352.0037392378521
 20
456.216391170916
 30
0.0
 10
352.0650913980289
 20
456.1943513310119
 30
0.0
 10
352.1590203025047
 20
456.1657403010867
 30
0.0
 10
352.1906472357795
 20
456.1569459980158
 30
0.0
 10
352.2545449282606
 20
456.1408730780122
 30
0.0
 10
352.2867514868996
 20
456.1336144834931
 30
0.0
 10
352.4479583914457
 20
456.1014367297277
 30
0.0
 10
352.5784841864504
 20
456.0884890109888
 30
0.0
 10
352.710480769231
 20
456.0884890109888
 30
0.0
  0
SPLINE
  5
81
330
1F
100
AcDbEntity
  8
1
  6
Continuous
 62
   155
420
  5010073
370
    18
100
AcDbSpline
210
0.0
220
0.0
230
1.0
 70
     8
 71
     3
 72
    18
 73
    14
 74
     0
 42
0.0000000001
 43
0.0000000001
 40
0.0
 40
0.0
 40
0.0
 40
0.0
 40
0.177072002658448
 40
0.177072002658448
 40
0.3541367049159575
 40
0.3541367049159575
 40
0.531194791905668
 40
0.531194791905668
 40
0.7119913147464154
 40
0.7119913147464154
 40
0.8890905604359487
 40
0.8890905604359487
 40
1.0
 40
1.0
 40
1.0
 40
1.0
 10
351.910480769231
 20
458.0884890109888
 30
0.0
 10
351.910480769231
 20
458.0509824445973
 30
0.0
 10
351.9131227510866
 20
458.0134761226057
 30
0.0
 10
351.9236383518382
 20
457.9392052653196
 30
0.0
 10
351.9315116861707
 20
457.9024411833594
 30
0.0
 10
351.9523339713202
 20
457.8303805953109
 30
0.0
 10
351.9652825965422
 20
457.795084503785
 30
0.0
 10
351.9963241300284
 20
457.7259330315403
 30
0.0
 10
352.0145198433503
 20
457.6921243642325
 30
0.0
 10
352.0551431178961
 20
457.628119878486
 30
0.0
 10
352.0774761037931
 20
457.5978646445408
 30
0.0
 10
352.1170654368347
 20
457.5514507140256
 30
0.0
 10
352.13309944712
 20
457.534249857714
 30
0.0
 10
352.1498581317748
 20
457.5177867108568
 30
0.0
  0
SPLINE
  5
82
330
1F
100
AcDbEntity
  8
1
  6
Continuous
 62
   155
420
  5010073
370
    18
100
AcDbSpline
210
0.0
220
0.0
230
1.0
 70
     8
 71
     3
 72
    20
 73
    16
 74
     0
 42
0.0000000001
 43
0.0000000001
 40
0.0
 40
0.0
 40
0.0
 40
0.0
 40
0.0842754300740761
 40
0.0842754300740761
 40
0.2621820891252686
 40
0.2621820891252686
 40
0.4466365668439529
 40
0.4466365668439529
 40
0.6245600091318245
 40
0.6245600091318245
 40
0.8024547340419672
 40
0.8024547340419672
 40
0.9803520897284367
 40
0.9803520897284367
 40
1.0
 40
1.0
 40
1.0
 40
1.0
 10
498.6732424827529
 20
457.5198960487353
 30
0.0
 10
498.6858698696792
 20
457.5323938583703
 30
0.0
 10
498.6980812670908
 20
457.5453119669278
 30
0.0
 10
498.7346894907425
 20
457.5867220207192
 30
0.0
 10
498.757551003489
 20
457.6165708480912
 30
0.0
 10
498.7996245766026
 20
457.6803310746895
 30
0.0
 10
498.8186707544413
 20
457.7143512916252
 30
0.0
 10
498.8510346381404
 20
457.7835515203641
 30
0.0
 10
498.8645313703528
 20
457.8186472112376
 30
0.0
 10
498.8864696925373
 20
457.890378832729
 30
0.0
 10
498.8949119564912
 20
457.9270140461252
 30
0.0
 10
498.9065780678455
 20
458.0011071790015
 30
0.0
 10
498.909801761955
 20
458.038564628033
 30
0.0
 10
498.9104485999425
 20
458.0802049035696
 30
0.0
 10
498.910480769231
 20
458.0843469572771
 30
0.0
 10
498.910480769231
 20
458.0884890109888
 30
0.0
  0
SPLINE
  5
83
330
1F
100
AcDbEntity
  8
1
  6
Continuous
 62
   155
420
  5010073
370
    18
100
AcDbSpline
210
0.0
220
0.0
230
1.0
 70
     8
 71
     3
 72
    38
 73
    34
 74
     0
 42
0.0000000001
 43
0.0000000001
 40
0.0
 40
0.0
 40
0.0
 40
0.0
 40
0.1250000000000145
 40
0.1250000000000145
 40
0.1875000000000155
 40
0.1875000000000155
 40
0.218750000000022
 40
0.218750000000022
 40
0.2500000000000285
 40
0.2500000000000285
 40
0.3750000000000442
 40
0.3750000000000442
 40
0.406250000000043
 40
0.406250000000043
 40
0.4375000000000418
 40
0.4375000000000418
 40
0.5000000000000401
 40
0.5000000000000401
 40
0.6250000000000275
 40
0.6250000000000275
 40
0.6562500000000259
 40
0.6562500000000259
 40
0.6875000000000241
 40
0.6875000000000241
 40
0.7500000000000213
 40
0.7500000000000213
 40
0.8125000000000185
 40
0.8125000000000185
 40
0.8437500000000152
 40
0.8437500000000152
 40
0.8750000000000118
 40
0.8750000000000118
 40
1.0
 40
1.0
 40
1.0
 40
1.0
 10
498.1104807692309
 20
456.0884890109888
 30
0.0
 10
498.2424773495027
 20
456.0884890109888
 30
0.0
 10
498.3725964433379
 20
456.1014361085178
 30
0.0
 10
498.5648846493471
 20
456.1396975701996
 30
0.0
 10
498.6284957603142
 20
456.1556131360626
 30
0.0
 10
498.7231450245845
 20
456.1843541208282
 30
0.0
 10
498.7544254713853
 20
456.1947069619556
 30
0.0
 10
498.816161083035
 20
456.2168345227398
 30
0.0
 10
498.8466629112726
 20
456.2286232712767
 30
0.0
 10
498.9973615020513
 20
456.291135951068
 30
0.0
 10
499.1121747007498
 20
456.3524703270099
 30
0.0
 10
499.2483195809081
 20
456.4433766093991
 30
0.0
 10
499.2751768348074
 20
456.462275788215
 30
0.0
 10
499.32813002906
 20
456.501537010728
 30
0.0
 10
499.3541196454997
 20
456.5218244060993
 30
0.0
 10
499.4301686054563
 20
456.5842528027951
 30
0.0
 10
499.4785129338428
 20
456.6281037040391
 30
0.0
 10
499.6166129310406
 20
456.7661747881845
 30
0.0
 10
499.6994993324211
 20
456.8668534418642
 30
0.0
 10
499.7911129665658
 20
457.0037949258197
 30
0.0
 10
499.808769533618
 20
457.0316582147599
 30
0.0
 10
499.8425143059364
 20
457.0879212287629
 30
0.0
 10
499.8586423286632
 20
457.1163797676027
 30
0.0
 10
499.9048245024393
 20
457.2027173457678
 30
0.0
 10
499.932681632603
 20
457.2615561669755
 30
0.0
 10
499.9825786093176
 20
457.381747479646
 30
0.0
 10
500.0046184490981
 20
457.4430996395101
 30
0.0
 10
500.033229478863
 20
457.5370285433341
 30
0.0
 10
500.0420237818838
 20
457.5686554763632
 30
0.0
 10
500.058096701815
 20
457.6325531683595
 30
0.0
 10
500.0653552963153
 20
457.664759726774
 30
0.0
 10
500.097533050074
 20
457.8259666304013
 30
0.0
 10
500.1104807692309
 20
457.956492425319
 30
0.0
 10
500.1104807692309
 20
458.0884890109887
 30
0.0
  0
SPLINE
  5
84
330
1F
100
AcDbEntity
  8
1
  6
Continuous
 62
   155
420
  5010073
370
    18
100
AcDbSpline
210
0.0
220
0.0
230
1.0
 70
    12
 71
     2
 72
     6
 73
     3
 74
     0
 42
0.0000000001
 43
0.0000000001
 40
3.141592653589793
 40
3.141592653589793
 40
3.141592653589793
 40
4.71238898038469
 40
4.71238898038469
 40
4.71238898038469
 10
367.410481
 20
323.164282
 30
0.0
 41
1.0
 10
367.4104809999999
 20
322.1036215
 30
0.0
 41
0.7071067811865476
 10
368.910481
 20
322.1036215
 30
0.0
 41
1.0
  0
SPLINE
  5
85
330
1F
100
AcDbEntity
  8
1
  6
Continuous
 62
   155
420
  5010073
370
    18
100
AcDbSpline
210
0.0
220
0.0
230
1.0
 70
    12
 71
     2
 72
     6
 73
     3
 74
     0
 42
0.0000000001
 43
0.0000000001
 40
4.71238898038469
 40
4.71238898038469
 40
4.71238898038469
 40
6.283185307179586
 40
6.283185307179586
 40
6.283185307179586
 10
371.410481
 20
322.1036215
 30
0.0
 41
1.0
 10
372.910481
 20
322.1036215
 30
0.0
 41
0.7071067811865476
 10
372.910481
 20
323.164282
 30
0.0
 41
1.0
  0
SPLINE
  5
86
330
1F
100
AcDbEntity
  8
1
  6
Continuous
 62
   155
420
  5010073
370
    18
100
AcDbSpline
210
0.0
220
0.0
230
1.0
 70
    12
 71
     2
 72
     6
 73
     3
 74
     0
 42
0.0000000001
 43
0.0000000001
 40
4.71238898038469
 40
4.71238898038469
 40
4.71238898038469
 40
6.283185307179586
 40
6.283185307179586
 40
6.283185307179586
 10
481.910481
 20
322.1036215
 30
0.0
 41
1.0
 10
483.410481
 20
322.1036215
 30
0.0
 41
0.7071067811865476
 10
483.410481
 20
323.164282
 30
0.0
 41
1.0
  0
SPLINE
  5
87
330
1F
100
AcDbEntity
  8
1
  6
Continuous
 62
   155
420
  5010073
370
    18
100
AcDbSpline
210
0.0
220
0.0
230
1.0
 70
    12
 71
     2
 72
     6
 73
     3
 74
     0
 42
0.0000000001
 43
0.0000000001
 40
3.141592653589793
 40
3.141592653589793
 40
3.141592653589793
 40
4.71238898038469
 40
4.71238898038469
 40
4.71238898038469
 10
477.910481
 20
323.164282
 30
0.0
 41
1.0
 10
477.9104809999999
 20
322.1036215
 30
0.0
 41
0.7071067811865476
 10
479.410481
 20
322.1036215
 30
0.0
 41
1.0
  0
ARC
  5
88
330
1F
100
AcDbEntity
  8
1
  6
Continuous
 62
   155
420
  5010073
370
    18
100
AcDbCircle
 10
167.774107
 20
455.588489
 30
0.0
 40
0.5
100
AcDbArc
 50
90.0
 51
180.0
  0
ARC
  5
89
330
1F
100
AcDbEntity
  8
1
  6
Continuous
 62
   155
420
  5010073
370
    18
100
AcDbCircle
 10
220.774107
 20
429.588489
 30
0.0
 40
0.5
100
AcDbArc
 50
270.0
 51
0.0
  0
ARC
  5
8A
330
1F
100
AcDbEntity
  8
1
  6
Continuous
 62
   155
420
  5010073
370
    18
100
AcDbCircle
 10
167.774107
 20
429.588489
 30
0.0
 40
0.5
100
AcDbArc
 50
180.0
 51
270.0
  0
ARC
  5
8B
330
1F
100
AcDbEntity
  8
1
  6
Continuous
 62
   155
420
  5010073
370
    18
100
AcDbCircle
 10
220.774107
 20
455.588489
 30
0.0
 40
0.5
100
AcDbArc
 50
0.0
 51
90.0
  0
ARC
  5
8C
330
1F
100
AcDbEntity
  8
1
  6
Continuous
 62
   155
420
  5010073
370
    18
100
AcDbCircle
 10
701.045179
 20
429.588489
 30
0.0
 40
0.5
100
AcDbArc
 50
270.0
 51
0.0
  0
ARC
  5
8D
330
1F
100
AcDbEntity
  8
1
  6
Continuous
 62
   155
420
  5010073
370
    18
100
AcDbCircle
 10
701.045179
 20
455.588489
 30
0.0
 40
0.5
100
AcDbArc
 50
0.0
 51
90.0
  0
ARC
  5
8E
330
1F
100
AcDbEntity
  8
1
  6
Continuous
 62
   155
420
  5010073
370
    18
100
AcDbCircle
 10
648.045179
 20
429.588489
 30
0.0
 40
0.5
100
AcDbArc
 50
180.0
 51
270.0
  0
ARC
  5
8F
330
1F
100
AcDbEntity
  8
1
  6
Continuous
 62
   155
420
  5010073
370
    18
100
AcDbCircle
 10
648.045179
 20
455.588489
 30
0.0
 40
0.5
100
AcDbArc
 50
90.0
 51
180.0
  0
ARC
  5
90
330
1F
100
AcDbEntity
  8
1
  6
Continuous
 62
   155
420
  5010073
370
    18
100
AcDbCircle
 10
477.410481
 20
330.920274
 30
0.0
 40
0.5
100
AcDbArc
 50
0.0
 51
90.0
  0
ARC
  5
91
330
1F
100
AcDbEntity
  8
1
  6
Continuous
 62
   155
420
  5010073
370
    18
100
AcDbCircle
 10
473.910481
 20
329.420274
 30
0.0
 40
2.0
100
AcDbArc
 50
90.0
 51
180.0
  0
ARC
  5
92
330
1F
100
AcDbEntity
  8
1
  6
Continuous
 62
   155
420
  5010073
370
    18
100
AcDbCircle
 10
466.910481
 20
324.467582
 30
0.0
 40
5.0
100
AcDbArc
 50
270.0
 51
0.0
  0
ARC
  5
93
330
1F
100
AcDbEntity
  8
1
  6
Continuous
 62
   155
420
  5010073
370
    18
100
AcDbCircle
 10
383.910481
 20
324.467582
 30
0.0
 40
5.0
100
AcDbArc
 50
180.0
 51
270.0
  0
ARC
  5
94
330
1F
100
AcDbEntity
  8
1
  6
Continuous
 62
   155
420
  5010073
370
    18
100
AcDbCircle
 10
376.910481
 20
329.420274
 30
0.0
 40
2.0
100
AcDbArc
 50
0.0
 51
90.0
  0
ARC
  5
95
330
1F
100
AcDbEntity
  8
1
  6
Continuous
 62
   155
420
  5010073
370
    18
100
AcDbCircle
 10
373.410481
 20
330.920274
 30
0.0
 40
0.5
100
AcDbArc
 50
90.0
 51
180.0
  0
ARC
  5
96
330
1F
100
AcDbEntity
  8
1
  6
Continuous
 62
   155
420
  5010073
370
    18
100
AcDbCircle
 10
366.910481
 20
330.920274
 30
0.0
 40
0.5
100
AcDbArc
 50
0.0
 51
180.0
  0
ARC
  5
97
330
1F
100
AcDbEntity
  8
1
  6
Continuous
 62
   155
420
  5010073
370
    18
100
AcDbCircle
 10
364.410481
 20
321.467582
 30
0.0
 40
2.0
100
AcDbArc
 50
270.0
 51
0.0
  0
ARC
  5
98
330
1F
100
AcDbEntity
  8
1
  6
Continuous
 62
   155
420
  5010073
370
    18
100
AcDbCircle
 10
362.710481
 20
327.467582
 30
0.0
 40
0.5
100
AcDbArc
 50
270.0
 51
90.0
  0
ARC
  5
99
330
1F
100
AcDbEntity
  8
1
  6
Continuous
 62
   155
420
  5010073
370
    18
100
AcDbCircle
 10
362.710481
 20
356.467582
 30
0.0
 40
0.5
100
AcDbArc
 50
270.0
 51
90.0
  0
ARC
  5
9A
330
1F
100
AcDbEntity
  8
1
  6
Continuous
 62
   155
420
  5010073
370
    18
100
AcDbCircle
 10
488.110481
 20
356.467582
 30
0.0
 40
0.5
100
AcDbArc
 50
90.0
 51
270.0
  0
ARC
  5
9B
330
1F
100
AcDbEntity
  8
1
  6
Continuous
 62
   155
420
  5010073
370
    18
100
AcDbCircle
 10
488.110481
 20
327.467582
 30
0.0
 40
0.5
100
AcDbArc
 50
90.0
 51
270.0
  0
ARC
  5
9C
330
1F
100
AcDbEntity
  8
1
  6
Continuous
 62
   155
420
  5010073
370
    18
100
AcDbCircle
 10
486.410481
 20
321.467582
 30
0.0
 40
2.0
100
AcDbArc
 50
180.0
 51
270.0
  0
ARC
  5
9D
330
1F
100
AcDbEntity
  8
1
  6
Continuous
 62
   155
420
  5010073
370
    18
100
AcDbCircle
 10
483.910481
 20
330.920274
 30
0.0
 40
0.5
100
AcDbArc
 50
0.0
 51
180.0
  0
ARC
  5
9E
330
1F
100
AcDbEntity
  8
1
  6
Continuous
 62
   155
420
  5010073
370
    18
100
AcDbCircle
 10
389.410481
 20
329.967582
 30
0.0
 40
2.5
100
AcDbArc
 50
180.0
 51
270.0
  0
ARC
  5
9F
330
1F
100
AcDbEntity
  8
1
  6
Continuous
 62
   155
420
  5010073
370
    18
100
AcDbCircle
 10
442.210481
 20
329.967582
 30
0.0
 40
2.5
100
AcDbArc
 50
270.0
 51
0.0
  0
ARC
  5
A0
330
1F
100
AcDbEntity
  8
1
  6
Continuous
 62
   155
420
  5010073
370
    18
100
AcDbCircle
 10
442.210481
 20
353.967582
 30
0.0
 40
2.5
100
AcDbArc
 50
0.0
 51
90.0
  0
ARC
  5
A1
330
1F
100
AcDbEntity
  8
1
  6
Continuous
 62
   155
420
  5010073
370
    18
100
AcDbCircle
 10
389.410481
 20
353.967582
 30
0.0
 40
2.5
100
AcDbArc
 50
90.0
 51
180.0
  0
ARC
  5
A2
330
1F
100
AcDbEntity
  8
1
  6
Continuous
 62
   155
420
  5010073
370
    18
100
AcDbCircle
 10
384.410481
 20
351.467582
 30
0.0
 40
2.5
100
AcDbArc
 50
270.0
 51
0.0
  0
ARC
  5
A3
330
1F
100
AcDbEntity
  8
1
  6
Continuous
 62
   155
420
  5010073
370
    18
100
AcDbCircle
 10
367.210481
 20
346.467582
 30
0.0
 40
2.5
100
AcDbArc
 50
90.0
 51
180.0
  0
ARC
  5
A4
330
1F
100
AcDbEntity
  8
1
  6
Continuous
 62
   155
420
  5010073
370
    18
100
AcDbCircle
 10
367.210481
 20
339.920274
 30
0.0
 40
2.5
100
AcDbArc
 50
180.0
 51
270.0
  0
ARC
  5
A5
330
1F
100
AcDbEntity
  8
1
  6
Continuous
 62
   155
420
  5010073
370
    18
100
AcDbCircle
 10
384.410481
 20
334.920274
 30
0.0
 40
2.5
100
AcDbArc
 50
0.0
 51
90.0
  0
CIRCLE
  5
A6
330
1F
100
AcDbEntity
  8
1
  6
Continuous
 62
   155
420
  5010073
370
    18
100
AcDbCircle
 10
380.410481
 20
354.967582
 30
0.0
 40
1.975
  0
ARC
  5
A7
330
1F
100
AcDbEntity
  8
1
  6
Continuous
 62
   155
420
  5010073
370
    18
100
AcDbCircle
 10
359.410481
 20
339.967582
 30
0.0
 40
2.25
100
AcDbArc
 50
180.0
 51
0.0
  0
ARC
  5
A8
330
1F
100
AcDbEntity
  8
1
  6
Continuous
 62
   155
420
  5010073
370
    18
100
AcDbCircle
 10
359.410481
 20
343.967582
 30
0.0
 40
2.25
100
AcDbArc
 50
0.0
 51
180.0
  0
ARC
  5
A9
330
1F
100
AcDbEntity
  8
1
  6
Continuous
 62
   155
420
  5010073
370
    18
100
AcDbCircle
 10
486.410481
 20
341.967582
 30
0.0
 40
2.25
100
AcDbArc
 50
90.0
 51
270.0
  0
ARC
  5
AA
330
1F
100
AcDbEntity
  8
1
  6
Continuous
 62
   155
420
  5010073
370
    18
100
AcDbCircle
 10
490.410481
 20
341.967582
 30
0.0
 40
2.25
100
AcDbArc
 50
270.0
 51
90.0
  0
ARC
  5
AB
330
1F
100
AcDbEntity
  8
1
  6
Continuous
 62
   155
420
  5010073
370
    18
100
AcDbCircle
 10
368.410481
 20
324.167582
 30
0.0
 40
1.8
100
AcDbArc
 50
123.7443749999993
 51
180.0
  0
ARC
  5
AC
330
1F
100
AcDbEntity
  8
1
  6
Continuous
 62
   155
420
  5010073
370
    18
100
AcDbCircle
 10
368.410481
 20
324.167582
 30
0.0
 40
1.8
100
AcDbArc
 50
180.0
 51
248.4112499999999
  0
ARC
  5
AD
330
1F
100
AcDbEntity
  8
1
  6
Continuous
 62
   155
420
  5010073
370
    18
100
AcDbCircle
 10
482.110481
 20
324.667582
 30
0.0
 40
1.8
100
AcDbArc
 50
316.2431249999991
 51
43.75687499999836
  0
ARC
  5
AE
330
1F
100
AcDbEntity
  8
1
  6
Continuous
 62
   155
420
  5010073
370
    18
100
AcDbCircle
 10
368.410481
 20
324.167582
 30
0.0
 40
2.1
100
AcDbArc
 50
118.434375
 51
162.2418750000004
  0
ARC
  5
AF
330
1F
100
AcDbEntity
  8
1
  6
Continuous
 62
   155
420
  5010073
370
    18
100
AcDbCircle
 10
368.410481
 20
324.167582
 30
0.0
 40
2.1
100
AcDbArc
 50
197.7581249999991
 51
280.9799999999991
  0
ARC
  5
B0
330
1F
100
AcDbEntity
  8
1
  6
Continuous
 62
   155
420
  5010073
370
    18
100
AcDbCircle
 10
482.110481
 20
324.667582
 30
0.0
 40
2.1
100
AcDbArc
 50
307.6593750000002
 51
51.74999999999967
  0
ARC
  5
B1
330
1F
100
AcDbEntity
  8
1
  6
Continuous
 62
   155
420
  5010073
370
    18
100
AcDbCircle
 10
378.910481
 20
326.667582
 30
0.0
 40
1.125
100
AcDbArc
 50
90.0
 51
180.0
  0
ARC
  5
B2
330
1F
100
AcDbEntity
  8
1
  6
Continuous
 62
   155
420
  5010073
370
    18
100
AcDbCircle
 10
378.910481
 20
326.667582
 30
0.0
 40
1.125
100
AcDbArc
 50
180.0
 51
270.0
  0
ARC
  5
B3
330
1F
100
AcDbEntity
  8
1
  6
Continuous
 62
   155
420
  5010073
370
    18
100
AcDbCircle
 10
492.410481
 20
347.717582
 30
0.0
 40
6.0
100
AcDbArc
 50
215.684896
 51
271.4671600000001
  0
CIRCLE
  5
B4
330
1F
100
AcDbEntity
  8
1
  6
Continuous
 62
   155
420
  5010073
370
    18
100
AcDbCircle
 10
480.660481
 20
483.588489
 30
0.0
 40
2.11
  0
CIRCLE
  5
B5
330
1F
100
AcDbEntity
  8
1
  6
Continuous
 62
   155
420
  5010073
370
    18
100
AcDbCircle
 10
370.160481
 20
483.588489
 30
0.0
 40
2.11
  0
LINE
  5
B6
330
1F
100
AcDbEntity
  8
1
  6
Continuous
 62
   155
420
  5010073
370
    18
100
AcDbLine
 10
766.101635
 20
456.088489
 30
0.0
 11
768.601635
 21
456.088489
 31
0.0
  0
LINE
  5
B7
330
1F
100
AcDbEntity
  8
1
  6
Continuous
 62
   155
420
  5010073
370
    18
100
AcDbLine
 10
768.601635
 20
456.088489
 30
0.0
 11
768.601635
 21
455.588489
 31
0.0
  0
LINE
  5
B8
330
1F
100
AcDbEntity
  8
1
  6
Continuous
 62
   155
420
  5010073
370
    13
100
AcDbLine
 10
768.601635
 20
455.588489
 30
0.0
 11
766.101635
 21
455.588489
 31
0.0
  0
LINE
  5
B9
330
1F
100
AcDbEntity
  8
1
  6
Continuous
 62
   155
420
  5010073
370
    18
100
AcDbLine
 10
766.101635
 20
456.088489
 30
0.0
 11
766.101635
 21
455.588489
 31
0.0
  0
LINE
  5
BA
330
1F
100
AcDbEntity
  8
1
  6
Continuous
 62
   155
420
  5010073
370
    13
100
AcDbLine
 10
766.101635
 20
429.588489
 30
0.0
 11
768.601635
 21
429.588489
 31
0.0
  0
LINE
  5
BB
330
1F
100
AcDbEntity
  8
1
  6
Continuous
 62
   155
420
  5010073
370
    18
100
AcDbLine
 10
768.601635
 20
429.588489
 30
0.0
 11
768.601635
 21
429.088489
 31
0.0
  0
LINE
  5
BC
330
1F
100
AcDbEntity
  8
1
  6
Continuous
 62
   155
420
  5010073
370
    18
100
AcDbLine
 10
768.601635
 20
429.088489
 30
0.0
 11
766.101635
 21
429.088489
 31
0.0
  0
LINE
  5
BD
330
1F
100
AcDbEntity
  8
1
  6
Continuous
 62
   155
420
  5010073
370
    18
100
AcDbLine
 10
766.101635
 20
429.088489
 30
0.0
 11
766.101635
 21
429.588489
 31
0.0
  0
LINE
  5
BE
330
1F
100
AcDbEntity
  8
1
  6
Continuous
 62
   155
420
  5010073
370
    18
100
AcDbLine
 10
766.101635
 20
429.588489
 30
0.0
 11
766.101635
 21
455.588489
 31
0.0
  0
LINE
  5
BF
330
1F
100
AcDbEntity
  8
1
  6
Continuous
 62
   155
420
  5010073
370
    18
100
AcDbLine
 10
768.601635
 20
429.588489
 30
0.0
 11
768.601635
 21
455.588489
 31
0.0
  0
LINE
  5
C0
330
1F
100
AcDbEntity
  8
1
  6
Continuous
 62
   155
420
  5010073
370
    13
100
AcDbLine
 10
1063.601635
 20
429.588489
 30
0.0
 11
1066.101635
 21
429.588489
 31
0.0
  0
LINE
  5
C1
330
1F
100
AcDbEntity
  8
1
  6
Continuous
 62
   155
420
  5010073
370
    18
100
AcDbLine
 10
1066.101635
 20
429.588489
 30
0.0
 11
1066.101635
 21
429.088489
 31
0.0
  0
LINE
  5
C2
330
1F
100
AcDbEntity
  8
1
  6
Continuous
 62
   155
420
  5010073
370
    18
100
AcDbLine
 10
1066.101635
 20
429.088489
 30
0.0
 11
1063.601635
 21
429.088489
 31
0.0
  0
LINE
  5
C3
330
1F
100
AcDbEntity
  8
1
  6
Continuous
 62
   155
420
  5010073
370
    18
100
AcDbLine
 10
1063.601635
 20
429.088489
 30
0.0
 11
1063.601635
 21
429.588489
 31
0.0
  0
LINE
  5
C4
330
1F
100
AcDbEntity
  8
1
  6
Continuous
 62
   155
420
  5010073
370
    18
100
AcDbLine
 10
1063.601635
 20
456.088489
 30
0.0
 11
1066.101635
 21
456.088489
 31
0.0
  0
LINE
  5
C5
330
1F
100
AcDbEntity
  8
1
  6
Continuous
 62
   155
420
  5010073
370
    18
100
AcDbLine
 10
1066.101635
 20
456.088489
 30
0.0
 11
1066.101635
 21
455.588489
 31
0.0
  0
LINE
  5
C6
330
1F
100
AcDbEntity
  8
1
  6
Continuous
 62
   155
420
  5010073
370
    13
100
AcDbLine
 10
1066.101635
 20
455.588489
 30
0.0
 11
1063.601635
 21
455.588489
 31
0.0
  0
LINE
  5
C7
330
1F
100
AcDbEntity
  8
1
  6
Continuous
 62
   155
420
  5010073
370
    18
100
AcDbLine
 10
1063.601635
 20
456.088489
 30
0.0
 11
1063.601635
 21
455.588489
 31
0.0
  0
LINE
  5
C8
330
1F
100
AcDbEntity
  8
1
  6
Continuous
 62
   155
420
  5010073
370
    18
100
AcDbLine
 10
1063.601635
 20
429.588489
 30
0.0
 11
1063.601635
 21
455.588489
 31
0.0
  0
LINE
  5
C9
330
1F
100
AcDbEntity
  8
1
  6
Continuous
 62
   155
420
  5010073
370
    18
100
AcDbLine
 10
1066.101635
 20
429.588489
 30
0.0
 11
1066.101635
 21
455.588489
 31
0.0
  0
LINE
  5
CA
330
1F
100
AcDbEntity
  8
1
  6
Continuous
 62
   155
420
  5010073
370
    13
100
AcDbLine
 10
768.601635
 20
431.288489
 30
0.0
 11
1063.601635
 21
431.288489
 31
0.0
  0
LINE
  5
CB
330
1F
100
AcDbEntity
  8
1
  6
Continuous
 62
   155
420
  5010073
370
    18
100
AcDbLine
 10
768.601635
 20
431.588489
 30
0.0
 11
1063.601635
 21
431.588489
 31
0.0
  0
LINE
  5
CC
330
1F
100
AcDbEntity
  8
1
  6
Continuous
 62
   155
420
  5010073
370
    18
100
AcDbLine
 10
768.601635
 20
429.088489
 30
0.0
 11
1063.601635
 21
429.088489
 31
0.0
  0
LINE
  5
CD
330
1F
100
AcDbEntity
  8
1
  6
Continuous
 62
   155
420
  5010073
370
    18
100
AcDbLine
 10
768.601635
 20
429.088489
 30
0.0
 11
768.601635
 21
429.588489
 31
0.0
  0
LINE
  5
CE
330
1F
100
AcDbEntity
  8
1
  6
Continuous
 62
   155
420
  5010073
370
    13
100
AcDbLine
 10
768.601635
 20
429.588489
 30
0.0
 11
1063.601635
 21
429.588489
 31
0.0
  0
LINE
  5
CF
330
1F
100
AcDbEntity
  8
1
  6
Continuous
 62
   155
420
  5010073
370
    18
100
AcDbLine
 10
1063.601635
 20
429.088489
 30
0.0
 11
1063.601635
 21
429.588489
 31
0.0
  0
LINE
  5
D0
330
1F
100
AcDbEntity
  8
1
  6
Continuous
 62
   155
420
  5010073
370
    18
100
AcDbLine
 10
768.601635
 20
429.588489
 30
0.0
 11
768.601635
 21
431.288489
 31
0.0
  0
LINE
  5
D1
330
1F
100
AcDbEntity
  8
1
  6
Continuous
 62
   155
420
  5010073
370
    18
100
AcDbLine
 10
1063.601635
 20
429.588489
 30
0.0
 11
1063.601635
 21
431.288489
 31
0.0
  0
LINE
  5
D2
330
1F
100
AcDbEntity
  8
1
  6
Continuous
 62
   155
420
  5010073
370
    13
100
AcDbLine
 10
768.601635
 20
455.588489
 30
0.0
 11
1063.601635
 21
455.588489
 31
0.0
  0
LINE
  5
D3
330
1F
100
AcDbEntity
  8
1
  6
Continuous
 62
   155
420
  5010073
370
    18
100
AcDbLine
 10
768.601635
 20
455.588489
 30
0.0
 11
768.601635
 21
456.088489
 31
0.0
  0
LINE
  5
D4
330
1F
100
AcDbEntity
  8
1
  6
Continuous
 62
   155
420
  5010073
370
    18
100
AcDbLine
 10
768.601635
 20
456.088489
 30
0.0
 11
1063.601635
 21
456.088489
 31
0.0
  0
LINE
  5
D5
330
1F
100
AcDbEntity
  8
1
  6
Continuous
 62
   155
420
  5010073
370
    18
100
AcDbLine
 10
1063.601635
 20
455.588489
 30
0.0
 11
1063.601635
 21
456.088489
 31
0.0
  0
LINE
  5
D6
330
1F
100
AcDbEntity
  8
1
  6
Continuous
 62
   155
420
  5010073
370
    18
100
AcDbLine
 10
768.601635
 20
453.588489
 30
0.0
 11
1063.601635
 21
453.588489
 31
0.0
  0
LINE
  5
D7
330
1F
100
AcDbEntity
  8
1
  6
Continuous
 62
   155
420
  5010073
370
    13
100
AcDbLine
 10
768.601635
 20
453.888489
 30
0.0
 11
1063.601635
 21
453.888489
 31
0.0
  0
LINE
  5
D8
330
1F
100
AcDbEntity
  8
1
  6
Continuous
 62
   155
420
  5010073
370
    18
100
AcDbLine
 10
768.601635
 20
453.888489
 30
0.0
 11
768.601635
 21
455.588489
 31
0.0
  0
LINE
  5
D9
330
1F
100
AcDbEntity
  8
1
  6
Continuous
 62
   155
420
  5010073
370
    18
100
AcDbLine
 10
1063.601635
 20
453.888489
 30
0.0
 11
1063.601635
 21
455.588489
 31
0.0
  0
LINE
  5
DA
330
1F
100
AcDbEntity
  8
1
  6
Continuous
 62
   155
420
  5010073
370
    13
100
AcDbLine
 10
1063.449525
 20
431.888489
 30
0.0
 11
1063.601635
 21
431.888489
 31
0.0
  0
LINE
  5
DB
330
1F
100
AcDbEntity
  8
1
  6
Continuous
 62
   155
420
  5010073
370
    13
100
AcDbLine
 10
768.601635
 20
431.888489
 30
0.0
 11
768.753744
 21
431.888489
 31
0.0
  0
LINE
  5
DC
330
1F
100
AcDbEntity
  8
1
  6
Continuous
 62
   155
420
  5010073
370
    18
100
AcDbLine
 10
1063.449525
 20
432.188489
 30
0.0
 11
1063.601635
 21
432.188489
 31
0.0
  0
LINE
  5
DD
330
1F
100
AcDbEntity
  8
1
  6
Continuous
 62
   155
420
  5010073
370
    18
100
AcDbLine
 10
768.601635
 20
432.188489
 30
0.0
 11
768.753744
 21
432.188489
 31
0.0
  0
LINE
  5
DE
330
1F
100
AcDbEntity
  8
1
  6
Continuous
 62
   155
420
  5010073
370
    18
100
AcDbLine
 10
1063.449525
 20
452.988489
 30
0.0
 11
1063.601635
 21
452.988489
 31
0.0
  0
LINE
  5
DF
330
1F
100
AcDbEntity
  8
1
  6
Continuous
 62
   155
420
  5010073
370
    18
100
AcDbLine
 10
768.601635
 20
452.988489
 30
0.0
 11
768.753744
 21
452.988489
 31
0.0
  0
LINE
  5
E0
330
1F
100
AcDbEntity
  8
1
  6
Continuous
 62
   155
420
  5010073
370
    13
100
AcDbLine
 10
1063.449525
 20
453.288489
 30
0.0
 11
1063.601635
 21
453.288489
 31
0.0
  0
LINE
  5
E1
330
1F
100
AcDbEntity
  8
1
  6
Continuous
 62
   155
420
  5010073
370
    13
100
AcDbLine
 10
768.601635
 20
453.288489
 30
0.0
 11
768.753744
 21
453.288489
 31
0.0
  0
LINE
  5
E2
330
1F
100
AcDbEntity
  8
1
  6
Continuous
 62
   155
420
  5010073
370
    18
100
AcDbLine
 10
768.753744
 20
432.252976
 30
0.0
 11
768.601635
 21
432.252976
 31
0.0
  0
LINE
  5
E3
330
1F
100
AcDbEntity
  8
1
  6
Continuous
 62
   155
420
  5010073
370
    18
100
AcDbLine
 10
1063.601635
 20
432.252976
 30
0.0
 11
1063.449525
 21
432.252976
 31
0.0
  0
LINE
  5
E4
330
1F
100
AcDbEntity
  8
1
  6
Continuous
 62
   155
420
  5010073
370
    18
100
AcDbLine
 10
1063.449525
 20
452.924002
 30
0.0
 11
1063.601635
 21
452.924002
 31
0.0
  0
LINE
  5
E5
330
1F
100
AcDbEntity
  8
1
  6
Continuous
 62
   155
420
  5010073
370
    18
100
AcDbLine
 10
768.601635
 20
452.924002
 30
0.0
 11
768.753744
 21
452.924002
 31
0.0
  0
LINE
  5
E6
330
1F
100
AcDbEntity
  8
1
  6
Continuous
 62
   155
420
  5010073
370
    18
100
AcDbLine
 10
1063.451627
 20
452.088489
 30
0.0
 11
1063.601635
 21
452.088489
 31
0.0
  0
LINE
  5
E7
330
1F
100
AcDbEntity
  8
1
  6
Continuous
 62
   155
420
  5010073
370
    18
100
AcDbLine
 10
1063.601635
 20
433.088489
 30
0.0
 11
1063.451627
 21
433.088489
 31
0.0
  0
LINE
  5
E8
330
1F
100
AcDbEntity
  8
1
  6
Continuous
 62
   155
420
  5010073
370
    18
100
AcDbLine
 10
768.751642
 20
433.088489
 30
0.0
 11
768.601635
 21
433.088489
 31
0.0
  0
LINE
  5
E9
330
1F
100
AcDbEntity
  8
1
  6
Continuous
 62
   155
420
  5010073
370
    18
100
AcDbLine
 10
768.601635
 20
452.088489
 30
0.0
 11
768.751642
 21
452.088489
 31
0.0
  0
LINE
  5
EA
330
1F
100
AcDbEntity
  8
1
  6
Continuous
 62
   155
420
  5010073
370
    13
100
AcDbLine
 10
1063.450262
 20
451.088489
 30
0.0
 11
1063.601635
 21
451.088489
 31
0.0
  0
LINE
  5
EB
330
1F
100
AcDbEntity
  8
1
  6
Continuous
 62
   155
420
  5010073
370
    18
100
AcDbLine
 10
1063.450497
 20
450.788489
 30
0.0
 11
1063.601635
 21
450.788489
 31
0.0
  0
LINE
  5
EC
330
1F
100
AcDbEntity
  8
1
  6
Continuous
 62
   155
420
  5010073
370
    13
100
AcDbLine
 10
768.601635
 20
451.088489
 30
0.0
 11
768.75172
 21
451.088489
 31
0.0
  0
LINE
  5
ED
330
1F
100
AcDbEntity
  8
1
  6
Continuous
 62
   155
420
  5010073
370
    18
100
AcDbLine
 10
768.601635
 20
450.788489
 30
0.0
 11
768.752382
 21
450.788489
 31
0.0
  0
LINE
  5
EE
330
1F
100
AcDbEntity
  8
1
  6
Continuous
 62
   155
420
  5010073
370
    18
100
AcDbLine
 10
1063.450638
 20
434.388489
 30
0.0
 11
1063.601635
 21
434.388489
 31
0.0
  0
LINE
  5
EF
330
1F
100
AcDbEntity
  8
1
  6
Continuous
 62
   155
420
  5010073
370
    13
100
AcDbLine
 10
1063.450532
 20
434.088489
 30
0.0
 11
1063.601635
 21
434.088489
 31
0.0
  0
LINE
  5
F0
330
1F
100
AcDbEntity
  8
1
  6
Continuous
 62
   155
420
  5010073
370
    13
100
AcDbLine
 10
768.601635
 20
434.088489
 30
0.0
 11
768.75172
 21
434.088489
 31
0.0
  0
LINE
  5
F1
330
1F
100
AcDbEntity
  8
1
  6
Continuous
 62
   155
420
  5010073
370
    18
100
AcDbLine
 10
768.601635
 20
434.388489
 30
0.0
 11
768.752382
 21
434.388489
 31
0.0
  0
LINE
  5
F2
330
1F
100
AcDbEntity
  8
1
  6
Continuous
 62
   155
420
  5010073
370
    13
100
AcDbLine
 10
1063.450785
 20
436.088489
 30
0.0
 11
1063.601635
 21
436.088489
 31
0.0
  0
LINE
  5
F3
330
1F
100
AcDbEntity
  8
1
  6
Continuous
 62
   155
420
  5010073
370
    18
100
AcDbLine
 10
1063.450738
 20
436.388489
 30
0.0
 11
1063.601635
 21
436.388489
 31
0.0
  0
LINE
  5
F4
330
1F
100
AcDbEntity
  8
1
  6
Continuous
 62
   155
420
  5010073
370
    13
100
AcDbLine
 10
768.601635
 20
436.088489
 30
0.0
 11
768.751896
 21
436.088489
 31
0.0
  0
LINE
  5
F5
330
1F
100
AcDbEntity
  8
1
  6
Continuous
 62
   155
420
  5010073
370
    18
100
AcDbLine
 10
768.601635
 20
436.388489
 30
0.0
 11
768.752052
 21
436.388489
 31
0.0
  0
LINE
  5
F6
330
1F
100
AcDbEntity
  8
1
  6
Continuous
 62
   155
420
  5010073
370
    13
100
AcDbLine
 10
1063.451581
 20
449.088489
 30
0.0
 11
1063.601635
 21
449.088489
 31
0.0
  0
LINE
  5
F7
330
1F
100
AcDbEntity
  8
1
  6
Continuous
 62
   155
420
  5010073
370
    18
100
AcDbLine
 10
1063.450738
 20
448.788489
 30
0.0
 11
1063.601635
 21
448.788489
 31
0.0
  0
LINE
  5
F8
330
1F
100
AcDbEntity
  8
1
  6
Continuous
 62
   155
420
  5010073
370
    18
100
AcDbLine
 10
768.601635
 20
448.788489
 30
0.0
 11
768.752052
 21
448.788489
 31
0.0
  0
LINE
  5
F9
330
1F
100
AcDbEntity
  8
1
  6
Continuous
 62
   155
420
  5010073
370
    13
100
AcDbLine
 10
768.601635
 20
449.088489
 30
0.0
 11
768.751896
 21
449.088489
 31
0.0
  0
LINE
  5
FA
330
1F
100
AcDbEntity
  8
1
  6
Continuous
 62
   155
420
  5010073
370
    13
100
AcDbLine
 10
842.744099
 20
458.088489
 30
0.0
 11
989.45917
 21
458.088489
 31
0.0
  0
LINE
  5
FB
330
1F
100
AcDbEntity
  8
1
  6
Continuous
 62
   155
420
  5010073
370
    18
100
AcDbLine
 10
842.701635
 20
458.209817
 30
0.0
 11
842.744099
 21
458.088489
 31
0.0
  0
LINE
  5
FC
330
1F
100
AcDbEntity
  8
1
  6
Continuous
 62
   155
420
  5010073
370
    18
100
AcDbLine
 10
841.401635
 20
458.209817
 30
0.0
 11
842.701635
 21
458.209817
 31
0.0
  0
LINE
  5
FD
330
1F
100
AcDbEntity
  8
1
  6
Continuous
 62
   155
420
  5010073
370
    18
100
AcDbLine
 10
841.401635
 20
458.209817
 30
0.0
 11
841.401635
 21
489.588489
 31
0.0
  0
LINE
  5
FE
330
1F
100
AcDbEntity
  8
1
  6
Continuous
 62
   155
420
  5010073
370
    18
100
AcDbLine
 10
841.401635
 20
489.588489
 30
0.0
 11
990.801635
 21
489.588489
 31
0.0
  0
LINE
  5
FF
330
1F
100
AcDbEntity
  8
1
  6
Continuous
 62
   155
420
  5010073
370
    18
100
AcDbLine
 10
989.501635
 20
458.209817
 30
0.0
 11
990.801635
 21
458.209817
 31
0.0
  0
LINE
  5
100
330
1F
100
AcDbEntity
  8
1
  6
Continuous
 62
   155
420
  5010073
370
    18
100
AcDbLine
 10
989.45917
 20
458.088489
 30
0.0
 11
989.501635
 21
458.209817
 31
0.0
  0
LINE
  5
101
330
1F
100
AcDbEntity
  8
1
  6
Continuous
 62
   155
420
  5010073
370
    18
100
AcDbLine
 10
990.801635
 20
489.588489
 30
0.0
 11
990.801635
 21
458.209817
 31
0.0
  0
LINE
  5
102
330
1F
100
AcDbEntity
  8
1
  6
Continuous
 62
   155
420
  5010073
370
    18
100
AcDbLine
 10
989.601635
 20
458.088489
 30
0.0
 11
990.801635
 21
458.088489
 31
0.0
  0
LINE
  5
103
330
1F
100
AcDbEntity
  8
1
  6
Continuous
 62
   155
420
  5010073
370
    18
100
AcDbLine
 10
990.801635
 20
458.088489
 30
0.0
 11
990.801635
 21
458.209817
 31
0.0
  0
LINE
  5
104
330
1F
100
AcDbEntity
  8
1
  6
Continuous
 62
   155
420
  5010073
370
    18
100
AcDbLine
 10
989.601635
 20
458.088489
 30
0.0
 11
989.601635
 21
458.209817
 31
0.0
  0
LINE
  5
105
330
1F
100
AcDbEntity
  8
1
  6
Continuous
 62
   155
420
  5010073
370
    18
100
AcDbLine
 10
842.601635
 20
458.209817
 30
0.0
 11
842.601635
 21
458.088489
 31
0.0
  0
LINE
  5
106
330
1F
100
AcDbEntity
  8
1
  6
Continuous
 62
   155
420
  5010073
370
    18
100
AcDbLine
 10
842.601635
 20
458.088489
 30
0.0
 11
841.401635
 21
458.088489
 31
0.0
  0
LINE
  5
107
330
1F
100
AcDbEntity
  8
1
  6
Continuous
 62
   155
420
  5010073
370
    18
100
AcDbLine
 10
841.401635
 20
458.209817
 30
0.0
 11
841.401635
 21
458.088489
 31
0.0
  0
LINE
  5
108
330
1F
100
AcDbEntity
  8
1
  6
Continuous
 62
   155
420
  5010073
370
    18
100
AcDbLine
 10
768.751635
 20
431.798489
 30
0.0
 11
768.751635
 21
432.098489
 31
0.0
  0
LINE
  5
109
330
1F
100
AcDbEntity
  8
1
  6
Continuous
 62
   155
420
  5010073
370
    13
100
AcDbLine
 10
1063.451635
 20
432.098489
 30
0.0
 11
768.751635
 21
432.098489
 31
0.0
  0
LINE
  5
10A
330
1F
100
AcDbEntity
  8
1
  6
Continuous
 62
   155
420
  5010073
370
    18
100
AcDbLine
 10
1063.451635
 20
431.798489
 30
0.0
 11
1063.451635
 21
432.098489
 31
0.0
  0
LINE
  5
10B
330
1F
100
AcDbEntity
  8
1
  6
Continuous
 62
   155
420
  5010073
370
    18
100
AcDbLine
 10
1063.451635
 20
431.798489
 30
0.0
 11
768.751635
 21
431.798489
 31
0.0
  0
LINE
  5
10C
330
1F
100
AcDbEntity
  8
1
  6
Continuous
 62
   155
420
  5010073
370
    18
100
AcDbLine
 10
768.751635
 20
453.378489
 30
0.0
 11
768.751635
 21
453.078489
 31
0.0
  0
LINE
  5
10D
330
1F
100
AcDbEntity
  8
1
  6
Continuous
 62
   155
420
  5010073
370
    18
100
AcDbLine
 10
1063.451635
 20
453.378489
 30
0.0
 11
768.751635
 21
453.378489
 31
0.0
  0
LINE
  5
10E
330
1F
100
AcDbEntity
  8
1
  6
Continuous
 62
   155
420
  5010073
370
    13
100
AcDbLine
 10
1063.451635
 20
453.078489
 30
0.0
 11
768.751635
 21
453.078489
 31
0.0
  0
LINE
  5
10F
330
1F
100
AcDbEntity
  8
1
  6
Continuous
 62
   155
420
  5010073
370
    18
100
AcDbLine
 10
1063.451635
 20
453.378489
 30
0.0
 11
1063.451635
 21
453.078489
 31
0.0
  0
LINE
  5
110
330
1F
100
AcDbEntity
  8
1
  6
Continuous
 62
   155
420
  5010073
370
    18
100
AcDbLine
 10
768.751635
 20
432.098489
 30
0.0
 11
768.751635
 21
453.078489
 31
0.0
  0
LINE
  5
111
330
1F
100
AcDbEntity
  8
1
  6
Continuous
 62
   155
420
  5010073
370
    18
100
AcDbLine
 10
1063.451635
 20
432.098489
 30
0.0
 11
1063.451635
 21
453.078489
 31
0.0
  0
LINE
  5
112
330
1F
100
AcDbEntity
  8
1
  6
Continuous
 62
   155
420
  5010073
370
    18
100
AcDbLine
 10
1053.451635
 20
431.798489
 30
0.0
 11
1053.451635
 21
431.588494
 31
0.0
  0
LINE
  5
113
330
1F
100
AcDbEntity
  8
1
  6
Continuous
 62
   155
420
  5010073
370
    18
100
AcDbLine
 10
1063.451635
 20
431.588494
 30
0.0
 11
1063.451635
 21
431.798489
 31
0.0
  0
LINE
  5
114
330
1F
100
AcDbEntity
  8
1
  6
Continuous
 62
   155
420
  5010073
370
    18
100
AcDbLine
 10
1053.451635
 20
453.378489
 30
0.0
 11
1053.451635
 21
453.588484
 31
0.0
  0
LINE
  5
115
330
1F
100
AcDbEntity
  8
1
  6
Continuous
 62
   155
420
  5010073
370
    18
100
AcDbLine
 10
1063.451635
 20
453.378489
 30
0.0
 11
1063.451635
 21
453.588484
 31
0.0
  0
LINE
  5
116
330
1F
100
AcDbEntity
  8
1
  6
Continuous
 62
   155
420
  5010073
370
    18
100
AcDbLine
 10
778.751635
 20
431.798489
 30
0.0
 11
778.751635
 21
431.588494
 31
0.0
  0
LINE
  5
117
330
1F
100
AcDbEntity
  8
1
  6
Continuous
 62
   155
420
  5010073
370
    18
100
AcDbLine
 10
768.751635
 20
431.588494
 30
0.0
 11
768.751635
 21
431.798489
 31
0.0
  0
LINE
  5
118
330
1F
100
AcDbEntity
  8
1
  6
Continuous
 62
   155
420
  5010073
370
    18
100
AcDbLine
 10
778.751635
 20
453.378489
 30
0.0
 11
778.751635
 21
453.588484
 31
0.0
  0
LINE
  5
119
330
1F
100
AcDbEntity
  8
1
  6
Continuous
 62
   155
420
  5010073
370
    18
100
AcDbLine
 10
768.751635
 20
453.378489
 30
0.0
 11
768.751635
 21
453.588484
 31
0.0
  0
LINE
  5
11A
330
1F
100
AcDbEntity
  8
1
  6
Continuous
 62
   155
420
  5010073
370
    18
100
AcDbLine
 10
1033.451635
 20
431.798489
 30
0.0
 11
1033.451635
 21
431.588494
 31
0.0
  0
LINE
  5
11B
330
1F
100
AcDbEntity
  8
1
  6
Continuous
 62
   155
420
  5010073
370
    18
100
AcDbLine
 10
798.751635
 20
431.798489
 30
0.0
 11
798.751635
 21
431.588494
 31
0.0
  0
LINE
  5
11C
330
1F
100
AcDbEntity
  8
1
  6
Continuous
 62
   155
420
  5010073
370
    18
100
AcDbLine
 10
798.751635
 20
453.378489
 30
0.0
 11
798.751635
 21
453.588484
 31
0.0
  0
LINE
  5
11D
330
1F
100
AcDbEntity
  8
1
  6
Continuous
 62
   155
420
  5010073
370
    18
100
AcDbLine
 10
1033.451635
 20
453.378489
 30
0.0
 11
1033.451635
 21
453.588484
 31
0.0
  0
LINE
  5
11E
330
1F
100
AcDbEntity
  8
1
  6
Continuous
 62
   155
420
  5010073
370
    18
100
AcDbLine
 10
220.774107
 20
456.088489
 30
0.0
 11
167.774107
 21
456.088489
 31
0.0
  0
LINE
  5
11F
330
1F
100
AcDbEntity
  8
1
  6
Continuous
 62
   155
420
  5010073
370
    18
100
AcDbLine
 10
221.274107
 20
429.588489
 30
0.0
 11
221.274107
 21
455.588489
 31
0.0
  0
LINE
  5
120
330
1F
100
AcDbEntity
  8
1
  6
Continuous
 62
   155
420
  5010073
370
    18
100
AcDbLine
 10
167.774107
 20
429.088489
 30
0.0
 11
220.774107
 21
429.088489
 31
0.0
  0
LINE
  5
121
330
1F
100
AcDbEntity
  8
1
  6
Continuous
 62
   155
420
  5010073
370
    18
100
AcDbLine
 10
167.274107
 20
455.588489
 30
0.0
 11
167.274107
 21
429.588489
 31
0.0
  0
LINE
  5
122
330
1F
100
AcDbEntity
  8
1
  6
Continuous
 62
   155
420
  5010073
370
    18
100
AcDbLine
 10
168.616572
 20
458.088489
 30
0.0
 11
168.574107
 21
458.209817
 31
0.0
  0
LINE
  5
123
330
1F
100
AcDbEntity
  8
1
  6
Continuous
 62
   155
420
  5010073
370
    18
100
AcDbLine
 10
168.574107
 20
458.209817
 30
0.0
 11
168.574107
 21
489.588489
 31
0.0
  0
LINE
  5
124
330
1F
100
AcDbEntity
  8
1
  6
Continuous
 62
   155
420
  5010073
370
    18
100
AcDbLine
 10
168.574107
 20
489.588489
 30
0.0
 11
214.374107
 21
489.588489
 31
0.0
  0
LINE
  5
125
330
1F
100
AcDbEntity
  8
1
  6
Continuous
 62
   155
420
  5010073
370
    18
100
AcDbLine
 10
214.374107
 20
489.588489
 30
0.0
 11
214.374107
 21
458.209817
 31
0.0
  0
LINE
  5
126
330
1F
100
AcDbEntity
  8
1
  6
Continuous
 62
   155
420
  5010073
370
    18
100
AcDbLine
 10
214.374107
 20
458.209817
 30
0.0
 11
214.331642
 21
458.088489
 31
0.0
  0
LINE
  5
127
330
1F
100
AcDbEntity
  8
1
  6
Continuous
 62
   155
420
  5010073
370
    13
100
AcDbLine
 10
168.616572
 20
458.088489
 30
0.0
 11
214.331642
 21
458.088489
 31
0.0
  0
LINE
  5
128
330
1F
100
AcDbEntity
  8
1
  6
Continuous
 62
   155
420
  5010073
370
    18
100
AcDbLine
 10
167.274107
 20
458.209817
 30
0.0
 11
168.474107
 21
458.209817
 31
0.0
  0
LINE
  5
129
330
1F
100
AcDbEntity
  8
1
  6
Continuous
 62
   155
420
  5010073
370
    18
100
AcDbLine
 10
168.474107
 20
489.588489
 30
0.0
 11
167.274107
 21
489.588489
 31
0.0
  0
LINE
  5
12A
330
1F
100
AcDbEntity
  8
1
  6
Continuous
 62
   155
420
  5010073
370
    18
100
AcDbLine
 10
168.474107
 20
458.209817
 30
0.0
 11
168.474107
 21
489.588489
 31
0.0
  0
LINE
  5
12B
330
1F
100
AcDbEntity
  8
1
  6
Continuous
 62
   155
420
  5010073
370
    18
100
AcDbLine
 10
167.274107
 20
489.588489
 30
0.0
 11
167.274107
 21
458.209817
 31
0.0
  0
LINE
  5
12C
330
1F
100
AcDbEntity
  8
1
  6
Continuous
 62
   155
420
  5010073
370
    18
100
AcDbLine
 10
214.474107
 20
458.209817
 30
0.0
 11
215.674107
 21
458.209817
 31
0.0
  0
LINE
  5
12D
330
1F
100
AcDbEntity
  8
1
  6
Continuous
 62
   155
420
  5010073
370
    18
100
AcDbLine
 10
214.474107
 20
489.588489
 30
0.0
 11
214.474107
 21
458.209817
 31
0.0
  0
LINE
  5
12E
330
1F
100
AcDbEntity
  8
1
  6
Continuous
 62
   155
420
  5010073
370
    18
100
AcDbLine
 10
215.674107
 20
489.588489
 30
0.0
 11
214.474107
 21
489.588489
 31
0.0
  0
LINE
  5
12F
330
1F
100
AcDbEntity
  8
1
  6
Continuous
 62
   155
420
  5010073
370
    18
100
AcDbLine
 10
215.674107
 20
458.209817
 30
0.0
 11
215.674107
 21
489.588489
 31
0.0
  0
LINE
  5
130
330
1F
100
AcDbEntity
  8
1
  6
Continuous
 62
   155
420
  5010073
370
    18
100
AcDbLine
 10
168.474107
 20
458.088489
 30
0.0
 11
167.274107
 21
458.088489
 31
0.0
  0
LINE
  5
131
330
1F
100
AcDbEntity
  8
1
  6
Continuous
 62
   155
420
  5010073
370
    18
100
AcDbLine
 10
168.474107
 20
458.088489
 30
0.0
 11
168.474107
 21
458.209817
 31
0.0
  0
LINE
  5
132
330
1F
100
AcDbEntity
  8
1
  6
Continuous
 62
   155
420
  5010073
370
    18
100
AcDbLine
 10
167.274107
 20
458.088489
 30
0.0
 11
167.274107
 21
458.209817
 31
0.0
  0
LINE
  5
133
330
1F
100
AcDbEntity
  8
1
  6
Continuous
 62
   155
420
  5010073
370
    18
100
AcDbLine
 10
214.474107
 20
458.088489
 30
0.0
 11
215.674107
 21
458.088489
 31
0.0
  0
LINE
  5
134
330
1F
100
AcDbEntity
  8
1
  6
Continuous
 62
   155
420
  5010073
370
    18
100
AcDbLine
 10
214.474107
 20
458.209817
 30
0.0
 11
214.474107
 21
458.088489
 31
0.0
  0
LINE
  5
135
330
1F
100
AcDbEntity
  8
1
  6
Continuous
 62
   155
420
  5010073
370
    18
100
AcDbLine
 10
215.674107
 20
458.209817
 30
0.0
 11
215.674107
 21
458.088489
 31
0.0
  0
LINE
  5
136
330
1F
100
AcDbEntity
  8
1
  6
Continuous
 62
   155
420
  5010073
370
    18
100
AcDbLine
 10
647.545179
 20
429.588489
 30
0.0
 11
647.545179
 21
455.588489
 31
0.0
  0
LINE
  5
137
330
1F
100
AcDbEntity
  8
1
  6
Continuous
 62
   155
420
  5010073
370
    18
100
AcDbLine
 10
648.045179
 20
456.088489
 30
0.0
 11
701.045179
 21
456.088489
 31
0.0
  0
LINE
  5
138
330
1F
100
AcDbEntity
  8
1
  6
Continuous
 62
   155
420
  5010073
370
    18
100
AcDbLine
 10
701.545179
 20
455.588489
 30
0.0
 11
701.545179
 21
429.588489
 31
0.0
  0
LINE
  5
139
330
1F
100
AcDbEntity
  8
1
  6
Continuous
 62
   155
420
  5010073
370
    18
100
AcDbLine
 10
701.045179
 20
429.088489
 30
0.0
 11
648.045179
 21
429.088489
 31
0.0
  0
LINE
  5
13A
330
1F
100
AcDbEntity
  8
1
  6
Continuous
 62
   155
420
  5010073
370
    18
100
AcDbLine
 10
700.245179
 20
489.588489
 30
0.0
 11
700.245179
 21
458.209817
 31
0.0
  0
LINE
  5
13B
330
1F
100
AcDbEntity
  8
1
  6
Continuous
 62
   155
420
  5010073
370
    18
100
AcDbLine
 10
700.245179
 20
458.209817
 30
0.0
 11
700.202714
 21
458.088489
 31
0.0
  0
LINE
  5
13C
330
1F
100
AcDbEntity
  8
1
  6
Continuous
 62
   155
420
  5010073
370
    13
100
AcDbLine
 10
654.487643
 20
458.088489
 30
0.0
 11
700.202714
 21
458.088489
 31
0.0
  0
LINE
  5
13D
330
1F
100
AcDbEntity
  8
1
  6
Continuous
 62
   155
420
  5010073
370
    18
100
AcDbLine
 10
654.445179
 20
489.588489
 30
0.0
 11
700.245179
 21
489.588489
 31
0.0
  0
LINE
  5
13E
330
1F
100
AcDbEntity
  8
1
  6
Continuous
 62
   155
420
  5010073
370
    18
100
AcDbLine
 10
654.487643
 20
458.088489
 30
0.0
 11
654.445179
 21
458.209817
 31
0.0
  0
LINE
  5
13F
330
1F
100
AcDbEntity
  8
1
  6
Continuous
 62
   155
420
  5010073
370
    18
100
AcDbLine
 10
654.445179
 20
458.209817
 30
0.0
 11
654.445179
 21
489.588489
 31
0.0
  0
LINE
  5
140
330
1F
100
AcDbEntity
  8
1
  6
Continuous
 62
   155
420
  5010073
370
    18
100
AcDbLine
 10
701.545179
 20
489.588489
 30
0.0
 11
700.345179
 21
489.588489
 31
0.0
  0
LINE
  5
141
330
1F
100
AcDbEntity
  8
1
  6
Continuous
 62
   155
420
  5010073
370
    18
100
AcDbLine
 10
700.345179
 20
458.209817
 30
0.0
 11
701.545179
 21
458.209817
 31
0.0
  0
LINE
  5
142
330
1F
100
AcDbEntity
  8
1
  6
Continuous
 62
   155
420
  5010073
370
    18
100
AcDbLine
 10
701.545179
 20
458.209817
 30
0.0
 11
701.545179
 21
489.588489
 31
0.0
  0
LINE
  5
143
330
1F
100
AcDbEntity
  8
1
  6
Continuous
 62
   155
420
  5010073
370
    18
100
AcDbLine
 10
700.345179
 20
489.588489
 30
0.0
 11
700.345179
 21
458.209817
 31
0.0
  0
LINE
  5
144
330
1F
100
AcDbEntity
  8
1
  6
Continuous
 62
   155
420
  5010073
370
    18
100
AcDbLine
 10
653.145179
 20
489.588489
 30
0.0
 11
653.145179
 21
458.209817
 31
0.0
  0
LINE
  5
145
330
1F
100
AcDbEntity
  8
1
  6
Continuous
 62
   155
420
  5010073
370
    18
100
AcDbLine
 10
654.345179
 20
489.588489
 30
0.0
 11
653.145179
 21
489.588489
 31
0.0
  0
LINE
  5
146
330
1F
100
AcDbEntity
  8
1
  6
Continuous
 62
   155
420
  5010073
370
    18
100
AcDbLine
 10
654.345179
 20
458.209817
 30
0.0
 11
654.345179
 21
489.588489
 31
0.0
  0
LINE
  5
147
330
1F
100
AcDbEntity
  8
1
  6
Continuous
 62
   155
420
  5010073
370
    18
100
AcDbLine
 10
653.145179
 20
458.209817
 30
0.0
 11
654.345179
 21
458.209817
 31
0.0
  0
LINE
  5
148
330
1F
100
AcDbEntity
  8
1
  6
Continuous
 62
   155
420
  5010073
370
    18
100
AcDbLine
 10
700.345179
 20
458.088489
 30
0.0
 11
701.545179
 21
458.088489
 31
0.0
  0
LINE
  5
149
330
1F
100
AcDbEntity
  8
1
  6
Continuous
 62
   155
420
  5010073
370
    18
100
AcDbLine
 10
701.545179
 20
458.209817
 30
0.0
 11
701.545179
 21
458.088489
 31
0.0
  0
LINE
  5
14A
330
1F
100
AcDbEntity
  8
1
  6
Continuous
 62
   155
420
  5010073
370
    18
100
AcDbLine
 10
700.345179
 20
458.209817
 30
0.0
 11
700.345179
 21
458.088489
 31
0.0
  0
LINE
  5
14B
330
1F
100
AcDbEntity
  8
1
  6
Continuous
 62
   155
420
  5010073
370
    18
100
AcDbLine
 10
654.345179
 20
458.088489
 30
0.0
 11
653.145179
 21
458.088489
 31
0.0
  0
LINE
  5
14C
330
1F
100
AcDbEntity
  8
1
  6
Continuous
 62
   155
420
  5010073
370
    18
100
AcDbLine
 10
654.345179
 20
458.088489
 30
0.0
 11
654.345179
 21
458.209817
 31
0.0
  0
LINE
  5
14D
330
1F
100
AcDbEntity
  8
1
  6
Continuous
 62
   155
420
  5010073
370
    18
100
AcDbLine
 10
653.145179
 20
458.088489
 30
0.0
 11
653.145179
 21
458.209817
 31
0.0
  0
LINE
  5
14E
330
1F
100
AcDbEntity
  8
1
  6
Continuous
 62
   155
420
  5010073
370
    13
100
AcDbLine
 10
575.410481
 20
371.217582
 30
0.0
 11
572.910481
 21
371.217582
 31
0.0
  0
LINE
  5
14F
330
1F
100
AcDbEntity
  8
1
  6
Continuous
 62
   155
420
  5010073
370
    18
100
AcDbLine
 10
575.410481
 20
371.217582
 30
0.0
 11
575.410481
 21
318.217582
 31
0.0
  0
LINE
  5
150
330
1F
100
AcDbEntity
  8
1
  6
Continuous
 62
   155
420
  5010073
370
    13
100
AcDbLine
 10
572.910481
 20
318.217582
 30
0.0
 11
575.410481
 21
318.217582
 31
0.0
  0
LINE
  5
151
330
1F
100
AcDbEntity
  8
1
  6
Continuous
 62
   155
420
  5010073
370
    18
100
AcDbLine
 10
572.910481
 20
371.217582
 30
0.0
 11
572.910481
 21
318.217582
 31
0.0
  0
LINE
  5
152
330
1F
100
AcDbEntity
  8
1
  6
Continuous
 62
   155
420
  5010073
370
    18
100
AcDbLine
 10
575.410481
 20
317.717582
 30
0.0
 11
572.910481
 21
317.717582
 31
0.0
  0
LINE
  5
153
330
1F
100
AcDbEntity
  8
1
  6
Continuous
 62
   155
420
  5010073
370
    18
100
AcDbLine
 10
575.410481
 20
318.217582
 30
0.0
 11
575.410481
 21
317.717582
 31
0.0
  0
LINE
  5
154
330
1F
100
AcDbEntity
  8
1
  6
Continuous
 62
   155
420
  5010073
370
    18
100
AcDbLine
 10
572.910481
 20
317.717582
 30
0.0
 11
572.910481
 21
318.217582
 31
0.0
  0
LINE
  5
155
330
1F
100
AcDbEntity
  8
1
  6
Continuous
 62
   155
420
  5010073
370
    18
100
AcDbLine
 10
572.910481
 20
371.717582
 30
0.0
 11
575.410481
 21
371.717582
 31
0.0
  0
LINE
  5
156
330
1F
100
AcDbEntity
  8
1
  6
Continuous
 62
   155
420
  5010073
370
    18
100
AcDbLine
 10
575.410481
 20
371.717582
 30
0.0
 11
575.410481
 21
371.217582
 31
0.0
  0
LINE
  5
157
330
1F
100
AcDbEntity
  8
1
  6
Continuous
 62
   155
420
  5010073
370
    18
100
AcDbLine
 10
572.910481
 20
371.217582
 30
0.0
 11
572.910481
 21
371.717582
 31
0.0
  0
LINE
  5
158
330
1F
100
AcDbEntity
  8
1
  6
Continuous
 62
   155
420
  5010073
370
    18
100
AcDbLine
 10
277.910481
 20
317.717582
 30
0.0
 11
275.410481
 21
317.717582
 31
0.0
  0
LINE
  5
159
330
1F
100
AcDbEntity
  8
1
  6
Continuous
 62
   155
420
  5010073
370
    18
100
AcDbLine
 10
277.910481
 20
318.217582
 30
0.0
 11
277.910481
 21
317.717582
 31
0.0
  0
LINE
  5
15A
330
1F
100
AcDbEntity
  8
1
  6
Continuous
 62
   155
420
  5010073
370
    18
100
AcDbLine
 10
275.410481
 20
317.717582
 30
0.0
 11
275.410481
 21
318.217582
 31
0.0
  0
LINE
  5
15B
330
1F
100
AcDbEntity
  8
1
  6
Continuous
 62
   155
420
  5010073
370
    13
100
AcDbLine
 10
277.910481
 20
371.217582
 30
0.0
 11
275.410481
 21
371.217582
 31
0.0
  0
LINE
  5
15C
330
1F
100
AcDbEntity
  8
1
  6
Continuous
 62
   155
420
  5010073
370
    18
100
AcDbLine
 10
277.910481
 20
371.217582
 30
0.0
 11
277.910481
 21
318.217582
 31
0.0
  0
LINE
  5
15D
330
1F
100
AcDbEntity
  8
1
  6
Continuous
 62
   155
420
  5010073
370
    13
100
AcDbLine
 10
275.410481
 20
318.217582
 30
0.0
 11
277.910481
 21
318.217582
 31
0.0
  0
LINE
  5
15E
330
1F
100
AcDbEntity
  8
1
  6
Continuous
 62
   155
420
  5010073
370
    18
100
AcDbLine
 10
275.410481
 20
371.217582
 30
0.0
 11
275.410481
 21
318.217582
 31
0.0
  0
LINE
  5
15F
330
1F
100
AcDbEntity
  8
1
  6
Continuous
 62
   155
420
  5010073
370
    18
100
AcDbLine
 10
275.410481
 20
371.717582
 30
0.0
 11
277.910481
 21
371.717582
 31
0.0
  0
LINE
  5
160
330
1F
100
AcDbEntity
  8
1
  6
Continuous
 62
   155
420
  5010073
370
    18
100
AcDbLine
 10
277.910481
 20
371.717582
 30
0.0
 11
277.910481
 21
371.217582
 31
0.0
  0
LINE
  5
161
330
1F
100
AcDbEntity
  8
1
  6
Continuous
 62
   155
420
  5010073
370
    18
100
AcDbLine
 10
275.410481
 20
371.217582
 30
0.0
 11
275.410481
 21
371.717582
 31
0.0
  0
LINE
  5
162
330
1F
100
AcDbEntity
  8
1
  6
Continuous
 62
   155
420
  5010073
370
    18
100
AcDbLine
 10
477.410481
 20
331.420274
 30
0.0
 11
473.910481
 21
331.420274
 31
0.0
  0
LINE
  5
163
330
1F
100
AcDbEntity
  8
1
  6
Continuous
 62
   155
420
  5010073
370
    18
100
AcDbLine
 10
471.910481
 20
324.467582
 30
0.0
 11
471.910481
 21
329.420274
 31
0.0
  0
LINE
  5
164
330
1F
100
AcDbEntity
  8
1
  6
Continuous
 62
   155
420
  5010073
370
    18
100
AcDbLine
 10
466.910481
 20
319.467582
 30
0.0
 11
383.910481
 21
319.467582
 31
0.0
  0
LINE
  5
165
330
1F
100
AcDbEntity
  8
1
  6
Continuous
 62
   155
420
  5010073
370
    18
100
AcDbLine
 10
378.910481
 20
329.420274
 30
0.0
 11
378.910481
 21
324.467582
 31
0.0
  0
LINE
  5
166
330
1F
100
AcDbEntity
  8
1
  6
Continuous
 62
   155
420
  5010073
370
    18
100
AcDbLine
 10
376.910481
 20
331.420274
 30
0.0
 11
373.410481
 21
331.420274
 31
0.0
  0
LINE
  5
167
330
1F
100
AcDbEntity
  8
1
  6
Continuous
 62
   155
420
  5010073
370
    13
100
AcDbLine
 10
367.410481
 20
330.920274
 30
0.0
 11
372.910481
 21
330.920274
 31
0.0
  0
LINE
  5
168
330
1F
100
AcDbEntity
  8
1
  6
Continuous
 62
   155
420
  5010073
370
    18
100
AcDbLine
 10
366.410481
 20
321.467582
 30
0.0
 11
366.410481
 21
330.920274
 31
0.0
  0
LINE
  5
169
330
1F
100
AcDbEntity
  8
1
  6
Continuous
 62
   155
420
  5010073
370
    18
100
AcDbLine
 10
364.410481
 20
319.467582
 30
0.0
 11
362.710481
 21
319.467582
 31
0.0
  0
LINE
  5
16A
330
1F
100
AcDbEntity
  8
1
  6
Continuous
 62
   155
420
  5010073
370
    13
100
AcDbLine
 10
362.710481
 20
319.467582
 30
0.0
 11
362.710481
 21
326.967582
 31
0.0
  0
LINE
  5
16B
330
1F
100
AcDbEntity
  8
1
  6
Continuous
 62
   155
420
  5010073
370
    18
100
AcDbLine
 10
354.710481
 20
327.967582
 30
0.0
 11
362.710481
 21
327.967582
 31
0.0
  0
LINE
  5
16C
330
1F
100
AcDbEntity
  8
1
  6
Continuous
 62
   155
420
  5010073
370
    13
100
AcDbLine
 10
354.710481
 20
327.967582
 30
0.0
 11
354.710481
 21
355.967582
 31
0.0
  0
LINE
  5
16D
330
1F
100
AcDbEntity
  8
1
  6
Continuous
 62
   155
420
  5010073
370
    18
100
AcDbLine
 10
354.710481
 20
355.967582
 30
0.0
 11
362.710481
 21
355.967582
 31
0.0
  0
LINE
  5
16E
330
1F
100
AcDbEntity
  8
1
  6
Continuous
 62
   155
420
  5010073
370
    13
100
AcDbLine
 10
362.710481
 20
356.967582
 30
0.0
 11
362.710481
 21
364.467582
 31
0.0
  0
LINE
  5
16F
330
1F
100
AcDbEntity
  8
1
  6
Continuous
 62
   155
420
  5010073
370
    18
100
AcDbLine
 10
362.710481
 20
364.467582
 30
0.0
 11
488.110481
 21
364.467582
 31
0.0
  0
LINE
  5
170
330
1F
100
AcDbEntity
  8
1
  6
Continuous
 62
   155
420
  5010073
370
    13
100
AcDbLine
 10
488.110481
 20
364.467582
 30
0.0
 11
488.110481
 21
356.967582
 31
0.0
  0
LINE
  5
171
330
1F
100
AcDbEntity
  8
1
  6
Continuous
 62
   155
420
  5010073
370
    18
100
AcDbLine
 10
488.110481
 20
355.967582
 30
0.0
 11
496.110481
 21
355.967582
 31
0.0
  0
LINE
  5
172
330
1F
100
AcDbEntity
  8
1
  6
Continuous
 62
   155
420
  5010073
370
    13
100
AcDbLine
 10
496.110481
 20
355.967582
 30
0.0
 11
496.110481
 21
327.967582
 31
0.0
  0
LINE
  5
173
330
1F
100
AcDbEntity
  8
1
  6
Continuous
 62
   155
420
  5010073
370
    18
100
AcDbLine
 10
488.110481
 20
327.967582
 30
0.0
 11
496.110481
 21
327.967582
 31
0.0
  0
LINE
  5
174
330
1F
100
AcDbEntity
  8
1
  6
Continuous
 62
   155
420
  5010073
370
    13
100
AcDbLine
 10
488.110481
 20
326.967582
 30
0.0
 11
488.110481
 21
319.467582
 31
0.0
  0
LINE
  5
175
330
1F
100
AcDbEntity
  8
1
  6
Continuous
 62
   155
420
  5010073
370
    18
100
AcDbLine
 10
488.110481
 20
319.467582
 30
0.0
 11
486.410481
 21
319.467582
 31
0.0
  0
LINE
  5
176
330
1F
100
AcDbEntity
  8
1
  6
Continuous
 62
   155
420
  5010073
370
    18
100
AcDbLine
 10
484.410481
 20
330.920274
 30
0.0
 11
484.410481
 21
321.467582
 31
0.0
  0
LINE
  5
177
330
1F
100
AcDbEntity
  8
1
  6
Continuous
 62
   155
420
  5010073
370
    13
100
AcDbLine
 10
477.910481
 20
330.920274
 30
0.0
 11
483.410481
 21
330.920274
 31
0.0
  0
LINE
  5
178
330
1F
100
AcDbEntity
  8
1
  6
Continuous
 62
   155
420
  5010073
370
    18
100
AcDbLine
 10
442.210481
 20
327.467582
 30
0.0
 11
389.410481
 21
327.467582
 31
0.0
  0
LINE
  5
179
330
1F
100
AcDbEntity
  8
1
  6
Continuous
 62
   155
420
  5010073
370
    18
100
AcDbLine
 10
444.710481
 20
353.967582
 30
0.0
 11
444.710481
 21
329.967582
 31
0.0
  0
LINE
  5
17A
330
1F
100
AcDbEntity
  8
1
  6
Continuous
 62
   155
420
  5010073
370
    18
100
AcDbLine
 10
389.410481
 20
356.467582
 30
0.0
 11
442.210481
 21
356.467582
 31
0.0
  0
LINE
  5
17B
330
1F
100
AcDbEntity
  8
1
  6
Continuous
 62
   155
420
  5010073
370
    18
100
AcDbLine
 10
386.910481
 20
351.467582
 30
0.0
 11
386.910481
 21
353.967582
 31
0.0
  0
LINE
  5
17C
330
1F
100
AcDbEntity
  8
1
  6
Continuous
 62
   155
420
  5010073
370
    18
100
AcDbLine
 10
367.210481
 20
348.967582
 30
0.0
 11
384.410481
 21
348.967582
 31
0.0
  0
LINE
  5
17D
330
1F
100
AcDbEntity
  8
1
  6
Continuous
 62
   155
420
  5010073
370
    18
100
AcDbLine
 10
364.710481
 20
339.920274
 30
0.0
 11
364.710481
 21
346.467582
 31
0.0
  0
LINE
  5
17E
330
1F
100
AcDbEntity
  8
1
  6
Continuous
 62
   155
420
  5010073
370
    18
100
AcDbLine
 10
384.410481
 20
337.420274
 30
0.0
 11
367.210481
 21
337.420274
 31
0.0
  0
LINE
  5
17F
330
1F
100
AcDbEntity
  8
1
  6
Continuous
 62
   155
420
  5010073
370
    18
100
AcDbLine
 10
386.910481
 20
329.967582
 30
0.0
 11
386.910481
 21
334.920274
 31
0.0
  0
LINE
  5
180
330
1F
100
AcDbEntity
  8
1
  6
Continuous
 62
   155
420
  5010073
370
    18
100
AcDbLine
 10
357.160481
 20
339.967582
 30
0.0
 11
357.160481
 21
343.967582
 31
0.0
  0
LINE
  5
181
330
1F
100
AcDbEntity
  8
1
  6
Continuous
 62
   155
420
  5010073
370
    18
100
AcDbLine
 10
361.660481
 20
343.967582
 30
0.0
 11
361.660481
 21
339.967582
 31
0.0
  0
LINE
  5
182
330
1F
100
AcDbEntity
  8
1
  6
Continuous
 62
   155
420
  5010073
370
    18
100
AcDbLine
 10
490.410481
 20
344.217582
 30
0.0
 11
486.410481
 21
344.217582
 31
0.0
  0
LINE
  5
183
330
1F
100
AcDbEntity
  8
1
  6
Continuous
 62
   155
420
  5010073
370
    18
100
AcDbLine
 10
486.410481
 20
339.717582
 30
0.0
 11
490.410481
 21
339.717582
 31
0.0
  0
LINE
  5
184
330
1F
100
AcDbEntity
  8
1
  6
Continuous
 62
   155
420
  5010073
370
    18
100
AcDbLine
 10
490.410481
 20
364.467582
 30
0.0
 11
490.410481
 21
356.967582
 31
0.0
  0
LINE
  5
185
330
1F
100
AcDbEntity
  8
1
  6
Continuous
 62
   155
420
  5010073
370
    18
100
AcDbLine
 10
490.410481
 20
356.967582
 30
0.0
 11
488.110481
 21
356.967582
 31
0.0
  0
LINE
  5
186
330
1F
100
AcDbEntity
  8
1
  6
Continuous
 62
   155
420
  5010073
370
    18
100
AcDbLine
 10
490.410481
 20
364.467582
 30
0.0
 11
488.110481
 21
364.467582
 31
0.0
  0
LINE
  5
187
330
1F
100
AcDbEntity
  8
1
  6
Continuous
 62
   155
420
  5010073
370
    13
100
AcDbLine
 10
372.910481
 20
329.293928
 30
0.0
 11
367.410481
 21
329.293928
 31
0.0
  0
LINE
  5
188
330
1F
100
AcDbEntity
  8
1
  6
Continuous
 62
   155
420
  5010073
370
    18
100
AcDbLine
 10
367.410481
 20
330.920274
 30
0.0
 11
367.410481
 21
329.293928
 31
0.0
  0
LINE
  5
189
330
1F
100
AcDbEntity
  8
1
  6
Continuous
 62
   155
420
  5010073
370
    18
100
AcDbLine
 10
372.910481
 20
330.920274
 30
0.0
 11
372.910481
 21
329.293928
 31
0.0
  0
LINE
  5
18A
330
1F
100
AcDbEntity
  8
1
  6
Continuous
 62
   155
420
  5010073
370
    18
100
AcDbLine
 10
352.410481
 20
327.967582
 30
0.0
 11
352.410481
 21
355.967582
 31
0.0
  0
LINE
  5
18B
330
1F
100
AcDbEntity
  8
1
  6
Continuous
 62
   155
420
  5010073
370
    18
100
AcDbLine
 10
354.710481
 20
355.967582
 30
0.0
 11
352.410481
 21
355.967582
 31
0.0
  0
LINE
  5
18C
330
1F
100
AcDbEntity
  8
1
  6
Continuous
 62
   155
420
  5010073
370
    18
100
AcDbLine
 10
354.710481
 20
327.967582
 30
0.0
 11
352.410481
 21
327.967582
 31
0.0
  0
LINE
  5
18D
330
1F
100
AcDbEntity
  8
1
  6
Continuous
 62
   155
420
  5010073
370
    18
100
AcDbLine
 10
360.410481
 20
356.967582
 30
0.0
 11
360.410481
 21
364.467582
 31
0.0
  0
LINE
  5
18E
330
1F
100
AcDbEntity
  8
1
  6
Continuous
 62
   155
420
  5010073
370
    18
100
AcDbLine
 10
362.710481
 20
356.967582
 30
0.0
 11
360.410481
 21
356.967582
 31
0.0
  0
LINE
  5
18F
330
1F
100
AcDbEntity
  8
1
  6
Continuous
 62
   155
420
  5010073
370
    18
100
AcDbLine
 10
362.710481
 20
364.467582
 30
0.0
 11
360.410481
 21
364.467582
 31
0.0
  0
LINE
  5
190
330
1F
100
AcDbEntity
  8
1
  6
Continuous
 62
   155
420
  5010073
370
    18
100
AcDbLine
 10
498.410481
 20
355.967582
 30
0.0
 11
498.410481
 21
327.967582
 31
0.0
  0
LINE
  5
191
330
1F
100
AcDbEntity
  8
1
  6
Continuous
 62
   155
420
  5010073
370
    18
100
AcDbLine
 10
498.410481
 20
327.967582
 30
0.0
 11
496.110481
 21
327.967582
 31
0.0
  0
LINE
  5
192
330
1F
100
AcDbEntity
  8
1
  6
Continuous
 62
   155
420
  5010073
370
    18
100
AcDbLine
 10
498.410481
 20
355.967582
 30
0.0
 11
496.110481
 21
355.967582
 31
0.0
  0
LINE
  5
193
330
1F
100
AcDbEntity
  8
1
  6
Continuous
 62
   155
420
  5010073
370
    18
100
AcDbLine
 10
490.410481
 20
326.967582
 30
0.0
 11
490.410481
 21
319.467582
 31
0.0
  0
LINE
  5
194
330
1F
100
AcDbEntity
  8
1
  6
Continuous
 62
   155
420
  5010073
370
    18
100
AcDbLine
 10
490.410481
 20
326.967582
 30
0.0
 11
488.110481
 21
326.967582
 31
0.0
  0
LINE
  5
195
330
1F
100
AcDbEntity
  8
1
  6
Continuous
 62
   155
420
  5010073
370
    18
100
AcDbLine
 10
490.410481
 20
319.467582
 30
0.0
 11
488.110481
 21
319.467582
 31
0.0
  0
LINE
  5
196
330
1F
100
AcDbEntity
  8
1
  6
Continuous
 62
   155
420
  5010073
370
    13
100
AcDbLine
 10
483.410481
 20
329.293928
 30
0.0
 11
477.910481
 21
329.293928
 31
0.0
  0
LINE
  5
197
330
1F
100
AcDbEntity
  8
1
  6
Continuous
 62
   155
420
  5010073
370
    18
100
AcDbLine
 10
477.910481
 20
329.293928
 30
0.0
 11
477.910481
 21
330.920274
 31
0.0
  0
LINE
  5
198
330
1F
100
AcDbEntity
  8
1
  6
Continuous
 62
   155
420
  5010073
370
    18
100
AcDbLine
 10
483.410481
 20
329.293928
 30
0.0
 11
483.410481
 21
330.920274
 31
0.0
  0
LINE
  5
199
330
1F
100
AcDbEntity
  8
1
  6
Continuous
 62
   155
420
  5010073
370
    18
100
AcDbLine
 10
360.410481
 20
319.467582
 30
0.0
 11
360.410481
 21
326.967582
 31
0.0
  0
LINE
  5
19A
330
1F
100
AcDbEntity
  8
1
  6
Continuous
 62
   155
420
  5010073
370
    18
100
AcDbLine
 10
362.710481
 20
326.967582
 30
0.0
 11
360.410481
 21
326.967582
 31
0.0
  0
LINE
  5
19B
330
1F
100
AcDbEntity
  8
1
  6
Continuous
 62
   155
420
  5010073
370
    18
100
AcDbLine
 10
360.410481
 20
319.467582
 30
0.0
 11
362.710481
 21
319.467582
 31
0.0
  0
LINE
  5
19C
330
1F
100
AcDbEntity
  8
1
  6
Continuous
 62
   155
420
  5010073
370
    18
100
AcDbLine
 10
371.410481
 20
322.103621
 30
0.0
 11
368.910481
 21
322.103621
 31
0.0
  0
LINE
  5
19D
330
1F
100
AcDbEntity
  8
1
  6
Continuous
 62
   155
420
  5010073
370
    18
100
AcDbLine
 10
367.410481
 20
329.293928
 30
0.0
 11
367.410481
 21
323.164282
 31
0.0
  0
LINE
  5
19E
330
1F
100
AcDbEntity
  8
1
  6
Continuous
 62
   155
420
  5010073
370
    18
100
AcDbLine
 10
372.910481
 20
329.293928
 30
0.0
 11
372.910481
 21
323.164282
 31
0.0
  0
LINE
  5
19F
330
1F
100
AcDbEntity
  8
1
  6
Continuous
 62
   155
420
  5010073
370
    18
100
AcDbLine
 10
481.910481
 20
322.103621
 30
0.0
 11
479.410481
 21
322.103621
 31
0.0
  0
LINE
  5
1A0
330
1F
100
AcDbEntity
  8
1
  6
Continuous
 62
   155
420
  5010073
370
    18
100
AcDbLine
 10
477.910481
 20
323.164282
 30
0.0
 11
477.910481
 21
329.293928
 31
0.0
  0
LINE
  5
1A1
330
1F
100
AcDbEntity
  8
1
  6
Continuous
 62
   155
420
  5010073
370
    18
100
AcDbLine
 10
483.410481
 20
323.164282
 30
0.0
 11
483.410481
 21
329.293928
 31
0.0
  0
LINE
  5
1A2
330
1F
100
AcDbEntity
  8
1
  6
Continuous
 62
   155
420
  5010073
370
    13
100
AcDbLine
 10
350.71095
 20
318.217582
 30
0.0
 11
277.910481
 21
318.217582
 31
0.0
  0
LINE
  5
1A3
330
1F
100
AcDbEntity
  8
1
  6
Continuous
 62
   155
420
  5010073
370
    13
100
AcDbLine
 10
572.910481
 20
318.217582
 30
0.0
 11
500.110012
 21
318.217582
 31
0.0
  0
LINE
  5
1A4
330
1F
100
AcDbEntity
  8
1
  6
Continuous
 62
   155
420
  5010073
370
    18
100
AcDbLine
 10
572.910481
 20
318.217582
 30
0.0
 11
572.910481
 21
317.717582
 31
0.0
  0
LINE
  5
1A5
330
1F
100
AcDbEntity
  8
1
  6
Continuous
 62
   155
420
  5010073
370
    18
100
AcDbLine
 10
350.71095
 20
317.717582
 30
0.0
 11
277.910481
 21
317.717582
 31
0.0
  0
LINE
  5
1A6
330
1F
100
AcDbEntity
  8
1
  6
Continuous
 62
   155
420
  5010073
370
    18
100
AcDbLine
 10
572.910481
 20
317.717582
 30
0.0
 11
500.110012
 21
317.717582
 31
0.0
  0
LINE
  5
1A7
330
1F
100
AcDbEntity
  8
1
  6
Continuous
 62
   155
420
  5010073
370
    18
100
AcDbLine
 10
277.910481
 20
318.217582
 30
0.0
 11
277.910481
 21
317.717582
 31
0.0
  0
LINE
  5
1A8
330
1F
100
AcDbEntity
  8
1
  6
Continuous
 62
   155
420
  5010073
370
    13
100
AcDbLine
 10
572.910481
 20
371.217582
 30
0.0
 11
277.910481
 21
371.217582
 31
0.0
  0
LINE
  5
1A9
330
1F
100
AcDbEntity
  8
1
  6
Continuous
 62
   155
420
  5010073
370
    18
100
AcDbLine
 10
572.910481
 20
371.217582
 30
0.0
 11
572.910481
 21
318.217582
 31
0.0
  0
LINE
  5
1AA
330
1F
100
AcDbEntity
  8
1
  6
Continuous
 62
   155
420
  5010073
370
    18
100
AcDbLine
 10
277.910481
 20
371.217582
 30
0.0
 11
277.910481
 21
318.217582
 31
0.0
  0
LINE
  5
1AB
330
1F
100
AcDbEntity
  8
1
  6
Continuous
 62
   155
420
  5010073
370
    18
100
AcDbLine
 10
572.910481
 20
371.717582
 30
0.0
 11
277.910481
 21
371.717582
 31
0.0
  0
LINE
  5
1AC
330
1F
100
AcDbEntity
  8
1
  6
Continuous
 62
   155
420
  5010073
370
    18
100
AcDbLine
 10
277.910481
 20
371.717582
 30
0.0
 11
277.910481
 21
371.217582
 31
0.0
  0
LINE
  5
1AD
330
1F
100
AcDbEntity
  8
1
  6
Continuous
 62
   155
420
  5010073
370
    18
100
AcDbLine
 10
572.910481
 20
371.717582
 30
0.0
 11
572.910481
 21
371.217582
 31
0.0
  0
LINE
  5
1AE
330
1F
100
AcDbEntity
  8
1
  6
Continuous
 62
   155
420
  5010073
370
    18
100
AcDbLine
 10
367.407641
 20
322.674035
 30
0.0
 11
367.404844
 21
322.674035
 31
0.0
  0
LINE
  5
1AF
330
1F
100
AcDbEntity
  8
1
  6
Continuous
 62
   155
420
  5010073
370
    18
100
AcDbLine
 10
492.452441
 20
341.817582
 30
0.0
 11
491.319391
 21
341.817582
 31
0.0
  0
LINE
  5
1B0
330
1F
100
AcDbEntity
  8
1
  6
Continuous
 62
   155
420
  5010073
370
    18
100
AcDbLine
 10
492.452448
 20
341.817582
 30
0.0
 11
492.655475
 21
341.817582
 31
0.0
  0
LINE
  5
1B1
330
1F
100
AcDbEntity
  8
1
  6
Continuous
 62
   155
420
  5010073
370
    13
100
AcDbLine
 10
492.635347
 20
342.288171
 30
0.0
 11
489.854854
 21
342.288171
 31
0.0
  0
LINE
  5
1B2
330
1F
100
AcDbEntity
  8
1
  6
Continuous
 62
   155
420
  5010073
370
    13
100
AcDbLine
 10
492.051787
 20
343.504698
 30
0.0
 11
488.136659
 21
343.504698
 31
0.0
  0
LINE
  5
1B3
330
1F
100
AcDbEntity
  8
1
  6
Continuous
 62
   155
420
  5010073
370
    18
100
AcDbLine
 10
491.334668
 20
344.018672
 30
0.0
 11
487.685239
 21
344.018672
 31
0.0
  0
LINE
  5
1B4
330
1F
100
AcDbEntity
  8
1
  6
Continuous
 62
   155
420
  5010073
370
    13
100
AcDbLine
 10
367.410866
 20
324.952417
 30
0.0
 11
366.792666
 21
324.952417
 31
0.0
  0
LINE
  5
1B5
330
1F
100
AcDbEntity
  8
1
  6
Continuous
 62
   155
420
  5010073
370
    13
100
AcDbLine
 10
483.885682
 20
324.952417
 30
0.0
 11
483.409364
 21
324.952417
 31
0.0
  0
LINE
  5
1B6
330
1F
100
AcDbEntity
  8
1
  6
Continuous
 62
   155
420
  5010073
370
    13
100
AcDbLine
 10
367.412366
 20
324.156108
 30
0.0
 11
366.610947
 21
324.156108
 31
0.0
  0
LINE
  5
1B7
330
1F
100
AcDbEntity
  8
1
  6
Continuous
 62
   155
420
  5010073
370
    13
100
AcDbLine
 10
483.834475
 20
324.156108
 30
0.0
 11
483.408404
 21
324.156108
 31
0.0
  0
LINE
  5
1B8
330
1F
100
AcDbEntity
  8
1
  6
Continuous
 62
   155
420
  5010073
370
    18
100
AcDbLine
 10
367.410715
 20
325.567582
 30
0.0
 11
367.281653
 21
325.567582
 31
0.0
  0
LINE
  5
1B9
330
1F
100
AcDbEntity
  8
1
  6
Continuous
 62
   155
420
  5010073
370
    18
100
AcDbLine
 10
378.911106
 20
325.567582
 30
0.0
 11
378.676028
 21
325.567582
 31
0.0
  0
LINE
  5
1BA
330
1F
100
AcDbEntity
  8
1
  6
Continuous
 62
   155
420
  5010073
370
    18
100
AcDbLine
 10
483.668371
 20
325.567582
 30
0.0
 11
483.410246
 21
325.567582
 31
0.0
  0
LINE
  5
1BB
330
1F
100
AcDbEntity
  8
1
  6
Continuous
 62
   155
420
  5010073
370
    13
100
AcDbLine
 10
367.613528
 20
322.633843
 30
0.0
 11
367.470637
 21
322.633843
 31
0.0
  0
LINE
  5
1BC
330
1F
100
AcDbEntity
  8
1
  6
Continuous
 62
   155
420
  5010073
370
    13
100
AcDbLine
 10
367.410715
 20
324.001322
 30
0.0
 11
366.622512
 21
324.001322
 31
0.0
  0
LINE
  5
1BD
330
1F
100
AcDbEntity
  8
1
  6
Continuous
 62
   155
420
  5010073
370
    13
100
AcDbLine
 10
483.778996
 20
324.001322
 30
0.0
 11
483.410246
 21
324.001322
 31
0.0
  0
LINE
  5
1BE
330
1F
100
AcDbEntity
  8
1
  6
Continuous
 62
   155
420
  5010073
370
    18
100
AcDbLine
 10
483.410246
 20
323.96113
 30
0.0
 11
483.765168
 21
323.96113
 31
0.0
  0
LINE
  5
1BF
330
1F
100
AcDbEntity
  8
1
  6
Continuous
 62
   155
420
  5010073
370
    18
100
AcDbLine
 10
366.622512
 20
323.96113
 30
0.0
 11
367.410715
 21
323.96113
 31
0.0
  0
LINE
  5
1C0
330
1F
100
AcDbEntity
  8
1
  6
Continuous
 62
   155
420
  5010073
370
    18
100
AcDbLine
 10
367.581262
 20
322.674035
 30
0.0
 11
367.410715
 21
322.674035
 31
0.0
  0
LINE
  5
1C1
330
1F
100
AcDbEntity
  8
1
  6
Continuous
 62
   155
420
  5010073
370
    13
100
AcDbLine
 10
378.911106
 20
325.863167
 30
0.0
 11
378.127512
 21
325.863167
 31
0.0
  0
LINE
  5
1C2
330
1F
100
AcDbEntity
  8
1
  6
Continuous
 62
   155
420
  5010073
370
    13
100
AcDbLine
 10
483.451731
 20
325.863167
 30
0.0
 11
483.410246
 21
325.863167
 31
0.0
  0
LINE
  5
1C3
330
1F
100
AcDbEntity
  8
1
  6
Continuous
 62
   155
420
  5010073
370
    18
100
AcDbLine
 10
350.710481
 20
364.817582
 30
0.0
 11
350.710481
 21
319.017582
 31
0.0
  0
LINE
  5
1C4
330
1F
100
AcDbEntity
  8
1
  6
Continuous
 62
   155
420
  5010073
370
    18
100
AcDbLine
 10
351.910481
 20
364.817582
 30
0.0
 11
350.710481
 21
364.817582
 31
0.0
  0
LINE
  5
1C5
330
1F
100
AcDbEntity
  8
1
  6
Continuous
 62
   155
420
  5010073
370
    18
100
AcDbLine
 10
350.710481
 20
319.017582
 30
0.0
 11
351.910481
 21
319.017582
 31
0.0
  0
LINE
  5
1C6
330
1F
100
AcDbEntity
  8
1
  6
Continuous
 62
   155
420
  5010073
370
    18
100
AcDbLine
 10
351.910481
 20
364.817582
 30
0.0
 11
351.910481
 21
319.017582
 31
0.0
  0
LINE
  5
1C7
330
1F
100
AcDbEntity
  8
1
  6
Continuous
 62
   155
420
  5010073
370
    18
100
AcDbLine
 10
350.710481
 20
317.717582
 30
0.0
 11
500.110481
 21
317.717582
 31
0.0
  0
LINE
  5
1C8
330
1F
100
AcDbEntity
  8
1
  6
Continuous
 62
   155
420
  5010073
370
    18
100
AcDbLine
 10
350.710481
 20
317.717582
 30
0.0
 11
350.710481
 21
318.917582
 31
0.0
  0
LINE
  5
1C9
330
1F
100
AcDbEntity
  8
1
  6
Continuous
 62
   155
420
  5010073
370
    18
100
AcDbLine
 10
500.110481
 20
318.917582
 30
0.0
 11
500.110481
 21
317.717582
 31
0.0
  0
LINE
  5
1CA
330
1F
100
AcDbEntity
  8
1
  6
Continuous
 62
   155
420
  5010073
370
    18
100
AcDbLine
 10
350.710481
 20
318.917582
 30
0.0
 11
500.110481
 21
318.917582
 31
0.0
  0
LINE
  5
1CB
330
1F
100
AcDbEntity
  8
1
  6
Continuous
 62
   155
420
  5010073
370
    18
100
AcDbLine
 10
350.710481
 20
364.917582
 30
0.0
 11
350.710481
 21
366.117582
 31
0.0
  0
LINE
  5
1CC
330
1F
100
AcDbEntity
  8
1
  6
Continuous
 62
   155
420
  5010073
370
    18
100
AcDbLine
 10
500.110481
 20
366.117582
 30
0.0
 11
350.710481
 21
366.117582
 31
0.0
  0
LINE
  5
1CD
330
1F
100
AcDbEntity
  8
1
  6
Continuous
 62
   155
420
  5010073
370
    18
100
AcDbLine
 10
500.110481
 20
366.117582
 30
0.0
 11
500.110481
 21
364.917582
 31
0.0
  0
LINE
  5
1CE
330
1F
100
AcDbEntity
  8
1
  6
Continuous
 62
   155
420
  5010073
370
    18
100
AcDbLine
 10
500.110481
 20
364.917582
 30
0.0
 11
350.710481
 21
364.917582
 31
0.0
  0
LINE
  5
1CF
330
1F
100
AcDbEntity
  8
1
  6
Continuous
 62
   155
420
  5010073
370
    18
100
AcDbLine
 10
498.910481
 20
319.017582
 30
0.0
 11
498.910481
 21
364.817582
 31
0.0
  0
LINE
  5
1D0
330
1F
100
AcDbEntity
  8
1
  6
Continuous
 62
   155
420
  5010073
370
    18
100
AcDbLine
 10
500.110481
 20
319.017582
 30
0.0
 11
500.110481
 21
364.817582
 31
0.0
  0
LINE
  5
1D1
330
1F
100
AcDbEntity
  8
1
  6
Continuous
 62
   155
420
  5010073
370
    18
100
AcDbLine
 10
500.110481
 20
364.817582
 30
0.0
 11
498.910481
 21
364.817582
 31
0.0
  0
LINE
  5
1D2
330
1F
100
AcDbEntity
  8
1
  6
Continuous
 62
   155
420
  5010073
370
    18
100
AcDbLine
 10
498.910481
 20
319.017582
 30
0.0
 11
500.110481
 21
319.017582
 31
0.0
  0
LINE
  5
1D3
330
1F
100
AcDbEntity
  8
1
  6
Continuous
 62
   155
420
  5010073
370
    13
100
AcDbLine
 10
490.408825
 20
319.717582
 30
0.0
 11
498.110481
 21
319.717582
 31
0.0
  0
LINE
  5
1D4
330
1F
100
AcDbEntity
  8
1
  6
Continuous
 62
   155
420
  5010073
370
    13
100
AcDbLine
 10
468.4716
 20
319.717582
 30
0.0
 11
485.440234
 21
319.717582
 31
0.0
  0
LINE
  5
1D5
330
1F
100
AcDbEntity
  8
1
  6
Continuous
 62
   155
420
  5010073
370
    13
100
AcDbLine
 10
365.380728
 20
319.717582
 30
0.0
 11
382.349362
 21
319.717582
 31
0.0
  0
LINE
  5
1D6
330
1F
100
AcDbEntity
  8
1
  6
Continuous
 62
   155
420
  5010073
370
    13
100
AcDbLine
 10
352.710481
 20
319.717582
 30
0.0
 11
360.412137
 21
319.717582
 31
0.0
  0
LINE
  5
1D7
330
1F
100
AcDbEntity
  8
1
  6
Continuous
 62
   155
420
  5010073
370
    13
100
AcDbLine
 10
352.710481
 20
327.967657
 30
0.0
 11
352.710481
 21
319.717582
 31
0.0
  0
LINE
  5
1D8
330
1F
100
AcDbEntity
  8
1
  6
Continuous
 62
   155
420
  5010073
370
    13
100
AcDbLine
 10
352.710481
 20
364.117582
 30
0.0
 11
352.710481
 21
355.967407
 31
0.0
  0
LINE
  5
1D9
330
1F
100
AcDbEntity
  8
1
  6
Continuous
 62
   155
420
  5010073
370
    13
100
AcDbLine
 10
498.110481
 20
355.967407
 30
0.0
 11
498.110481
 21
364.117582
 31
0.0
  0
LINE
  5
1DA
330
1F
100
AcDbEntity
  8
1
  6
Continuous
 62
   155
420
  5010073
370
    13
100
AcDbLine
 10
498.110481
 20
319.717582
 30
0.0
 11
498.110481
 21
327.967657
 31
0.0
  0
LINE
  5
1DB
330
1F
100
AcDbEntity
  8
1
  6
Continuous
 62
   155
420
  5010073
370
    13
100
AcDbLine
 10
360.412137
 20
364.117582
 30
0.0
 11
352.710481
 21
364.117582
 31
0.0
  0
LINE
  5
1DC
330
1F
100
AcDbEntity
  8
1
  6
Continuous
 62
   155
420
  5010073
370
    13
100
AcDbLine
 10
498.110481
 20
364.117582
 30
0.0
 11
490.408825
 21
364.117582
 31
0.0
  0
LINE
  5
1DD
330
1F
100
AcDbEntity
  8
1
  6
Continuous
 62
   155
420
  5010073
370
    13
100
AcDbLine
 10
572.910481
 20
546.512115
 30
0.0
 11
575.410481
 21
546.512115
 31
0.0
  0
LINE
  5
1DE
330
1F
100
AcDbEntity
  8
1
  6
Continuous
 62
   155
420
  5010073
370
    18
100
AcDbLine
 10
572.910481
 20
599.512115
 30
0.0
 11
572.910481
 21
546.512115
 31
0.0
  0
LINE
  5
1DF
330
1F
100
AcDbEntity
  8
1
  6
Continuous
 62
   155
420
  5010073
370
    13
100
AcDbLine
 10
575.410481
 20
599.512115
 30
0.0
 11
572.910481
 21
599.512115
 31
0.0
  0
LINE
  5
1E0
330
1F
100
AcDbEntity
  8
1
  6
Continuous
 62
   155
420
  5010073
370
    18
100
AcDbLine
 10
575.410481
 20
599.512115
 30
0.0
 11
575.410481
 21
546.512115
 31
0.0
  0
LINE
  5
1E1
330
1F
100
AcDbEntity
  8
1
  6
Continuous
 62
   155
420
  5010073
370
    18
100
AcDbLine
 10
575.410481
 20
546.012115
 30
0.0
 11
572.910481
 21
546.012115
 31
0.0
  0
LINE
  5
1E2
330
1F
100
AcDbEntity
  8
1
  6
Continuous
 62
   155
420
  5010073
370
    18
100
AcDbLine
 10
572.910481
 20
546.012115
 30
0.0
 11
572.910481
 21
546.512115
 31
0.0
  0
LINE
  5
1E3
330
1F
100
AcDbEntity
  8
1
  6
Continuous
 62
   155
420
  5010073
370
    18
100
AcDbLine
 10
575.410481
 20
546.512115
 30
0.0
 11
575.410481
 21
546.012115
 31
0.0
  0
LINE
  5
1E4
330
1F
100
AcDbEntity
  8
1
  6
Continuous
 62
   155
420
  5010073
370
    18
100
AcDbLine
 10
572.910481
 20
600.012115
 30
0.0
 11
575.410481
 21
600.012115
 31
0.0
  0
LINE
  5
1E5
330
1F
100
AcDbEntity
  8
1
  6
Continuous
 62
   155
420
  5010073
370
    18
100
AcDbLine
 10
575.410481
 20
600.012115
 30
0.0
 11
575.410481
 21
599.512115
 31
0.0
  0
LINE
  5
1E6
330
1F
100
AcDbEntity
  8
1
  6
Continuous
 62
   155
420
  5010073
370
    18
100
AcDbLine
 10
572.910481
 20
599.512115
 30
0.0
 11
572.910481
 21
600.012115
 31
0.0
  0
LINE
  5
1E7
330
1F
100
AcDbEntity
  8
1
  6
Continuous
 62
   155
420
  5010073
370
    13
100
AcDbLine
 10
275.410481
 20
546.512115
 30
0.0
 11
277.910481
 21
546.512115
 31
0.0
  0
LINE
  5
1E8
330
1F
100
AcDbEntity
  8
1
  6
Continuous
 62
   155
420
  5010073
370
    18
100
AcDbLine
 10
275.410481
 20
599.512115
 30
0.0
 11
275.410481
 21
546.512115
 31
0.0
  0
LINE
  5
1E9
330
1F
100
AcDbEntity
  8
1
  6
Continuous
 62
   155
420
  5010073
370
    13
100
AcDbLine
 10
277.910481
 20
599.512115
 30
0.0
 11
275.410481
 21
599.512115
 31
0.0
  0
LINE
  5
1EA
330
1F
100
AcDbEntity
  8
1
  6
Continuous
 62
   155
420
  5010073
370
    18
100
AcDbLine
 10
277.910481
 20
599.512115
 30
0.0
 11
277.910481
 21
546.512115
 31
0.0
  0
LINE
  5
1EB
330
1F
100
AcDbEntity
  8
1
  6
Continuous
 62
   155
420
  5010073
370
    18
100
AcDbLine
 10
277.910481
 20
546.012115
 30
0.0
 11
275.410481
 21
546.012115
 31
0.0
  0
LINE
  5
1EC
330
1F
100
AcDbEntity
  8
1
  6
Continuous
 62
   155
420
  5010073
370
    18
100
AcDbLine
 10
275.410481
 20
546.012115
 30
0.0
 11
275.410481
 21
546.512115
 31
0.0
  0
LINE
  5
1ED
330
1F
100
AcDbEntity
  8
1
  6
Continuous
 62
   155
420
  5010073
370
    18
100
AcDbLine
 10
277.910481
 20
546.512115
 30
0.0
 11
277.910481
 21
546.012115
 31
0.0
  0
LINE
  5
1EE
330
1F
100
AcDbEntity
  8
1
  6
Continuous
 62
   155
420
  5010073
370
    18
100
AcDbLine
 10
275.410481
 20
600.012115
 30
0.0
 11
277.910481
 21
600.012115
 31
0.0
  0
LINE
  5
1EF
330
1F
100
AcDbEntity
  8
1
  6
Continuous
 62
   155
420
  5010073
370
    18
100
AcDbLine
 10
277.910481
 20
600.012115
 30
0.0
 11
277.910481
 21
599.512115
 31
0.0
  0
LINE
  5
1F0
330
1F
100
AcDbEntity
  8
1
  6
Continuous
 62
   155
420
  5010073
370
    18
100
AcDbLine
 10
275.410481
 20
599.512115
 30
0.0
 11
275.410481
 21
600.012115
 31
0.0
  0
LINE
  5
1F1
330
1F
100
AcDbEntity
  8
1
  6
Continuous
 62
   155
420
  5010073
370
    18
100
AcDbLine
 10
572.910481
 20
600.012115
 30
0.0
 11
277.910481
 21
600.012115
 31
0.0
  0
LINE
  5
1F2
330
1F
100
AcDbEntity
  8
1
  6
Continuous
 62
   155
420
  5010073
370
    18
100
AcDbLine
 10
572.910481
 20
600.012115
 30
0.0
 11
572.910481
 21
599.512115
 31
0.0
  0
LINE
  5
1F3
330
1F
100
AcDbEntity
  8
1
  6
Continuous
 62
   155
420
  5010073
370
    13
100
AcDbLine
 10
572.910481
 20
599.512115
 30
0.0
 11
277.910481
 21
599.512115
 31
0.0
  0
LINE
  5
1F4
330
1F
100
AcDbEntity
  8
1
  6
Continuous
 62
   155
420
  5010073
370
    18
100
AcDbLine
 10
277.910481
 20
600.012115
 30
0.0
 11
277.910481
 21
599.512115
 31
0.0
  0
LINE
  5
1F5
330
1F
100
AcDbEntity
  8
1
  6
Continuous
 62
   155
420
  5010073
370
    18
100
AcDbLine
 10
572.910481
 20
599.512115
 30
0.0
 11
572.910481
 21
546.512115
 31
0.0
  0
LINE
  5
1F6
330
1F
100
AcDbEntity
  8
1
  6
Continuous
 62
   155
420
  5010073
370
    13
100
AcDbLine
 10
572.910481
 20
546.512115
 30
0.0
 11
277.910481
 21
546.512115
 31
0.0
  0
LINE
  5
1F7
330
1F
100
AcDbEntity
  8
1
  6
Continuous
 62
   155
420
  5010073
370
    18
100
AcDbLine
 10
277.910481
 20
599.512115
 30
0.0
 11
277.910481
 21
546.512115
 31
0.0
  0
LINE
  5
1F8
330
1F
100
AcDbEntity
  8
1
  6
Continuous
 62
   155
420
  5010073
370
    18
100
AcDbLine
 10
572.910481
 20
546.512115
 30
0.0
 11
572.910481
 21
546.012115
 31
0.0
  0
LINE
  5
1F9
330
1F
100
AcDbEntity
  8
1
  6
Continuous
 62
   155
420
  5010073
370
    18
100
AcDbLine
 10
572.910481
 20
546.012115
 30
0.0
 11
277.910481
 21
546.012115
 31
0.0
  0
LINE
  5
1FA
330
1F
100
AcDbEntity
  8
1
  6
Continuous
 62
   155
420
  5010073
370
    18
100
AcDbLine
 10
277.910481
 20
546.512115
 30
0.0
 11
277.910481
 21
546.012115
 31
0.0
  0
LINE
  5
1FB
330
1F
100
AcDbEntity
  8
1
  6
Continuous
 62
   155
420
  5010073
370
    13
100
AcDbLine
 10
575.410481
 20
455.588489
 30
0.0
 11
572.910481
 21
455.588489
 31
0.0
  0
LINE
  5
1FC
330
1F
100
AcDbEntity
  8
1
  6
Continuous
 62
   155
420
  5010073
370
    18
100
AcDbLine
 10
575.410481
 20
455.588489
 30
0.0
 11
575.410481
 21
429.588489
 31
0.0
  0
LINE
  5
1FD
330
1F
100
AcDbEntity
  8
1
  6
Continuous
 62
   155
420
  5010073
370
    13
100
AcDbLine
 10
572.910481
 20
429.588489
 30
0.0
 11
575.410481
 21
429.588489
 31
0.0
  0
LINE
  5
1FE
330
1F
100
AcDbEntity
  8
1
  6
Continuous
 62
   155
420
  5010073
370
    18
100
AcDbLine
 10
572.910481
 20
455.588489
 30
0.0
 11
572.910481
 21
429.588489
 31
0.0
  0
LINE
  5
1FF
330
1F
100
AcDbEntity
  8
1
  6
Continuous
 62
   155
420
  5010073
370
    18
100
AcDbLine
 10
575.410481
 20
429.088489
 30
0.0
 11
572.910481
 21
429.088489
 31
0.0
  0
LINE
  5
200
330
1F
100
AcDbEntity
  8
1
  6
Continuous
 62
   155
420
  5010073
370
    18
100
AcDbLine
 10
572.910481
 20
429.088489
 30
0.0
 11
572.910481
 21
429.588489
 31
0.0
  0
LINE
  5
201
330
1F
100
AcDbEntity
  8
1
  6
Continuous
 62
   155
420
  5010073
370
    18
100
AcDbLine
 10
575.410481
 20
429.588489
 30
0.0
 11
575.410481
 21
429.088489
 31
0.0
  0
LINE
  5
202
330
1F
100
AcDbEntity
  8
1
  6
Continuous
 62
   155
420
  5010073
370
    18
100
AcDbLine
 10
572.910481
 20
456.088489
 30
0.0
 11
572.910481
 21
455.588489
 31
0.0
  0
LINE
  5
203
330
1F
100
AcDbEntity
  8
1
  6
Continuous
 62
   155
420
  5010073
370
    18
100
AcDbLine
 10
572.910481
 20
456.088489
 30
0.0
 11
575.410481
 21
456.088489
 31
0.0
  0
LINE
  5
204
330
1F
100
AcDbEntity
  8
1
  6
Continuous
 62
   155
420
  5010073
370
    18
100
AcDbLine
 10
575.410481
 20
456.088489
 30
0.0
 11
575.410481
 21
455.588489
 31
0.0
  0
LINE
  5
205
330
1F
100
AcDbEntity
  8
1
  6
Continuous
 62
   155
420
  5010073
370
    18
100
AcDbLine
 10
277.910481
 20
429.088489
 30
0.0
 11
275.410481
 21
429.088489
 31
0.0
  0
LINE
  5
206
330
1F
100
AcDbEntity
  8
1
  6
Continuous
 62
   155
420
  5010073
370
    18
100
AcDbLine
 10
275.410481
 20
429.088489
 30
0.0
 11
275.410481
 21
429.588489
 31
0.0
  0
LINE
  5
207
330
1F
100
AcDbEntity
  8
1
  6
Continuous
 62
   155
420
  5010073
370
    18
100
AcDbLine
 10
277.910481
 20
429.588489
 30
0.0
 11
277.910481
 21
429.088489
 31
0.0
  0
LINE
  5
208
330
1F
100
AcDbEntity
  8
1
  6
Continuous
 62
   155
420
  5010073
370
    18
100
AcDbLine
 10
275.410481
 20
456.088489
 30
0.0
 11
275.410481
 21
455.588489
 31
0.0
  0
LINE
  5
209
330
1F
100
AcDbEntity
  8
1
  6
Continuous
 62
   155
420
  5010073
370
    18
100
AcDbLine
 10
275.410481
 20
456.088489
 30
0.0
 11
277.910481
 21
456.088489
 31
0.0
  0
LINE
  5
20A
330
1F
100
AcDbEntity
  8
1
  6
Continuous
 62
   155
420
  5010073
370
    18
100
AcDbLine
 10
277.910481
 20
456.088489
 30
0.0
 11
277.910481
 21
455.588489
 31
0.0
  0
LINE
  5
20B
330
1F
100
AcDbEntity
  8
1
  6
Continuous
 62
   155
420
  5010073
370
    13
100
AcDbLine
 10
277.910481
 20
455.588489
 30
0.0
 11
275.410481
 21
455.588489
 31
0.0
  0
LINE
  5
20C
330
1F
100
AcDbEntity
  8
1
  6
Continuous
 62
   155
420
  5010073
370
    18
100
AcDbLine
 10
277.910481
 20
455.588489
 30
0.0
 11
277.910481
 21
429.588489
 31
0.0
  0
LINE
  5
20D
330
1F
100
AcDbEntity
  8
1
  6
Continuous
 62
   155
420
  5010073
370
    13
100
AcDbLine
 10
275.410481
 20
429.588489
 30
0.0
 11
277.910481
 21
429.588489
 31
0.0
  0
LINE
  5
20E
330
1F
100
AcDbEntity
  8
1
  6
Continuous
 62
   155
420
  5010073
370
    18
100
AcDbLine
 10
275.410481
 20
455.588489
 30
0.0
 11
275.410481
 21
429.588489
 31
0.0
  0
LINE
  5
20F
330
1F
100
AcDbEntity
  8
1
  6
Continuous
 62
   155
420
  5010073
370
    18
100
AcDbLine
 10
572.760481
 20
431.798489
 30
0.0
 11
572.760481
 21
432.098489
 31
0.0
  0
LINE
  5
210
330
1F
100
AcDbEntity
  8
1
  6
Continuous
 62
   155
420
  5010073
370
    18
100
AcDbLine
 10
278.060481
 20
431.798489
 30
0.0
 11
572.760481
 21
431.798489
 31
0.0
  0
LINE
  5
211
330
1F
100
AcDbEntity
  8
1
  6
Continuous
 62
   155
420
  5010073
370
    13
100
AcDbLine
 10
278.060481
 20
432.098489
 30
0.0
 11
572.760481
 21
432.098489
 31
0.0
  0
LINE
  5
212
330
1F
100
AcDbEntity
  8
1
  6
Continuous
 62
   155
420
  5010073
370
    18
100
AcDbLine
 10
278.060481
 20
431.798489
 30
0.0
 11
278.060481
 21
432.098489
 31
0.0
  0
LINE
  5
213
330
1F
100
AcDbEntity
  8
1
  6
Continuous
 62
   155
420
  5010073
370
    18
100
AcDbLine
 10
572.760481
 20
453.378489
 30
0.0
 11
572.760481
 21
453.078489
 31
0.0
  0
LINE
  5
214
330
1F
100
AcDbEntity
  8
1
  6
Continuous
 62
   155
420
  5010073
370
    13
100
AcDbLine
 10
278.060481
 20
453.078489
 30
0.0
 11
572.760481
 21
453.078489
 31
0.0
  0
LINE
  5
215
330
1F
100
AcDbEntity
  8
1
  6
Continuous
 62
   155
420
  5010073
370
    18
100
AcDbLine
 10
278.060481
 20
453.378489
 30
0.0
 11
572.760481
 21
453.378489
 31
0.0
  0
LINE
  5
216
330
1F
100
AcDbEntity
  8
1
  6
Continuous
 62
   155
420
  5010073
370
    18
100
AcDbLine
 10
278.060481
 20
453.378489
 30
0.0
 11
278.060481
 21
453.078489
 31
0.0
  0
LINE
  5
217
330
1F
100
AcDbEntity
  8
1
  6
Continuous
 62
   155
420
  5010073
370
    18
100
AcDbLine
 10
572.760481
 20
453.078489
 30
0.0
 11
572.760481
 21
432.098489
 31
0.0
  0
LINE
  5
218
330
1F
100
AcDbEntity
  8
1
  6
Continuous
 62
   155
420
  5010073
370
    18
100
AcDbLine
 10
278.060481
 20
453.078489
 30
0.0
 11
278.060481
 21
432.098489
 31
0.0
  0
LINE
  5
219
330
1F
100
AcDbEntity
  8
1
  6
Continuous
 62
   155
420
  5010073
370
    18
100
AcDbLine
 10
288.060481
 20
453.378489
 30
0.0
 11
288.060481
 21
453.588484
 31
0.0
  0
LINE
  5
21A
330
1F
100
AcDbEntity
  8
1
  6
Continuous
 62
   155
420
  5010073
370
    18
100
AcDbLine
 10
278.060481
 20
453.588484
 30
0.0
 11
278.060481
 21
453.378489
 31
0.0
  0
LINE
  5
21B
330
1F
100
AcDbEntity
  8
1
  6
Continuous
 62
   155
420
  5010073
370
    18
100
AcDbLine
 10
562.760481
 20
453.378489
 30
0.0
 11
562.760481
 21
453.588484
 31
0.0
  0
LINE
  5
21C
330
1F
100
AcDbEntity
  8
1
  6
Continuous
 62
   155
420
  5010073
370
    18
100
AcDbLine
 10
572.760481
 20
453.588484
 30
0.0
 11
572.760481
 21
453.378489
 31
0.0
  0
LINE
  5
21D
330
1F
100
AcDbEntity
  8
1
  6
Continuous
 62
   155
420
  5010073
370
    18
100
AcDbLine
 10
562.760481
 20
431.798489
 30
0.0
 11
562.760481
 21
431.588494
 31
0.0
  0
LINE
  5
21E
330
1F
100
AcDbEntity
  8
1
  6
Continuous
 62
   155
420
  5010073
370
    18
100
AcDbLine
 10
572.760481
 20
431.798489
 30
0.0
 11
572.760481
 21
431.588494
 31
0.0
  0
LINE
  5
21F
330
1F
100
AcDbEntity
  8
1
  6
Continuous
 62
   155
420
  5010073
370
    18
100
AcDbLine
 10
288.060481
 20
431.798489
 30
0.0
 11
288.060481
 21
431.588494
 31
0.0
  0
LINE
  5
220
330
1F
100
AcDbEntity
  8
1
  6
Continuous
 62
   155
420
  5010073
370
    18
100
AcDbLine
 10
278.060481
 20
431.798489
 30
0.0
 11
278.060481
 21
431.588494
 31
0.0
  0
LINE
  5
221
330
1F
100
AcDbEntity
  8
1
  6
Continuous
 62
   155
420
  5010073
370
    18
100
AcDbLine
 10
308.060481
 20
453.378489
 30
0.0
 11
308.060481
 21
453.588484
 31
0.0
  0
LINE
  5
222
330
1F
100
AcDbEntity
  8
1
  6
Continuous
 62
   155
420
  5010073
370
    18
100
AcDbLine
 10
542.760481
 20
453.378489
 30
0.0
 11
542.760481
 21
453.588484
 31
0.0
  0
LINE
  5
223
330
1F
100
AcDbEntity
  8
1
  6
Continuous
 62
   155
420
  5010073
370
    18
100
AcDbLine
 10
308.060481
 20
431.798489
 30
0.0
 11
308.060481
 21
431.588494
 31
0.0
  0
LINE
  5
224
330
1F
100
AcDbEntity
  8
1
  6
Continuous
 62
   155
420
  5010073
370
    18
100
AcDbLine
 10
542.760481
 20
431.798489
 30
0.0
 11
542.760481
 21
431.588494
 31
0.0
  0
LINE
  5
225
330
1F
100
AcDbEntity
  8
1
  6
Continuous
 62
   155
420
  5010073
370
    13
100
AcDbLine
 10
572.910481
 20
453.888489
 30
0.0
 11
277.910481
 21
453.888489
 31
0.0
  0
LINE
  5
226
330
1F
100
AcDbEntity
  8
1
  6
Continuous
 62
   155
420
  5010073
370
    18
100
AcDbLine
 10
572.910481
 20
453.588489
 30
0.0
 11
277.910481
 21
453.588489
 31
0.0
  0
LINE
  5
227
330
1F
100
AcDbEntity
  8
1
  6
Continuous
 62
   155
420
  5010073
370
    13
100
AcDbLine
 10
572.910481
 20
455.588489
 30
0.0
 11
277.910481
 21
455.588489
 31
0.0
  0
LINE
  5
228
330
1F
100
AcDbEntity
  8
1
  6
Continuous
 62
   155
420
  5010073
370
    18
100
AcDbLine
 10
572.910481
 20
455.588489
 30
0.0
 11
572.910481
 21
453.888489
 31
0.0
  0
LINE
  5
229
330
1F
100
AcDbEntity
  8
1
  6
Continuous
 62
   155
420
  5010073
370
    18
100
AcDbLine
 10
277.910481
 20
455.588489
 30
0.0
 11
277.910481
 21
453.888489
 31
0.0
  0
LINE
  5
22A
330
1F
100
AcDbEntity
  8
1
  6
Continuous
 62
   155
420
  5010073
370
    18
100
AcDbLine
 10
572.910481
 20
456.088489
 30
0.0
 11
277.910481
 21
456.088489
 31
0.0
  0
LINE
  5
22B
330
1F
100
AcDbEntity
  8
1
  6
Continuous
 62
   155
420
  5010073
370
    18
100
AcDbLine
 10
572.910481
 20
456.088489
 30
0.0
 11
572.910481
 21
455.588489
 31
0.0
  0
LINE
  5
22C
330
1F
100
AcDbEntity
  8
1
  6
Continuous
 62
   155
420
  5010073
370
    18
100
AcDbLine
 10
277.910481
 20
456.088489
 30
0.0
 11
277.910481
 21
455.588489
 31
0.0
  0
LINE
  5
22D
330
1F
100
AcDbEntity
  8
1
  6
Continuous
 62
   155
420
  5010073
370
    13
100
AcDbLine
 10
572.910481
 20
429.588489
 30
0.0
 11
277.910481
 21
429.588489
 31
0.0
  0
LINE
  5
22E
330
1F
100
AcDbEntity
  8
1
  6
Continuous
 62
   155
420
  5010073
370
    18
100
AcDbLine
 10
572.910481
 20
429.588489
 30
0.0
 11
572.910481
 21
429.088489
 31
0.0
  0
LINE
  5
22F
330
1F
100
AcDbEntity
  8
1
  6
Continuous
 62
   155
420
  5010073
370
    18
100
AcDbLine
 10
572.910481
 20
429.088489
 30
0.0
 11
277.910481
 21
429.088489
 31
0.0
  0
LINE
  5
230
330
1F
100
AcDbEntity
  8
1
  6
Continuous
 62
   155
420
  5010073
370
    18
100
AcDbLine
 10
277.910481
 20
429.588489
 30
0.0
 11
277.910481
 21
429.088489
 31
0.0
  0
LINE
  5
231
330
1F
100
AcDbEntity
  8
1
  6
Continuous
 62
   155
420
  5010073
370
    18
100
AcDbLine
 10
572.910481
 20
431.588489
 30
0.0
 11
277.910481
 21
431.588489
 31
0.0
  0
LINE
  5
232
330
1F
100
AcDbEntity
  8
1
  6
Continuous
 62
   155
420
  5010073
370
    13
100
AcDbLine
 10
572.910481
 20
431.288489
 30
0.0
 11
277.910481
 21
431.288489
 31
0.0
  0
LINE
  5
233
330
1F
100
AcDbEntity
  8
1
  6
Continuous
 62
   155
420
  5010073
370
    18
100
AcDbLine
 10
572.910481
 20
431.288489
 30
0.0
 11
572.910481
 21
429.588489
 31
0.0
  0
LINE
  5
234
330
1F
100
AcDbEntity
  8
1
  6
Continuous
 62
   155
420
  5010073
370
    18
100
AcDbLine
 10
277.910481
 20
431.288489
 30
0.0
 11
277.910481
 21
429.588489
 31
0.0
  0
LINE
  5
235
330
1F
100
AcDbEntity
  8
1
  6
Continuous
 62
   155
420
  5010073
370
    13
100
AcDbLine
 10
572.910481
 20
452.292586
 30
0.0
 11
572.75946
 21
452.292586
 31
0.0
  0
LINE
  5
236
330
1F
100
AcDbEntity
  8
1
  6
Continuous
 62
   155
420
  5010073
370
    13
100
AcDbLine
 10
278.062497
 20
452.292586
 30
0.0
 11
277.910481
 21
452.292586
 31
0.0
  0
LINE
  5
237
330
1F
100
AcDbEntity
  8
1
  6
Continuous
 62
   155
420
  5010073
370
    13
100
AcDbLine
 10
572.910481
 20
432.884392
 30
0.0
 11
572.75946
 21
432.884392
 31
0.0
  0
LINE
  5
238
330
1F
100
AcDbEntity
  8
1
  6
Continuous
 62
   155
420
  5010073
370
    13
100
AcDbLine
 10
278.062497
 20
432.884392
 30
0.0
 11
277.910481
 21
432.884392
 31
0.0
  0
LINE
  5
239
330
1F
100
AcDbEntity
  8
1
  6
Continuous
 62
   155
420
  5010073
370
    18
100
AcDbLine
 10
277.910481
 20
452.13612
 30
0.0
 11
278.062299
 21
452.13612
 31
0.0
  0
LINE
  5
23A
330
1F
100
AcDbEntity
  8
1
  6
Continuous
 62
   155
420
  5010073
370
    18
100
AcDbLine
 10
572.910481
 20
433.040858
 30
0.0
 11
572.760103
 21
433.040858
 31
0.0
  0
LINE
  5
23B
330
1F
100
AcDbEntity
  8
1
  6
Continuous
 62
   155
420
  5010073
370
    18
100
AcDbLine
 10
572.760102
 20
452.13612
 30
0.0
 11
572.910481
 21
452.13612
 31
0.0
  0
LINE
  5
23C
330
1F
100
AcDbEntity
  8
1
  6
Continuous
 62
   155
420
  5010073
370
    18
100
AcDbLine
 10
278.062299
 20
433.040858
 30
0.0
 11
277.910481
 21
433.040858
 31
0.0
  0
LINE
  5
23D
330
1F
100
AcDbEntity
  8
1
  6
Continuous
 62
   155
420
  5010073
370
    18
100
AcDbLine
 10
572.760473
 20
433.088489
 30
0.0
 11
572.910481
 21
433.088489
 31
0.0
  0
LINE
  5
23E
330
1F
100
AcDbEntity
  8
1
  6
Continuous
 62
   155
420
  5010073
370
    18
100
AcDbLine
 10
277.910481
 20
433.088489
 30
0.0
 11
278.060489
 21
433.088489
 31
0.0
  0
LINE
  5
23F
330
1F
100
AcDbEntity
  8
1
  6
Continuous
 62
   155
420
  5010073
370
    18
100
AcDbLine
 10
278.060489
 20
452.088489
 30
0.0
 11
277.910481
 21
452.088489
 31
0.0
  0
LINE
  5
240
330
1F
100
AcDbEntity
  8
1
  6
Continuous
 62
   155
420
  5010073
370
    18
100
AcDbLine
 10
572.910481
 20
452.088489
 30
0.0
 11
572.760473
 21
452.088489
 31
0.0
  0
LINE
  5
241
330
1F
100
AcDbEntity
  8
1
  6
Continuous
 62
   155
420
  5010073
370
    18
100
AcDbLine
 10
572.910481
 20
436.388489
 30
0.0
 11
572.760064
 21
436.388489
 31
0.0
  0
LINE
  5
242
330
1F
100
AcDbEntity
  8
1
  6
Continuous
 62
   155
420
  5010073
370
    13
100
AcDbLine
 10
572.910481
 20
436.088489
 30
0.0
 11
572.760219
 21
436.088489
 31
0.0
  0
LINE
  5
243
330
1F
100
AcDbEntity
  8
1
  6
Continuous
 62
   155
420
  5010073
370
    13
100
AcDbLine
 10
278.061331
 20
436.088489
 30
0.0
 11
277.910481
 21
436.088489
 31
0.0
  0
LINE
  5
244
330
1F
100
AcDbEntity
  8
1
  6
Continuous
 62
   155
420
  5010073
370
    18
100
AcDbLine
 10
278.061377
 20
436.388489
 30
0.0
 11
277.910481
 21
436.388489
 31
0.0
  0
LINE
  5
245
330
1F
100
AcDbEntity
  8
1
  6
Continuous
 62
   155
420
  5010073
370
    13
100
AcDbLine
 10
572.910481
 20
449.088489
 30
0.0
 11
572.760219
 21
449.088489
 31
0.0
  0
LINE
  5
246
330
1F
100
AcDbEntity
  8
1
  6
Continuous
 62
   155
420
  5010073
370
    18
100
AcDbLine
 10
572.910481
 20
448.788489
 30
0.0
 11
572.760064
 21
448.788489
 31
0.0
  0
LINE
  5
247
330
1F
100
AcDbEntity
  8
1
  6
Continuous
 62
   155
420
  5010073
370
    18
100
AcDbLine
 10
278.061377
 20
448.788489
 30
0.0
 11
277.910481
 21
448.788489
 31
0.0
  0
LINE
  5
248
330
1F
100
AcDbEntity
  8
1
  6
Continuous
 62
   155
420
  5010073
370
    13
100
AcDbLine
 10
278.061331
 20
449.088489
 30
0.0
 11
277.910481
 21
449.088489
 31
0.0
  0
LINE
  5
249
330
1F
100
AcDbEntity
  8
1
  6
Continuous
 62
   155
420
  5010073
370
    18
100
AcDbLine
 10
350.710481
 20
458.209817
 30
0.0
 11
350.710481
 21
489.588489
 31
0.0
  0
LINE
  5
24A
330
1F
100
AcDbEntity
  8
1
  6
Continuous
 62
   155
420
  5010073
370
    18
100
AcDbLine
 10
350.710481
 20
489.588489
 30
0.0
 11
500.110481
 21
489.588489
 31
0.0
  0
LINE
  5
24B
330
1F
100
AcDbEntity
  8
1
  6
Continuous
 62
   155
420
  5010073
370
    18
100
AcDbLine
 10
500.110481
 20
489.588489
 30
0.0
 11
500.110481
 21
458.209817
 31
0.0
  0
LINE
  5
24C
330
1F
100
AcDbEntity
  8
1
  6
Continuous
 62
   155
420
  5010073
370
    18
100
AcDbLine
 10
498.810481
 20
458.209817
 30
0.0
 11
500.110481
 21
458.209817
 31
0.0
  0
LINE
  5
24D
330
1F
100
AcDbEntity
  8
1
  6
Continuous
 62
   155
420
  5010073
370
    18
100
AcDbLine
 10
498.768016
 20
458.088489
 30
0.0
 11
498.810481
 21
458.209817
 31
0.0
  0
LINE
  5
24E
330
1F
100
AcDbEntity
  8
1
  6
Continuous
 62
   155
420
  5010073
370
    13
100
AcDbLine
 10
352.052945
 20
458.088489
 30
0.0
 11
498.768016
 21
458.088489
 31
0.0
  0
LINE
  5
24F
330
1F
100
AcDbEntity
  8
1
  6
Continuous
 62
   155
420
  5010073
370
    18
100
AcDbLine
 10
352.010481
 20
458.209817
 30
0.0
 11
352.052945
 21
458.088489
 31
0.0
  0
LINE
  5
250
330
1F
100
AcDbEntity
  8
1
  6
Continuous
 62
   155
420
  5010073
370
    18
100
AcDbLine
 10
350.710481
 20
458.209817
 30
0.0
 11
352.010481
 21
458.209817
 31
0.0
  0
LINE
  5
251
330
1F
100
AcDbEntity
  8
1
  6
Continuous
 62
   155
420
  5010073
370
    18
100
AcDbLine
 10
351.910481
 20
458.088489
 30
0.0
 11
350.710481
 21
458.088489
 31
0.0
  0
LINE
  5
252
330
1F
100
AcDbEntity
  8
1
  6
Continuous
 62
   155
420
  5010073
370
    18
100
AcDbLine
 10
351.910481
 20
458.209817
 30
0.0
 11
351.910481
 21
458.088489
 31
0.0
  0
LINE
  5
253
330
1F
100
AcDbEntity
  8
1
  6
Continuous
 62
   155
420
  5010073
370
    18
100
AcDbLine
 10
350.710481
 20
458.209817
 30
0.0
 11
350.710481
 21
458.088489
 31
0.0
  0
LINE
  5
254
330
1F
100
AcDbEntity
  8
1
  6
Continuous
 62
   155
420
  5010073
370
    18
100
AcDbLine
 10
498.910481
 20
458.088489
 30
0.0
 11
500.110481
 21
458.088489
 31
0.0
  0
LINE
  5
255
330
1F
100
AcDbEntity
  8
1
  6
Continuous
 62
   155
420
  5010073
370
    18
100
AcDbLine
 10
500.110481
 20
458.088489
 30
0.0
 11
500.110481
 21
458.209817
 31
0.0
  0
LINE
  5
256
330
1F
100
AcDbEntity
  8
1
  6
Continuous
 62
   155
420
  5010073
370
    18
100
AcDbLine
 10
498.910481
 20
458.088489
 30
0.0
 11
498.910481
 21
458.209817
 31
0.0
  0
ENDSEC
  0
SECTION
  2
OBJECTS
  0
DICTIONARY
  5
C
330
0
100
AcDbDictionary
281
     1
  3
ACAD_DETAILVIEWSTYLE
350
292
  3
ACAD_GROUP
350
D
  3
ACAD_LAYOUT
350
1A
  3
ACAD_MATERIAL
350
43
  3
ACAD_MLEADERSTYLE
350
5B
  3
ACAD_MLINESTYLE
350
17
  3
ACAD_PLOTSETTINGS
350
19
  3
ACAD_PLOTSTYLENAME
350
E
  3
ACAD_SCALELIST
350
47
  3
ACAD_SECTIONVIEWSTYLE
350
293
  3
ACAD_TABLESTYLE
350
59
  3
ACAD_VISUALSTYLE
350
2A
  3
AcDbVariableDictionary
350
257
  3
ACDB_RECOMPOSE_DATA
350
28F
  0
SUN
  5
5D
330
29
100
AcDbSun
 90
        1
290
     0
 63
     7
421
 16777215
 40
1.0
291
     1
 91
  2455826
 92
 54000000
292
     0
 70
     2
 71
   256
280
     1
  0
DICTIONARY
  5
292
102
{ACAD_REACTORS
330
C
102
}
330
C
100
AcDbDictionary
281
     1
  0
DICTIONARY
  5
D
102
{ACAD_REACTORS
330
C
102
}
330
C
100
AcDbDictionary
281
     1
  0
DICTIONARY
  5
1A
102
{ACAD_REACTORS
330
C
102
}
330
C
100
AcDbDictionary
281
     1
  3
Layout1
350
1E
  3
Layout2
350
26
  3
Model
350
22
  0
DICTIONARY
  5
43
102
{ACAD_REACTORS
330
C
102
}
330
C
100
AcDbDictionary
281
     1
  3
ByBlock
350
45
  3
ByLayer
350
44
  3
Global
350
46
  0
DICTIONARY
  5
5B
102
{ACAD_REACTORS
330
C
102
}
330
C
100
AcDbDictionary
281
     1
  3
Standard
350
5C
  0
DICTIONARY
  5
17
102
{ACAD_REACTORS
330
C
102
}
330
C
100
AcDbDictionary
281
     1
  3
Standard
350
18
  0
DICTIONARY
  5
19
102
{ACAD_REACTORS
330
C
102
}
330
C
100
AcDbDictionary
281
     1
  0
ACDBDICTIONARYWDFLT
  5
E
102
{ACAD_REACTORS
330
C
102
}
330
C
100
AcDbDictionary
281
     1
  3
Normal
350
F
100
AcDbDictionaryWithDefault
340
F
  0
DICTIONARY
  5
47
102
{ACAD_REACTORS
330
C
102
}
330
C
100
AcDbDictionary
281
     1
  3
A0
350
48
  3
A1
350
49
  3
A2
350
4A
  3
A3
350
4B
  3
A4
350
4C
  3
A5
350
4D
  3
A6
350
4E
  3
A7
350
4F
  3
A8
350
50
  3
A9
350
51
  3
B1
350
52
  3
B2
350
53
  3
B3
350
54
  3
B4
350
55
  3
B5
350
56
  3
B6
350
57
  3
B7
350
58
  0
DICTIONARY
  5
293
102
{ACAD_REACTORS
330
C
102
}
330
C
100
AcDbDictionary
281
     1
  0
DICTIONARY
  5
59
102
{ACAD_REACTORS
330
C
102
}
330
C
100
AcDbDictionary
281
     1
  3
Standard
350
5A
  0
DICTIONARY
  5
2A
102
{ACAD_REACTORS
330
C
102
}
330
C
100
AcDbDictionary
281
     1
  3
2dWireframe
350
2F
  3
Basic
350
32
  3
Brighten
350
36
  3
ColorChange
350
3A
  3
Conceptual
350
34
  3
Dim
350
35
  3
EdgeColorOff
350
3D
  3
Facepattern
350
39
  3
Flat
350
2B
  3
FlatWithEdges
350
2C
  3
Gouraud
350
2D
  3
GouraudWithEdges
350
2E
  3
Hidden
350
31
  3
JitterOff
350
3B
  3
Linepattern
350
38
  3
OverhangOff
350
3C
  3
Realistic
350
33
  3
Shaded
350
42
  3
Shaded with edges
350
41
  3
Shades of Gray
350
3E
  3
Sketchy
350
3F
  3
Thicken
350
37
  3
Wireframe
350
30
  3
X-Ray
350
40
  0
DICTIONARY
  5
257
102
{ACAD_REACTORS
330
C
102
}
330
C
100
AcDbDictionary
281
     1
  3
CANNOSCALE
350
258
  3
CMLEADERSTYLE
350
291
  3
CTABLESTYLE
350
290
  3
XCLIPFRAME
350
259
  0
XRECORD
  5
28F
102
{ACAD_REACTORS
330
C
102
}
330
C
100
AcDbXrecord
280
     1
 90
        1
330
5A
  0
LAYOUT
  5
1E
102
{ACAD_REACTORS
330
1A
102
}
330
1A
100
AcDbPlotSettings
  1

  2
none_device
  4

  6

 40
0.0
 41
0.0
 42
0.0
 43
0.0
 44
0.0
 45
0.0
 46
0.0
 47
0.0
 48
0.0
 49
0.0
140
0.0
141
0.0
142
1.0
143
1.0
 70
   688
 72
     0
 73
     0
 74
     5
  7

 75
    16
 76
     0
 77
     2
 78
   300
147
1.0
148
0.0
149
0.0
100
AcDbLayout
  1
Layout1
 70
     1
 71
     1
 10
0.0
 20
0.0
 11
12.0
 21
9.0
 12
0.0
 22
0.0
 32
0.0
 14
1.000000000000000E+20
 24
1.000000000000000E+20
 34
1.000000000000000E+20
 15
-1.000000000000000E+20
 25
-1.000000000000000E+20
 35
-1.000000000000000E+20
146
0.0
 13
0.0
 23
0.0
 33
0.0
 16
1.0
 26
0.0
 36
0.0
 17
0.0
 27
1.0
 37
0.0
 76
     0
330
1B
  0
LAYOUT
  5
26
102
{ACAD_REACTORS
330
1A
102
}
330
1A
100
AcDbPlotSettings
  1

  2
none_device
  4

  6

 40
0.0
 41
0.0
 42
0.0
 43
0.0
 44
0.0
 45
0.0
 46
0.0
 47
0.0
 48
0.0
 49
0.0
140
0.0
141
0.0
142
1.0
143
1.0
 70
   688
 72
     0
 73
     0
 74
     5
  7

 75
    16
 76
     0
 77
     2
 78
   300
147
1.0
148
0.0
149
0.0
100
AcDbLayout
  1
Layout2
 70
     1
 71
     2
 10
0.0
 20
0.0
 11
0.0
 21
0.0
 12
0.0
 22
0.0
 32
0.0
 14
0.0
 24
0.0
 34
0.0
 15
0.0
 25
0.0
 35
0.0
146
0.0
 13
0.0
 23
0.0
 33
0.0
 16
1.0
 26
0.0
 36
0.0
 17
0.0
 27
1.0
 37
0.0
 76
     0
330
23
  0
LAYOUT
  5
22
102
{ACAD_REACTORS
330
1A
102
}
330
1A
100
AcDbPlotSettings
  1

  2
none_device
  4
Letter_(8.50_x_11.00_Inches)
  6

 40
6.35
 41
6.35
 42
6.35000508
 43
6.35000508
 44
215.9
 45
279.4
 46
0.0
 47
0.0
 48
0.0
 49
0.0
140
0.0
141
0.0
142
1.0
143
1.0
 70
  1712
 72
     0
 73
     0
 74
     0
  7

 75
     0
 76
     0
 77
     2
 78
   300
147
1.0
148
0.0
149
0.0
100
AcDbLayout
  1
Model
 70
     1
 71
     0
 10
0.0
 20
0.0
 11
12.0
 21
9.0
 12
0.0
 22
0.0
 32
0.0
 14
167.274107
 24
317.717582
 34
-0.0000000000000018
 15
1066.101635
 25
600.012115
 35
0.0000000000000057
146
0.0
 13
0.0
 23
0.0
 33
0.0
 16
1.0
 26
0.0
 36
0.0
 17
0.0
 27
1.0
 37
0.0
 76
     0
330
1F
331
29
  0
MATERIAL
  5
45
102
{ACAD_REACTORS
330
43
102
}
330
43
100
AcDbMaterial
  1
ByBlock
 72
     1
 94
      127
  0
MATERIAL
  5
44
102
{ACAD_REACTORS
330
43
102
}
330
43
100
AcDbMaterial
  1
ByLayer
 72
     1
 94
      127
  0
MATERIAL
  5
46
102
{ACAD_REACTORS
330
43
102
}
330
43
100
AcDbMaterial
  1
Global
 72
     1
 94
      127
  0
MLEADERSTYLE
  5
5C
102
{ACAD_REACTORS
330
5B
102
}
102
{ACAD_XDICTIONARY
360
28D
102
}
330
5B
100
AcDbMLeaderStyle
170
     2
171
     1
172
     0
 90
        2
 40
0.0
 41
0.0
173
     1
 91
-1056964608
340
14
 92
       -2
290
     1
 42
0.09
291
     1
 43
0.36
  3
Standard
341
0
 44
0.18
300

342
11
174
     1
178
     6
175
     1
176
     0
 93
-1056964608
 45
0.18
292
     0
297
     0
 46
0.18
343
0
 94
-1056964608
 47
1.0
 49
1.0
140
1.0
293
     1
141
0.0
294
     1
177
     0
142
1.0
295
     0
296
     0
143
0.125
1001
ACAD_MLEADERVER
1070
     2
  0
MLINESTYLE
  5
18
102
{ACAD_REACTORS
330
17
102
}
330
17
100
AcDbMlineStyle
  2
Standard
 70
     0
  3

 62
   256
 51
90.0
 52
90.0
 71
     2
 49
0.5
 62
   256
  6
BYLAYER
 49
-0.5
 62
   256
  6
BYLAYER
  0
ACDBPLACEHOLDER
  5
F
102
{ACAD_REACTORS
330
E
102
}
330
E
  0
SCALE
  5
48
102
{ACAD_REACTORS
330
47
102
}
330
47
100
AcDbScale
 70
     0
300
1:1
140
1.0
141
1.0
290
     1
  0
SCALE
  5
49
102
{ACAD_REACTORS
330
47
102
}
330
47
100
AcDbScale
 70
     0
300
1/128" = 1'-0"
140
0.0078125
141
12.0
290
     0
  0
SCALE
  5
4A
102
{ACAD_REACTORS
330
47
102
}
330
47
100
AcDbScale
 70
     0
300
1/64" = 1'-0"
140
0.015625
141
12.0
290
     0
  0
SCALE
  5
4B
102
{ACAD_REACTORS
330
47
102
}
330
47
100
AcDbScale
 70
     0
300
1/32" = 1'-0"
140
0.03125
141
12.0
290
     0
  0
SCALE
  5
4C
102
{ACAD_REACTORS
330
47
102
}
330
47
100
AcDbScale
 70
     0
300
1/16" = 1'-0"
140
0.0625
141
12.0
290
     0
  0
SCALE
  5
4D
102
{ACAD_REACTORS
330
47
102
}
330
47
100
AcDbScale
 70
     0
300
3/32" = 1'-0"
140
0.09375
141
12.0
290
     0
  0
SCALE
  5
4E
102
{ACAD_REACTORS
330
47
102
}
330
47
100
AcDbScale
 70
     0
300
1/8" = 1'-0"
140
0.125
141
12.0
290
     0
  0
SCALE
  5
4F
102
{ACAD_REACTORS
330
47
102
}
330
47
100
AcDbScale
 70
     0
300
3/16" = 1'-0"
140
0.1875
141
12.0
290
     0
  0
SCALE
  5
50
102
{ACAD_REACTORS
330
47
102
}
330
47
100
AcDbScale
 70
     0
300
1/4" = 1'-0"
140
0.25
141
12.0
290
     0
  0
SCALE
  5
51
102
{ACAD_REACTORS
330
47
102
}
330
47
100
AcDbScale
 70
     0
300
3/8" = 1'-0"
140
0.375
141
12.0
290
     0
  0
SCALE
  5
52
102
{ACAD_REACTORS
330
47
102
}
330
47
100
AcDbScale
 70
     0
300
1/2" = 1'-0"
140
0.5
141
12.0
290
     0
  0
SCALE
  5
53
102
{ACAD_REACTORS
330
47
102
}
330
47
100
AcDbScale
 70
     0
300
3/4" = 1'-0"
140
0.75
141
12.0
290
     0
  0
SCALE
  5
54
102
{ACAD_REACTORS
330
47
102
}
330
47
100
AcDbScale
 70
     0
300
1" = 1'-0"
140
1.0
141
12.0
290
     0
  0
SCALE
  5
55
102
{ACAD_REACTORS
330
47
102
}
330
47
100
AcDbScale
 70
     0
300
1-1/2" = 1'-0"
140
1.5
141
12.0
290
     0
  0
SCALE
  5
56
102
{ACAD_REACTORS
330
47
102
}
330
47
100
AcDbScale
 70
     0
300
3" = 1'-0"
140
3.0
141
12.0
290
     0
  0
SCALE
  5
57
102
{ACAD_REACTORS
330
47
102
}
330
47
100
AcDbScale
 70
     0
300
6" = 1'-0"
140
6.0
141
12.0
290
     0
  0
SCALE
  5
58
102
{ACAD_REACTORS
330
47
102
}
330
47
100
AcDbScale
 70
     0
300
1'-0" = 1'-0"
140
12.0
141
12.0
290
     0
  0
TABLESTYLE
  5
5A
102
{ACAD_REACTORS
330
59
102
}
102
{ACAD_XDICTIONARY
360
28A
102
}
330
59
100
AcDbTableStyle
  3
Standard
 70
     0
 71
     0
 40
0.06
 41
0.06
280
     0
281
     0
  7
Standard
140
0.18
170
     2
 62
     0
 63
   257
283
     0
 90
        4
 91
        0
  1

274
    -2
284
     1
 64
     0
275
    -2
285
     1
 65
     0
276
    -2
286
     1
 66
     0
277
    -2
287
     1
 67
     0
278
    -2
288
     1
 68
     0
279
    -2
289
     1
 69
     0
  7
Standard
140
0.25
170
     5
 62
     0
 63
   257
283
     0
 90
        4
 91
        0
  1

274
    -2
284
     1
 64
     0
275
    -2
285
     1
 65
     0
276
    -2
286
     1
 66
     0
277
    -2
287
     1
 67
     0
278
    -2
288
     1
 68
     0
279
    -2
289
     1
 69
     0
  7
Standard
140
0.18
170
     5
 62
     0
 63
   257
283
     0
 90
        4
 91
        0
  1

274
    -2
284
     1
 64
     0
275
    -2
285
     1
 65
     0
276
    -2
286
     1
 66
     0
277
    -2
287
     1
 67
     0
278
    -2
288
     1
 68
     0
279
    -2
289
     1
 69
     0
  0
VISUALSTYLE
  5
2F
102
{ACAD_REACTORS
330
2A
102
}
102
{ACAD_XDICTIONARY
360
262
102
}
330
2A
100
AcDbVisualStyle
  2
2dWireframe
 70
     4
 71
     0
 72
     2
 73
     0
 90
        0
 40
0.6
 41
30.0
 62
     5
 63
     7
421
 16777215
 74
     1
 91
        4
 64
     7
 65
   257
 75
     1
175
     1
 42
1.0
 92
        0
 66
   257
 43
1.0
 76
     1
 77
     6
 78
     2
 67
     7
 79
     5
170
     0
171
     0
290
     0
174
     0
 93
        1
 44
0.0
173
     0
291
     0
 45
0.0
  0
VISUALSTYLE
  5
32
102
{ACAD_REACTORS
330
2A
102
}
102
{ACAD_XDICTIONARY
360
268
102
}
330
2A
100
AcDbVisualStyle
  2
Basic
 70
     7
 71
     1
 72
     0
 73
     1
 90
        0
 40
0.6
 41
30.0
 62
     5
 63
     7
421
 16777215
 74
     0
 91
        4
 64
     7
 65
   257
 75
     1
175
     1
 42
1.0
 92
        8
 66
     7
 43
1.0
 76
     1
 77
     6
 78
     2
 67
     7
 79
     5
170
     0
171
     0
290
     0
174
     0
 93
        1
 44
0.0
173
     0
291
     1
 45
0.0
  0
VISUALSTYLE
  5
36
102
{ACAD_REACTORS
330
2A
102
}
102
{ACAD_XDICTIONARY
360
270
102
}
330
2A
100
AcDbVisualStyle
  2
Brighten
 70
    12
 71
     2
 72
     2
 73
     0
 90
        0
 40
0.6
 41
30.0
 62
     5
 63
     7
421
 16777215
 74
     1
 91
        4
 64
     7
 65
   257
 75
     1
175
     1
 42
1.0
 92
        8
 66
     7
 43
1.0
 76
     1
 77
     6
 78
     2
 67
     7
 79
     5
170
     0
171
     0
290
     0
174
     0
 93
        1
 44
50.0
173
     0
291
     1
 45
0.0
  0
VISUALSTYLE
  5
3A
102
{ACAD_REACTORS
330
2A
102
}
102
{ACAD_XDICTIONARY
360
278
102
}
330
2A
100
AcDbVisualStyle
  2
ColorChange
 70
    16
 71
     2
 72
     2
 73
     3
 90
        0
 40
0.6
 41
30.0
 62
     5
 63
     8
421
  8421504
 74
     1
 91
        4
 64
     7
 65
   257
 75
     1
175
     1
 42
1.0
 92
        8
 66
     8
424
  8421504
 43
1.0
 76
     1
 77
     6
 78
     2
 67
     7
 79
     5
170
     0
171
     0
290
     0
174
     0
 93
        1
 44
0.0
173
     0
291
     1
 45
0.0
  0
VISUALSTYLE
  5
34
102
{ACAD_REACTORS
330
2A
102
}
102
{ACAD_XDICTIONARY
360
26C
102
}
330
2A
100
AcDbVisualStyle
  2
Conceptual
 70
     9
 71
     3
 72
     2
 73
     0
 90
        0
 40
0.6
 41
30.0
 62
     5
 63
     7
421
 16777215
 74
     2
 91
        2
 64
     7
 65
   257
 75
     1
175
     1
 42
179.0
 92
        8
 66
     7
 43
1.0
 76
     1
 77
     6
 78
     2
 67
     7
 79
     3
170
     0
171
     0
290
     0
174
     0
 93
        1
 44
0.0
173
     0
291
     0
 45
0.0
  0
VISUALSTYLE
  5
35
102
{ACAD_REACTORS
330
2A
102
}
102
{ACAD_XDICTIONARY
360
26E
102
}
330
2A
100
AcDbVisualStyle
  2
Dim
 70
    11
 71
     2
 72
     2
 73
     0
 90
        0
 40
0.6
 41
30.0
 62
     5
 63
     7
421
 16777215
 74
     1
 91
        4
 64
     7
 65
   257
 75
     1
175
     1
 42
1.0
 92
        8
 66
     7
 43
1.0
 76
     1
 77
     6
 78
     2
 67
     7
 79
     5
170
     0
171
     0
290
     0
174
     0
 93
        1
 44
-50.0
173
     0
291
     1
 45
0.0
  0
VISUALSTYLE
  5
3D
102
{ACAD_REACTORS
330
2A
102
}
102
{ACAD_XDICTIONARY
360
27E
102
}
330
2A
100
AcDbVisualStyle
  2
EdgeColorOff
 70
    22
 71
     2
 72
     2
 73
     0
 90
        0
 40
0.6
 41
30.0
 62
     5
 63
     7
421
 16777215
 74
     1
 91
        4
 64
     7
 65
   257
 75
     1
175
     1
 42
1.0
 92
        8
 66
     7
 43
1.0
 76
     1
 77
     6
 78
     2
 67
     7
 79
     5
170
     0
171
     0
290
     0
174
     0
 93
        1
 44
0.0
173
     0
291
     1
 45
0.0
  0
VISUALSTYLE
  5
39
102
{ACAD_REACTORS
330
2A
102
}
102
{ACAD_XDICTIONARY
360
276
102
}
330
2A
100
AcDbVisualStyle
  2
Facepattern
 70
    15
 71
     2
 72
     2
 73
     0
 90
        0
 40
0.6
 41
30.0
 62
     5
 63
     7
421
 16777215
 74
     1
 91
        4
 64
     7
 65
   257
 75
     1
175
     1
 42
1.0
 92
        8
 66
     7
 43
1.0
 76
     1
 77
     6
 78
     2
 67
     7
 79
     5
170
     0
171
     0
290
     0
174
     0
 93
        1
 44
0.0
173
     0
291
     1
 45
0.0
  0
VISUALSTYLE
  5
2B
102
{ACAD_REACTORS
330
2A
102
}
102
{ACAD_XDICTIONARY
360
25A
102
}
330
2A
100
AcDbVisualStyle
  2
Flat
 70
     0
 71
     2
 72
     1
 73
     1
 90
        2
 40
0.6
 41
30.0
 62
     5
 63
     7
421
 16777215
 74
     0
 91
        0
 64
     7
 65
   257
 75
     1
175
     1
 42
1.0
 92
        8
 66
     7
 43
1.0
 76
     1
 77
     6
 78
     2
 67
     7
 79
     5
170
     0
171
     0
290
     0
174
     0
 93
       13
 44
0.0
173
     0
291
     1
 45
0.0
  0
VISUALSTYLE
  5
2C
102
{ACAD_REACTORS
330
2A
102
}
102
{ACAD_XDICTIONARY
360
25C
102
}
330
2A
100
AcDbVisualStyle
  2
FlatWithEdges
 70
     1
 71
     2
 72
     1
 73
     1
 90
        2
 40
0.6
 41
30.0
 62
     5
 63
     7
421
 16777215
 74
     1
 91
        0
 64
     7
 65
   257
 75
     1
175
     1
 42
1.0
 92
        0
 66
   257
 43
1.0
 76
     1
 77
     6
 78
     2
 67
     7
 79
     5
170
     0
171
     0
290
     0
174
     0
 93
       13
 44
0.0
173
     0
291
     1
 45
0.0
  0
VISUALSTYLE
  5
2D
102
{ACAD_REACTORS
330
2A
102
}
102
{ACAD_XDICTIONARY
360
25E
102
}
330
2A
100
AcDbVisualStyle
  2
Gouraud
 70
     2
 71
     2
 72
     2
 73
     1
 90
        2
 40
0.6
 41
30.0
 62
     5
 63
     7
421
 16777215
 74
     0
 91
        0
 64
     7
 65
   257
 75
     1
175
     1
 42
1.0
 92
        0
 66
     7
 43
1.0
 76
     1
 77
     6
 78
     2
 67
     7
 79
     5
170
     0
171
     0
290
     0
174
     0
 93
       13
 44
0.0
173
     0
291
     1
 45
0.0
  0
VISUALSTYLE
  5
2E
102
{ACAD_REACTORS
330
2A
102
}
102
{ACAD_XDICTIONARY
360
260
102
}
330
2A
100
AcDbVisualStyle
  2
GouraudWithEdges
 70
     3
 71
     2
 72
     2
 73
     1
 90
        2
 40
0.6
 41
30.0
 62
     5
 63
     7
421
 16777215
 74
     1
 91
        0
 64
     7
 65
   257
 75
     1
175
     1
 42
1.0
 92
        0
 66
   257
 43
1.0
 76
     1
 77
     6
 78
     2
 67
     7
 79
     5
170
     0
171
     0
290
     0
174
     0
 93
       13
 44
0.0
173
     0
291
     1
 45
0.0
  0
VISUALSTYLE
  5
31
102
{ACAD_REACTORS
330
2A
102
}
102
{ACAD_XDICTIONARY
360
266
102
}
330
2A
100
AcDbVisualStyle
  2
Hidden
 70
     6
 71
     1
 72
     2
 73
     2
 90
        0
 40
0.6
 41
30.0
 62
     5
 63
     7
421
 16777215
 74
     2
 91
        2
 64
     7
 65
   257
 75
     2
175
     1
 42
40.0
 92
        0
 66
   257
 43
1.0
 76
     1
 77
     6
 78
     2
 67
     7
 79
     3
170
     0
171
     0
290
     0
174
     0
 93
        1
 44
0.0
173
     0
291
     0
 45
0.0
  0
VISUALSTYLE
  5
3B
102
{ACAD_REACTORS
330
2A
102
}
102
{ACAD_XDICTIONARY
360
27A
102
}
330
2A
100
AcDbVisualStyle
  2
JitterOff
 70
    20
 71
     2
 72
     2
 73
     0
 90
        0
 40
0.6
 41
30.0
 62
     5
 63
     7
421
 16777215
 74
     1
 91
        4
 64
     7
 65
   257
 75
     1
175
     1
 42
1.0
 92
       10
 66
     7
 43
1.0
 76
     1
 77
     6
 78
     2
 67
     7
 79
     5
170
     0
171
     0
290
     0
174
     0
 93
        1
 44
0.0
173
     0
291
     1
 45
0.0
  0
VISUALSTYLE
  5
38
102
{ACAD_REACTORS
330
2A
102
}
102
{ACAD_XDICTIONARY
360
274
102
}
330
2A
100
AcDbVisualStyle
  2
Linepattern
 70
    14
 71
     2
 72
     2
 73
     0
 90
        0
 40
0.6
 41
30.0
 62
     5
 63
     7
421
 16777215
 74
     1
 91
        4
 64
     7
 65
   257
 75
     7
175
     7
 42
1.0
 92
        8
 66
     7
 43
1.0
 76
     1
 77
     6
 78
     2
 67
     7
 79
     5
170
     0
171
     0
290
     0
174
     0
 93
        1
 44
0.0
173
     0
291
     1
 45
0.0
  0
VISUALSTYLE
  5
3C
102
{ACAD_REACTORS
330
2A
102
}
102
{ACAD_XDICTIONARY
360
27C
102
}
330
2A
100
AcDbVisualStyle
  2
OverhangOff
 70
    21
 71
     2
 72
     2
 73
     0
 90
        0
 40
0.6
 41
30.0
 62
     5
 63
     7
421
 16777215
 74
     1
 91
        4
 64
     7
 65
   257
 75
     1
175
     1
 42
1.0
 92
        9
 66
     7
 43
1.0
 76
     1
 77
     6
 78
     2
 67
     7
 79
     5
170
     0
171
     0
290
     0
174
     0
 93
        1
 44
0.0
173
     0
291
     1
 45
0.0
  0
VISUALSTYLE
  5
33
102
{ACAD_REACTORS
330
2A
102
}
102
{ACAD_XDICTIONARY
360
26A
102
}
330
2A
100
AcDbVisualStyle
  2
Realistic
 70
     8
 71
     2
 72
     3
 73
     0
 90
        2
 40
0.6
 41
30.0
 62
     5
 63
     7
421
 16777215
 74
     0
 91
        0
 64
     7
 65
   257
 75
     1
175
     1
 42
1.0
 92
        8
 66
   257
 43
1.0
 76
     1
 77
     6
 78
     2
 67
     7
 79
     3
170
     0
171
     0
290
     0
174
     0
 93
       13
 44
0.0
173
     0
291
     0
 45
0.0
  0
VISUALSTYLE
  5
42
102
{ACAD_REACTORS
330
2A
102
}
102
{ACAD_XDICTIONARY
360
288
102
}
330
2A
100
AcDbVisualStyle
  2
Shaded
 70
    27
 71
     2
 72
     2
 73
     1
 90
        2
 40
0.6
 41
30.0
 62
     5
 63
     7
421
 16777215
 74
     0
 91
        4
 64
     7
 65
   257
 75
     1
175
     1
 42
1.0
 92
        8
 66
   257
 43
1.0
 76
     1
 77
     6
 78
     2
 67
     8
425
  7895160
 79
     3
170
     0
171
     0
290
     0
174
     0
 93
        5
 44
0.0
173
     0
291
     0
 45
0.0
  0
VISUALSTYLE
  5
41
102
{ACAD_REACTORS
330
2A
102
}
102
{ACAD_XDICTIONARY
360
286
102
}
330
2A
100
AcDbVisualStyle
  2
Shaded with edges
 70
    26
 71
     2
 72
     2
 73
     1
 90
        2
 40
0.6
 41
30.0
 62
     5
 63
     7
421
 16777215
 74
     1
 91
       10
 64
     7
 65
   257
 75
     2
175
     1
 42
1.0
 92
        8
 66
   257
 43
1.0
 76
     1
 77
     6
 78
     2
 67
     7
 79
     3
170
     0
171
     0
290
     0
174
     0
 93
        5
 44
0.0
173
     0
291
     0
 45
0.0
  0
VISUALSTYLE
  5
3E
102
{ACAD_REACTORS
330
2A
102
}
102
{ACAD_XDICTIONARY
360
280
102
}
330
2A
100
AcDbVisualStyle
  2
Shades of Gray
 70
    23
 71
     2
 72
     2
 73
     3
 90
        0
 40
0.6
 41
30.0
 62
     5
 63
     7
421
 16777215
 74
     2
 91
        2
 64
     7
 65
     7
 75
     1
175
     1
 42
40.0
 92
        8
 66
     7
 43
1.0
 76
     1
 77
     6
 78
     2
 67
     7
 79
     3
170
     0
171
     0
290
     0
174
     0
 93
        1
 44
0.0
173
     0
291
     0
 45
0.0
  0
VISUALSTYLE
  5
3F
102
{ACAD_REACTORS
330
2A
102
}
102
{ACAD_XDICTIONARY
360
282
102
}
330
2A
100
AcDbVisualStyle
  2
Sketchy
 70
    24
 71
     1
 72
     2
 73
     2
 90
        0
 40
0.6
 41
30.0
 62
     5
 63
     7
421
 16777215
 74
     2
 91
        2
 64
     7
 65
     7
 75
     1
175
     1
 42
40.0
 92
       11
 66
     7
 43
1.0
 76
     1
 77
     6
 78
     2
 67
     7
 79
     6
170
     0
171
     0
290
     0
174
     0
 93
        1
 44
0.0
173
     0
291
     0
 45
0.0
  0
VISUALSTYLE
  5
37
102
{ACAD_REACTORS
330
2A
102
}
102
{ACAD_XDICTIONARY
360
272
102
}
330
2A
100
AcDbVisualStyle
  2
Thicken
 70
    13
 71
     2
 72
     2
 73
     0
 90
        0
 40
0.6
 41
30.0
 62
     5
 63
     7
421
 16777215
 74
     1
 91
        4
 64
     7
 65
   257
 75
     1
175
     1
 42
1.0
 92
       12
 66
     7
 43
1.0
 76
     1
 77
     6
 78
     2
 67
     7
 79
     5
170
     0
171
     0
290
     0
174
     0
 93
        1
 44
0.0
173
     0
291
     1
 45
0.0
  0
VISUALSTYLE
  5
30
102
{ACAD_REACTORS
330
2A
102
}
102
{ACAD_XDICTIONARY
360
264
102
}
330
2A
100
AcDbVisualStyle
  2
Wireframe
 70
     5
 71
     0
 72
     2
 73
     0
 90
        0
 40
0.6
 41
30.0
 62
     5
 63
     7
421
 16777215
 74
     1
 91
        4
 64
     7
 65
   257
 75
     1
175
     1
 42
1.0
 92
        0
 66
   257
 43
1.0
 76
     1
 77
     6
 78
     2
 67
     7
 79
     3
170
     0
171
     0
290
     0
174
     0
 93
        1
 44
0.0
173
     0
291
     0
 45
0.0
  0
VISUALSTYLE
  5
40
102
{ACAD_REACTORS
330
2A
102
}
102
{ACAD_XDICTIONARY
360
284
102
}
330
2A
100
AcDbVisualStyle
  2
X-Ray
 70
    25
 71
     2
 72
     2
 73
     1
 90
        1
 40
0.5
 41
30.0
 62
     5
 63
     7
421
 16777215
 74
     1
 91
        0
 64
     7
 65
   257
 75
     1
175
     1
 42
1.0
 92
        8
 66
     7
 43
1.0
 76
     1
 77
     6
 78
     2
 67
     7
 79
     3
170
     0
171
     0
290
     0
174
     0
 93
       13
 44
0.0
173
     0
291
     0
 45
0.0
  0
DICTIONARYVAR
  5
258
102
{ACAD_REACTORS
330
257
102
}
330
257
100
DictionaryVariables
280
     0
  1
1:1
  0
DICTIONARYVAR
  5
291
102
{ACAD_REACTORS
330
257
102
}
330
257
100
DictionaryVariables
280
     0
  1
Standard
  0
DICTIONARYVAR
  5
290
102
{ACAD_REACTORS
330
257
102
}
330
257
100
DictionaryVariables
280
     0
  1
Standard
  0
DICTIONARYVAR
  5
259
102
{ACAD_REACTORS
330
257
102
}
330
257
100
DictionaryVariables
280
     0
  1
2
  0
DICTIONARY
  5
28D
330
5C
100
AcDbDictionary
280
     1
281
     1
  3
ACAD_XREC_ROUNDTRIP
360
28E
  0
DICTIONARY
  5
28A
330
5A
100
AcDbDictionary
280
     1
281
     1
  3
ACAD_ROUNDTRIP_2008_TABLESTYLE_CELLSTYLEMAP
360
28B
  0
DICTIONARY
  5
262
330
2F
100
AcDbDictionary
280
     1
281
     1
  3
ACAD_XREC_ROUNDTRIP
360
263
  0
DICTIONARY
  5
268
330
32
100
AcDbDictionary
280
     1
281
     1
  3
ACAD_XREC_ROUNDTRIP
360
269
  0
DICTIONARY
  5
270
330
36
100
AcDbDictionary
280
     1
281
     1
  3
ACAD_XREC_ROUNDTRIP
360
271
  0
DICTIONARY
  5
278
330
3A
100
AcDbDictionary
280
     1
281
     1
  3
ACAD_XREC_ROUNDTRIP
360
279
  0
DICTIONARY
  5
26C
330
34
100
AcDbDictionary
280
     1
281
     1
  3
ACAD_XREC_ROUNDTRIP
360
26D
  0
DICTIONARY
  5
26E
330
35
100
AcDbDictionary
280
     1
281
     1
  3
ACAD_XREC_ROUNDTRIP
360
26F
  0
DICTIONARY
  5
27E
330
3D
100
AcDbDictionary
280
     1
281
     1
  3
ACAD_XREC_ROUNDTRIP
360
27F
  0
DICTIONARY
  5
276
330
39
100
AcDbDictionary
280
     1
281
     1
  3
ACAD_XREC_ROUNDTRIP
360
277
  0
DICTIONARY
  5
25A
330
2B
100
AcDbDictionary
280
     1
281
     1
  3
ACAD_XREC_ROUNDTRIP
360
25B
  0
DICTIONARY
  5
25C
330
2C
100
AcDbDictionary
280
     1
281
     1
  3
ACAD_XREC_ROUNDTRIP
360
25D
  0
DICTIONARY
  5
25E
330
2D
100
AcDbDictionary
280
     1
281
     1
  3
ACAD_XREC_ROUNDTRIP
360
25F
  0
DICTIONARY
  5
260
330
2E
100
AcDbDictionary
280
     1
281
     1
  3
ACAD_XREC_ROUNDTRIP
360
261
  0
DICTIONARY
  5
266
330
31
100
AcDbDictionary
280
     1
281
     1
  3
ACAD_XREC_ROUNDTRIP
360
267
  0
DICTIONARY
  5
27A
330
3B
100
AcDbDictionary
280
     1
281
     1
  3
ACAD_XREC_ROUNDTRIP
360
27B
  0
DICTIONARY
  5
274
330
38
100
AcDbDictionary
280
     1
281
     1
  3
ACAD_XREC_ROUNDTRIP
360
275
  0
DICTIONARY
  5
27C
330
3C
100
AcDbDictionary
280
     1
281
     1
  3
ACAD_XREC_ROUNDTRIP
360
27D
  0
DICTIONARY
  5
26A
330
33
100
AcDbDictionary
280
     1
281
     1
  3
ACAD_XREC_ROUNDTRIP
360
26B
  0
DICTIONARY
  5
288
330
42
100
AcDbDictionary
280
     1
281
     1
  3
ACAD_XREC_ROUNDTRIP
360
289
  0
DICTIONARY
  5
286
330
41
100
AcDbDictionary
280
     1
281
     1
  3
ACAD_XREC_ROUNDTRIP
360
287
  0
DICTIONARY
  5
280
330
3E
100
AcDbDictionary
280
     1
281
     1
  3
ACAD_XREC_ROUNDTRIP
360
281
  0
DICTIONARY
  5
282
330
3F
100
AcDbDictionary
280
     1
281
     1
  3
ACAD_XREC_ROUNDTRIP
360
283
  0
DICTIONARY
  5
272
330
37
100
AcDbDictionary
280
     1
281
     1
  3
ACAD_XREC_ROUNDTRIP
360
273
  0
DICTIONARY
  5
264
330
30
100
AcDbDictionary
280
     1
281
     1
  3
ACAD_XREC_ROUNDTRIP
360
265
  0
DICTIONARY
  5
284
330
40
100
AcDbDictionary
280
     1
281
     1
  3
ACAD_XREC_ROUNDTRIP
360
285
  0
XRECORD
  5
28E
102
{ACAD_REACTORS
330
28D
102
}
330
28D
100
AcDbXrecord
280
     1
102
ACAD_ROUNDTRIP_2010_MLEADER_STYLE
  0
CELLSTYLEMAP
  5
28B
102
{ACAD_REACTORS
330
28A
102
}
330
28A
100
AcDbCellStyleMap
 90
        3
300
CELLSTYLE
  1
TABLEFORMAT_BEGIN
 90
        5
170
     1
 91
        0
 92
    32768
 62
   257
 93
        1
300
CONTENTFORMAT
  1
CONTENTFORMAT_BEGIN
 90
        0
 91
        0
 92
        4
 93
        0
300

 40
0.0
140
1.0
 94
        5
 62
     0
340
11
144
0.25
309
CONTENTFORMAT_END
171
     1
301
MARGIN
  1
CELLMARGIN_BEGIN
 40
0.06
 40
0.06
 40
0.06
 40
0.06
 40
0.06
 40
0.06
309
CELLMARGIN_END
 94
        6
 95
        1
302
GRIDFORMAT
  1
GRIDFORMAT_BEGIN
 90
        0
 91
        1
 62
     0
 92
       -2
340
14
 93
        0
 40
0.045
309
GRIDFORMAT_END
 95
        2
302
GRIDFORMAT
  1
GRIDFORMAT_BEGIN
 90
        0
 91
        1
 62
     0
 92
       -2
340
14
 93
        0
 40
0.045
309
GRIDFORMAT_END
 95
        4
302
GRIDFORMAT
  1
GRIDFORMAT_BEGIN
 90
        0
 91
        1
 62
     0
 92
       -2
340
14
 93
        0
 40
0.045
309
GRIDFORMAT_END
 95
        8
302
GRIDFORMAT
  1
GRIDFORMAT_BEGIN
 90
        0
 91
        1
 62
     0
 92
       -2
340
14
 93
        0
 40
0.045
309
GRIDFORMAT_END
 95
       16
302
GRIDFORMAT
  1
GRIDFORMAT_BEGIN
 90
        0
 91
        1
 62
     0
 92
       -2
340
14
 93
        0
 40
0.045
309
GRIDFORMAT_END
 95
       32
302
GRIDFORMAT
  1
GRIDFORMAT_BEGIN
 90
        0
 91
        1
 62
     0
 92
       -2
340
14
 93
        0
 40
0.045
309
GRIDFORMAT_END
309
TABLEFORMAT_END
  1
CELLSTYLE_BEGIN
 90
        1
 91
        1
300
_TITLE
309
CELLSTYLE_END
300
CELLSTYLE
  1
TABLEFORMAT_BEGIN
 90
        5
170
     1
 91
        0
 92
        0
 62
   257
 93
        1
300
CONTENTFORMAT
  1
CONTENTFORMAT_BEGIN
 90
        0
 91
        0
 92
        4
 93
        0
300

 40
0.0
140
1.0
 94
        5
 62
     0
340
11
144
0.18
309
CONTENTFORMAT_END
171
     1
301
MARGIN
  1
CELLMARGIN_BEGIN
 40
0.06
 40
0.06
 40
0.06
 40
0.06
 40
0.06
 40
0.06
309
CELLMARGIN_END
 94
        6
 95
        1
302
GRIDFORMAT
  1
GRIDFORMAT_BEGIN
 90
        0
 91
        1
 62
     0
 92
       -2
340
14
 93
        0
 40
0.045
309
GRIDFORMAT_END
 95
        2
302
GRIDFORMAT
  1
GRIDFORMAT_BEGIN
 90
        0
 91
        1
 62
     0
 92
       -2
340
14
 93
        0
 40
0.045
309
GRIDFORMAT_END
 95
        4
302
GRIDFORMAT
  1
GRIDFORMAT_BEGIN
 90
        0
 91
        1
 62
     0
 92
       -2
340
14
 93
        0
 40
0.045
309
GRIDFORMAT_END
 95
        8
302
GRIDFORMAT
  1
GRIDFORMAT_BEGIN
 90
        0
 91
        1
 62
     0
 92
       -2
340
14
 93
        0
 40
0.045
309
GRIDFORMAT_END
 95
       16
302
GRIDFORMAT
  1
GRIDFORMAT_BEGIN
 90
        0
 91
        1
 62
     0
 92
       -2
340
14
 93
        0
 40
0.045
309
GRIDFORMAT_END
 95
       32
302
GRIDFORMAT
  1
GRIDFORMAT_BEGIN
 90
        0
 91
        1
 62
     0
 92
       -2
340
14
 93
        0
 40
0.045
309
GRIDFORMAT_END
309
TABLEFORMAT_END
  1
CELLSTYLE_BEGIN
 90
        2
 91
        1
300
_HEADER
309
CELLSTYLE_END
300
CELLSTYLE
  1
TABLEFORMAT_BEGIN
 90
        5
170
     1
 91
        0
 92
        0
 62
   257
 93
        1
300
CONTENTFORMAT
  1
CONTENTFORMAT_BEGIN
 90
        0
 91
        0
 92
        4
 93
        0
300

 40
0.0
140
1.0
 94
        2
 62
     0
340
11
144
0.18
309
CONTENTFORMAT_END
171
     1
301
MARGIN
  1
CELLMARGIN_BEGIN
 40
0.06
 40
0.06
 40
0.06
 40
0.06
 40
0.06
 40
0.06
309
CELLMARGIN_END
 94
        6
 95
        1
302
GRIDFORMAT
  1
GRIDFORMAT_BEGIN
 90
        0
 91
        1
 62
     0
 92
       -2
340
14
 93
        0
 40
0.045
309
GRIDFORMAT_END
 95
        2
302
GRIDFORMAT
  1
GRIDFORMAT_BEGIN
 90
        0
 91
        1
 62
     0
 92
       -2
340
14
 93
        0
 40
0.045
309
GRIDFORMAT_END
 95
        4
302
GRIDFORMAT
  1
GRIDFORMAT_BEGIN
 90
        0
 91
        1
 62
     0
 92
       -2
340
14
 93
        0
 40
0.045
309
GRIDFORMAT_END
 95
        8
302
GRIDFORMAT
  1
GRIDFORMAT_BEGIN
 90
        0
 91
        1
 62
     0
 92
       -2
340
14
 93
        0
 40
0.045
309
GRIDFORMAT_END
 95
       16
302
GRIDFORMAT
  1
GRIDFORMAT_BEGIN
 90
        0
 91
        1
 62
     0
 92
       -2
340
14
 93
        0
 40
0.045
309
GRIDFORMAT_END
 95
       32
302
GRIDFORMAT
  1
GRIDFORMAT_BEGIN
 90
        0
 91
        1
 62
     0
 92
       -2
340
14
 93
        0
 40
0.045
309
GRIDFORMAT_END
309
TABLEFORMAT_END
  1
CELLSTYLE_BEGIN
 90
        3
 91
        2
300
_DATA
309
CELLSTYLE_END
  0
XRECORD
  5
263
102
{ACAD_REACTORS
330
262
102
}
330
262
100
AcDbXrecord
280
     1
102
RTVSPropertyOp0
 70
     1
102
RTVSPropertyOp1
 70
     1
102
RTVSPropertyOp2
 70
     1
102
RTVSPropertyOp3
 70
     1
102
RTVSPropertyOp4
 70
     1
102
RTVSPropertyOp5
 70
     1
102
RTVSPropertyOp6
 70
     1
102
RTVSPropertyOp7
 70
     1
102
RTVSPropertyOp8
 70
     1
102
RTVSPropertyOp9
 70
     1
102
RTVSPropertyOp10
 70
     1
102
RTVSPropertyOp11
 70
     1
102
RTVSPropertyOp12
 70
     1
102
RTVSPropertyOp13
 70
     1
102
RTVSPropertyOp14
 70
     1
102
RTVSPropertyOp15
 70
     1
102
RTVSPropertyOp16
 70
     1
102
RTVSPropertyOp17
 70
     1
102
RTVSPropertyOp18
 70
     1
102
RTVSPropertyOp19
 70
     1
102
RTVSPropertyOp20
 70
     1
102
RTVSPropertyOp21
 70
     1
102
RTVSPropertyOp22
 70
     1
102
RTVSPropertyOp23
 70
     1
102
RTVSPropertyOp24
 70
     1
102
RTVSPropertyOp25
 70
     1
102
RTVSPropertyOp26
 70
     1
102
RTVSPropertyOp27
 70
     1
102
RTVSPropertyOp28
 70
     1
102
RTVSPropertyOp29
 70
     1
102
RTVSPropertyOp30
 70
     1
102
RTVSPropertyOp31
 70
     1
102
RTVSPropertyOp32
 70
     1
102
RTVSPropertyOp33
 70
     1
102
RTVSPropertyOp34
 70
     1
102
RTVSPropertyOp35
 70
     1
102
RTVSPropertyOp36
 70
     1
102
RTVSPropertyOp37
 70
     1
102
RTVSPropertyOp38
 70
     1
102
RTVSPropertyOp39
 70
     1
102
RTVSPropertyOp40
 70
     1
102
RTVSPropertyOp41
 70
     1
102
RTVSPropertyOp42
 70
     1
102
RTVSPropertyOp43
 70
     1
102
RTVSPropertyOp44
 70
     1
102
RTVSPropertyOp45
 70
     1
102
RTVSPropertyOp46
 70
     1
102
RTVSPropertyOp47
 70
     1
102
RTVSPropertyOp48
 70
     1
102
RTVSPropertyOp49
 70
     1
102
RTVSPropertyOp50
 70
     1
102
RTVSPropertyOp51
 70
     0
102
RTVSPropertyOp52
 70
     0
102
RTVSPropertyOp53
 70
     1
102
RTVSPropertyOp54
 70
     1
102
RTVSPropertyOp55
 70
     1
102
RTVSPropertyOp56
 70
     1
102
RTVSPropertyOp57
 70
     1
102
RTVSPost2010Prop28
280
     1
102
RTVSPost2010PropOp28
 70
     1
102
RTVSPost2010Prop29
280
     1
102
RTVSPost2010PropOp29
 70
     1
102
RTVSPost2010Prop30
280
     0
102
RTVSPost2010PropOp30
 70
     1
102
RTVSPost2010Prop31
280
     0
102
RTVSPost2010PropOp31
 70
     1
102
RTVSPost2010Prop32
280
     0
102
RTVSPost2010PropOp32
 70
     1
102
RTVSPost2010Prop33
280
     0
102
RTVSPost2010PropOp33
 70
     1
102
RTVSPost2010Prop34
280
     0
102
RTVSPost2010PropOp34
 70
     1
102
RTVSPost2010Prop35
280
     0
102
RTVSPost2010PropOp35
 70
     1
102
RTVSPost2010Prop36
280
     0
102
RTVSPost2010PropOp36
 70
     1
102
RTVSPost2010Prop37
 90
       50
102
RTVSPost2010PropOp37
 70
     1
102
RTVSPost2010Prop38
140
0.0
102
RTVSPost2010PropOp38
 70
     1
102
RTVSPost2010Prop39
140
1.0
102
RTVSPost2010PropOp39
 70
     1
102
RTVSPost2010Prop40
 90
        0
102
RTVSPost2010PropOp40
 70
     1
102
RTVSPost2010Prop41ColorIndex
 90
       18
102
RTVSPost2010Prop41ColorRGB
 90
        0
102
RTVSPost2010PropOp41
 70
     1
102
RTVSPost2010Prop42
 90
       50
102
RTVSPost2010PropOp42
 70
     1
102
RTVSPost2010Prop43
 90
        3
102
RTVSPost2010PropOp43
 70
     1
102
RTVSPost2010Prop44ColorIndex
 90
        5
102
RTVSPost2010Prop44ColorRGB
 90
      255
102
RTVSPost2010PropOp44
 70
     1
102
RTVSPost2010Prop45
280
     0
102
RTVSPost2010PropOp45
 70
     1
102
RTVSPost2010Prop46
 90
       50
102
RTVSPost2010PropOp46
 70
     1
102
RTVSPost2010Prop47
 90
       50
102
RTVSPost2010PropOp47
 70
     1
102
RTVSPost2010Prop48
 90
       50
102
RTVSPost2010PropOp48
 70
     1
102
RTVSPost2010Prop49
280
     0
102
RTVSPost2010PropOp49
 70
     1
102
RTVSPost2010Prop50
 90
       50
102
RTVSPost2010PropOp50
 70
     1
102
RTVSPost2010Prop51ColorIndex
 90
      256
102
RTVSPost2010Prop51ColorRGB
 90
-16777216
102
RTVSPost2010PropOp51
 70
     0
102
RTVSPost2010Prop52
140
1.0
102
RTVSPost2010PropOp52
 70
     0
102
RTVSPost2010Prop53
 90
        2
102
RTVSPost2010PropOp53
 70
     1
102
RTVSPost2010Prop54
  1
strokes_ogs.tif
102
RTVSPost2010PropOp54
 70
     1
102
RTVSPost2010Prop55
280
     0
102
RTVSPost2010PropOp55
 70
     1
102
RTVSPost2010Prop56
140
1.0
102
RTVSPost2010PropOp56
 70
     1
102
RTVSPost2010Prop57
140
1.0
102
RTVSPost2010PropOp57
 70
     1
  0
XRECORD
  5
269
102
{ACAD_REACTORS
330
268
102
}
330
268
100
AcDbXrecord
280
     1
102
RTVSPropertyOp0
 70
     1
102
RTVSPropertyOp1
 70
     1
102
RTVSPropertyOp2
 70
     1
102
RTVSPropertyOp3
 70
     1
102
RTVSPropertyOp4
 70
     1
102
RTVSPropertyOp5
 70
     1
102
RTVSPropertyOp6
 70
     1
102
RTVSPropertyOp7
 70
     1
102
RTVSPropertyOp8
 70
     1
102
RTVSPropertyOp9
 70
     1
102
RTVSPropertyOp10
 70
     1
102
RTVSPropertyOp11
 70
     1
102
RTVSPropertyOp12
 70
     1
102
RTVSPropertyOp13
 70
     1
102
RTVSPropertyOp14
 70
     1
102
RTVSPropertyOp15
 70
     1
102
RTVSPropertyOp16
 70
     1
102
RTVSPropertyOp17
 70
     1
102
RTVSPropertyOp18
 70
     1
102
RTVSPropertyOp19
 70
     1
102
RTVSPropertyOp20
 70
     1
102
RTVSPropertyOp21
 70
     1
102
RTVSPropertyOp22
 70
     1
102
RTVSPropertyOp23
 70
     1
102
RTVSPropertyOp24
 70
     1
102
RTVSPropertyOp25
 70
     1
102
RTVSPropertyOp26
 70
     1
102
RTVSPropertyOp27
 70
     1
102
RTVSPropertyOp28
 70
     1
102
RTVSPropertyOp29
 70
     1
102
RTVSPropertyOp30
 70
     1
102
RTVSPropertyOp31
 70
     1
102
RTVSPropertyOp32
 70
     1
102
RTVSPropertyOp33
 70
     1
102
RTVSPropertyOp34
 70
     1
102
RTVSPropertyOp35
 70
     1
102
RTVSPropertyOp36
 70
     1
102
RTVSPropertyOp37
 70
     1
102
RTVSPropertyOp38
 70
     1
102
RTVSPropertyOp39
 70
     1
102
RTVSPropertyOp40
 70
     1
102
RTVSPropertyOp41
 70
     1
102
RTVSPropertyOp42
 70
     1
102
RTVSPropertyOp43
 70
     1
102
RTVSPropertyOp44
 70
     1
102
RTVSPropertyOp45
 70
     1
102
RTVSPropertyOp46
 70
     1
102
RTVSPropertyOp47
 70
     1
102
RTVSPropertyOp48
 70
     1
102
RTVSPropertyOp49
 70
     1
102
RTVSPropertyOp50
 70
     1
102
RTVSPropertyOp51
 70
     0
102
RTVSPropertyOp52
 70
     0
102
RTVSPropertyOp53
 70
     1
102
RTVSPropertyOp54
 70
     1
102
RTVSPropertyOp55
 70
     1
102
RTVSPropertyOp56
 70
     1
102
RTVSPropertyOp57
 70
     1
102
RTVSPost2010Prop28
280
     0
102
RTVSPost2010PropOp28
 70
     1
102
RTVSPost2010Prop29
280
     1
102
RTVSPost2010PropOp29
 70
     1
102
RTVSPost2010Prop30
280
     1
102
RTVSPost2010PropOp30
 70
     1
102
RTVSPost2010Prop31
280
     0
102
RTVSPost2010PropOp31
 70
     1
102
RTVSPost2010Prop32
280
     0
102
RTVSPost2010PropOp32
 70
     1
102
RTVSPost2010Prop33
280
     0
102
RTVSPost2010PropOp33
 70
     1
102
RTVSPost2010Prop34
280
     0
102
RTVSPost2010PropOp34
 70
     1
102
RTVSPost2010Prop35
280
     0
102
RTVSPost2010PropOp35
 70
     1
102
RTVSPost2010Prop36
280
     0
102
RTVSPost2010PropOp36
 70
     1
102
RTVSPost2010Prop37
 90
       50
102
RTVSPost2010PropOp37
 70
     1
102
RTVSPost2010Prop38
140
0.0
102
RTVSPost2010PropOp38
 70
     1
102
RTVSPost2010Prop39
140
1.0
102
RTVSPost2010PropOp39
 70
     1
102
RTVSPost2010Prop40
 90
        0
102
RTVSPost2010PropOp40
 70
     1
102
RTVSPost2010Prop41ColorIndex
 90
       18
102
RTVSPost2010Prop41ColorRGB
 90
        0
102
RTVSPost2010PropOp41
 70
     1
102
RTVSPost2010Prop42
 90
       50
102
RTVSPost2010PropOp42
 70
     1
102
RTVSPost2010Prop43
 90
        3
102
RTVSPost2010PropOp43
 70
     1
102
RTVSPost2010Prop44ColorIndex
 90
        5
102
RTVSPost2010Prop44ColorRGB
 90
      255
102
RTVSPost2010PropOp44
 70
     1
102
RTVSPost2010Prop45
280
     0
102
RTVSPost2010PropOp45
 70
     1
102
RTVSPost2010Prop46
 90
       50
102
RTVSPost2010PropOp46
 70
     1
102
RTVSPost2010Prop47
 90
       50
102
RTVSPost2010PropOp47
 70
     1
102
RTVSPost2010Prop48
 90
       50
102
RTVSPost2010PropOp48
 70
     1
102
RTVSPost2010Prop49
280
     0
102
RTVSPost2010PropOp49
 70
     1
102
RTVSPost2010Prop50
 90
       50
102
RTVSPost2010PropOp50
 70
     1
102
RTVSPost2010Prop51ColorIndex
 90
      256
102
RTVSPost2010Prop51ColorRGB
 90
-16777216
102
RTVSPost2010PropOp51
 70
     0
102
RTVSPost2010Prop52
140
1.0
102
RTVSPost2010PropOp52
 70
     0
102
RTVSPost2010Prop53
 90
        2
102
RTVSPost2010PropOp53
 70
     1
102
RTVSPost2010Prop54
  1
strokes_ogs.tif
102
RTVSPost2010PropOp54
 70
     1
102
RTVSPost2010Prop55
280
     0
102
RTVSPost2010PropOp55
 70
     1
102
RTVSPost2010Prop56
140
1.0
102
RTVSPost2010PropOp56
 70
     1
102
RTVSPost2010Prop57
140
1.0
102
RTVSPost2010PropOp57
 70
     1
  0
XRECORD
  5
271
102
{ACAD_REACTORS
330
270
102
}
330
270
100
AcDbXrecord
280
     1
102
RTVSPropertyOp0
 70
     1
102
RTVSPropertyOp1
 70
     1
102
RTVSPropertyOp2
 70
     1
102
RTVSPropertyOp3
 70
     1
102
RTVSPropertyOp4
 70
     1
102
RTVSPropertyOp5
 70
     1
102
RTVSPropertyOp6
 70
     1
102
RTVSPropertyOp7
 70
     1
102
RTVSPropertyOp8
 70
     1
102
RTVSPropertyOp9
 70
     1
102
RTVSPropertyOp10
 70
     1
102
RTVSPropertyOp11
 70
     1
102
RTVSPropertyOp12
 70
     1
102
RTVSPropertyOp13
 70
     1
102
RTVSPropertyOp14
 70
     1
102
RTVSPropertyOp15
 70
     1
102
RTVSPropertyOp16
 70
     1
102
RTVSPropertyOp17
 70
     1
102
RTVSPropertyOp18
 70
     1
102
RTVSPropertyOp19
 70
     1
102
RTVSPropertyOp20
 70
     1
102
RTVSPropertyOp21
 70
     1
102
RTVSPropertyOp22
 70
     1
102
RTVSPropertyOp23
 70
     1
102
RTVSPropertyOp24
 70
     1
102
RTVSPropertyOp25
 70
     1
102
RTVSPropertyOp26
 70
     1
102
RTVSPropertyOp27
 70
     1
102
RTVSPropertyOp28
 70
     1
102
RTVSPropertyOp29
 70
     1
102
RTVSPropertyOp30
 70
     1
102
RTVSPropertyOp31
 70
     1
102
RTVSPropertyOp32
 70
     1
102
RTVSPropertyOp33
 70
     1
102
RTVSPropertyOp34
 70
     1
102
RTVSPropertyOp35
 70
     1
102
RTVSPropertyOp36
 70
     1
102
RTVSPropertyOp37
 70
     1
102
RTVSPropertyOp38
 70
     1
102
RTVSPropertyOp39
 70
     1
102
RTVSPropertyOp40
 70
     1
102
RTVSPropertyOp41
 70
     1
102
RTVSPropertyOp42
 70
     1
102
RTVSPropertyOp43
 70
     1
102
RTVSPropertyOp44
 70
     1
102
RTVSPropertyOp45
 70
     1
102
RTVSPropertyOp46
 70
     1
102
RTVSPropertyOp47
 70
     1
102
RTVSPropertyOp48
 70
     1
102
RTVSPropertyOp49
 70
     1
102
RTVSPropertyOp50
 70
     1
102
RTVSPropertyOp51
 70
     0
102
RTVSPropertyOp52
 70
     0
102
RTVSPropertyOp53
 70
     1
102
RTVSPropertyOp54
 70
     1
102
RTVSPropertyOp55
 70
     1
102
RTVSPropertyOp56
 70
     1
102
RTVSPropertyOp57
 70
     1
102
RTVSPost2010Prop28
280
     0
102
RTVSPost2010PropOp28
 70
     1
102
RTVSPost2010Prop29
280
     1
102
RTVSPost2010PropOp29
 70
     1
102
RTVSPost2010Prop30
280
     1
102
RTVSPost2010PropOp30
 70
     1
102
RTVSPost2010Prop31
280
     0
102
RTVSPost2010PropOp31
 70
     1
102
RTVSPost2010Prop32
280
     0
102
RTVSPost2010PropOp32
 70
     1
102
RTVSPost2010Prop33
280
     0
102
RTVSPost2010PropOp33
 70
     1
102
RTVSPost2010Prop34
280
     0
102
RTVSPost2010PropOp34
 70
     1
102
RTVSPost2010Prop35
280
     0
102
RTVSPost2010PropOp35
 70
     1
102
RTVSPost2010Prop36
280
     0
102
RTVSPost2010PropOp36
 70
     1
102
RTVSPost2010Prop37
 90
       50
102
RTVSPost2010PropOp37
 70
     1
102
RTVSPost2010Prop38
140
0.0
102
RTVSPost2010PropOp38
 70
     1
102
RTVSPost2010Prop39
140
1.0
102
RTVSPost2010PropOp39
 70
     1
102
RTVSPost2010Prop40
 90
        0
102
RTVSPost2010PropOp40
 70
     1
102
RTVSPost2010Prop41ColorIndex
 90
       18
102
RTVSPost2010Prop41ColorRGB
 90
        0
102
RTVSPost2010PropOp41
 70
     1
102
RTVSPost2010Prop42
 90
       50
102
RTVSPost2010PropOp42
 70
     1
102
RTVSPost2010Prop43
 90
        3
102
RTVSPost2010PropOp43
 70
     1
102
RTVSPost2010Prop44ColorIndex
 90
        5
102
RTVSPost2010Prop44ColorRGB
 90
      255
102
RTVSPost2010PropOp44
 70
     1
102
RTVSPost2010Prop45
280
     0
102
RTVSPost2010PropOp45
 70
     1
102
RTVSPost2010Prop46
 90
       50
102
RTVSPost2010PropOp46
 70
     1
102
RTVSPost2010Prop47
 90
       50
102
RTVSPost2010PropOp47
 70
     1
102
RTVSPost2010Prop48
 90
       50
102
RTVSPost2010PropOp48
 70
     1
102
RTVSPost2010Prop49
280
     0
102
RTVSPost2010PropOp49
 70
     1
102
RTVSPost2010Prop50
 90
       50
102
RTVSPost2010PropOp50
 70
     1
102
RTVSPost2010Prop51ColorIndex
 90
      256
102
RTVSPost2010Prop51ColorRGB
 90
-16777216
102
RTVSPost2010PropOp51
 70
     0
102
RTVSPost2010Prop52
140
1.0
102
RTVSPost2010PropOp52
 70
     0
102
RTVSPost2010Prop53
 90
        2
102
RTVSPost2010PropOp53
 70
     1
102
RTVSPost2010Prop54
  1
strokes_ogs.tif
102
RTVSPost2010PropOp54
 70
     1
102
RTVSPost2010Prop55
280
     0
102
RTVSPost2010PropOp55
 70
     1
102
RTVSPost2010Prop56
140
1.0
102
RTVSPost2010PropOp56
 70
     1
102
RTVSPost2010Prop57
140
1.0
102
RTVSPost2010PropOp57
 70
     1
  0
XRECORD
  5
279
102
{ACAD_REACTORS
330
278
102
}
330
278
100
AcDbXrecord
280
     1
102
RTVSPropertyOp0
 70
     1
102
RTVSPropertyOp1
 70
     1
102
RTVSPropertyOp2
 70
     1
102
RTVSPropertyOp3
 70
     1
102
RTVSPropertyOp4
 70
     1
102
RTVSPropertyOp5
 70
     1
102
RTVSPropertyOp6
 70
     1
102
RTVSPropertyOp7
 70
     1
102
RTVSPropertyOp8
 70
     1
102
RTVSPropertyOp9
 70
     1
102
RTVSPropertyOp10
 70
     1
102
RTVSPropertyOp11
 70
     1
102
RTVSPropertyOp12
 70
     1
102
RTVSPropertyOp13
 70
     1
102
RTVSPropertyOp14
 70
     1
102
RTVSPropertyOp15
 70
     1
102
RTVSPropertyOp16
 70
     1
102
RTVSPropertyOp17
 70
     1
102
RTVSPropertyOp18
 70
     1
102
RTVSPropertyOp19
 70
     1
102
RTVSPropertyOp20
 70
     1
102
RTVSPropertyOp21
 70
     1
102
RTVSPropertyOp22
 70
     1
102
RTVSPropertyOp23
 70
     1
102
RTVSPropertyOp24
 70
     1
102
RTVSPropertyOp25
 70
     1
102
RTVSPropertyOp26
 70
     1
102
RTVSPropertyOp27
 70
     1
102
RTVSPropertyOp28
 70
     1
102
RTVSPropertyOp29
 70
     1
102
RTVSPropertyOp30
 70
     1
102
RTVSPropertyOp31
 70
     1
102
RTVSPropertyOp32
 70
     1
102
RTVSPropertyOp33
 70
     1
102
RTVSPropertyOp34
 70
     1
102
RTVSPropertyOp35
 70
     1
102
RTVSPropertyOp36
 70
     1
102
RTVSPropertyOp37
 70
     1
102
RTVSPropertyOp38
 70
     1
102
RTVSPropertyOp39
 70
     1
102
RTVSPropertyOp40
 70
     1
102
RTVSPropertyOp41
 70
     1
102
RTVSPropertyOp42
 70
     1
102
RTVSPropertyOp43
 70
     1
102
RTVSPropertyOp44
 70
     1
102
RTVSPropertyOp45
 70
     1
102
RTVSPropertyOp46
 70
     1
102
RTVSPropertyOp47
 70
     1
102
RTVSPropertyOp48
 70
     1
102
RTVSPropertyOp49
 70
     1
102
RTVSPropertyOp50
 70
     1
102
RTVSPropertyOp51
 70
     0
102
RTVSPropertyOp52
 70
     0
102
RTVSPropertyOp53
 70
     1
102
RTVSPropertyOp54
 70
     1
102
RTVSPropertyOp55
 70
     1
102
RTVSPropertyOp56
 70
     1
102
RTVSPropertyOp57
 70
     1
102
RTVSPost2010Prop28
280
     0
102
RTVSPost2010PropOp28
 70
     1
102
RTVSPost2010Prop29
280
     1
102
RTVSPost2010PropOp29
 70
     1
102
RTVSPost2010Prop30
280
     1
102
RTVSPost2010PropOp30
 70
     1
102
RTVSPost2010Prop31
280
     0
102
RTVSPost2010PropOp31
 70
     1
102
RTVSPost2010Prop32
280
     0
102
RTVSPost2010PropOp32
 70
     1
102
RTVSPost2010Prop33
280
     0
102
RTVSPost2010PropOp33
 70
     1
102
RTVSPost2010Prop34
280
     0
102
RTVSPost2010PropOp34
 70
     1
102
RTVSPost2010Prop35
280
     0
102
RTVSPost2010PropOp35
 70
     1
102
RTVSPost2010Prop36
280
     0
102
RTVSPost2010PropOp36
 70
     1
102
RTVSPost2010Prop37
 90
       50
102
RTVSPost2010PropOp37
 70
     1
102
RTVSPost2010Prop38
140
0.0
102
RTVSPost2010PropOp38
 70
     1
102
RTVSPost2010Prop39
140
1.0
102
RTVSPost2010PropOp39
 70
     1
102
RTVSPost2010Prop40
 90
        0
102
RTVSPost2010PropOp40
 70
     1
102
RTVSPost2010Prop41ColorIndex
 90
       18
102
RTVSPost2010Prop41ColorRGB
 90
        0
102
RTVSPost2010PropOp41
 70
     1
102
RTVSPost2010Prop42
 90
       50
102
RTVSPost2010PropOp42
 70
     1
102
RTVSPost2010Prop43
 90
        3
102
RTVSPost2010PropOp43
 70
     1
102
RTVSPost2010Prop44ColorIndex
 90
        5
102
RTVSPost2010Prop44ColorRGB
 90
      255
102
RTVSPost2010PropOp44
 70
     1
102
RTVSPost2010Prop45
280
     0
102
RTVSPost2010PropOp45
 70
     1
102
RTVSPost2010Prop46
 90
       50
102
RTVSPost2010PropOp46
 70
     1
102
RTVSPost2010Prop47
 90
       50
102
RTVSPost2010PropOp47
 70
     1
102
RTVSPost2010Prop48
 90
       50
102
RTVSPost2010PropOp48
 70
     1
102
RTVSPost2010Prop49
280
     0
102
RTVSPost2010PropOp49
 70
     1
102
RTVSPost2010Prop50
 90
       50
102
RTVSPost2010PropOp50
 70
     1
102
RTVSPost2010Prop51ColorIndex
 90
      256
102
RTVSPost2010Prop51ColorRGB
 90
-16777216
102
RTVSPost2010PropOp51
 70
     0
102
RTVSPost2010Prop52
140
1.0
102
RTVSPost2010PropOp52
 70
     0
102
RTVSPost2010Prop53
 90
        2
102
RTVSPost2010PropOp53
 70
     1
102
RTVSPost2010Prop54
  1
strokes_ogs.tif
102
RTVSPost2010PropOp54
 70
     1
102
RTVSPost2010Prop55
280
     0
102
RTVSPost2010PropOp55
 70
     1
102
RTVSPost2010Prop56
140
1.0
102
RTVSPost2010PropOp56
 70
     1
102
RTVSPost2010Prop57
140
1.0
102
RTVSPost2010PropOp57
 70
     1
  0
XRECORD
  5
26D
102
{ACAD_REACTORS
330
26C
102
}
330
26C
100
AcDbXrecord
280
     1
102
RTVSPropertyOp0
 70
     1
102
RTVSPropertyOp1
 70
     1
102
RTVSPropertyOp2
 70
     1
102
RTVSPropertyOp3
 70
     1
102
RTVSPropertyOp4
 70
     1
102
RTVSPropertyOp5
 70
     1
102
RTVSPropertyOp6
 70
     1
102
RTVSPropertyOp7
 70
     1
102
RTVSPropertyOp8
 70
     1
102
RTVSPropertyOp9
 70
     1
102
RTVSPropertyOp10
 70
     1
102
RTVSPropertyOp11
 70
     1
102
RTVSPropertyOp12
 70
     1
102
RTVSPropertyOp13
 70
     1
102
RTVSPropertyOp14
 70
     1
102
RTVSPropertyOp15
 70
     1
102
RTVSPropertyOp16
 70
     1
102
RTVSPropertyOp17
 70
     1
102
RTVSPropertyOp18
 70
     1
102
RTVSPropertyOp19
 70
     1
102
RTVSPropertyOp20
 70
     1
102
RTVSPropertyOp21
 70
     1
102
RTVSPropertyOp22
 70
     1
102
RTVSPropertyOp23
 70
     1
102
RTVSPropertyOp24
 70
     1
102
RTVSPropertyOp25
 70
     1
102
RTVSPropertyOp26
 70
     1
102
RTVSPropertyOp27
 70
     1
102
RTVSPropertyOp28
 70
     1
102
RTVSPropertyOp29
 70
     1
102
RTVSPropertyOp30
 70
     1
102
RTVSPropertyOp31
 70
     1
102
RTVSPropertyOp32
 70
     1
102
RTVSPropertyOp33
 70
     1
102
RTVSPropertyOp34
 70
     1
102
RTVSPropertyOp35
 70
     1
102
RTVSPropertyOp36
 70
     1
102
RTVSPropertyOp37
 70
     1
102
RTVSPropertyOp38
 70
     1
102
RTVSPropertyOp39
 70
     1
102
RTVSPropertyOp40
 70
     1
102
RTVSPropertyOp41
 70
     1
102
RTVSPropertyOp42
 70
     1
102
RTVSPropertyOp43
 70
     1
102
RTVSPropertyOp44
 70
     1
102
RTVSPropertyOp45
 70
     1
102
RTVSPropertyOp46
 70
     1
102
RTVSPropertyOp47
 70
     1
102
RTVSPropertyOp48
 70
     1
102
RTVSPropertyOp49
 70
     1
102
RTVSPropertyOp50
 70
     1
102
RTVSPropertyOp51
 70
     0
102
RTVSPropertyOp52
 70
     0
102
RTVSPropertyOp53
 70
     1
102
RTVSPropertyOp54
 70
     1
102
RTVSPropertyOp55
 70
     1
102
RTVSPropertyOp56
 70
     1
102
RTVSPropertyOp57
 70
     1
102
RTVSPost2010Prop28
280
     0
102
RTVSPost2010PropOp28
 70
     1
102
RTVSPost2010Prop29
280
     1
102
RTVSPost2010PropOp29
 70
     1
102
RTVSPost2010Prop30
280
     1
102
RTVSPost2010PropOp30
 70
     1
102
RTVSPost2010Prop31
280
     0
102
RTVSPost2010PropOp31
 70
     1
102
RTVSPost2010Prop32
280
     0
102
RTVSPost2010PropOp32
 70
     1
102
RTVSPost2010Prop33
280
     0
102
RTVSPost2010PropOp33
 70
     1
102
RTVSPost2010Prop34
280
     0
102
RTVSPost2010PropOp34
 70
     1
102
RTVSPost2010Prop35
280
     0
102
RTVSPost2010PropOp35
 70
     1
102
RTVSPost2010Prop36
280
     0
102
RTVSPost2010PropOp36
 70
     1
102
RTVSPost2010Prop37
 90
       50
102
RTVSPost2010PropOp37
 70
     1
102
RTVSPost2010Prop38
140
0.0
102
RTVSPost2010PropOp38
 70
     1
102
RTVSPost2010Prop39
140
1.0
102
RTVSPost2010PropOp39
 70
     1
102
RTVSPost2010Prop40
 90
        0
102
RTVSPost2010PropOp40
 70
     1
102
RTVSPost2010Prop41ColorIndex
 90
       18
102
RTVSPost2010Prop41ColorRGB
 90
        0
102
RTVSPost2010PropOp41
 70
     1
102
RTVSPost2010Prop42
 90
       50
102
RTVSPost2010PropOp42
 70
     1
102
RTVSPost2010Prop43
 90
        3
102
RTVSPost2010PropOp43
 70
     1
102
RTVSPost2010Prop44ColorIndex
 90
        5
102
RTVSPost2010Prop44ColorRGB
 90
      255
102
RTVSPost2010PropOp44
 70
     1
102
RTVSPost2010Prop45
280
     0
102
RTVSPost2010PropOp45
 70
     1
102
RTVSPost2010Prop46
 90
       50
102
RTVSPost2010PropOp46
 70
     1
102
RTVSPost2010Prop47
 90
       50
102
RTVSPost2010PropOp47
 70
     1
102
RTVSPost2010Prop48
 90
       50
102
RTVSPost2010PropOp48
 70
     1
102
RTVSPost2010Prop49
280
     0
102
RTVSPost2010PropOp49
 70
     1
102
RTVSPost2010Prop50
 90
       50
102
RTVSPost2010PropOp50
 70
     1
102
RTVSPost2010Prop51ColorIndex
 90
      256
102
RTVSPost2010Prop51ColorRGB
 90
-16777216
102
RTVSPost2010PropOp51
 70
     0
102
RTVSPost2010Prop52
140
1.0
102
RTVSPost2010PropOp52
 70
     0
102
RTVSPost2010Prop53
 90
        2
102
RTVSPost2010PropOp53
 70
     1
102
RTVSPost2010Prop54
  1
strokes_ogs.tif
102
RTVSPost2010PropOp54
 70
     1
102
RTVSPost2010Prop55
280
     0
102
RTVSPost2010PropOp55
 70
     1
102
RTVSPost2010Prop56
140
1.0
102
RTVSPost2010PropOp56
 70
     1
102
RTVSPost2010Prop57
140
1.0
102
RTVSPost2010PropOp57
 70
     1
  0
XRECORD
  5
26F
102
{ACAD_REACTORS
330
26E
102
}
330
26E
100
AcDbXrecord
280
     1
102
RTVSPropertyOp0
 70
     1
102
RTVSPropertyOp1
 70
     1
102
RTVSPropertyOp2
 70
     1
102
RTVSPropertyOp3
 70
     1
102
RTVSPropertyOp4
 70
     1
102
RTVSPropertyOp5
 70
     1
102
RTVSPropertyOp6
 70
     1
102
RTVSPropertyOp7
 70
     1
102
RTVSPropertyOp8
 70
     1
102
RTVSPropertyOp9
 70
     1
102
RTVSPropertyOp10
 70
     1
102
RTVSPropertyOp11
 70
     1
102
RTVSPropertyOp12
 70
     1
102
RTVSPropertyOp13
 70
     1
102
RTVSPropertyOp14
 70
     1
102
RTVSPropertyOp15
 70
     1
102
RTVSPropertyOp16
 70
     1
102
RTVSPropertyOp17
 70
     1
102
RTVSPropertyOp18
 70
     1
102
RTVSPropertyOp19
 70
     1
102
RTVSPropertyOp20
 70
     1
102
RTVSPropertyOp21
 70
     1
102
RTVSPropertyOp22
 70
     1
102
RTVSPropertyOp23
 70
     1
102
RTVSPropertyOp24
 70
     1
102
RTVSPropertyOp25
 70
     1
102
RTVSPropertyOp26
 70
     1
102
RTVSPropertyOp27
 70
     1
102
RTVSPropertyOp28
 70
     1
102
RTVSPropertyOp29
 70
     1
102
RTVSPropertyOp30
 70
     1
102
RTVSPropertyOp31
 70
     1
102
RTVSPropertyOp32
 70
     1
102
RTVSPropertyOp33
 70
     1
102
RTVSPropertyOp34
 70
     1
102
RTVSPropertyOp35
 70
     1
102
RTVSPropertyOp36
 70
     1
102
RTVSPropertyOp37
 70
     1
102
RTVSPropertyOp38
 70
     1
102
RTVSPropertyOp39
 70
     1
102
RTVSPropertyOp40
 70
     1
102
RTVSPropertyOp41
 70
     1
102
RTVSPropertyOp42
 70
     1
102
RTVSPropertyOp43
 70
     1
102
RTVSPropertyOp44
 70
     1
102
RTVSPropertyOp45
 70
     1
102
RTVSPropertyOp46
 70
     1
102
RTVSPropertyOp47
 70
     1
102
RTVSPropertyOp48
 70
     1
102
RTVSPropertyOp49
 70
     1
102
RTVSPropertyOp50
 70
     1
102
RTVSPropertyOp51
 70
     0
102
RTVSPropertyOp52
 70
     0
102
RTVSPropertyOp53
 70
     1
102
RTVSPropertyOp54
 70
     1
102
RTVSPropertyOp55
 70
     1
102
RTVSPropertyOp56
 70
     1
102
RTVSPropertyOp57
 70
     1
102
RTVSPost2010Prop28
280
     0
102
RTVSPost2010PropOp28
 70
     1
102
RTVSPost2010Prop29
280
     1
102
RTVSPost2010PropOp29
 70
     1
102
RTVSPost2010Prop30
280
     1
102
RTVSPost2010PropOp30
 70
     1
102
RTVSPost2010Prop31
280
     0
102
RTVSPost2010PropOp31
 70
     1
102
RTVSPost2010Prop32
280
     0
102
RTVSPost2010PropOp32
 70
     1
102
RTVSPost2010Prop33
280
     0
102
RTVSPost2010PropOp33
 70
     1
102
RTVSPost2010Prop34
280
     0
102
RTVSPost2010PropOp34
 70
     1
102
RTVSPost2010Prop35
280
     0
102
RTVSPost2010PropOp35
 70
     1
102
RTVSPost2010Prop36
280
     0
102
RTVSPost2010PropOp36
 70
     1
102
RTVSPost2010Prop37
 90
       50
102
RTVSPost2010PropOp37
 70
     1
102
RTVSPost2010Prop38
140
0.0
102
RTVSPost2010PropOp38
 70
     1
102
RTVSPost2010Prop39
140
1.0
102
RTVSPost2010PropOp39
 70
     1
102
RTVSPost2010Prop40
 90
        0
102
RTVSPost2010PropOp40
 70
     1
102
RTVSPost2010Prop41ColorIndex
 90
       18
102
RTVSPost2010Prop41ColorRGB
 90
        0
102
RTVSPost2010PropOp41
 70
     1
102
RTVSPost2010Prop42
 90
       50
102
RTVSPost2010PropOp42
 70
     1
102
RTVSPost2010Prop43
 90
        3
102
RTVSPost2010PropOp43
 70
     1
102
RTVSPost2010Prop44ColorIndex
 90
        5
102
RTVSPost2010Prop44ColorRGB
 90
      255
102
RTVSPost2010PropOp44
 70
     1
102
RTVSPost2010Prop45
280
     0
102
RTVSPost2010PropOp45
 70
     1
102
RTVSPost2010Prop46
 90
       50
102
RTVSPost2010PropOp46
 70
     1
102
RTVSPost2010Prop47
 90
       50
102
RTVSPost2010PropOp47
 70
     1
102
RTVSPost2010Prop48
 90
       50
102
RTVSPost2010PropOp48
 70
     1
102
RTVSPost2010Prop49
280
     0
102
RTVSPost2010PropOp49
 70
     1
102
RTVSPost2010Prop50
 90
       50
102
RTVSPost2010PropOp50
 70
     1
102
RTVSPost2010Prop51ColorIndex
 90
      256
102
RTVSPost2010Prop51ColorRGB
 90
-16777216
102
RTVSPost2010PropOp51
 70
     0
102
RTVSPost2010Prop52
140
1.0
102
RTVSPost2010PropOp52
 70
     0
102
RTVSPost2010Prop53
 90
        2
102
RTVSPost2010PropOp53
 70
     1
102
RTVSPost2010Prop54
  1
strokes_ogs.tif
102
RTVSPost2010PropOp54
 70
     1
102
RTVSPost2010Prop55
280
     0
102
RTVSPost2010PropOp55
 70
     1
102
RTVSPost2010Prop56
140
1.0
102
RTVSPost2010PropOp56
 70
     1
102
RTVSPost2010Prop57
140
1.0
102
RTVSPost2010PropOp57
 70
     1
  0
XRECORD
  5
27F
102
{ACAD_REACTORS
330
27E
102
}
330
27E
100
AcDbXrecord
280
     1
102
RTVSPropertyOp0
 70
     0
102
RTVSPropertyOp1
 70
     0
102
RTVSPropertyOp2
 70
     0
102
RTVSPropertyOp3
 70
     0
102
RTVSPropertyOp4
 70
     0
102
RTVSPropertyOp5
 70
     0
102
RTVSPropertyOp6
 70
     0
102
RTVSPropertyOp7
 70
     0
102
RTVSPropertyOp8
 70
     0
102
RTVSPropertyOp9
 70
     0
102
RTVSPropertyOp10
 70
     0
102
RTVSPropertyOp11
 70
     0
102
RTVSPropertyOp12
 70
     0
102
RTVSPropertyOp13
 70
     0
102
RTVSPropertyOp14
 70
     2
102
RTVSPropertyOp15
 70
     0
102
RTVSPropertyOp16
 70
     0
102
RTVSPropertyOp17
 70
     0
102
RTVSPropertyOp18
 70
     0
102
RTVSPropertyOp19
 70
     0
102
RTVSPropertyOp20
 70
     0
102
RTVSPropertyOp21
 70
     0
102
RTVSPropertyOp22
 70
     0
102
RTVSPropertyOp23
 70
     0
102
RTVSPropertyOp24
 70
     0
102
RTVSPropertyOp25
 70
     0
102
RTVSPropertyOp26
 70
     0
102
RTVSPropertyOp27
 70
     0
102
RTVSPropertyOp28
 70
     0
102
RTVSPropertyOp29
 70
     0
102
RTVSPropertyOp30
 70
     0
102
RTVSPropertyOp31
 70
     0
102
RTVSPropertyOp32
 70
     0
102
RTVSPropertyOp33
 70
     0
102
RTVSPropertyOp34
 70
     0
102
RTVSPropertyOp35
 70
     0
102
RTVSPropertyOp36
 70
     0
102
RTVSPropertyOp37
 70
     0
102
RTVSPropertyOp38
 70
     0
102
RTVSPropertyOp39
 70
     0
102
RTVSPropertyOp40
 70
     0
102
RTVSPropertyOp41
 70
     0
102
RTVSPropertyOp42
 70
     0
102
RTVSPropertyOp43
 70
     0
102
RTVSPropertyOp44
 70
     0
102
RTVSPropertyOp45
 70
     0
102
RTVSPropertyOp46
 70
     0
102
RTVSPropertyOp47
 70
     0
102
RTVSPropertyOp48
 70
     0
102
RTVSPropertyOp49
 70
     0
102
RTVSPropertyOp50
 70
     0
102
RTVSPropertyOp51
 70
     0
102
RTVSPropertyOp52
 70
     0
102
RTVSPropertyOp53
 70
     0
102
RTVSPropertyOp54
 70
     0
102
RTVSPropertyOp55
 70
     0
102
RTVSPropertyOp56
 70
     0
102
RTVSPropertyOp57
 70
     0
102
RTVSPost2010Prop28
280
     0
102
RTVSPost2010PropOp28
 70
     0
102
RTVSPost2010Prop29
280
     1
102
RTVSPost2010PropOp29
 70
     0
102
RTVSPost2010Prop30
280
     1
102
RTVSPost2010PropOp30
 70
     0
102
RTVSPost2010Prop31
280
     0
102
RTVSPost2010PropOp31
 70
     0
102
RTVSPost2010Prop32
280
     0
102
RTVSPost2010PropOp32
 70
     0
102
RTVSPost2010Prop33
280
     0
102
RTVSPost2010PropOp33
 70
     0
102
RTVSPost2010Prop34
280
     0
102
RTVSPost2010PropOp34
 70
     0
102
RTVSPost2010Prop35
280
     0
102
RTVSPost2010PropOp35
 70
     0
102
RTVSPost2010Prop36
280
     0
102
RTVSPost2010PropOp36
 70
     0
102
RTVSPost2010Prop37
 90
       50
102
RTVSPost2010PropOp37
 70
     0
102
RTVSPost2010Prop38
140
0.0
102
RTVSPost2010PropOp38
 70
     0
102
RTVSPost2010Prop39
140
1.0
102
RTVSPost2010PropOp39
 70
     0
102
RTVSPost2010Prop40
 90
        0
102
RTVSPost2010PropOp40
 70
     0
102
RTVSPost2010Prop41ColorIndex
 90
       18
102
RTVSPost2010Prop41ColorRGB
 90
        0
102
RTVSPost2010PropOp41
 70
     0
102
RTVSPost2010Prop42
 90
       50
102
RTVSPost2010PropOp42
 70
     0
102
RTVSPost2010Prop43
 90
        3
102
RTVSPost2010PropOp43
 70
     0
102
RTVSPost2010Prop44ColorIndex
 90
        5
102
RTVSPost2010Prop44ColorRGB
 90
      255
102
RTVSPost2010PropOp44
 70
     0
102
RTVSPost2010Prop45
280
     0
102
RTVSPost2010PropOp45
 70
     0
102
RTVSPost2010Prop46
 90
       50
102
RTVSPost2010PropOp46
 70
     0
102
RTVSPost2010Prop47
 90
       50
102
RTVSPost2010PropOp47
 70
     0
102
RTVSPost2010Prop48
 90
       50
102
RTVSPost2010PropOp48
 70
     0
102
RTVSPost2010Prop49
280
     0
102
RTVSPost2010PropOp49
 70
     0
102
RTVSPost2010Prop50
 90
       50
102
RTVSPost2010PropOp50
 70
     0
102
RTVSPost2010Prop51ColorIndex
 90
      256
102
RTVSPost2010Prop51ColorRGB
 90
-16777216
102
RTVSPost2010PropOp51
 70
     0
102
RTVSPost2010Prop52
140
1.0
102
RTVSPost2010PropOp52
 70
     0
102
RTVSPost2010Prop53
 90
        2
102
RTVSPost2010PropOp53
 70
     0
102
RTVSPost2010Prop54
  1
strokes_ogs.tif
102
RTVSPost2010PropOp54
 70
     0
102
RTVSPost2010Prop55
280
     0
102
RTVSPost2010PropOp55
 70
     0
102
RTVSPost2010Prop56
140
1.0
102
RTVSPost2010PropOp56
 70
     0
102
RTVSPost2010Prop57
140
1.0
102
RTVSPost2010PropOp57
 70
     0
  0
XRECORD
  5
277
102
{ACAD_REACTORS
330
276
102
}
330
276
100
AcDbXrecord
280
     1
102
RTVSPropertyOp0
 70
     1
102
RTVSPropertyOp1
 70
     1
102
RTVSPropertyOp2
 70
     1
102
RTVSPropertyOp3
 70
     1
102
RTVSPropertyOp4
 70
     1
102
RTVSPropertyOp5
 70
     1
102
RTVSPropertyOp6
 70
     1
102
RTVSPropertyOp7
 70
     1
102
RTVSPropertyOp8
 70
     1
102
RTVSPropertyOp9
 70
     1
102
RTVSPropertyOp10
 70
     1
102
RTVSPropertyOp11
 70
     1
102
RTVSPropertyOp12
 70
     1
102
RTVSPropertyOp13
 70
     1
102
RTVSPropertyOp14
 70
     1
102
RTVSPropertyOp15
 70
     1
102
RTVSPropertyOp16
 70
     1
102
RTVSPropertyOp17
 70
     1
102
RTVSPropertyOp18
 70
     1
102
RTVSPropertyOp19
 70
     1
102
RTVSPropertyOp20
 70
     1
102
RTVSPropertyOp21
 70
     1
102
RTVSPropertyOp22
 70
     1
102
RTVSPropertyOp23
 70
     1
102
RTVSPropertyOp24
 70
     1
102
RTVSPropertyOp25
 70
     1
102
RTVSPropertyOp26
 70
     1
102
RTVSPropertyOp27
 70
     1
102
RTVSPropertyOp28
 70
     1
102
RTVSPropertyOp29
 70
     1
102
RTVSPropertyOp30
 70
     1
102
RTVSPropertyOp31
 70
     1
102
RTVSPropertyOp32
 70
     1
102
RTVSPropertyOp33
 70
     1
102
RTVSPropertyOp34
 70
     1
102
RTVSPropertyOp35
 70
     1
102
RTVSPropertyOp36
 70
     1
102
RTVSPropertyOp37
 70
     1
102
RTVSPropertyOp38
 70
     1
102
RTVSPropertyOp39
 70
     1
102
RTVSPropertyOp40
 70
     1
102
RTVSPropertyOp41
 70
     1
102
RTVSPropertyOp42
 70
     1
102
RTVSPropertyOp43
 70
     1
102
RTVSPropertyOp44
 70
     1
102
RTVSPropertyOp45
 70
     1
102
RTVSPropertyOp46
 70
     1
102
RTVSPropertyOp47
 70
     1
102
RTVSPropertyOp48
 70
     1
102
RTVSPropertyOp49
 70
     1
102
RTVSPropertyOp50
 70
     1
102
RTVSPropertyOp51
 70
     0
102
RTVSPropertyOp52
 70
     0
102
RTVSPropertyOp53
 70
     1
102
RTVSPropertyOp54
 70
     1
102
RTVSPropertyOp55
 70
     1
102
RTVSPropertyOp56
 70
     1
102
RTVSPropertyOp57
 70
     1
102
RTVSPost2010Prop28
280
     0
102
RTVSPost2010PropOp28
 70
     1
102
RTVSPost2010Prop29
280
     1
102
RTVSPost2010PropOp29
 70
     1
102
RTVSPost2010Prop30
280
     1
102
RTVSPost2010PropOp30
 70
     1
102
RTVSPost2010Prop31
280
     0
102
RTVSPost2010PropOp31
 70
     1
102
RTVSPost2010Prop32
280
     0
102
RTVSPost2010PropOp32
 70
     1
102
RTVSPost2010Prop33
280
     0
102
RTVSPost2010PropOp33
 70
     1
102
RTVSPost2010Prop34
280
     0
102
RTVSPost2010PropOp34
 70
     1
102
RTVSPost2010Prop35
280
     0
102
RTVSPost2010PropOp35
 70
     1
102
RTVSPost2010Prop36
280
     0
102
RTVSPost2010PropOp36
 70
     1
102
RTVSPost2010Prop37
 90
       50
102
RTVSPost2010PropOp37
 70
     1
102
RTVSPost2010Prop38
140
0.0
102
RTVSPost2010PropOp38
 70
     1
102
RTVSPost2010Prop39
140
1.0
102
RTVSPost2010PropOp39
 70
     1
102
RTVSPost2010Prop40
 90
        0
102
RTVSPost2010PropOp40
 70
     1
102
RTVSPost2010Prop41ColorIndex
 90
       18
102
RTVSPost2010Prop41ColorRGB
 90
        0
102
RTVSPost2010PropOp41
 70
     1
102
RTVSPost2010Prop42
 90
       50
102
RTVSPost2010PropOp42
 70
     1
102
RTVSPost2010Prop43
 90
        3
102
RTVSPost2010PropOp43
 70
     1
102
RTVSPost2010Prop44ColorIndex
 90
        5
102
RTVSPost2010Prop44ColorRGB
 90
      255
102
RTVSPost2010PropOp44
 70
     1
102
RTVSPost2010Prop45
280
     0
102
RTVSPost2010PropOp45
 70
     1
102
RTVSPost2010Prop46
 90
       50
102
RTVSPost2010PropOp46
 70
     1
102
RTVSPost2010Prop47
 90
       50
102
RTVSPost2010PropOp47
 70
     1
102
RTVSPost2010Prop48
 90
       50
102
RTVSPost2010PropOp48
 70
     1
102
RTVSPost2010Prop49
280
     0
102
RTVSPost2010PropOp49
 70
     1
102
RTVSPost2010Prop50
 90
       50
102
RTVSPost2010PropOp50
 70
     1
102
RTVSPost2010Prop51ColorIndex
 90
      256
102
RTVSPost2010Prop51ColorRGB
 90
-16777216
102
RTVSPost2010PropOp51
 70
     0
102
RTVSPost2010Prop52
140
1.0
102
RTVSPost2010PropOp52
 70
     0
102
RTVSPost2010Prop53
 90
        2
102
RTVSPost2010PropOp53
 70
     1
102
RTVSPost2010Prop54
  1
strokes_ogs.tif
102
RTVSPost2010PropOp54
 70
     1
102
RTVSPost2010Prop55
280
     0
102
RTVSPost2010PropOp55
 70
     1
102
RTVSPost2010Prop56
140
1.0
102
RTVSPost2010PropOp56
 70
     1
102
RTVSPost2010Prop57
140
1.0
102
RTVSPost2010PropOp57
 70
     1
  0
XRECORD
  5
25B
102
{ACAD_REACTORS
330
25A
102
}
330
25A
100
AcDbXrecord
280
     1
102
RTVSPropertyOp0
 70
     1
102
RTVSPropertyOp1
 70
     1
102
RTVSPropertyOp2
 70
     1
102
RTVSPropertyOp3
 70
     1
102
RTVSPropertyOp4
 70
     1
102
RTVSPropertyOp5
 70
     1
102
RTVSPropertyOp6
 70
     1
102
RTVSPropertyOp7
 70
     1
102
RTVSPropertyOp8
 70
     1
102
RTVSPropertyOp9
 70
     1
102
RTVSPropertyOp10
 70
     1
102
RTVSPropertyOp11
 70
     1
102
RTVSPropertyOp12
 70
     1
102
RTVSPropertyOp13
 70
     1
102
RTVSPropertyOp14
 70
     1
102
RTVSPropertyOp15
 70
     1
102
RTVSPropertyOp16
 70
     1
102
RTVSPropertyOp17
 70
     1
102
RTVSPropertyOp18
 70
     1
102
RTVSPropertyOp19
 70
     1
102
RTVSPropertyOp20
 70
     1
102
RTVSPropertyOp21
 70
     1
102
RTVSPropertyOp22
 70
     1
102
RTVSPropertyOp23
 70
     1
102
RTVSPropertyOp24
 70
     1
102
RTVSPropertyOp25
 70
     1
102
RTVSPropertyOp26
 70
     1
102
RTVSPropertyOp27
 70
     1
102
RTVSPropertyOp28
 70
     1
102
RTVSPropertyOp29
 70
     1
102
RTVSPropertyOp30
 70
     1
102
RTVSPropertyOp31
 70
     1
102
RTVSPropertyOp32
 70
     1
102
RTVSPropertyOp33
 70
     1
102
RTVSPropertyOp34
 70
     1
102
RTVSPropertyOp35
 70
     1
102
RTVSPropertyOp36
 70
     1
102
RTVSPropertyOp37
 70
     1
102
RTVSPropertyOp38
 70
     1
102
RTVSPropertyOp39
 70
     1
102
RTVSPropertyOp40
 70
     1
102
RTVSPropertyOp41
 70
     1
102
RTVSPropertyOp42
 70
     1
102
RTVSPropertyOp43
 70
     1
102
RTVSPropertyOp44
 70
     1
102
RTVSPropertyOp45
 70
     1
102
RTVSPropertyOp46
 70
     1
102
RTVSPropertyOp47
 70
     1
102
RTVSPropertyOp48
 70
     1
102
RTVSPropertyOp49
 70
     1
102
RTVSPropertyOp50
 70
     1
102
RTVSPropertyOp51
 70
     0
102
RTVSPropertyOp52
 70
     0
102
RTVSPropertyOp53
 70
     1
102
RTVSPropertyOp54
 70
     1
102
RTVSPropertyOp55
 70
     1
102
RTVSPropertyOp56
 70
     1
102
RTVSPropertyOp57
 70
     1
102
RTVSPost2010Prop28
280
     0
102
RTVSPost2010PropOp28
 70
     1
102
RTVSPost2010Prop29
280
     1
102
RTVSPost2010PropOp29
 70
     1
102
RTVSPost2010Prop30
280
     1
102
RTVSPost2010PropOp30
 70
     1
102
RTVSPost2010Prop31
280
     0
102
RTVSPost2010PropOp31
 70
     1
102
RTVSPost2010Prop32
280
     0
102
RTVSPost2010PropOp32
 70
     1
102
RTVSPost2010Prop33
280
     0
102
RTVSPost2010PropOp33
 70
     1
102
RTVSPost2010Prop34
280
     0
102
RTVSPost2010PropOp34
 70
     1
102
RTVSPost2010Prop35
280
     0
102
RTVSPost2010PropOp35
 70
     1
102
RTVSPost2010Prop36
280
     0
102
RTVSPost2010PropOp36
 70
     1
102
RTVSPost2010Prop37
 90
       50
102
RTVSPost2010PropOp37
 70
     1
102
RTVSPost2010Prop38
140
0.0
102
RTVSPost2010PropOp38
 70
     1
102
RTVSPost2010Prop39
140
1.0
102
RTVSPost2010PropOp39
 70
     1
102
RTVSPost2010Prop40
 90
        0
102
RTVSPost2010PropOp40
 70
     1
102
RTVSPost2010Prop41ColorIndex
 90
       18
102
RTVSPost2010Prop41ColorRGB
 90
        0
102
RTVSPost2010PropOp41
 70
     1
102
RTVSPost2010Prop42
 90
       50
102
RTVSPost2010PropOp42
 70
     1
102
RTVSPost2010Prop43
 90
        3
102
RTVSPost2010PropOp43
 70
     1
102
RTVSPost2010Prop44ColorIndex
 90
        5
102
RTVSPost2010Prop44ColorRGB
 90
      255
102
RTVSPost2010PropOp44
 70
     1
102
RTVSPost2010Prop45
280
     0
102
RTVSPost2010PropOp45
 70
     1
102
RTVSPost2010Prop46
 90
       50
102
RTVSPost2010PropOp46
 70
     1
102
RTVSPost2010Prop47
 90
       50
102
RTVSPost2010PropOp47
 70
     1
102
RTVSPost2010Prop48
 90
       50
102
RTVSPost2010PropOp48
 70
     1
102
RTVSPost2010Prop49
280
     0
102
RTVSPost2010PropOp49
 70
     1
102
RTVSPost2010Prop50
 90
       50
102
RTVSPost2010PropOp50
 70
     1
102
RTVSPost2010Prop51ColorIndex
 90
      256
102
RTVSPost2010Prop51ColorRGB
 90
-16777216
102
RTVSPost2010PropOp51
 70
     0
102
RTVSPost2010Prop52
140
1.0
102
RTVSPost2010PropOp52
 70
     0
102
RTVSPost2010Prop53
 90
        2
102
RTVSPost2010PropOp53
 70
     1
102
RTVSPost2010Prop54
  1
strokes_ogs.tif
102
RTVSPost2010PropOp54
 70
     1
102
RTVSPost2010Prop55
280
     0
102
RTVSPost2010PropOp55
 70
     1
102
RTVSPost2010Prop56
140
1.0
102
RTVSPost2010PropOp56
 70
     1
102
RTVSPost2010Prop57
140
1.0
102
RTVSPost2010PropOp57
 70
     1
  0
XRECORD
  5
25D
102
{ACAD_REACTORS
330
25C
102
}
330
25C
100
AcDbXrecord
280
     1
102
RTVSPropertyOp0
 70
     1
102
RTVSPropertyOp1
 70
     1
102
RTVSPropertyOp2
 70
     1
102
RTVSPropertyOp3
 70
     1
102
RTVSPropertyOp4
 70
     1
102
RTVSPropertyOp5
 70
     1
102
RTVSPropertyOp6
 70
     1
102
RTVSPropertyOp7
 70
     1
102
RTVSPropertyOp8
 70
     1
102
RTVSPropertyOp9
 70
     1
102
RTVSPropertyOp10
 70
     1
102
RTVSPropertyOp11
 70
     1
102
RTVSPropertyOp12
 70
     1
102
RTVSPropertyOp13
 70
     1
102
RTVSPropertyOp14
 70
     1
102
RTVSPropertyOp15
 70
     1
102
RTVSPropertyOp16
 70
     1
102
RTVSPropertyOp17
 70
     1
102
RTVSPropertyOp18
 70
     1
102
RTVSPropertyOp19
 70
     1
102
RTVSPropertyOp20
 70
     1
102
RTVSPropertyOp21
 70
     1
102
RTVSPropertyOp22
 70
     1
102
RTVSPropertyOp23
 70
     1
102
RTVSPropertyOp24
 70
     1
102
RTVSPropertyOp25
 70
     1
102
RTVSPropertyOp26
 70
     1
102
RTVSPropertyOp27
 70
     1
102
RTVSPropertyOp28
 70
     1
102
RTVSPropertyOp29
 70
     1
102
RTVSPropertyOp30
 70
     1
102
RTVSPropertyOp31
 70
     1
102
RTVSPropertyOp32
 70
     1
102
RTVSPropertyOp33
 70
     1
102
RTVSPropertyOp34
 70
     1
102
RTVSPropertyOp35
 70
     1
102
RTVSPropertyOp36
 70
     1
102
RTVSPropertyOp37
 70
     1
102
RTVSPropertyOp38
 70
     1
102
RTVSPropertyOp39
 70
     1
102
RTVSPropertyOp40
 70
     1
102
RTVSPropertyOp41
 70
     1
102
RTVSPropertyOp42
 70
     1
102
RTVSPropertyOp43
 70
     1
102
RTVSPropertyOp44
 70
     1
102
RTVSPropertyOp45
 70
     1
102
RTVSPropertyOp46
 70
     1
102
RTVSPropertyOp47
 70
     1
102
RTVSPropertyOp48
 70
     1
102
RTVSPropertyOp49
 70
     1
102
RTVSPropertyOp50
 70
     1
102
RTVSPropertyOp51
 70
     0
102
RTVSPropertyOp52
 70
     0
102
RTVSPropertyOp53
 70
     1
102
RTVSPropertyOp54
 70
     1
102
RTVSPropertyOp55
 70
     1
102
RTVSPropertyOp56
 70
     1
102
RTVSPropertyOp57
 70
     1
102
RTVSPost2010Prop28
280
     0
102
RTVSPost2010PropOp28
 70
     1
102
RTVSPost2010Prop29
280
     1
102
RTVSPost2010PropOp29
 70
     1
102
RTVSPost2010Prop30
280
     1
102
RTVSPost2010PropOp30
 70
     1
102
RTVSPost2010Prop31
280
     0
102
RTVSPost2010PropOp31
 70
     1
102
RTVSPost2010Prop32
280
     0
102
RTVSPost2010PropOp32
 70
     1
102
RTVSPost2010Prop33
280
     0
102
RTVSPost2010PropOp33
 70
     1
102
RTVSPost2010Prop34
280
     0
102
RTVSPost2010PropOp34
 70
     1
102
RTVSPost2010Prop35
280
     0
102
RTVSPost2010PropOp35
 70
     1
102
RTVSPost2010Prop36
280
     0
102
RTVSPost2010PropOp36
 70
     1
102
RTVSPost2010Prop37
 90
       50
102
RTVSPost2010PropOp37
 70
     1
102
RTVSPost2010Prop38
140
0.0
102
RTVSPost2010PropOp38
 70
     1
102
RTVSPost2010Prop39
140
1.0
102
RTVSPost2010PropOp39
 70
     1
102
RTVSPost2010Prop40
 90
        0
102
RTVSPost2010PropOp40
 70
     1
102
RTVSPost2010Prop41ColorIndex
 90
       18
102
RTVSPost2010Prop41ColorRGB
 90
        0
102
RTVSPost2010PropOp41
 70
     1
102
RTVSPost2010Prop42
 90
       50
102
RTVSPost2010PropOp42
 70
     1
102
RTVSPost2010Prop43
 90
        3
102
RTVSPost2010PropOp43
 70
     1
102
RTVSPost2010Prop44ColorIndex
 90
        5
102
RTVSPost2010Prop44ColorRGB
 90
      255
102
RTVSPost2010PropOp44
 70
     1
102
RTVSPost2010Prop45
280
     0
102
RTVSPost2010PropOp45
 70
     1
102
RTVSPost2010Prop46
 90
       50
102
RTVSPost2010PropOp46
 70
     1
102
RTVSPost2010Prop47
 90
       50
102
RTVSPost2010PropOp47
 70
     1
102
RTVSPost2010Prop48
 90
       50
102
RTVSPost2010PropOp48
 70
     1
102
RTVSPost2010Prop49
280
     0
102
RTVSPost2010PropOp49
 70
     1
102
RTVSPost2010Prop50
 90
       50
102
RTVSPost2010PropOp50
 70
     1
102
RTVSPost2010Prop51ColorIndex
 90
      256
102
RTVSPost2010Prop51ColorRGB
 90
-16777216
102
RTVSPost2010PropOp51
 70
     0
102
RTVSPost2010Prop52
140
1.0
102
RTVSPost2010PropOp52
 70
     0
102
RTVSPost2010Prop53
 90
        2
102
RTVSPost2010PropOp53
 70
     1
102
RTVSPost2010Prop54
  1
strokes_ogs.tif
102
RTVSPost2010PropOp54
 70
     1
102
RTVSPost2010Prop55
280
     0
102
RTVSPost2010PropOp55
 70
     1
102
RTVSPost2010Prop56
140
1.0
102
RTVSPost2010PropOp56
 70
     1
102
RTVSPost2010Prop57
140
1.0
102
RTVSPost2010PropOp57
 70
     1
  0
XRECORD
  5
25F
102
{ACAD_REACTORS
330
25E
102
}
330
25E
100
AcDbXrecord
280
     1
102
RTVSPropertyOp0
 70
     1
102
RTVSPropertyOp1
 70
     1
102
RTVSPropertyOp2
 70
     1
102
RTVSPropertyOp3
 70
     1
102
RTVSPropertyOp4
 70
     1
102
RTVSPropertyOp5
 70
     1
102
RTVSPropertyOp6
 70
     1
102
RTVSPropertyOp7
 70
     1
102
RTVSPropertyOp8
 70
     1
102
RTVSPropertyOp9
 70
     1
102
RTVSPropertyOp10
 70
     1
102
RTVSPropertyOp11
 70
     1
102
RTVSPropertyOp12
 70
     1
102
RTVSPropertyOp13
 70
     1
102
RTVSPropertyOp14
 70
     1
102
RTVSPropertyOp15
 70
     1
102
RTVSPropertyOp16
 70
     1
102
RTVSPropertyOp17
 70
     1
102
RTVSPropertyOp18
 70
     1
102
RTVSPropertyOp19
 70
     1
102
RTVSPropertyOp20
 70
     1
102
RTVSPropertyOp21
 70
     1
102
RTVSPropertyOp22
 70
     1
102
RTVSPropertyOp23
 70
     1
102
RTVSPropertyOp24
 70
     1
102
RTVSPropertyOp25
 70
     1
102
RTVSPropertyOp26
 70
     1
102
RTVSPropertyOp27
 70
     1
102
RTVSPropertyOp28
 70
     1
102
RTVSPropertyOp29
 70
     1
102
RTVSPropertyOp30
 70
     1
102
RTVSPropertyOp31
 70
     1
102
RTVSPropertyOp32
 70
     1
102
RTVSPropertyOp33
 70
     1
102
RTVSPropertyOp34
 70
     1
102
RTVSPropertyOp35
 70
     1
102
RTVSPropertyOp36
 70
     1
102
RTVSPropertyOp37
 70
     1
102
RTVSPropertyOp38
 70
     1
102
RTVSPropertyOp39
 70
     1
102
RTVSPropertyOp40
 70
     1
102
RTVSPropertyOp41
 70
     1
102
RTVSPropertyOp42
 70
     1
102
RTVSPropertyOp43
 70
     1
102
RTVSPropertyOp44
 70
     1
102
RTVSPropertyOp45
 70
     1
102
RTVSPropertyOp46
 70
     1
102
RTVSPropertyOp47
 70
     1
102
RTVSPropertyOp48
 70
     1
102
RTVSPropertyOp49
 70
     1
102
RTVSPropertyOp50
 70
     1
102
RTVSPropertyOp51
 70
     0
102
RTVSPropertyOp52
 70
     0
102
RTVSPropertyOp53
 70
     1
102
RTVSPropertyOp54
 70
     1
102
RTVSPropertyOp55
 70
     1
102
RTVSPropertyOp56
 70
     1
102
RTVSPropertyOp57
 70
     1
102
RTVSPost2010Prop28
280
     0
102
RTVSPost2010PropOp28
 70
     1
102
RTVSPost2010Prop29
280
     1
102
RTVSPost2010PropOp29
 70
     1
102
RTVSPost2010Prop30
280
     1
102
RTVSPost2010PropOp30
 70
     1
102
RTVSPost2010Prop31
280
     0
102
RTVSPost2010PropOp31
 70
     1
102
RTVSPost2010Prop32
280
     0
102
RTVSPost2010PropOp32
 70
     1
102
RTVSPost2010Prop33
280
     0
102
RTVSPost2010PropOp33
 70
     1
102
RTVSPost2010Prop34
280
     0
102
RTVSPost2010PropOp34
 70
     1
102
RTVSPost2010Prop35
280
     0
102
RTVSPost2010PropOp35
 70
     1
102
RTVSPost2010Prop36
280
     0
102
RTVSPost2010PropOp36
 70
     1
102
RTVSPost2010Prop37
 90
       50
102
RTVSPost2010PropOp37
 70
     1
102
RTVSPost2010Prop38
140
0.0
102
RTVSPost2010PropOp38
 70
     1
102
RTVSPost2010Prop39
140
1.0
102
RTVSPost2010PropOp39
 70
     1
102
RTVSPost2010Prop40
 90
        0
102
RTVSPost2010PropOp40
 70
     1
102
RTVSPost2010Prop41ColorIndex
 90
       18
102
RTVSPost2010Prop41ColorRGB
 90
        0
102
RTVSPost2010PropOp41
 70
     1
102
RTVSPost2010Prop42
 90
       50
102
RTVSPost2010PropOp42
 70
     1
102
RTVSPost2010Prop43
 90
        3
102
RTVSPost2010PropOp43
 70
     1
102
RTVSPost2010Prop44ColorIndex
 90
        5
102
RTVSPost2010Prop44ColorRGB
 90
      255
102
RTVSPost2010PropOp44
 70
     1
102
RTVSPost2010Prop45
280
     0
102
RTVSPost2010PropOp45
 70
     1
102
RTVSPost2010Prop46
 90
       50
102
RTVSPost2010PropOp46
 70
     1
102
RTVSPost2010Prop47
 90
       50
102
RTVSPost2010PropOp47
 70
     1
102
RTVSPost2010Prop48
 90
       50
102
RTVSPost2010PropOp48
 70
     1
102
RTVSPost2010Prop49
280
     0
102
RTVSPost2010PropOp49
 70
     1
102
RTVSPost2010Prop50
 90
       50
102
RTVSPost2010PropOp50
 70
     1
102
RTVSPost2010Prop51ColorIndex
 90
      256
102
RTVSPost2010Prop51ColorRGB
 90
-16777216
102
RTVSPost2010PropOp51
 70
     0
102
RTVSPost2010Prop52
140
1.0
102
RTVSPost2010PropOp52
 70
     0
102
RTVSPost2010Prop53
 90
        2
102
RTVSPost2010PropOp53
 70
     1
102
RTVSPost2010Prop54
  1
strokes_ogs.tif
102
RTVSPost2010PropOp54
 70
     1
102
RTVSPost2010Prop55
280
     0
102
RTVSPost2010PropOp55
 70
     1
102
RTVSPost2010Prop56
140
1.0
102
RTVSPost2010PropOp56
 70
     1
102
RTVSPost2010Prop57
140
1.0
102
RTVSPost2010PropOp57
 70
     1
  0
XRECORD
  5
261
102
{ACAD_REACTORS
330
260
102
}
330
260
100
AcDbXrecord
280
     1
102
RTVSPropertyOp0
 70
     1
102
RTVSPropertyOp1
 70
     1
102
RTVSPropertyOp2
 70
     1
102
RTVSPropertyOp3
 70
     1
102
RTVSPropertyOp4
 70
     1
102
RTVSPropertyOp5
 70
     1
102
RTVSPropertyOp6
 70
     1
102
RTVSPropertyOp7
 70
     1
102
RTVSPropertyOp8
 70
     1
102
RTVSPropertyOp9
 70
     1
102
RTVSPropertyOp10
 70
     1
102
RTVSPropertyOp11
 70
     1
102
RTVSPropertyOp12
 70
     1
102
RTVSPropertyOp13
 70
     1
102
RTVSPropertyOp14
 70
     1
102
RTVSPropertyOp15
 70
     1
102
RTVSPropertyOp16
 70
     1
102
RTVSPropertyOp17
 70
     1
102
RTVSPropertyOp18
 70
     1
102
RTVSPropertyOp19
 70
     1
102
RTVSPropertyOp20
 70
     1
102
RTVSPropertyOp21
 70
     1
102
RTVSPropertyOp22
 70
     1
102
RTVSPropertyOp23
 70
     1
102
RTVSPropertyOp24
 70
     1
102
RTVSPropertyOp25
 70
     1
102
RTVSPropertyOp26
 70
     1
102
RTVSPropertyOp27
 70
     1
102
RTVSPropertyOp28
 70
     1
102
RTVSPropertyOp29
 70
     1
102
RTVSPropertyOp30
 70
     1
102
RTVSPropertyOp31
 70
     1
102
RTVSPropertyOp32
 70
     1
102
RTVSPropertyOp33
 70
     1
102
RTVSPropertyOp34
 70
     1
102
RTVSPropertyOp35
 70
     1
102
RTVSPropertyOp36
 70
     1
102
RTVSPropertyOp37
 70
     1
102
RTVSPropertyOp38
 70
     1
102
RTVSPropertyOp39
 70
     1
102
RTVSPropertyOp40
 70
     1
102
RTVSPropertyOp41
 70
     1
102
RTVSPropertyOp42
 70
     1
102
RTVSPropertyOp43
 70
     1
102
RTVSPropertyOp44
 70
     1
102
RTVSPropertyOp45
 70
     1
102
RTVSPropertyOp46
 70
     1
102
RTVSPropertyOp47
 70
     1
102
RTVSPropertyOp48
 70
     1
102
RTVSPropertyOp49
 70
     1
102
RTVSPropertyOp50
 70
     1
102
RTVSPropertyOp51
 70
     0
102
RTVSPropertyOp52
 70
     0
102
RTVSPropertyOp53
 70
     1
102
RTVSPropertyOp54
 70
     1
102
RTVSPropertyOp55
 70
     1
102
RTVSPropertyOp56
 70
     1
102
RTVSPropertyOp57
 70
     1
102
RTVSPost2010Prop28
280
     0
102
RTVSPost2010PropOp28
 70
     1
102
RTVSPost2010Prop29
280
     1
102
RTVSPost2010PropOp29
 70
     1
102
RTVSPost2010Prop30
280
     1
102
RTVSPost2010PropOp30
 70
     1
102
RTVSPost2010Prop31
280
     0
102
RTVSPost2010PropOp31
 70
     1
102
RTVSPost2010Prop32
280
     0
102
RTVSPost2010PropOp32
 70
     1
102
RTVSPost2010Prop33
280
     0
102
RTVSPost2010PropOp33
 70
     1
102
RTVSPost2010Prop34
280
     0
102
RTVSPost2010PropOp34
 70
     1
102
RTVSPost2010Prop35
280
     0
102
RTVSPost2010PropOp35
 70
     1
102
RTVSPost2010Prop36
280
     0
102
RTVSPost2010PropOp36
 70
     1
102
RTVSPost2010Prop37
 90
       50
102
RTVSPost2010PropOp37
 70
     1
102
RTVSPost2010Prop38
140
0.0
102
RTVSPost2010PropOp38
 70
     1
102
RTVSPost2010Prop39
140
1.0
102
RTVSPost2010PropOp39
 70
     1
102
RTVSPost2010Prop40
 90
        0
102
RTVSPost2010PropOp40
 70
     1
102
RTVSPost2010Prop41ColorIndex
 90
       18
102
RTVSPost2010Prop41ColorRGB
 90
        0
102
RTVSPost2010PropOp41
 70
     1
102
RTVSPost2010Prop42
 90
       50
102
RTVSPost2010PropOp42
 70
     1
102
RTVSPost2010Prop43
 90
        3
102
RTVSPost2010PropOp43
 70
     1
102
RTVSPost2010Prop44ColorIndex
 90
        5
102
RTVSPost2010Prop44ColorRGB
 90
      255
102
RTVSPost2010PropOp44
 70
     1
102
RTVSPost2010Prop45
280
     0
102
RTVSPost2010PropOp45
 70
     1
102
RTVSPost2010Prop46
 90
       50
102
RTVSPost2010PropOp46
 70
     1
102
RTVSPost2010Prop47
 90
       50
102
RTVSPost2010PropOp47
 70
     1
102
RTVSPost2010Prop48
 90
       50
102
RTVSPost2010PropOp48
 70
     1
102
RTVSPost2010Prop49
280
     0
102
RTVSPost2010PropOp49
 70
     1
102
RTVSPost2010Prop50
 90
       50
102
RTVSPost2010PropOp50
 70
     1
102
RTVSPost2010Prop51ColorIndex
 90
      256
102
RTVSPost2010Prop51ColorRGB
 90
-16777216
102
RTVSPost2010PropOp51
 70
     0
102
RTVSPost2010Prop52
140
1.0
102
RTVSPost2010PropOp52
 70
     0
102
RTVSPost2010Prop53
 90
        2
102
RTVSPost2010PropOp53
 70
     1
102
RTVSPost2010Prop54
  1
strokes_ogs.tif
102
RTVSPost2010PropOp54
 70
     1
102
RTVSPost2010Prop55
280
     0
102
RTVSPost2010PropOp55
 70
     1
102
RTVSPost2010Prop56
140
1.0
102
RTVSPost2010PropOp56
 70
     1
102
RTVSPost2010Prop57
140
1.0
102
RTVSPost2010PropOp57
 70
     1
  0
XRECORD
  5
267
102
{ACAD_REACTORS
330
266
102
}
330
266
100
AcDbXrecord
280
     1
102
RTVSPropertyOp0
 70
     1
102
RTVSPropertyOp1
 70
     1
102
RTVSPropertyOp2
 70
     1
102
RTVSPropertyOp3
 70
     1
102
RTVSPropertyOp4
 70
     1
102
RTVSPropertyOp5
 70
     1
102
RTVSPropertyOp6
 70
     1
102
RTVSPropertyOp7
 70
     1
102
RTVSPropertyOp8
 70
     1
102
RTVSPropertyOp9
 70
     1
102
RTVSPropertyOp10
 70
     1
102
RTVSPropertyOp11
 70
     1
102
RTVSPropertyOp12
 70
     1
102
RTVSPropertyOp13
 70
     1
102
RTVSPropertyOp14
 70
     1
102
RTVSPropertyOp15
 70
     1
102
RTVSPropertyOp16
 70
     1
102
RTVSPropertyOp17
 70
     1
102
RTVSPropertyOp18
 70
     1
102
RTVSPropertyOp19
 70
     1
102
RTVSPropertyOp20
 70
     1
102
RTVSPropertyOp21
 70
     1
102
RTVSPropertyOp22
 70
     1
102
RTVSPropertyOp23
 70
     1
102
RTVSPropertyOp24
 70
     1
102
RTVSPropertyOp25
 70
     1
102
RTVSPropertyOp26
 70
     1
102
RTVSPropertyOp27
 70
     1
102
RTVSPropertyOp28
 70
     1
102
RTVSPropertyOp29
 70
     1
102
RTVSPropertyOp30
 70
     1
102
RTVSPropertyOp31
 70
     1
102
RTVSPropertyOp32
 70
     1
102
RTVSPropertyOp33
 70
     1
102
RTVSPropertyOp34
 70
     1
102
RTVSPropertyOp35
 70
     1
102
RTVSPropertyOp36
 70
     1
102
RTVSPropertyOp37
 70
     1
102
RTVSPropertyOp38
 70
     1
102
RTVSPropertyOp39
 70
     1
102
RTVSPropertyOp40
 70
     1
102
RTVSPropertyOp41
 70
     1
102
RTVSPropertyOp42
 70
     1
102
RTVSPropertyOp43
 70
     1
102
RTVSPropertyOp44
 70
     1
102
RTVSPropertyOp45
 70
     1
102
RTVSPropertyOp46
 70
     1
102
RTVSPropertyOp47
 70
     1
102
RTVSPropertyOp48
 70
     1
102
RTVSPropertyOp49
 70
     1
102
RTVSPropertyOp50
 70
     1
102
RTVSPropertyOp51
 70
     0
102
RTVSPropertyOp52
 70
     0
102
RTVSPropertyOp53
 70
     1
102
RTVSPropertyOp54
 70
     1
102
RTVSPropertyOp55
 70
     1
102
RTVSPropertyOp56
 70
     1
102
RTVSPropertyOp57
 70
     1
102
RTVSPost2010Prop28
280
     0
102
RTVSPost2010PropOp28
 70
     1
102
RTVSPost2010Prop29
280
     1
102
RTVSPost2010PropOp29
 70
     1
102
RTVSPost2010Prop30
280
     1
102
RTVSPost2010PropOp30
 70
     1
102
RTVSPost2010Prop31
280
     0
102
RTVSPost2010PropOp31
 70
     1
102
RTVSPost2010Prop32
280
     0
102
RTVSPost2010PropOp32
 70
     1
102
RTVSPost2010Prop33
280
     0
102
RTVSPost2010PropOp33
 70
     1
102
RTVSPost2010Prop34
280
     0
102
RTVSPost2010PropOp34
 70
     1
102
RTVSPost2010Prop35
280
     0
102
RTVSPost2010PropOp35
 70
     1
102
RTVSPost2010Prop36
280
     0
102
RTVSPost2010PropOp36
 70
     1
102
RTVSPost2010Prop37
 90
       50
102
RTVSPost2010PropOp37
 70
     1
102
RTVSPost2010Prop38
140
0.0
102
RTVSPost2010PropOp38
 70
     1
102
RTVSPost2010Prop39
140
1.0
102
RTVSPost2010PropOp39
 70
     1
102
RTVSPost2010Prop40
 90
        0
102
RTVSPost2010PropOp40
 70
     1
102
RTVSPost2010Prop41ColorIndex
 90
       18
102
RTVSPost2010Prop41ColorRGB
 90
        0
102
RTVSPost2010PropOp41
 70
     1
102
RTVSPost2010Prop42
 90
       50
102
RTVSPost2010PropOp42
 70
     1
102
RTVSPost2010Prop43
 90
        3
102
RTVSPost2010PropOp43
 70
     1
102
RTVSPost2010Prop44ColorIndex
 90
        5
102
RTVSPost2010Prop44ColorRGB
 90
      255
102
RTVSPost2010PropOp44
 70
     1
102
RTVSPost2010Prop45
280
     0
102
RTVSPost2010PropOp45
 70
     1
102
RTVSPost2010Prop46
 90
       50
102
RTVSPost2010PropOp46
 70
     1
102
RTVSPost2010Prop47
 90
       50
102
RTVSPost2010PropOp47
 70
     1
102
RTVSPost2010Prop48
 90
       50
102
RTVSPost2010PropOp48
 70
     1
102
RTVSPost2010Prop49
280
     0
102
RTVSPost2010PropOp49
 70
     1
102
RTVSPost2010Prop50
 90
       50
102
RTVSPost2010PropOp50
 70
     1
102
RTVSPost2010Prop51ColorIndex
 90
      256
102
RTVSPost2010Prop51ColorRGB
 90
-16777216
102
RTVSPost2010PropOp51
 70
     0
102
RTVSPost2010Prop52
140
1.0
102
RTVSPost2010PropOp52
 70
     0
102
RTVSPost2010Prop53
 90
        2
102
RTVSPost2010PropOp53
 70
     1
102
RTVSPost2010Prop54
  1
strokes_ogs.tif
102
RTVSPost2010PropOp54
 70
     1
102
RTVSPost2010Prop55
280
     0
102
RTVSPost2010PropOp55
 70
     1
102
RTVSPost2010Prop56
140
1.0
102
RTVSPost2010PropOp56
 70
     1
102
RTVSPost2010Prop57
140
1.0
102
RTVSPost2010PropOp57
 70
     1
  0
XRECORD
  5
27B
102
{ACAD_REACTORS
330
27A
102
}
330
27A
100
AcDbXrecord
280
     1
102
RTVSPropertyOp0
 70
     0
102
RTVSPropertyOp1
 70
     0
102
RTVSPropertyOp2
 70
     0
102
RTVSPropertyOp3
 70
     0
102
RTVSPropertyOp4
 70
     0
102
RTVSPropertyOp5
 70
     0
102
RTVSPropertyOp6
 70
     0
102
RTVSPropertyOp7
 70
     0
102
RTVSPropertyOp8
 70
     0
102
RTVSPropertyOp9
 70
     0
102
RTVSPropertyOp10
 70
     0
102
RTVSPropertyOp11
 70
     0
102
RTVSPropertyOp12
 70
     0
102
RTVSPropertyOp13
 70
     0
102
RTVSPropertyOp14
 70
     2
102
RTVSPropertyOp15
 70
     0
102
RTVSPropertyOp16
 70
     0
102
RTVSPropertyOp17
 70
     0
102
RTVSPropertyOp18
 70
     0
102
RTVSPropertyOp19
 70
     0
102
RTVSPropertyOp20
 70
     0
102
RTVSPropertyOp21
 70
     0
102
RTVSPropertyOp22
 70
     0
102
RTVSPropertyOp23
 70
     0
102
RTVSPropertyOp24
 70
     0
102
RTVSPropertyOp25
 70
     0
102
RTVSPropertyOp26
 70
     0
102
RTVSPropertyOp27
 70
     0
102
RTVSPropertyOp28
 70
     0
102
RTVSPropertyOp29
 70
     0
102
RTVSPropertyOp30
 70
     0
102
RTVSPropertyOp31
 70
     0
102
RTVSPropertyOp32
 70
     0
102
RTVSPropertyOp33
 70
     0
102
RTVSPropertyOp34
 70
     0
102
RTVSPropertyOp35
 70
     0
102
RTVSPropertyOp36
 70
     0
102
RTVSPropertyOp37
 70
     0
102
RTVSPropertyOp38
 70
     0
102
RTVSPropertyOp39
 70
     0
102
RTVSPropertyOp40
 70
     0
102
RTVSPropertyOp41
 70
     0
102
RTVSPropertyOp42
 70
     0
102
RTVSPropertyOp43
 70
     0
102
RTVSPropertyOp44
 70
     0
102
RTVSPropertyOp45
 70
     0
102
RTVSPropertyOp46
 70
     0
102
RTVSPropertyOp47
 70
     0
102
RTVSPropertyOp48
 70
     0
102
RTVSPropertyOp49
 70
     0
102
RTVSPropertyOp50
 70
     0
102
RTVSPropertyOp51
 70
     0
102
RTVSPropertyOp52
 70
     0
102
RTVSPropertyOp53
 70
     0
102
RTVSPropertyOp54
 70
     0
102
RTVSPropertyOp55
 70
     0
102
RTVSPropertyOp56
 70
     0
102
RTVSPropertyOp57
 70
     0
102
RTVSPost2010Prop28
280
     0
102
RTVSPost2010PropOp28
 70
     0
102
RTVSPost2010Prop29
280
     1
102
RTVSPost2010PropOp29
 70
     0
102
RTVSPost2010Prop30
280
     1
102
RTVSPost2010PropOp30
 70
     0
102
RTVSPost2010Prop31
280
     0
102
RTVSPost2010PropOp31
 70
     0
102
RTVSPost2010Prop32
280
     0
102
RTVSPost2010PropOp32
 70
     0
102
RTVSPost2010Prop33
280
     0
102
RTVSPost2010PropOp33
 70
     0
102
RTVSPost2010Prop34
280
     0
102
RTVSPost2010PropOp34
 70
     0
102
RTVSPost2010Prop35
280
     0
102
RTVSPost2010PropOp35
 70
     0
102
RTVSPost2010Prop36
280
     0
102
RTVSPost2010PropOp36
 70
     0
102
RTVSPost2010Prop37
 90
       50
102
RTVSPost2010PropOp37
 70
     0
102
RTVSPost2010Prop38
140
0.0
102
RTVSPost2010PropOp38
 70
     0
102
RTVSPost2010Prop39
140
1.0
102
RTVSPost2010PropOp39
 70
     0
102
RTVSPost2010Prop40
 90
        0
102
RTVSPost2010PropOp40
 70
     0
102
RTVSPost2010Prop41ColorIndex
 90
       18
102
RTVSPost2010Prop41ColorRGB
 90
        0
102
RTVSPost2010PropOp41
 70
     0
102
RTVSPost2010Prop42
 90
       50
102
RTVSPost2010PropOp42
 70
     0
102
RTVSPost2010Prop43
 90
        3
102
RTVSPost2010PropOp43
 70
     0
102
RTVSPost2010Prop44ColorIndex
 90
        5
102
RTVSPost2010Prop44ColorRGB
 90
      255
102
RTVSPost2010PropOp44
 70
     0
102
RTVSPost2010Prop45
280
     0
102
RTVSPost2010PropOp45
 70
     0
102
RTVSPost2010Prop46
 90
       50
102
RTVSPost2010PropOp46
 70
     0
102
RTVSPost2010Prop47
 90
       50
102
RTVSPost2010PropOp47
 70
     0
102
RTVSPost2010Prop48
 90
       50
102
RTVSPost2010PropOp48
 70
     0
102
RTVSPost2010Prop49
280
     0
102
RTVSPost2010PropOp49
 70
     0
102
RTVSPost2010Prop50
 90
       50
102
RTVSPost2010PropOp50
 70
     0
102
RTVSPost2010Prop51ColorIndex
 90
      256
102
RTVSPost2010Prop51ColorRGB
 90
-16777216
102
RTVSPost2010PropOp51
 70
     0
102
RTVSPost2010Prop52
140
1.0
102
RTVSPost2010PropOp52
 70
     0
102
RTVSPost2010Prop53
 90
        2
102
RTVSPost2010PropOp53
 70
     0
102
RTVSPost2010Prop54
  1
strokes_ogs.tif
102
RTVSPost2010PropOp54
 70
     0
102
RTVSPost2010Prop55
280
     0
102
RTVSPost2010PropOp55
 70
     0
102
RTVSPost2010Prop56
140
1.0
102
RTVSPost2010PropOp56
 70
     0
102
RTVSPost2010Prop57
140
1.0
102
RTVSPost2010PropOp57
 70
     0
  0
XRECORD
  5
275
102
{ACAD_REACTORS
330
274
102
}
330
274
100
AcDbXrecord
280
     1
102
RTVSPropertyOp0
 70
     1
102
RTVSPropertyOp1
 70
     1
102
RTVSPropertyOp2
 70
     1
102
RTVSPropertyOp3
 70
     1
102
RTVSPropertyOp4
 70
     1
102
RTVSPropertyOp5
 70
     1
102
RTVSPropertyOp6
 70
     1
102
RTVSPropertyOp7
 70
     1
102
RTVSPropertyOp8
 70
     1
102
RTVSPropertyOp9
 70
     1
102
RTVSPropertyOp10
 70
     1
102
RTVSPropertyOp11
 70
     1
102
RTVSPropertyOp12
 70
     1
102
RTVSPropertyOp13
 70
     1
102
RTVSPropertyOp14
 70
     1
102
RTVSPropertyOp15
 70
     1
102
RTVSPropertyOp16
 70
     1
102
RTVSPropertyOp17
 70
     1
102
RTVSPropertyOp18
 70
     1
102
RTVSPropertyOp19
 70
     1
102
RTVSPropertyOp20
 70
     1
102
RTVSPropertyOp21
 70
     1
102
RTVSPropertyOp22
 70
     1
102
RTVSPropertyOp23
 70
     1
102
RTVSPropertyOp24
 70
     1
102
RTVSPropertyOp25
 70
     1
102
RTVSPropertyOp26
 70
     1
102
RTVSPropertyOp27
 70
     1
102
RTVSPropertyOp28
 70
     1
102
RTVSPropertyOp29
 70
     1
102
RTVSPropertyOp30
 70
     1
102
RTVSPropertyOp31
 70
     1
102
RTVSPropertyOp32
 70
     1
102
RTVSPropertyOp33
 70
     1
102
RTVSPropertyOp34
 70
     1
102
RTVSPropertyOp35
 70
     1
102
RTVSPropertyOp36
 70
     1
102
RTVSPropertyOp37
 70
     1
102
RTVSPropertyOp38
 70
     1
102
RTVSPropertyOp39
 70
     1
102
RTVSPropertyOp40
 70
     1
102
RTVSPropertyOp41
 70
     1
102
RTVSPropertyOp42
 70
     1
102
RTVSPropertyOp43
 70
     1
102
RTVSPropertyOp44
 70
     1
102
RTVSPropertyOp45
 70
     1
102
RTVSPropertyOp46
 70
     1
102
RTVSPropertyOp47
 70
     1
102
RTVSPropertyOp48
 70
     1
102
RTVSPropertyOp49
 70
     1
102
RTVSPropertyOp50
 70
     1
102
RTVSPropertyOp51
 70
     0
102
RTVSPropertyOp52
 70
     0
102
RTVSPropertyOp53
 70
     1
102
RTVSPropertyOp54
 70
     1
102
RTVSPropertyOp55
 70
     1
102
RTVSPropertyOp56
 70
     1
102
RTVSPropertyOp57
 70
     1
102
RTVSPost2010Prop28
280
     0
102
RTVSPost2010PropOp28
 70
     1
102
RTVSPost2010Prop29
280
     1
102
RTVSPost2010PropOp29
 70
     1
102
RTVSPost2010Prop30
280
     1
102
RTVSPost2010PropOp30
 70
     1
102
RTVSPost2010Prop31
280
     0
102
RTVSPost2010PropOp31
 70
     1
102
RTVSPost2010Prop32
280
     0
102
RTVSPost2010PropOp32
 70
     1
102
RTVSPost2010Prop33
280
     0
102
RTVSPost2010PropOp33
 70
     1
102
RTVSPost2010Prop34
280
     0
102
RTVSPost2010PropOp34
 70
     1
102
RTVSPost2010Prop35
280
     0
102
RTVSPost2010PropOp35
 70
     1
102
RTVSPost2010Prop36
280
     0
102
RTVSPost2010PropOp36
 70
     1
102
RTVSPost2010Prop37
 90
       50
102
RTVSPost2010PropOp37
 70
     1
102
RTVSPost2010Prop38
140
0.0
102
RTVSPost2010PropOp38
 70
     1
102
RTVSPost2010Prop39
140
1.0
102
RTVSPost2010PropOp39
 70
     1
102
RTVSPost2010Prop40
 90
        0
102
RTVSPost2010PropOp40
 70
     1
102
RTVSPost2010Prop41ColorIndex
 90
       18
102
RTVSPost2010Prop41ColorRGB
 90
        0
102
RTVSPost2010PropOp41
 70
     1
102
RTVSPost2010Prop42
 90
       50
102
RTVSPost2010PropOp42
 70
     1
102
RTVSPost2010Prop43
 90
        3
102
RTVSPost2010PropOp43
 70
     1
102
RTVSPost2010Prop44ColorIndex
 90
        5
102
RTVSPost2010Prop44ColorRGB
 90
      255
102
RTVSPost2010PropOp44
 70
     1
102
RTVSPost2010Prop45
280
     0
102
RTVSPost2010PropOp45
 70
     1
102
RTVSPost2010Prop46
 90
       50
102
RTVSPost2010PropOp46
 70
     1
102
RTVSPost2010Prop47
 90
       50
102
RTVSPost2010PropOp47
 70
     1
102
RTVSPost2010Prop48
 90
       50
102
RTVSPost2010PropOp48
 70
     1
102
RTVSPost2010Prop49
280
     0
102
RTVSPost2010PropOp49
 70
     1
102
RTVSPost2010Prop50
 90
       50
102
RTVSPost2010PropOp50
 70
     1
102
RTVSPost2010Prop51ColorIndex
 90
      256
102
RTVSPost2010Prop51ColorRGB
 90
-16777216
102
RTVSPost2010PropOp51
 70
     0
102
RTVSPost2010Prop52
140
1.0
102
RTVSPost2010PropOp52
 70
     0
102
RTVSPost2010Prop53
 90
        2
102
RTVSPost2010PropOp53
 70
     1
102
RTVSPost2010Prop54
  1
strokes_ogs.tif
102
RTVSPost2010PropOp54
 70
     1
102
RTVSPost2010Prop55
280
     0
102
RTVSPost2010PropOp55
 70
     1
102
RTVSPost2010Prop56
140
1.0
102
RTVSPost2010PropOp56
 70
     1
102
RTVSPost2010Prop57
140
1.0
102
RTVSPost2010PropOp57
 70
     1
  0
XRECORD
  5
27D
102
{ACAD_REACTORS
330
27C
102
}
330
27C
100
AcDbXrecord
280
     1
102
RTVSPropertyOp0
 70
     0
102
RTVSPropertyOp1
 70
     0
102
RTVSPropertyOp2
 70
     0
102
RTVSPropertyOp3
 70
     0
102
RTVSPropertyOp4
 70
     0
102
RTVSPropertyOp5
 70
     0
102
RTVSPropertyOp6
 70
     0
102
RTVSPropertyOp7
 70
     0
102
RTVSPropertyOp8
 70
     0
102
RTVSPropertyOp9
 70
     0
102
RTVSPropertyOp10
 70
     0
102
RTVSPropertyOp11
 70
     0
102
RTVSPropertyOp12
 70
     0
102
RTVSPropertyOp13
 70
     0
102
RTVSPropertyOp14
 70
     2
102
RTVSPropertyOp15
 70
     0
102
RTVSPropertyOp16
 70
     0
102
RTVSPropertyOp17
 70
     0
102
RTVSPropertyOp18
 70
     0
102
RTVSPropertyOp19
 70
     0
102
RTVSPropertyOp20
 70
     0
102
RTVSPropertyOp21
 70
     0
102
RTVSPropertyOp22
 70
     0
102
RTVSPropertyOp23
 70
     0
102
RTVSPropertyOp24
 70
     0
102
RTVSPropertyOp25
 70
     0
102
RTVSPropertyOp26
 70
     0
102
RTVSPropertyOp27
 70
     0
102
RTVSPropertyOp28
 70
     0
102
RTVSPropertyOp29
 70
     0
102
RTVSPropertyOp30
 70
     0
102
RTVSPropertyOp31
 70
     0
102
RTVSPropertyOp32
 70
     0
102
RTVSPropertyOp33
 70
     0
102
RTVSPropertyOp34
 70
     0
102
RTVSPropertyOp35
 70
     0
102
RTVSPropertyOp36
 70
     0
102
RTVSPropertyOp37
 70
     0
102
RTVSPropertyOp38
 70
     0
102
RTVSPropertyOp39
 70
     0
102
RTVSPropertyOp40
 70
     0
102
RTVSPropertyOp41
 70
     0
102
RTVSPropertyOp42
 70
     0
102
RTVSPropertyOp43
 70
     0
102
RTVSPropertyOp44
 70
     0
102
RTVSPropertyOp45
 70
     0
102
RTVSPropertyOp46
 70
     0
102
RTVSPropertyOp47
 70
     0
102
RTVSPropertyOp48
 70
     0
102
RTVSPropertyOp49
 70
     0
102
RTVSPropertyOp50
 70
     0
102
RTVSPropertyOp51
 70
     0
102
RTVSPropertyOp52
 70
     0
102
RTVSPropertyOp53
 70
     0
102
RTVSPropertyOp54
 70
     0
102
RTVSPropertyOp55
 70
     0
102
RTVSPropertyOp56
 70
     0
102
RTVSPropertyOp57
 70
     0
102
RTVSPost2010Prop28
280
     0
102
RTVSPost2010PropOp28
 70
     0
102
RTVSPost2010Prop29
280
     1
102
RTVSPost2010PropOp29
 70
     0
102
RTVSPost2010Prop30
280
     1
102
RTVSPost2010PropOp30
 70
     0
102
RTVSPost2010Prop31
280
     0
102
RTVSPost2010PropOp31
 70
     0
102
RTVSPost2010Prop32
280
     0
102
RTVSPost2010PropOp32
 70
     0
102
RTVSPost2010Prop33
280
     0
102
RTVSPost2010PropOp33
 70
     0
102
RTVSPost2010Prop34
280
     0
102
RTVSPost2010PropOp34
 70
     0
102
RTVSPost2010Prop35
280
     0
102
RTVSPost2010PropOp35
 70
     0
102
RTVSPost2010Prop36
280
     0
102
RTVSPost2010PropOp36
 70
     0
102
RTVSPost2010Prop37
 90
       50
102
RTVSPost2010PropOp37
 70
     0
102
RTVSPost2010Prop38
140
0.0
102
RTVSPost2010PropOp38
 70
     0
102
RTVSPost2010Prop39
140
1.0
102
RTVSPost2010PropOp39
 70
     0
102
RTVSPost2010Prop40
 90
        0
102
RTVSPost2010PropOp40
 70
     0
102
RTVSPost2010Prop41ColorIndex
 90
       18
102
RTVSPost2010Prop41ColorRGB
 90
        0
102
RTVSPost2010PropOp41
 70
     0
102
RTVSPost2010Prop42
 90
       50
102
RTVSPost2010PropOp42
 70
     0
102
RTVSPost2010Prop43
 90
        3
102
RTVSPost2010PropOp43
 70
     0
102
RTVSPost2010Prop44ColorIndex
 90
        5
102
RTVSPost2010Prop44ColorRGB
 90
      255
102
RTVSPost2010PropOp44
 70
     0
102
RTVSPost2010Prop45
280
     0
102
RTVSPost2010PropOp45
 70
     0
102
RTVSPost2010Prop46
 90
       50
102
RTVSPost2010PropOp46
 70
     0
102
RTVSPost2010Prop47
 90
       50
102
RTVSPost2010PropOp47
 70
     0
102
RTVSPost2010Prop48
 90
       50
102
RTVSPost2010PropOp48
 70
     0
102
RTVSPost2010Prop49
280
     0
102
RTVSPost2010PropOp49
 70
     0
102
RTVSPost2010Prop50
 90
       50
102
RTVSPost2010PropOp50
 70
     0
102
RTVSPost2010Prop51ColorIndex
 90
      256
102
RTVSPost2010Prop51ColorRGB
 90
-16777216
102
RTVSPost2010PropOp51
 70
     0
102
RTVSPost2010Prop52
140
1.0
102
RTVSPost2010PropOp52
 70
     0
102
RTVSPost2010Prop53
 90
        2
102
RTVSPost2010PropOp53
 70
     0
102
RTVSPost2010Prop54
  1
strokes_ogs.tif
102
RTVSPost2010PropOp54
 70
     0
102
RTVSPost2010Prop55
280
     0
102
RTVSPost2010PropOp55
 70
     0
102
RTVSPost2010Prop56
140
1.0
102
RTVSPost2010PropOp56
 70
     0
102
RTVSPost2010Prop57
140
1.0
102
RTVSPost2010PropOp57
 70
     0
  0
XRECORD
  5
26B
102
{ACAD_REACTORS
330
26A
102
}
330
26A
100
AcDbXrecord
280
     1
102
RTVSPropertyOp0
 70
     1
102
RTVSPropertyOp1
 70
     1
102
RTVSPropertyOp2
 70
     1
102
RTVSPropertyOp3
 70
     1
102
RTVSPropertyOp4
 70
     1
102
RTVSPropertyOp5
 70
     1
102
RTVSPropertyOp6
 70
     1
102
RTVSPropertyOp7
 70
     1
102
RTVSPropertyOp8
 70
     1
102
RTVSPropertyOp9
 70
     1
102
RTVSPropertyOp10
 70
     1
102
RTVSPropertyOp11
 70
     1
102
RTVSPropertyOp12
 70
     1
102
RTVSPropertyOp13
 70
     1
102
RTVSPropertyOp14
 70
     1
102
RTVSPropertyOp15
 70
     1
102
RTVSPropertyOp16
 70
     1
102
RTVSPropertyOp17
 70
     1
102
RTVSPropertyOp18
 70
     1
102
RTVSPropertyOp19
 70
     1
102
RTVSPropertyOp20
 70
     1
102
RTVSPropertyOp21
 70
     1
102
RTVSPropertyOp22
 70
     1
102
RTVSPropertyOp23
 70
     1
102
RTVSPropertyOp24
 70
     1
102
RTVSPropertyOp25
 70
     1
102
RTVSPropertyOp26
 70
     1
102
RTVSPropertyOp27
 70
     1
102
RTVSPropertyOp28
 70
     1
102
RTVSPropertyOp29
 70
     1
102
RTVSPropertyOp30
 70
     1
102
RTVSPropertyOp31
 70
     1
102
RTVSPropertyOp32
 70
     1
102
RTVSPropertyOp33
 70
     1
102
RTVSPropertyOp34
 70
     1
102
RTVSPropertyOp35
 70
     1
102
RTVSPropertyOp36
 70
     1
102
RTVSPropertyOp37
 70
     1
102
RTVSPropertyOp38
 70
     1
102
RTVSPropertyOp39
 70
     1
102
RTVSPropertyOp40
 70
     1
102
RTVSPropertyOp41
 70
     1
102
RTVSPropertyOp42
 70
     1
102
RTVSPropertyOp43
 70
     1
102
RTVSPropertyOp44
 70
     1
102
RTVSPropertyOp45
 70
     1
102
RTVSPropertyOp46
 70
     1
102
RTVSPropertyOp47
 70
     1
102
RTVSPropertyOp48
 70
     1
102
RTVSPropertyOp49
 70
     1
102
RTVSPropertyOp50
 70
     1
102
RTVSPropertyOp51
 70
     0
102
RTVSPropertyOp52
 70
     0
102
RTVSPropertyOp53
 70
     1
102
RTVSPropertyOp54
 70
     1
102
RTVSPropertyOp55
 70
     1
102
RTVSPropertyOp56
 70
     1
102
RTVSPropertyOp57
 70
     1
102
RTVSPost2010Prop28
280
     0
102
RTVSPost2010PropOp28
 70
     1
102
RTVSPost2010Prop29
280
     1
102
RTVSPost2010PropOp29
 70
     1
102
RTVSPost2010Prop30
280
     1
102
RTVSPost2010PropOp30
 70
     1
102
RTVSPost2010Prop31
280
     0
102
RTVSPost2010PropOp31
 70
     1
102
RTVSPost2010Prop32
280
     0
102
RTVSPost2010PropOp32
 70
     1
102
RTVSPost2010Prop33
280
     0
102
RTVSPost2010PropOp33
 70
     1
102
RTVSPost2010Prop34
280
     0
102
RTVSPost2010PropOp34
 70
     1
102
RTVSPost2010Prop35
280
     0
102
RTVSPost2010PropOp35
 70
     1
102
RTVSPost2010Prop36
280
     0
102
RTVSPost2010PropOp36
 70
     1
102
RTVSPost2010Prop37
 90
       50
102
RTVSPost2010PropOp37
 70
     1
102
RTVSPost2010Prop38
140
0.0
102
RTVSPost2010PropOp38
 70
     1
102
RTVSPost2010Prop39
140
1.0
102
RTVSPost2010PropOp39
 70
     1
102
RTVSPost2010Prop40
 90
        0
102
RTVSPost2010PropOp40
 70
     1
102
RTVSPost2010Prop41ColorIndex
 90
       18
102
RTVSPost2010Prop41ColorRGB
 90
        0
102
RTVSPost2010PropOp41
 70
     1
102
RTVSPost2010Prop42
 90
       50
102
RTVSPost2010PropOp42
 70
     1
102
RTVSPost2010Prop43
 90
        3
102
RTVSPost2010PropOp43
 70
     1
102
RTVSPost2010Prop44ColorIndex
 90
        5
102
RTVSPost2010Prop44ColorRGB
 90
      255
102
RTVSPost2010PropOp44
 70
     1
102
RTVSPost2010Prop45
280
     0
102
RTVSPost2010PropOp45
 70
     1
102
RTVSPost2010Prop46
 90
       50
102
RTVSPost2010PropOp46
 70
     1
102
RTVSPost2010Prop47
 90
       50
102
RTVSPost2010PropOp47
 70
     1
102
RTVSPost2010Prop48
 90
       50
102
RTVSPost2010PropOp48
 70
     1
102
RTVSPost2010Prop49
280
     0
102
RTVSPost2010PropOp49
 70
     1
102
RTVSPost2010Prop50
 90
       50
102
RTVSPost2010PropOp50
 70
     1
102
RTVSPost2010Prop51ColorIndex
 90
      256
102
RTVSPost2010Prop51ColorRGB
 90
-16777216
102
RTVSPost2010PropOp51
 70
     0
102
RTVSPost2010Prop52
140
1.0
102
RTVSPost2010PropOp52
 70
     0
102
RTVSPost2010Prop53
 90
        2
102
RTVSPost2010PropOp53
 70
     1
102
RTVSPost2010Prop54
  1
strokes_ogs.tif
102
RTVSPost2010PropOp54
 70
     1
102
RTVSPost2010Prop55
280
     0
102
RTVSPost2010PropOp55
 70
     1
102
RTVSPost2010Prop56
140
1.0
102
RTVSPost2010PropOp56
 70
     1
102
RTVSPost2010Prop57
140
1.0
102
RTVSPost2010PropOp57
 70
     1
  0
XRECORD
  5
289
102
{ACAD_REACTORS
330
288
102
}
330
288
100
AcDbXrecord
280
     1
102
RTVSPropertyOp0
 70
     1
102
RTVSPropertyOp1
 70
     1
102
RTVSPropertyOp2
 70
     1
102
RTVSPropertyOp3
 70
     1
102
RTVSPropertyOp4
 70
     1
102
RTVSPropertyOp5
 70
     1
102
RTVSPropertyOp6
 70
     1
102
RTVSPropertyOp7
 70
     1
102
RTVSPropertyOp8
 70
     1
102
RTVSPropertyOp9
 70
     1
102
RTVSPropertyOp10
 70
     1
102
RTVSPropertyOp11
 70
     1
102
RTVSPropertyOp12
 70
     1
102
RTVSPropertyOp13
 70
     1
102
RTVSPropertyOp14
 70
     1
102
RTVSPropertyOp15
 70
     1
102
RTVSPropertyOp16
 70
     1
102
RTVSPropertyOp17
 70
     1
102
RTVSPropertyOp18
 70
     1
102
RTVSPropertyOp19
 70
     1
102
RTVSPropertyOp20
 70
     1
102
RTVSPropertyOp21
 70
     1
102
RTVSPropertyOp22
 70
     1
102
RTVSPropertyOp23
 70
     1
102
RTVSPropertyOp24
 70
     1
102
RTVSPropertyOp25
 70
     1
102
RTVSPropertyOp26
 70
     1
102
RTVSPropertyOp27
 70
     1
102
RTVSPropertyOp28
 70
     1
102
RTVSPropertyOp29
 70
     1
102
RTVSPropertyOp30
 70
     1
102
RTVSPropertyOp31
 70
     1
102
RTVSPropertyOp32
 70
     1
102
RTVSPropertyOp33
 70
     1
102
RTVSPropertyOp34
 70
     1
102
RTVSPropertyOp35
 70
     1
102
RTVSPropertyOp36
 70
     1
102
RTVSPropertyOp37
 70
     1
102
RTVSPropertyOp38
 70
     1
102
RTVSPropertyOp39
 70
     1
102
RTVSPropertyOp40
 70
     1
102
RTVSPropertyOp41
 70
     1
102
RTVSPropertyOp42
 70
     1
102
RTVSPropertyOp43
 70
     1
102
RTVSPropertyOp44
 70
     1
102
RTVSPropertyOp45
 70
     1
102
RTVSPropertyOp46
 70
     1
102
RTVSPropertyOp47
 70
     1
102
RTVSPropertyOp48
 70
     1
102
RTVSPropertyOp49
 70
     1
102
RTVSPropertyOp50
 70
     1
102
RTVSPropertyOp51
 70
     0
102
RTVSPropertyOp52
 70
     0
102
RTVSPropertyOp53
 70
     1
102
RTVSPropertyOp54
 70
     1
102
RTVSPropertyOp55
 70
     1
102
RTVSPropertyOp56
 70
     1
102
RTVSPropertyOp57
 70
     1
102
RTVSPost2010Prop28
280
     0
102
RTVSPost2010PropOp28
 70
     1
102
RTVSPost2010Prop29
280
     1
102
RTVSPost2010PropOp29
 70
     1
102
RTVSPost2010Prop30
280
     1
102
RTVSPost2010PropOp30
 70
     1
102
RTVSPost2010Prop31
280
     0
102
RTVSPost2010PropOp31
 70
     1
102
RTVSPost2010Prop32
280
     0
102
RTVSPost2010PropOp32
 70
     1
102
RTVSPost2010Prop33
280
     0
102
RTVSPost2010PropOp33
 70
     1
102
RTVSPost2010Prop34
280
     0
102
RTVSPost2010PropOp34
 70
     1
102
RTVSPost2010Prop35
280
     0
102
RTVSPost2010PropOp35
 70
     1
102
RTVSPost2010Prop36
280
     0
102
RTVSPost2010PropOp36
 70
     1
102
RTVSPost2010Prop37
 90
       50
102
RTVSPost2010PropOp37
 70
     1
102
RTVSPost2010Prop38
140
0.0
102
RTVSPost2010PropOp38
 70
     1
102
RTVSPost2010Prop39
140
1.0
102
RTVSPost2010PropOp39
 70
     1
102
RTVSPost2010Prop40
 90
        0
102
RTVSPost2010PropOp40
 70
     1
102
RTVSPost2010Prop41ColorIndex
 90
       18
102
RTVSPost2010Prop41ColorRGB
 90
        0
102
RTVSPost2010PropOp41
 70
     1
102
RTVSPost2010Prop42
 90
       50
102
RTVSPost2010PropOp42
 70
     1
102
RTVSPost2010Prop43
 90
        3
102
RTVSPost2010PropOp43
 70
     1
102
RTVSPost2010Prop44ColorIndex
 90
        5
102
RTVSPost2010Prop44ColorRGB
 90
      255
102
RTVSPost2010PropOp44
 70
     1
102
RTVSPost2010Prop45
280
     0
102
RTVSPost2010PropOp45
 70
     1
102
RTVSPost2010Prop46
 90
       50
102
RTVSPost2010PropOp46
 70
     1
102
RTVSPost2010Prop47
 90
       50
102
RTVSPost2010PropOp47
 70
     1
102
RTVSPost2010Prop48
 90
       50
102
RTVSPost2010PropOp48
 70
     1
102
RTVSPost2010Prop49
280
     0
102
RTVSPost2010PropOp49
 70
     1
102
RTVSPost2010Prop50
 90
       50
102
RTVSPost2010PropOp50
 70
     1
102
RTVSPost2010Prop51ColorIndex
 90
      256
102
RTVSPost2010Prop51ColorRGB
 90
-16777216
102
RTVSPost2010PropOp51
 70
     0
102
RTVSPost2010Prop52
140
1.0
102
RTVSPost2010PropOp52
 70
     0
102
RTVSPost2010Prop53
 90
        2
102
RTVSPost2010PropOp53
 70
     1
102
RTVSPost2010Prop54
  1
strokes_ogs.tif
102
RTVSPost2010PropOp54
 70
     1
102
RTVSPost2010Prop55
280
     0
102
RTVSPost2010PropOp55
 70
     1
102
RTVSPost2010Prop56
140
1.0
102
RTVSPost2010PropOp56
 70
     1
102
RTVSPost2010Prop57
140
1.0
102
RTVSPost2010PropOp57
 70
     1
  0
XRECORD
  5
287
102
{ACAD_REACTORS
330
286
102
}
330
286
100
AcDbXrecord
280
     1
102
RTVSPropertyOp0
 70
     1
102
RTVSPropertyOp1
 70
     1
102
RTVSPropertyOp2
 70
     1
102
RTVSPropertyOp3
 70
     1
102
RTVSPropertyOp4
 70
     1
102
RTVSPropertyOp5
 70
     1
102
RTVSPropertyOp6
 70
     1
102
RTVSPropertyOp7
 70
     1
102
RTVSPropertyOp8
 70
     1
102
RTVSPropertyOp9
 70
     1
102
RTVSPropertyOp10
 70
     1
102
RTVSPropertyOp11
 70
     1
102
RTVSPropertyOp12
 70
     1
102
RTVSPropertyOp13
 70
     1
102
RTVSPropertyOp14
 70
     1
102
RTVSPropertyOp15
 70
     1
102
RTVSPropertyOp16
 70
     1
102
RTVSPropertyOp17
 70
     1
102
RTVSPropertyOp18
 70
     1
102
RTVSPropertyOp19
 70
     1
102
RTVSPropertyOp20
 70
     1
102
RTVSPropertyOp21
 70
     1
102
RTVSPropertyOp22
 70
     1
102
RTVSPropertyOp23
 70
     1
102
RTVSPropertyOp24
 70
     1
102
RTVSPropertyOp25
 70
     1
102
RTVSPropertyOp26
 70
     1
102
RTVSPropertyOp27
 70
     1
102
RTVSPropertyOp28
 70
     1
102
RTVSPropertyOp29
 70
     1
102
RTVSPropertyOp30
 70
     1
102
RTVSPropertyOp31
 70
     1
102
RTVSPropertyOp32
 70
     1
102
RTVSPropertyOp33
 70
     1
102
RTVSPropertyOp34
 70
     1
102
RTVSPropertyOp35
 70
     1
102
RTVSPropertyOp36
 70
     1
102
RTVSPropertyOp37
 70
     1
102
RTVSPropertyOp38
 70
     1
102
RTVSPropertyOp39
 70
     1
102
RTVSPropertyOp40
 70
     1
102
RTVSPropertyOp41
 70
     1
102
RTVSPropertyOp42
 70
     1
102
RTVSPropertyOp43
 70
     1
102
RTVSPropertyOp44
 70
     1
102
RTVSPropertyOp45
 70
     1
102
RTVSPropertyOp46
 70
     1
102
RTVSPropertyOp47
 70
     1
102
RTVSPropertyOp48
 70
     1
102
RTVSPropertyOp49
 70
     1
102
RTVSPropertyOp50
 70
     1
102
RTVSPropertyOp51
 70
     0
102
RTVSPropertyOp52
 70
     0
102
RTVSPropertyOp53
 70
     1
102
RTVSPropertyOp54
 70
     1
102
RTVSPropertyOp55
 70
     1
102
RTVSPropertyOp56
 70
     1
102
RTVSPropertyOp57
 70
     1
102
RTVSPost2010Prop28
280
     0
102
RTVSPost2010PropOp28
 70
     1
102
RTVSPost2010Prop29
280
     1
102
RTVSPost2010PropOp29
 70
     1
102
RTVSPost2010Prop30
280
     1
102
RTVSPost2010PropOp30
 70
     1
102
RTVSPost2010Prop31
280
     0
102
RTVSPost2010PropOp31
 70
     1
102
RTVSPost2010Prop32
280
     0
102
RTVSPost2010PropOp32
 70
     1
102
RTVSPost2010Prop33
280
     0
102
RTVSPost2010PropOp33
 70
     1
102
RTVSPost2010Prop34
280
     0
102
RTVSPost2010PropOp34
 70
     1
102
RTVSPost2010Prop35
280
     0
102
RTVSPost2010PropOp35
 70
     1
102
RTVSPost2010Prop36
280
     0
102
RTVSPost2010PropOp36
 70
     1
102
RTVSPost2010Prop37
 90
       50
102
RTVSPost2010PropOp37
 70
     1
102
RTVSPost2010Prop38
140
0.0
102
RTVSPost2010PropOp38
 70
     1
102
RTVSPost2010Prop39
140
1.0
102
RTVSPost2010PropOp39
 70
     1
102
RTVSPost2010Prop40
 90
        0
102
RTVSPost2010PropOp40
 70
     1
102
RTVSPost2010Prop41ColorIndex
 90
       18
102
RTVSPost2010Prop41ColorRGB
 90
        0
102
RTVSPost2010PropOp41
 70
     1
102
RTVSPost2010Prop42
 90
       50
102
RTVSPost2010PropOp42
 70
     1
102
RTVSPost2010Prop43
 90
        3
102
RTVSPost2010PropOp43
 70
     1
102
RTVSPost2010Prop44ColorIndex
 90
        5
102
RTVSPost2010Prop44ColorRGB
 90
      255
102
RTVSPost2010PropOp44
 70
     1
102
RTVSPost2010Prop45
280
     0
102
RTVSPost2010PropOp45
 70
     1
102
RTVSPost2010Prop46
 90
       50
102
RTVSPost2010PropOp46
 70
     1
102
RTVSPost2010Prop47
 90
       50
102
RTVSPost2010PropOp47
 70
     1
102
RTVSPost2010Prop48
 90
       50
102
RTVSPost2010PropOp48
 70
     1
102
RTVSPost2010Prop49
280
     0
102
RTVSPost2010PropOp49
 70
     1
102
RTVSPost2010Prop50
 90
       50
102
RTVSPost2010PropOp50
 70
     1
102
RTVSPost2010Prop51ColorIndex
 90
      256
102
RTVSPost2010Prop51ColorRGB
 90
-16777216
102
RTVSPost2010PropOp51
 70
     0
102
RTVSPost2010Prop52
140
1.0
102
RTVSPost2010PropOp52
 70
     0
102
RTVSPost2010Prop53
 90
        2
102
RTVSPost2010PropOp53
 70
     1
102
RTVSPost2010Prop54
  1
strokes_ogs.tif
102
RTVSPost2010PropOp54
 70
     1
102
RTVSPost2010Prop55
280
     0
102
RTVSPost2010PropOp55
 70
     1
102
RTVSPost2010Prop56
140
1.0
102
RTVSPost2010PropOp56
 70
     1
102
RTVSPost2010Prop57
140
1.0
102
RTVSPost2010PropOp57
 70
     1
  0
XRECORD
  5
281
102
{ACAD_REACTORS
330
280
102
}
330
280
100
AcDbXrecord
280
     1
102
RTVSPropertyOp0
 70
     1
102
RTVSPropertyOp1
 70
     1
102
RTVSPropertyOp2
 70
     1
102
RTVSPropertyOp3
 70
     1
102
RTVSPropertyOp4
 70
     1
102
RTVSPropertyOp5
 70
     1
102
RTVSPropertyOp6
 70
     1
102
RTVSPropertyOp7
 70
     1
102
RTVSPropertyOp8
 70
     1
102
RTVSPropertyOp9
 70
     1
102
RTVSPropertyOp10
 70
     1
102
RTVSPropertyOp11
 70
     1
102
RTVSPropertyOp12
 70
     1
102
RTVSPropertyOp13
 70
     1
102
RTVSPropertyOp14
 70
     1
102
RTVSPropertyOp15
 70
     1
102
RTVSPropertyOp16
 70
     1
102
RTVSPropertyOp17
 70
     1
102
RTVSPropertyOp18
 70
     1
102
RTVSPropertyOp19
 70
     1
102
RTVSPropertyOp20
 70
     1
102
RTVSPropertyOp21
 70
     1
102
RTVSPropertyOp22
 70
     1
102
RTVSPropertyOp23
 70
     1
102
RTVSPropertyOp24
 70
     1
102
RTVSPropertyOp25
 70
     1
102
RTVSPropertyOp26
 70
     1
102
RTVSPropertyOp27
 70
     1
102
RTVSPropertyOp28
 70
     1
102
RTVSPropertyOp29
 70
     1
102
RTVSPropertyOp30
 70
     1
102
RTVSPropertyOp31
 70
     1
102
RTVSPropertyOp32
 70
     1
102
RTVSPropertyOp33
 70
     1
102
RTVSPropertyOp34
 70
     1
102
RTVSPropertyOp35
 70
     1
102
RTVSPropertyOp36
 70
     1
102
RTVSPropertyOp37
 70
     1
102
RTVSPropertyOp38
 70
     1
102
RTVSPropertyOp39
 70
     1
102
RTVSPropertyOp40
 70
     1
102
RTVSPropertyOp41
 70
     1
102
RTVSPropertyOp42
 70
     1
102
RTVSPropertyOp43
 70
     1
102
RTVSPropertyOp44
 70
     1
102
RTVSPropertyOp45
 70
     1
102
RTVSPropertyOp46
 70
     1
102
RTVSPropertyOp47
 70
     1
102
RTVSPropertyOp48
 70
     1
102
RTVSPropertyOp49
 70
     1
102
RTVSPropertyOp50
 70
     1
102
RTVSPropertyOp51
 70
     0
102
RTVSPropertyOp52
 70
     0
102
RTVSPropertyOp53
 70
     1
102
RTVSPropertyOp54
 70
     1
102
RTVSPropertyOp55
 70
     1
102
RTVSPropertyOp56
 70
     1
102
RTVSPropertyOp57
 70
     1
102
RTVSPost2010Prop28
280
     0
102
RTVSPost2010PropOp28
 70
     1
102
RTVSPost2010Prop29
280
     1
102
RTVSPost2010PropOp29
 70
     1
102
RTVSPost2010Prop30
280
     1
102
RTVSPost2010PropOp30
 70
     1
102
RTVSPost2010Prop31
280
     0
102
RTVSPost2010PropOp31
 70
     1
102
RTVSPost2010Prop32
280
     0
102
RTVSPost2010PropOp32
 70
     1
102
RTVSPost2010Prop33
280
     0
102
RTVSPost2010PropOp33
 70
     1
102
RTVSPost2010Prop34
280
     0
102
RTVSPost2010PropOp34
 70
     1
102
RTVSPost2010Prop35
280
     0
102
RTVSPost2010PropOp35
 70
     1
102
RTVSPost2010Prop36
280
     0
102
RTVSPost2010PropOp36
 70
     1
102
RTVSPost2010Prop37
 90
       50
102
RTVSPost2010PropOp37
 70
     1
102
RTVSPost2010Prop38
140
0.0
102
RTVSPost2010PropOp38
 70
     1
102
RTVSPost2010Prop39
140
1.0
102
RTVSPost2010PropOp39
 70
     1
102
RTVSPost2010Prop40
 90
        0
102
RTVSPost2010PropOp40
 70
     1
102
RTVSPost2010Prop41ColorIndex
 90
       18
102
RTVSPost2010Prop41ColorRGB
 90
        0
102
RTVSPost2010PropOp41
 70
     1
102
RTVSPost2010Prop42
 90
       50
102
RTVSPost2010PropOp42
 70
     1
102
RTVSPost2010Prop43
 90
        3
102
RTVSPost2010PropOp43
 70
     1
102
RTVSPost2010Prop44ColorIndex
 90
        5
102
RTVSPost2010Prop44ColorRGB
 90
      255
102
RTVSPost2010PropOp44
 70
     1
102
RTVSPost2010Prop45
280
     0
102
RTVSPost2010PropOp45
 70
     1
102
RTVSPost2010Prop46
 90
       50
102
RTVSPost2010PropOp46
 70
     1
102
RTVSPost2010Prop47
 90
       50
102
RTVSPost2010PropOp47
 70
     1
102
RTVSPost2010Prop48
 90
       50
102
RTVSPost2010PropOp48
 70
     1
102
RTVSPost2010Prop49
280
     0
102
RTVSPost2010PropOp49
 70
     1
102
RTVSPost2010Prop50
 90
       50
102
RTVSPost2010PropOp50
 70
     1
102
RTVSPost2010Prop51ColorIndex
 90
      256
102
RTVSPost2010Prop51ColorRGB
 90
-16777216
102
RTVSPost2010PropOp51
 70
     0
102
RTVSPost2010Prop52
140
1.0
102
RTVSPost2010PropOp52
 70
     0
102
RTVSPost2010Prop53
 90
        2
102
RTVSPost2010PropOp53
 70
     1
102
RTVSPost2010Prop54
  1
strokes_ogs.tif
102
RTVSPost2010PropOp54
 70
     1
102
RTVSPost2010Prop55
280
     0
102
RTVSPost2010PropOp55
 70
     1
102
RTVSPost2010Prop56
140
1.0
102
RTVSPost2010PropOp56
 70
     1
102
RTVSPost2010Prop57
140
1.0
102
RTVSPost2010PropOp57
 70
     1
  0
XRECORD
  5
283
102
{ACAD_REACTORS
330
282
102
}
330
282
100
AcDbXrecord
280
     1
102
RTVSPropertyOp0
 70
     1
102
RTVSPropertyOp1
 70
     1
102
RTVSPropertyOp2
 70
     1
102
RTVSPropertyOp3
 70
     1
102
RTVSPropertyOp4
 70
     1
102
RTVSPropertyOp5
 70
     1
102
RTVSPropertyOp6
 70
     1
102
RTVSPropertyOp7
 70
     1
102
RTVSPropertyOp8
 70
     1
102
RTVSPropertyOp9
 70
     1
102
RTVSPropertyOp10
 70
     1
102
RTVSPropertyOp11
 70
     1
102
RTVSPropertyOp12
 70
     1
102
RTVSPropertyOp13
 70
     1
102
RTVSPropertyOp14
 70
     1
102
RTVSPropertyOp15
 70
     1
102
RTVSPropertyOp16
 70
     1
102
RTVSPropertyOp17
 70
     1
102
RTVSPropertyOp18
 70
     1
102
RTVSPropertyOp19
 70
     1
102
RTVSPropertyOp20
 70
     1
102
RTVSPropertyOp21
 70
     1
102
RTVSPropertyOp22
 70
     1
102
RTVSPropertyOp23
 70
     1
102
RTVSPropertyOp24
 70
     1
102
RTVSPropertyOp25
 70
     1
102
RTVSPropertyOp26
 70
     1
102
RTVSPropertyOp27
 70
     1
102
RTVSPropertyOp28
 70
     1
102
RTVSPropertyOp29
 70
     1
102
RTVSPropertyOp30
 70
     1
102
RTVSPropertyOp31
 70
     1
102
RTVSPropertyOp32
 70
     1
102
RTVSPropertyOp33
 70
     1
102
RTVSPropertyOp34
 70
     1
102
RTVSPropertyOp35
 70
     1
102
RTVSPropertyOp36
 70
     1
102
RTVSPropertyOp37
 70
     1
102
RTVSPropertyOp38
 70
     1
102
RTVSPropertyOp39
 70
     1
102
RTVSPropertyOp40
 70
     1
102
RTVSPropertyOp41
 70
     1
102
RTVSPropertyOp42
 70
     1
102
RTVSPropertyOp43
 70
     1
102
RTVSPropertyOp44
 70
     1
102
RTVSPropertyOp45
 70
     1
102
RTVSPropertyOp46
 70
     1
102
RTVSPropertyOp47
 70
     1
102
RTVSPropertyOp48
 70
     1
102
RTVSPropertyOp49
 70
     1
102
RTVSPropertyOp50
 70
     1
102
RTVSPropertyOp51
 70
     0
102
RTVSPropertyOp52
 70
     0
102
RTVSPropertyOp53
 70
     1
102
RTVSPropertyOp54
 70
     1
102
RTVSPropertyOp55
 70
     1
102
RTVSPropertyOp56
 70
     1
102
RTVSPropertyOp57
 70
     1
102
RTVSPost2010Prop28
280
     0
102
RTVSPost2010PropOp28
 70
     1
102
RTVSPost2010Prop29
280
     1
102
RTVSPost2010PropOp29
 70
     1
102
RTVSPost2010Prop30
280
     1
102
RTVSPost2010PropOp30
 70
     1
102
RTVSPost2010Prop31
280
     0
102
RTVSPost2010PropOp31
 70
     1
102
RTVSPost2010Prop32
280
     0
102
RTVSPost2010PropOp32
 70
     1
102
RTVSPost2010Prop33
280
     0
102
RTVSPost2010PropOp33
 70
     1
102
RTVSPost2010Prop34
280
     0
102
RTVSPost2010PropOp34
 70
     1
102
RTVSPost2010Prop35
280
     0
102
RTVSPost2010PropOp35
 70
     1
102
RTVSPost2010Prop36
280
     0
102
RTVSPost2010PropOp36
 70
     1
102
RTVSPost2010Prop37
 90
       50
102
RTVSPost2010PropOp37
 70
     1
102
RTVSPost2010Prop38
140
0.0
102
RTVSPost2010PropOp38
 70
     1
102
RTVSPost2010Prop39
140
1.0
102
RTVSPost2010PropOp39
 70
     1
102
RTVSPost2010Prop40
 90
        0
102
RTVSPost2010PropOp40
 70
     1
102
RTVSPost2010Prop41ColorIndex
 90
       18
102
RTVSPost2010Prop41ColorRGB
 90
        0
102
RTVSPost2010PropOp41
 70
     1
102
RTVSPost2010Prop42
 90
       50
102
RTVSPost2010PropOp42
 70
     1
102
RTVSPost2010Prop43
 90
        3
102
RTVSPost2010PropOp43
 70
     1
102
RTVSPost2010Prop44ColorIndex
 90
        5
102
RTVSPost2010Prop44ColorRGB
 90
      255
102
RTVSPost2010PropOp44
 70
     1
102
RTVSPost2010Prop45
280
     0
102
RTVSPost2010PropOp45
 70
     1
102
RTVSPost2010Prop46
 90
       50
102
RTVSPost2010PropOp46
 70
     1
102
RTVSPost2010Prop47
 90
       50
102
RTVSPost2010PropOp47
 70
     1
102
RTVSPost2010Prop48
 90
       50
102
RTVSPost2010PropOp48
 70
     1
102
RTVSPost2010Prop49
280
     0
102
RTVSPost2010PropOp49
 70
     1
102
RTVSPost2010Prop50
 90
       50
102
RTVSPost2010PropOp50
 70
     1
102
RTVSPost2010Prop51ColorIndex
 90
      256
102
RTVSPost2010Prop51ColorRGB
 90
-16777216
102
RTVSPost2010PropOp51
 70
     0
102
RTVSPost2010Prop52
140
1.0
102
RTVSPost2010PropOp52
 70
     0
102
RTVSPost2010Prop53
 90
        2
102
RTVSPost2010PropOp53
 70
     1
102
RTVSPost2010Prop54
  1
strokes_ogs.tif
102
RTVSPost2010PropOp54
 70
     1
102
RTVSPost2010Prop55
280
     0
102
RTVSPost2010PropOp55
 70
     1
102
RTVSPost2010Prop56
140
1.0
102
RTVSPost2010PropOp56
 70
     1
102
RTVSPost2010Prop57
140
1.0
102
RTVSPost2010PropOp57
 70
     1
  0
XRECORD
  5
273
102
{ACAD_REACTORS
330
272
102
}
330
272
100
AcDbXrecord
280
     1
102
RTVSPropertyOp0
 70
     1
102
RTVSPropertyOp1
 70
     1
102
RTVSPropertyOp2
 70
     1
102
RTVSPropertyOp3
 70
     1
102
RTVSPropertyOp4
 70
     1
102
RTVSPropertyOp5
 70
     1
102
RTVSPropertyOp6
 70
     1
102
RTVSPropertyOp7
 70
     1
102
RTVSPropertyOp8
 70
     1
102
RTVSPropertyOp9
 70
     1
102
RTVSPropertyOp10
 70
     1
102
RTVSPropertyOp11
 70
     1
102
RTVSPropertyOp12
 70
     1
102
RTVSPropertyOp13
 70
     1
102
RTVSPropertyOp14
 70
     1
102
RTVSPropertyOp15
 70
     1
102
RTVSPropertyOp16
 70
     1
102
RTVSPropertyOp17
 70
     1
102
RTVSPropertyOp18
 70
     1
102
RTVSPropertyOp19
 70
     1
102
RTVSPropertyOp20
 70
     1
102
RTVSPropertyOp21
 70
     1
102
RTVSPropertyOp22
 70
     1
102
RTVSPropertyOp23
 70
     1
102
RTVSPropertyOp24
 70
     1
102
RTVSPropertyOp25
 70
     1
102
RTVSPropertyOp26
 70
     1
102
RTVSPropertyOp27
 70
     1
102
RTVSPropertyOp28
 70
     1
102
RTVSPropertyOp29
 70
     1
102
RTVSPropertyOp30
 70
     1
102
RTVSPropertyOp31
 70
     1
102
RTVSPropertyOp32
 70
     1
102
RTVSPropertyOp33
 70
     1
102
RTVSPropertyOp34
 70
     1
102
RTVSPropertyOp35
 70
     1
102
RTVSPropertyOp36
 70
     1
102
RTVSPropertyOp37
 70
     1
102
RTVSPropertyOp38
 70
     1
102
RTVSPropertyOp39
 70
     1
102
RTVSPropertyOp40
 70
     1
102
RTVSPropertyOp41
 70
     1
102
RTVSPropertyOp42
 70
     1
102
RTVSPropertyOp43
 70
     1
102
RTVSPropertyOp44
 70
     1
102
RTVSPropertyOp45
 70
     1
102
RTVSPropertyOp46
 70
     1
102
RTVSPropertyOp47
 70
     1
102
RTVSPropertyOp48
 70
     1
102
RTVSPropertyOp49
 70
     1
102
RTVSPropertyOp50
 70
     1
102
RTVSPropertyOp51
 70
     0
102
RTVSPropertyOp52
 70
     0
102
RTVSPropertyOp53
 70
     1
102
RTVSPropertyOp54
 70
     1
102
RTVSPropertyOp55
 70
     1
102
RTVSPropertyOp56
 70
     1
102
RTVSPropertyOp57
 70
     1
102
RTVSPost2010Prop28
280
     0
102
RTVSPost2010PropOp28
 70
     1
102
RTVSPost2010Prop29
280
     1
102
RTVSPost2010PropOp29
 70
     1
102
RTVSPost2010Prop30
280
     1
102
RTVSPost2010PropOp30
 70
     1
102
RTVSPost2010Prop31
280
     0
102
RTVSPost2010PropOp31
 70
     1
102
RTVSPost2010Prop32
280
     0
102
RTVSPost2010PropOp32
 70
     1
102
RTVSPost2010Prop33
280
     0
102
RTVSPost2010PropOp33
 70
     1
102
RTVSPost2010Prop34
280
     0
102
RTVSPost2010PropOp34
 70
     1
102
RTVSPost2010Prop35
280
     0
102
RTVSPost2010PropOp35
 70
     1
102
RTVSPost2010Prop36
280
     0
102
RTVSPost2010PropOp36
 70
     1
102
RTVSPost2010Prop37
 90
       50
102
RTVSPost2010PropOp37
 70
     1
102
RTVSPost2010Prop38
140
0.0
102
RTVSPost2010PropOp38
 70
     1
102
RTVSPost2010Prop39
140
1.0
102
RTVSPost2010PropOp39
 70
     1
102
RTVSPost2010Prop40
 90
        0
102
RTVSPost2010PropOp40
 70
     1
102
RTVSPost2010Prop41ColorIndex
 90
       18
102
RTVSPost2010Prop41ColorRGB
 90
        0
102
RTVSPost2010PropOp41
 70
     1
102
RTVSPost2010Prop42
 90
       50
102
RTVSPost2010PropOp42
 70
     1
102
RTVSPost2010Prop43
 90
        3
102
RTVSPost2010PropOp43
 70
     1
102
RTVSPost2010Prop44ColorIndex
 90
        5
102
RTVSPost2010Prop44ColorRGB
 90
      255
102
RTVSPost2010PropOp44
 70
     1
102
RTVSPost2010Prop45
280
     0
102
RTVSPost2010PropOp45
 70
     1
102
RTVSPost2010Prop46
 90
       50
102
RTVSPost2010PropOp46
 70
     1
102
RTVSPost2010Prop47
 90
       50
102
RTVSPost2010PropOp47
 70
     1
102
RTVSPost2010Prop48
 90
       50
102
RTVSPost2010PropOp48
 70
     1
102
RTVSPost2010Prop49
280
     0
102
RTVSPost2010PropOp49
 70
     1
102
RTVSPost2010Prop50
 90
       50
102
RTVSPost2010PropOp50
 70
     1
102
RTVSPost2010Prop51ColorIndex
 90
      256
102
RTVSPost2010Prop51ColorRGB
 90
-16777216
102
RTVSPost2010PropOp51
 70
     0
102
RTVSPost2010Prop52
140
1.0
102
RTVSPost2010PropOp52
 70
     0
102
RTVSPost2010Prop53
 90
        2
102
RTVSPost2010PropOp53
 70
     1
102
RTVSPost2010Prop54
  1
strokes_ogs.tif
102
RTVSPost2010PropOp54
 70
     1
102
RTVSPost2010Prop55
280
     0
102
RTVSPost2010PropOp55
 70
     1
102
RTVSPost2010Prop56
140
1.0
102
RTVSPost2010PropOp56
 70
     1
102
RTVSPost2010Prop57
140
1.0
102
RTVSPost2010PropOp57
 70
     1
  0
XRECORD
  5
265
102
{ACAD_REACTORS
330
264
102
}
330
264
100
AcDbXrecord
280
     1
102
RTVSPropertyOp0
 70
     1
102
RTVSPropertyOp1
 70
     1
102
RTVSPropertyOp2
 70
     1
102
RTVSPropertyOp3
 70
     1
102
RTVSPropertyOp4
 70
     1
102
RTVSPropertyOp5
 70
     1
102
RTVSPropertyOp6
 70
     1
102
RTVSPropertyOp7
 70
     1
102
RTVSPropertyOp8
 70
     1
102
RTVSPropertyOp9
 70
     1
102
RTVSPropertyOp10
 70
     1
102
RTVSPropertyOp11
 70
     1
102
RTVSPropertyOp12
 70
     1
102
RTVSPropertyOp13
 70
     1
102
RTVSPropertyOp14
 70
     1
102
RTVSPropertyOp15
 70
     1
102
RTVSPropertyOp16
 70
     1
102
RTVSPropertyOp17
 70
     1
102
RTVSPropertyOp18
 70
     1
102
RTVSPropertyOp19
 70
     1
102
RTVSPropertyOp20
 70
     1
102
RTVSPropertyOp21
 70
     1
102
RTVSPropertyOp22
 70
     1
102
RTVSPropertyOp23
 70
     1
102
RTVSPropertyOp24
 70
     1
102
RTVSPropertyOp25
 70
     1
102
RTVSPropertyOp26
 70
     1
102
RTVSPropertyOp27
 70
     1
102
RTVSPropertyOp28
 70
     1
102
RTVSPropertyOp29
 70
     1
102
RTVSPropertyOp30
 70
     1
102
RTVSPropertyOp31
 70
     1
102
RTVSPropertyOp32
 70
     1
102
RTVSPropertyOp33
 70
     1
102
RTVSPropertyOp34
 70
     1
102
RTVSPropertyOp35
 70
     1
102
RTVSPropertyOp36
 70
     1
102
RTVSPropertyOp37
 70
     1
102
RTVSPropertyOp38
 70
     1
102
RTVSPropertyOp39
 70
     1
102
RTVSPropertyOp40
 70
     1
102
RTVSPropertyOp41
 70
     1
102
RTVSPropertyOp42
 70
     1
102
RTVSPropertyOp43
 70
     1
102
RTVSPropertyOp44
 70
     1
102
RTVSPropertyOp45
 70
     1
102
RTVSPropertyOp46
 70
     1
102
RTVSPropertyOp47
 70
     1
102
RTVSPropertyOp48
 70
     1
102
RTVSPropertyOp49
 70
     1
102
RTVSPropertyOp50
 70
     1
102
RTVSPropertyOp51
 70
     0
102
RTVSPropertyOp52
 70
     0
102
RTVSPropertyOp53
 70
     1
102
RTVSPropertyOp54
 70
     1
102
RTVSPropertyOp55
 70
     1
102
RTVSPropertyOp56
 70
     1
102
RTVSPropertyOp57
 70
     1
102
RTVSPost2010Prop28
280
     0
102
RTVSPost2010PropOp28
 70
     1
102
RTVSPost2010Prop29
280
     1
102
RTVSPost2010PropOp29
 70
     1
102
RTVSPost2010Prop30
280
     1
102
RTVSPost2010PropOp30
 70
     1
102
RTVSPost2010Prop31
280
     0
102
RTVSPost2010PropOp31
 70
     1
102
RTVSPost2010Prop32
280
     0
102
RTVSPost2010PropOp32
 70
     1
102
RTVSPost2010Prop33
280
     0
102
RTVSPost2010PropOp33
 70
     1
102
RTVSPost2010Prop34
280
     0
102
RTVSPost2010PropOp34
 70
     1
102
RTVSPost2010Prop35
280
     0
102
RTVSPost2010PropOp35
 70
     1
102
RTVSPost2010Prop36
280
     0
102
RTVSPost2010PropOp36
 70
     1
102
RTVSPost2010Prop37
 90
       50
102
RTVSPost2010PropOp37
 70
     1
102
RTVSPost2010Prop38
140
0.0
102
RTVSPost2010PropOp38
 70
     1
102
RTVSPost2010Prop39
140
1.0
102
RTVSPost2010PropOp39
 70
     1
102
RTVSPost2010Prop40
 90
        0
102
RTVSPost2010PropOp40
 70
     1
102
RTVSPost2010Prop41ColorIndex
 90
       18
102
RTVSPost2010Prop41ColorRGB
 90
        0
102
RTVSPost2010PropOp41
 70
     1
102
RTVSPost2010Prop42
 90
       50
102
RTVSPost2010PropOp42
 70
     1
102
RTVSPost2010Prop43
 90
        3
102
RTVSPost2010PropOp43
 70
     1
102
RTVSPost2010Prop44ColorIndex
 90
        5
102
RTVSPost2010Prop44ColorRGB
 90
      255
102
RTVSPost2010PropOp44
 70
     1
102
RTVSPost2010Prop45
280
     0
102
RTVSPost2010PropOp45
 70
     1
102
RTVSPost2010Prop46
 90
       50
102
RTVSPost2010PropOp46
 70
     1
102
RTVSPost2010Prop47
 90
       50
102
RTVSPost2010PropOp47
 70
     1
102
RTVSPost2010Prop48
 90
       50
102
RTVSPost2010PropOp48
 70
     1
102
RTVSPost2010Prop49
280
     0
102
RTVSPost2010PropOp49
 70
     1
102
RTVSPost2010Prop50
 90
       50
102
RTVSPost2010PropOp50
 70
     1
102
RTVSPost2010Prop51ColorIndex
 90
      256
102
RTVSPost2010Prop51ColorRGB
 90
-16777216
102
RTVSPost2010PropOp51
 70
     0
102
RTVSPost2010Prop52
140
1.0
102
RTVSPost2010PropOp52
 70
     0
102
RTVSPost2010Prop53
 90
        2
102
RTVSPost2010PropOp53
 70
     1
102
RTVSPost2010Prop54
  1
strokes_ogs.tif
102
RTVSPost2010PropOp54
 70
     1
102
RTVSPost2010Prop55
280
     0
102
RTVSPost2010PropOp55
 70
     1
102
RTVSPost2010Prop56
140
1.0
102
RTVSPost2010PropOp56
 70
     1
102
RTVSPost2010Prop57
140
1.0
102
RTVSPost2010PropOp57
 70
     1
  0
XRECORD
  5
285
102
{ACAD_REACTORS
330
284
102
}
330
284
100
AcDbXrecord
280
     1
102
RTVSPropertyOp0
 70
     1
102
RTVSPropertyOp1
 70
     1
102
RTVSPropertyOp2
 70
     1
102
RTVSPropertyOp3
 70
     1
102
RTVSPropertyOp4
 70
     1
102
RTVSPropertyOp5
 70
     1
102
RTVSPropertyOp6
 70
     1
102
RTVSPropertyOp7
 70
     1
102
RTVSPropertyOp8
 70
     1
102
RTVSPropertyOp9
 70
     1
102
RTVSPropertyOp10
 70
     1
102
RTVSPropertyOp11
 70
     1
102
RTVSPropertyOp12
 70
     1
102
RTVSPropertyOp13
 70
     1
102
RTVSPropertyOp14
 70
     1
102
RTVSPropertyOp15
 70
     1
102
RTVSPropertyOp16
 70
     1
102
RTVSPropertyOp17
 70
     1
102
RTVSPropertyOp18
 70
     1
102
RTVSPropertyOp19
 70
     1
102
RTVSPropertyOp20
 70
     1
102
RTVSPropertyOp21
 70
     1
102
RTVSPropertyOp22
 70
     1
102
RTVSPropertyOp23
 70
     1
102
RTVSPropertyOp24
 70
     1
102
RTVSPropertyOp25
 70
     1
102
RTVSPropertyOp26
 70
     1
102
RTVSPropertyOp27
 70
     1
102
RTVSPropertyOp28
 70
     1
102
RTVSPropertyOp29
 70
     1
102
RTVSPropertyOp30
 70
     1
102
RTVSPropertyOp31
 70
     1
102
RTVSPropertyOp32
 70
     1
102
RTVSPropertyOp33
 70
     1
102
RTVSPropertyOp34
 70
     1
102
RTVSPropertyOp35
 70
     1
102
RTVSPropertyOp36
 70
     1
102
RTVSPropertyOp37
 70
     1
102
RTVSPropertyOp38
 70
     1
102
RTVSPropertyOp39
 70
     1
102
RTVSPropertyOp40
 70
     1
102
RTVSPropertyOp41
 70
     1
102
RTVSPropertyOp42
 70
     1
102
RTVSPropertyOp43
 70
     1
102
RTVSPropertyOp44
 70
     1
102
RTVSPropertyOp45
 70
     1
102
RTVSPropertyOp46
 70
     1
102
RTVSPropertyOp47
 70
     1
102
RTVSPropertyOp48
 70
     1
102
RTVSPropertyOp49
 70
     1
102
RTVSPropertyOp50
 70
     1
102
RTVSPropertyOp51
 70
     0
102
RTVSPropertyOp52
 70
     0
102
RTVSPropertyOp53
 70
     1
102
RTVSPropertyOp54
 70
     1
102
RTVSPropertyOp55
 70
     1
102
RTVSPropertyOp56
 70
     1
102
RTVSPropertyOp57
 70
     1
102
RTVSPost2010Prop28
280
     0
102
RTVSPost2010PropOp28
 70
     1
102
RTVSPost2010Prop29
280
     1
102
RTVSPost2010PropOp29
 70
     1
102
RTVSPost2010Prop30
280
     1
102
RTVSPost2010PropOp30
 70
     1
102
RTVSPost2010Prop31
280
     0
102
RTVSPost2010PropOp31
 70
     1
102
RTVSPost2010Prop32
280
     0
102
RTVSPost2010PropOp32
 70
     1
102
RTVSPost2010Prop33
280
     0
102
RTVSPost2010PropOp33
 70
     1
102
RTVSPost2010Prop34
280
     0
102
RTVSPost2010PropOp34
 70
     1
102
RTVSPost2010Prop35
280
     0
102
RTVSPost2010PropOp35
 70
     1
102
RTVSPost2010Prop36
280
     0
102
RTVSPost2010PropOp36
 70
     1
102
RTVSPost2010Prop37
 90
       50
102
RTVSPost2010PropOp37
 70
     1
102
RTVSPost2010Prop38
140
0.0
102
RTVSPost2010PropOp38
 70
     1
102
RTVSPost2010Prop39
140
1.0
102
RTVSPost2010PropOp39
 70
     1
102
RTVSPost2010Prop40
 90
        0
102
RTVSPost2010PropOp40
 70
     1
102
RTVSPost2010Prop41ColorIndex
 90
       18
102
RTVSPost2010Prop41ColorRGB
 90
        0
102
RTVSPost2010PropOp41
 70
     1
102
RTVSPost2010Prop42
 90
       50
102
RTVSPost2010PropOp42
 70
     1
102
RTVSPost2010Prop43
 90
        3
102
RTVSPost2010PropOp43
 70
     1
102
RTVSPost2010Prop44ColorIndex
 90
        5
102
RTVSPost2010Prop44ColorRGB
 90
      255
102
RTVSPost2010PropOp44
 70
     1
102
RTVSPost2010Prop45
280
     0
102
RTVSPost2010PropOp45
 70
     1
102
RTVSPost2010Prop46
 90
       50
102
RTVSPost2010PropOp46
 70
     1
102
RTVSPost2010Prop47
 90
       50
102
RTVSPost2010PropOp47
 70
     1
102
RTVSPost2010Prop48
 90
       50
102
RTVSPost2010PropOp48
 70
     1
102
RTVSPost2010Prop49
280
     0
102
RTVSPost2010PropOp49
 70
     1
102
RTVSPost2010Prop50
 90
       50
102
RTVSPost2010PropOp50
 70
     1
102
RTVSPost2010Prop51ColorIndex
 90
      256
102
RTVSPost2010Prop51ColorRGB
 90
-16777216
102
RTVSPost2010PropOp51
 70
     0
102
RTVSPost2010Prop52
140
1.0
102
RTVSPost2010PropOp52
 70
     0
102
RTVSPost2010Prop53
 90
        2
102
RTVSPost2010PropOp53
 70
     1
102
RTVSPost2010Prop54
  1
strokes_ogs.tif
102
RTVSPost2010PropOp54
 70
     1
102
RTVSPost2010Prop55
280
     0
102
RTVSPost2010PropOp55
 70
     1
102
RTVSPost2010Prop56
140
1.0
102
RTVSPost2010PropOp56
 70
     1
102
RTVSPost2010Prop57
140
1.0
102
RTVSPost2010PropOp57
 70
     1
  0
ENDSEC
  0
EOF
