  0
SECTION
  2
HEADER
  9
$ACADVER
  1
AC1021
  9
$ACADMAINTVER
 70
    25
  9
$DWGCODEPAGE
  3
ANSI_1252
  9
$LASTSAVEDBY
  1
noseda_d
  9
$INSBASE
 10
0.0
 20
0.0
 30
0.0
  9
$EXTMIN
 10
247.705426
 20
1536.355137
 30
-0.0000000000000018
  9
$EXTMAX
 10
1704.927404
 20
1887.934038
 30
0.0000000000000021
  9
$LIMMIN
 10
0.0
 20
0.0
  9
$LIMMAX
 10
12.0
 20
9.0
  9
$ORTHOMODE
 70
     0
  9
$REGENMODE
 70
     1
  9
$FILLMODE
 70
     1
  9
$QTEXTMODE
 70
     0
  9
$MIRRTEXT
 70
     1
  9
$LTSCALE
 40
1.0
  9
$ATTMODE
 70
     1
  9
$TEXTSIZE
 40
0.2
  9
$TRACEWID
 40
0.05
  9
$TEXTSTYLE
  7
Standard
  9
$CLAYER
  8
1
  9
$CELTYPE
  6
ByLayer
  9
$CECOLOR
 62
   256
  9
$CELTSCALE
 40
1.0
  9
$DISPSILH
 70
     0
  9
$DIMSCALE
 40
1.0
  9
$DIMASZ
 40
0.18
  9
$DIMEXO
 40
0.0625
  9
$DIMDLI
 40
0.38
  9
$DIMRND
 40
0.0
  9
$DIMDLE
 40
0.0
  9
$DIMEXE
 40
0.18
  9
$DIMTP
 40
0.0
  9
$DIMTM
 40
0.0
  9
$DIMTXT
 40
0.18
  9
$DIMCEN
 40
0.09
  9
$DIMTSZ
 40
0.0
  9
$DIMTOL
 70
     0
  9
$DIMLIM
 70
     0
  9
$DIMTIH
 70
     1
  9
$DIMTOH
 70
     1
  9
$DIMSE1
 70
     0
  9
$DIMSE2
 70
     0
  9
$DIMTAD
 70
     0
  9
$DIMZIN
 70
     0
  9
$DIMBLK
  1

  9
$DIMASO
 70
     1
  9
$DIMSHO
 70
     1
  9
$DIMPOST
  1

  9
$DIMAPOST
  1

  9
$DIMALT
 70
     0
  9
$DIMALTD
 70
     2
  9
$DIMALTF
 40
25.4
  9
$DIMLFAC
 40
1.0
  9
$DIMTOFL
 70
     0
  9
$DIMTVP
 40
0.0
  9
$DIMTIX
 70
     0
  9
$DIMSOXD
 70
     0
  9
$DIMSAH
 70
     0
  9
$DIMBLK1
  1

  9
$DIMBLK2
  1

  9
$DIMSTYLE
  2
STANDARD_ACAD
  9
$DIMCLRD
 70
     0
  9
$DIMCLRE
 70
     0
  9
$DIMCLRT
 70
     0
  9
$DIMTFAC
 40
1.0
  9
$DIMGAP
 40
0.09
  9
$DIMJUST
 70
     0
  9
$DIMSD1
 70
     0
  9
$DIMSD2
 70
     0
  9
$DIMTOLJ
 70
     1
  9
$DIMTZIN
 70
     0
  9
$DIMALTZ
 70
     0
  9
$DIMALTTZ
 70
     0
  9
$DIMUPT
 70
     0
  9
$DIMDEC
 70
     4
  9
$DIMTDEC
 70
     4
  9
$DIMALTU
 70
     2
  9
$DIMALTTD
 70
     2
  9
$DIMTXSTY
  7
Standard
  9
$DIMAUNIT
 70
     0
  9
$DIMADEC
 70
     0
  9
$DIMALTRND
 40
0.0
  9
$DIMAZIN
 70
     0
  9
$DIMDSEP
 70
    46
  9
$DIMATFIT
 70
     3
  9
$DIMFRAC
 70
     0
  9
$DIMLDRBLK
  1

  9
$DIMLUNIT
 70
     2
  9
$DIMLWD
 70
    -2
  9
$DIMLWE
 70
    -2
  9
$DIMTMOVE
 70
     2
  9
$DIMFXL
 40
1.0
  9
$DIMFXLON
 70
     0
  9
$DIMJOGANG
 40
0.7853981633974483
  9
$DIMTFILL
 70
     0
  9
$DIMTFILLCLR
 70
     0
  9
$DIMARCSYM
 70
     0
  9
$DIMLTYPE
  6

  9
$DIMLTEX1
  6

  9
$DIMLTEX2
  6

  9
$LUNITS
 70
     2
  9
$LUPREC
 70
     3
  9
$SKETCHINC
 40
0.1
  9
$FILLETRAD
 40
0.0
  9
$AUNITS
 70
     0
  9
$AUPREC
 70
     0
  9
$MENU
  1
.
  9
$ELEVATION
 40
0.0
  9
$PELEVATION
 40
0.0
  9
$THICKNESS
 40
0.0
  9
$LIMCHECK
 70
     0
  9
$CHAMFERA
 40
0.0
  9
$CHAMFERB
 40
0.0
  9
$CHAMFERC
 40
0.0
  9
$CHAMFERD
 40
0.0
  9
$SKPOLY
 70
     0
  9
$TDCREATE
 40
2460640.734264781
  9
$TDUCREATE
 40
2460640.692598114
  9
$TDUPDATE
 40
2460640.734277685
  9
$TDUUPDATE
 40
2460640.692611019
  9
$TDINDWG
 40
0.0000000116
  9
$TDUSRTIMER
 40
0.0000000116
  9
$USRTIMER
 70
     1
  9
$ANGBASE
 50
0.0
  9
$ANGDIR
 70
     0
  9
$PDMODE
 70
     0
  9
$PDSIZE
 40
0.0
  9
$PLINEWID
 40
0.0
  9
$SPLFRAME
 70
     0
  9
$SPLINETYPE
 70
     6
  9
$SPLINESEGS
 70
     8
  9
$HANDSEED
  5
2A4
  9
$SURFTAB1
 70
     6
  9
$SURFTAB2
 70
     6
  9
$SURFTYPE
 70
     6
  9
$SURFU
 70
     6
  9
$SURFV
 70
     6
  9
$UCSBASE
  2

  9
$UCSNAME
  2

  9
$UCSORG
 10
0.0
 20
0.0
 30
0.0
  9
$UCSXDIR
 10
1.0
 20
0.0
 30
0.0
  9
$UCSYDIR
 10
0.0
 20
1.0
 30
0.0
  9
$UCSORTHOREF
  2

  9
$UCSORTHOVIEW
 70
     0
  9
$UCSORGTOP
 10
0.0
 20
0.0
 30
0.0
  9
$UCSORGBOTTOM
 10
0.0
 20
0.0
 30
0.0
  9
$UCSORGLEFT
 10
0.0
 20
0.0
 30
0.0
  9
$UCSORGRIGHT
 10
0.0
 20
0.0
 30
0.0
  9
$UCSORGFRONT
 10
0.0
 20
0.0
 30
0.0
  9
$UCSORGBACK
 10
0.0
 20
0.0
 30
0.0
  9
$PUCSBASE
  2

  9
$PUCSNAME
  2

  9
$PUCSORG
 10
0.0
 20
0.0
 30
0.0
  9
$PUCSXDIR
 10
1.0
 20
0.0
 30
0.0
  9
$PUCSYDIR
 10
0.0
 20
1.0
 30
0.0
  9
$PUCSORTHOREF
  2

  9
$PUCSORTHOVIEW
 70
     0
  9
$PUCSORGTOP
 10
0.0
 20
0.0
 30
0.0
  9
$PUCSORGBOTTOM
 10
0.0
 20
0.0
 30
0.0
  9
$PUCSORGLEFT
 10
0.0
 20
0.0
 30
0.0
  9
$PUCSORGRIGHT
 10
0.0
 20
0.0
 30
0.0
  9
$PUCSORGFRONT
 10
0.0
 20
0.0
 30
0.0
  9
$PUCSORGBACK
 10
0.0
 20
0.0
 30
0.0
  9
$USERI1
 70
     0
  9
$USERI2
 70
     0
  9
$USERI3
 70
     0
  9
$USERI4
 70
     0
  9
$USERI5
 70
     0
  9
$USERR1
 40
0.0
  9
$USERR2
 40
0.0
  9
$USERR3
 40
0.0
  9
$USERR4
 40
0.0
  9
$USERR5
 40
0.0
  9
$WORLDVIEW
 70
     1
  9
$SHADEDGE
 70
     3
  9
$SHADEDIF
 70
    70
  9
$TILEMODE
 70
     1
  9
$MAXACTVP
 70
    64
  9
$PINSBASE
 10
0.0
 20
0.0
 30
0.0
  9
$PLIMCHECK
 70
     0
  9
$PEXTMIN
 10
1.000000000000000E+20
 20
1.000000000000000E+20
 30
1.000000000000000E+20
  9
$PEXTMAX
 10
-1.000000000000000E+20
 20
-1.000000000000000E+20
 30
-1.000000000000000E+20
  9
$PLIMMIN
 10
0.0
 20
0.0
  9
$PLIMMAX
 10
12.0
 20
9.0
  9
$UNITMODE
 70
     0
  9
$VISRETAIN
 70
     1
  9
$PLINEGEN
 70
     0
  9
$PSLTSCALE
 70
     1
  9
$TREEDEPTH
 70
  3020
  9
$CMLSTYLE
  2
Standard
  9
$CMLJUST
 70
     0
  9
$CMLSCALE
 40
1.0
  9
$PROXYGRAPHICS
 70
     1
  9
$MEASUREMENT
 70
     1
  9
$CELWEIGHT
370
    -1
  9
$ENDCAPS
280
     0
  9
$JOINSTYLE
280
     0
  9
$LWDISPLAY
290
     0
  9
$INSUNITS
 70
     4
  9
$HYPERLINKBASE
  1

  9
$STYLESHEET
  1

  9
$XEDIT
290
     1
  9
$CEPSNTYPE
380
     0
  9
$PSTYLEMODE
290
     1
  9
$FINGERPRINTGUID
  2
{96113c71-d967-0f41-bdf3-34a721420167}
  9
$VERSIONGUID
  2
{FAEB1C32-E019-11D5-929B-00C0DF256EC4}
  9
$EXTNAMES
290
     1
  9
$PSVPSCALE
 40
0.0
  9
$OLESTARTUP
290
     0
  9
$SORTENTS
280
   127
  9
$INDEXCTL
280
     0
  9
$HIDETEXT
280
     1
  9
$XCLIPFRAME
290
     0
  9
$HALOGAP
280
     0
  9
$OBSCOLOR
 70
   257
  9
$OBSLTYPE
280
     0
  9
$INTERSECTIONDISPLAY
280
     0
  9
$INTERSECTIONCOLOR
 70
   257
  9
$DIMASSOC
280
     2
  9
$PROJECTNAME
  1

  9
$CAMERADISPLAY
290
     0
  9
$LENSLENGTH
 40
50.0
  9
$CAMERAHEIGHT
 40
0.0
  9
$STEPSPERSEC
 40
2.0
  9
$STEPSIZE
 40
6.0
  9
$3DDWFPREC
 40
2.0
  9
$PSOLWIDTH
 40
0.25
  9
$PSOLHEIGHT
 40
4.0
  9
$LOFTANG1
 40
1.570796326794897
  9
$LOFTANG2
 40
1.570796326794897
  9
$LOFTMAG1
 40
0.0
  9
$LOFTMAG2
 40
0.0
  9
$LOFTPARAM
 70
     7
  9
$LOFTNORMALS
280
     1
  9
$LATITUDE
 40
37.795
  9
$LONGITUDE
 40
-122.394
  9
$NORTHDIRECTION
 40
0.0
  9
$TIMEZONE
 70
 -8000
  9
$LIGHTGLYPHDISPLAY
280
     1
  9
$TILEMODELIGHTSYNCH
280
     1
  9
$CMATERIAL
347
44
  9
$SOLIDHIST
280
     0
  9
$SHOWHIST
280
     1
  9
$DWFFRAME
280
     2
  9
$DGNFRAME
280
     2
  9
$REALWORLDSCALE
290
     1
  9
$INTERFERECOLOR
 62
   256
  9
$CSHADOW
280
     0
  9
$SHADOWPLANELOCATION
 40
0.0
  0
ENDSEC
  0
SECTION
  2
CLASSES
  0
CLASS
  1
ACDBDICTIONARYWDFLT
  2
AcDbDictionaryWithDefault
  3
ObjectDBX Classes
 90
        0
 91
        3
280
     0
281
     0
  0
CLASS
  1
VISUALSTYLE
  2
AcDbVisualStyle
  3
ObjectDBX Classes
 90
     4095
 91
        3
280
     0
281
     0
  0
CLASS
  1
MATERIAL
  2
AcDbMaterial
  3
ObjectDBX Classes
 90
     1153
 91
        3
280
     0
281
     0
  0
CLASS
  1
SCALE
  2
AcDbScale
  3
ObjectDBX Classes
 90
     1153
 91
        3
280
     0
281
     0
  0
CLASS
  1
TABLESTYLE
  2
AcDbTableStyle
  3
ObjectDBX Classes
 90
     4095
 91
        3
280
     0
281
     0
  0
CLASS
  1
MLEADERSTYLE
  2
AcDbMLeaderStyle
  3
ACDB_MLEADERSTYLE_CLASS
 90
     4095
 91
        3
280
     0
281
     0
  0
CLASS
  1
SUN
  2
AcDbSun
  3
SCENEOE
 90
     1153
 91
        3
280
     0
281
     0
  0
CLASS
  1
DICTIONARYVAR
  2
AcDbDictionaryVar
  3
ObjectDBX Classes
 90
        0
 91
        3
280
     0
281
     0
  0
CLASS
  1
CELLSTYLEMAP
  2
AcDbCellStyleMap
  3
ObjectDBX Classes
 90
     1152
 91
        3
280
     0
281
     0
  0
ENDSEC
  0
SECTION
  2
TABLES
  0
TABLE
  2
VPORT
  5
8
330
0
100
AcDbSymbolTable
 70
     1
  0
VPORT
  5
29
330
8
100
AcDbSymbolTableRecord
100
AcDbViewportTableRecord
  2
*Active
 70
     0
 10
0.0
 20
0.0
 11
1.0
 21
1.0
 12
10.42990654205607
 22
4.5
 13
0.0
 23
0.0
 14
0.5
 24
0.5
 15
0.5
 25
0.5
 16
0.0
 26
0.0
 36
1.0
 17
0.0
 27
0.0
 37
0.0
 40
9.0
 41
1.972972972850329
 42
50.0
 43
0.0
 44
0.0
 50
0.0
 51
0.0
 71
     0
 72
   100
 73
     1
 74
     3
 75
     0
 76
     0
 77
     0
 78
     0
281
     0
 65
     1
110
0.0
120
0.0
130
0.0
111
1.0
121
0.0
131
0.0
112
0.0
122
1.0
132
0.0
 79
     0
146
0.0
348
2F
 60
     3
 61
     5
292
     1
282
     1
141
0.0
142
0.0
 63
   250
361
5D
  0
ENDTAB
  0
TABLE
  2
LTYPE
  5
5
330
0
100
AcDbSymbolTable
 70
     1
  0
LTYPE
  5
14
330
5
100
AcDbSymbolTableRecord
100
AcDbLinetypeTableRecord
  2
ByBlock
 70
     0
  3

 72
    65
 73
     0
 40
0.0
  0
LTYPE
  5
15
330
5
100
AcDbSymbolTableRecord
100
AcDbLinetypeTableRecord
  2
ByLayer
 70
     0
  3

 72
    65
 73
     0
 40
0.0
  0
LTYPE
  5
16
330
5
100
AcDbSymbolTableRecord
100
AcDbLinetypeTableRecord
  2
Continuous
 70
     0
  3
Solid line
 72
    65
 73
     0
 40
0.0
  0
ENDTAB
  0
TABLE
  2
LAYER
  5
2
330
0
100
AcDbSymbolTable
 70
     2
  0
LAYER
  5
10
330
2
100
AcDbSymbolTableRecord
100
AcDbLayerTableRecord
  2
0
 70
     0
 62
     7
  6
Continuous
370
    -3
390
F
347
46
  0
LAYER
  5
5F
330
2
100
AcDbSymbolTableRecord
100
AcDbLayerTableRecord
  2
1
 70
     0
 62
     7
420
 16777215
  6
Continuous
370
    -3
390
F
347
46
  0
ENDTAB
  0
TABLE
  2
STYLE
  5
3
330
0
100
AcDbSymbolTable
 70
     1
  0
STYLE
  5
11
330
3
100
AcDbSymbolTableRecord
100
AcDbTextStyleTableRecord
  2
Standard
 70
     0
 40
0.0
 41
1.0
 50
0.0
 71
     0
 42
0.2
  3
txt
  4

  0
ENDTAB
  0
TABLE
  2
VIEW
  5
6
330
0
100
AcDbSymbolTable
 70
     0
  0
ENDTAB
  0
TABLE
  2
UCS
  5
7
330
0
100
AcDbSymbolTable
 70
     0
  0
ENDTAB
  0
TABLE
  2
APPID
  5
9
330
0
100
AcDbSymbolTable
 70
     3
  0
APPID
  5
12
330
9
100
AcDbSymbolTableRecord
100
AcDbRegAppTableRecord
  2
ACAD
 70
     0
  0
APPID
  5
5E
330
9
100
AcDbSymbolTableRecord
100
AcDbRegAppTableRecord
  2
Rhino
 70
     0
  0
APPID
  5
29C
330
9
100
AcDbSymbolTableRecord
100
AcDbRegAppTableRecord
  2
ACAD_MLEADERVER
 70
     0
  0
ENDTAB
  0
TABLE
  2
DIMSTYLE
  5
A
330
0
100
AcDbSymbolTable
 70
     1
100
AcDbDimStyleTable
  0
DIMSTYLE
105
27
330
A
100
AcDbSymbolTableRecord
100
AcDbDimStyleTableRecord
  2
STANDARD_ACAD
 70
     0
178
     0
340
11
  0
ENDTAB
  0
TABLE
  2
BLOCK_RECORD
  5
1
330
0
100
AcDbSymbolTable
 70
     1
  0
BLOCK_RECORD
  5
1F
330
1
100
AcDbSymbolTableRecord
100
AcDbBlockTableRecord
  2
*Model_Space
340
22
 70
     0
280
     1
281
     0
  0
BLOCK_RECORD
  5
1B
330
1
100
AcDbSymbolTableRecord
100
AcDbBlockTableRecord
  2
*Paper_Space
340
1E
 70
     0
280
     1
281
     0
  0
BLOCK_RECORD
  5
23
330
1
100
AcDbSymbolTableRecord
100
AcDbBlockTableRecord
  2
*Paper_Space0
340
26
 70
     0
280
     1
281
     0
  0
ENDTAB
  0
ENDSEC
  0
SECTION
  2
BLOCKS
  0
BLOCK
  5
20
330
1F
100
AcDbEntity
  8
0
100
AcDbBlockBegin
  2
*Model_Space
 70
     0
 10
0.0
 20
0.0
 30
0.0
  3
*Model_Space
  1

  0
ENDBLK
  5
21
330
1F
100
AcDbEntity
  8
0
100
AcDbBlockEnd
  0
BLOCK
  5
1C
330
1B
100
AcDbEntity
 67
     1
  8
0
100
AcDbBlockBegin
  2
*Paper_Space
 70
     0
 10
0.0
 20
0.0
 30
0.0
  3
*Paper_Space
  1

  0
ENDBLK
  5
1D
330
1B
100
AcDbEntity
 67
     1
  8
0
100
AcDbBlockEnd
  0
BLOCK
  5
24
330
23
100
AcDbEntity
  8
0
100
AcDbBlockBegin
  2
*Paper_Space0
 70
     0
 10
0.0
 20
0.0
 30
0.0
  3
*Paper_Space0
  1

  0
ENDBLK
  5
25
330
23
100
AcDbEntity
  8
0
100
AcDbBlockEnd
  0
ENDSEC
  0
SECTION
  2
ENTITIES
  0
SPLINE
  5
60
330
1F
100
AcDbEntity
  8
1
  6
Continuous
 62
   155
420
  5010073
370
    18
100
AcDbSpline
210
0.0
220
0.0
230
1.0
 70
     8
 71
     3
 72
    38
 73
    34
 74
     0
 42
0.0000000001
 43
0.0000000001
 40
0.0
 40
0.0
 40
0.0
 40
0.0
 40
0.125000000000018
 40
0.125000000000018
 40
0.1875000000000246
 40
0.1875000000000246
 40
0.2187500000000275
 40
0.2187500000000275
 40
0.2500000000000304
 40
0.2500000000000304
 40
0.3750000000000369
 40
0.3750000000000369
 40
0.4062500000000359
 40
0.4062500000000359
 40
0.4375000000000349
 40
0.4375000000000349
 40
0.5000000000000296
 40
0.5000000000000296
 40
0.6250000000000269
 40
0.6250000000000269
 40
0.6562500000000235
 40
0.6562500000000235
 40
0.6875000000000201
 40
0.6875000000000201
 40
0.7500000000000105
 40
0.7500000000000105
 40
0.8125000000000011
 40
0.8125000000000011
 40
0.843749999999999
 40
0.843749999999999
 40
0.874999999999997
 40
0.874999999999997
 40
1.0
 40
1.0
 40
1.0
 40
1.0
 10
1188.069868503749
 20
1731.909340659339
 30
0.0000000000000017
 10
1188.097495388609
 20
1731.77734407616
 30
0.0000000000000017
 10
1188.124732338901
 20
1731.64722498243
 30
0.0000000000000017
 10
1188.165765254396
 20
1731.454936777537
 30
0.0000000000000018
 10
1188.179472223565
 20
1731.391325667112
 30
0.0000000000000018
 10
1188.200175674463
 20
1731.296676403516
 30
0.0000000000000018
 10
1188.207070061645
 20
1731.2653959569
 30
0.0000000000000018
 10
1188.220796758414
 20
1731.203660345512
 30
0.0000000000000018
 10
1188.227639245188
 20
1731.173158517346
 30
0.0000000000000018
 10
1188.261786578674
 20
1731.022459926532
 30
0.0000000000000018
 10
1188.28890127514
 20
1730.907646727804
 30
0.0000000000000018
 10
1188.323163063927
 20
1730.771501847611
 30
0.0000000000000018
 10
1188.33003413074
 20
1730.744644593704
 30
0.0000000000000018
 10
1188.343830803838
 20
1730.691691399438
 30
-0.0000000000000018
 10
1188.350729291184
 20
1730.665701783016
 30
-0.0000000000000018
 10
1188.371322678005
 20
1730.58965282308
 30
-0.0000000000000018
 10
1188.384968135447
 20
1730.541308494704
 30
-0.0000000000000018
 10
1188.425840780988
 20
1730.403208497529
 30
-0.0000000000000018
 10
1188.453004827068
 20
1730.320322096151
 30
-0.0000000000000018
 10
1188.48748749043
 20
1730.228708462002
 30
-0.0000000000000018
 10
1188.494389155137
 20
1730.211051894952
 30
-0.0000000000000018
 10
1188.508120190717
 20
1730.177307122637
 30
-0.0000000000000018
 10
1188.514964418841
 20
1730.161179099912
 30
-0.0000000000000018
 10
1188.535457809881
 20
1730.11499692614
 30
-0.0000000000000018
 10
1188.549067987315
 20
1730.087139795979
 30
-0.0000000000000018
 10
1188.576305735292
 20
1730.037242819268
 30
-0.0000000000000017
 10
1188.589934763794
 20
1730.015202979364
 30
-0.0000000000000017
 10
1188.610486063601
 20
1729.986591949441
 30
-0.0000000000000017
 10
1188.617354546844
 20
1729.97779764637
 30
-0.0000000000000017
 10
1188.631144509352
 20
1729.961724726368
 30
-0.0000000000000017
 10
1188.638051983963
 20
1729.954466131848
 30
-0.0000000000000017
 10
1188.672456494504
 20
1729.922288378079
 30
-0.0000000000000017
 10
1188.69977694705
 20
1729.90934065934
 30
-0.0000000000000017
 10
1188.727403846146
 20
1729.909340659339
 30
-0.0000000000000017
  0
SPLINE
  5
61
330
1F
100
AcDbEntity
  8
1
  6
Continuous
 62
   155
420
  5010073
370
    18
100
AcDbSpline
210
0.0
220
0.0
230
1.0
 70
     8
 71
     3
 72
    38
 73
    34
 74
     0
 42
0.0000000001
 43
0.0000000001
 40
0.0
 40
0.0
 40
0.0
 40
0.0
 40
0.1250000000000018
 40
0.1250000000000018
 40
0.1875000000000027
 40
0.1875000000000027
 40
0.2187500000000016
 40
0.2187500000000016
 40
0.2500000000000006
 40
0.2500000000000006
 40
0.3750000000000123
 40
0.3750000000000123
 40
0.4062500000000146
 40
0.4062500000000146
 40
0.4375000000000169
 40
0.4375000000000169
 40
0.5000000000000137
 40
0.5000000000000137
 40
0.6250000000000072
 40
0.6250000000000072
 40
0.6562500000000051
 40
0.6562500000000051
 40
0.6875000000000031
 40
0.6875000000000031
 40
0.7499999999999993
 40
0.7499999999999993
 40
0.8124999999999956
 40
0.8124999999999956
 40
0.8437499999999937
 40
0.8437499999999937
 40
0.8749999999999918
 40
0.8749999999999918
 40
1.0
 40
1.0
 40
1.0
 40
1.0
 10
1627.127403846146
 20
1729.909340659339
 30
-0.0000000000000013
 10
1627.155030744717
 20
1729.909340659339
 30
-0.0000000000000013
 10
1627.182267694882
 20
1729.922287756869
 30
-0.0000000000000013
 10
1627.223300605268
 20
1729.960549218547
 30
-0.0000000000000013
 10
1627.237007571885
 20
1729.976464784408
 30
-0.0000000000000013
 10
1627.257711019588
 20
1730.00520576917
 30
-0.0000000000000013
 10
1627.264605405816
 20
1730.015558610299
 30
-0.0000000000000013
 10
1627.278332101221
 20
1730.037686171085
 30
-0.0000000000000013
 10
1627.285174587592
 20
1730.049474919623
 30
-0.0000000000000013
 10
1627.319321921072
 20
1730.111987599417
 30
-0.0000000000000013
 10
1627.346436617531
 20
1730.173321975358
 30
-0.0000000000000013
 10
1627.380698406306
 20
1730.26422825774
 30
-0.0000000000000013
 10
1627.387569473117
 20
1730.283127436554
 30
-0.0000000000000013
 10
1627.40136614621
 20
1730.322388659062
 30
-0.0000000000000013
 10
1627.408264633561
 20
1730.342676054438
 30
-0.0000000000000013
 10
1627.428858020389
 20
1730.405104451139
 30
-0.0000000000000013
 10
1627.442503477835
 20
1730.448955352385
 30
-0.0000000000000013
 10
1627.483376123384
 20
1730.587026436534
 30
-0.0000000000000013
 10
1627.510540169464
 20
1730.68770509021
 30
-0.0000000000000013
 10
1627.54502283282
 20
1730.82464657415
 30
-0.0000000000000013
 10
1627.55192449753
 20
1730.852509863096
 30
-0.0000000000000013
 10
1627.565655533112
 20
1730.908772877104
 30
-0.0000000000000013
 10
1627.572499761237
 20
1730.937231415946
 30
-0.0000000000000013
 10
1627.592993152281
 20
1731.023568994116
 30
-0.0000000000000013
 10
1627.606603329717
 20
1731.082407815325
 30
-0.0000000000000013
 10
1627.633841077697
 20
1731.202599127995
 30
-0.0000000000000013
 10
1627.64747010782
 20
1731.263951287857
 30
-0.0000000000000013
 10
1627.668021410788
 20
1731.357880191674
 30
-0.0000000000000013
 10
1627.6748898952
 20
1731.3895071247
 30
-0.0000000000000013
 10
1627.688679859954
 20
1731.453404816689
 30
-0.0000000000000013
 10
1627.695587335643
 20
1731.485611375108
 30
-0.0000000000000013
 10
1627.729991850496
 20
1731.646818278747
 30
-0.0000000000000013
 10
1627.757312303161
 20
1731.777344073669
 30
-0.0000000000000013
 10
1627.784939188542
 20
1731.909340659339
 30
-0.0000000000000013
  0
SPLINE
  5
62
330
1F
100
AcDbEntity
  8
1
  6
Continuous
 62
   155
420
  5010073
370
    18
100
AcDbSpline
210
0.0
220
0.0
230
1.0
 70
     8
 71
     3
 72
    38
 73
    34
 74
     0
 42
0.0000000001
 43
0.0000000001
 40
0.0
 40
0.0
 40
0.0
 40
0.0
 40
0.1249999999999491
 40
0.1249999999999491
 40
0.1874999999999236
 40
0.1874999999999236
 40
0.2187499999999109
 40
0.2187499999999109
 40
0.2499999999998981
 40
0.2499999999998981
 40
0.374999999999872
 40
0.374999999999872
 40
0.4062499999998709
 40
0.4062499999998709
 40
0.4374999999998699
 40
0.4374999999998699
 40
0.499999999999888
 40
0.499999999999888
 40
0.6249999999999234
 40
0.6249999999999234
 40
0.6562499999999291
 40
0.6562499999999291
 40
0.6874999999999345
 40
0.6874999999999345
 40
0.7499999999999458
 40
0.7499999999999458
 40
0.8124999999999573
 40
0.8124999999999573
 40
0.8437499999999627
 40
0.8437499999999627
 40
0.8749999999999682
 40
0.8749999999999682
 40
1.0
 40
1.0
 40
1.0
 40
1.0
 10
1627.127403846146
 20
1729.909340659339
 30
-0.0000000000000013
 10
1627.259400426418
 20
1729.909340659339
 30
-0.0000000000000013
 10
1627.389519520253
 20
1729.922287756869
 30
-0.0000000000000013
 10
1627.581807726262
 20
1729.96054921855
 30
-0.0000000000000013
 10
1627.645418837229
 20
1729.976464784413
 30
-0.0000000000000013
 10
1627.740068101499
 20
1730.005205769179
 30
-0.0000000000000013
 10
1627.7713485483
 20
1730.015558610306
 30
-0.0000000000000013
 10
1627.83308415995
 20
1730.037686171091
 30
-0.0000000000000012
 10
1627.863585988187
 20
1730.049474919628
 30
-0.0000000000000012
 10
1628.014284578966
 20
1730.111987599419
 30
-0.0000000000000012
 10
1628.129097777665
 20
1730.173321975361
 30
-0.0000000000000012
 10
1628.265242657823
 20
1730.26422825775
 30
-0.0000000000000012
 10
1628.292099911722
 20
1730.283127436566
 30
-0.0000000000000012
 10
1628.345053105975
 20
1730.322388659079
 30
-0.0000000000000012
 10
1628.371042722414
 20
1730.34267605445
 30
-0.0000000000000012
 10
1628.447091682371
 20
1730.405104451146
 30
-0.0000000000000012
 10
1628.495436010757
 20
1730.44895535239
 30
-0.0000000000000012
 10
1628.633536007955
 20
1730.587026436535
 30
-0.0000000000000011
 10
1628.716422409336
 20
1730.687705090215
 30
-0.0000000000000011
 10
1628.808036043481
 20
1730.82464657417
 30
-0.0000000000000011
 10
1628.825692610533
 20
1730.852509863111
 30
-0.0000000000000011
 10
1628.859437382851
 20
1730.908772877114
 30
-0.0000000000000011
 10
1628.875565405578
 20
1730.937231415953
 30
-0.0000000000000011
 10
1628.921747579354
 20
1731.023568994118
 30
-0.0000000000000011
 10
1628.949604709518
 20
1731.082407815326
 30
-0.0000000000000011
 10
1628.999501686232
 20
1731.202599127997
 30
-0.0000000000000011
 10
1629.021541526013
 20
1731.263951287861
 30
-0.0000000000000011
 10
1629.050152555778
 20
1731.357880191685
 30
-0.0000000000000011
 10
1629.058946858799
 20
1731.389507124714
 30
-0.0000000000000011
 10
1629.07501977873
 20
1731.45340481671
 30
-0.0000000000000011
 10
1629.08227837323
 20
1731.485611375125
 30
-0.0000000000000011
 10
1629.114456126989
 20
1731.646818278752
 30
-0.0000000000000011
 10
1629.127403846146
 20
1731.77734407367
 30
-0.0000000000000011
 10
1629.127403846146
 20
1731.909340659339
 30
-0.0000000000000011
  0
SPLINE
  5
63
330
1F
100
AcDbEntity
  8
1
  6
Continuous
 62
   155
420
  5010073
370
    18
100
AcDbSpline
210
0.0
220
0.0
230
1.0
 70
     8
 71
     3
 72
    20
 73
    16
 74
     0
 42
0.0000000001
 43
0.0000000001
 40
0.0
 40
0.0
 40
0.0
 40
0.0
 40
0.0842754300740265
 40
0.0842754300740265
 40
0.2621820891252479
 40
0.2621820891252479
 40
0.4466365668439364
 40
0.4466365668439364
 40
0.6245600091318331
 40
0.6245600091318331
 40
0.8024547340420329
 40
0.8024547340420329
 40
0.9803520897285253
 40
0.9803520897285253
 40
1.0
 40
1.0
 40
1.0
 40
1.0
 10
1627.690165559668
 20
1731.340747697086
 30
-0.0000000000000013
 10
1627.702792946594
 20
1731.353245506721
 30
-0.0000000000000013
 10
1627.715004344005
 20
1731.366163615279
 30
-0.0000000000000013
 10
1627.751612567657
 20
1731.40757366907
 30
-0.0000000000000013
 10
1627.774474080404
 20
1731.437422496442
 30
-0.0000000000000013
 10
1627.816547653518
 20
1731.50118272304
 30
-0.0000000000000012
 10
1627.835593831356
 20
1731.535202939976
 30
-0.0000000000000012
 10
1627.867957715055
 20
1731.604403168715
 30
-0.0000000000000012
 10
1627.881454447268
 20
1731.639498859588
 30
-0.0000000000000012
 10
1627.903392769452
 20
1731.71123048108
 30
-0.0000000000000012
 10
1627.911835033406
 20
1731.747865694476
 30
-0.0000000000000012
 10
1627.92350114476
 20
1731.821958827352
 30
-0.0000000000000012
 10
1627.92672483887
 20
1731.859416276384
 30
-0.0000000000000012
 10
1627.927371676857
 20
1731.90105655192
 30
-0.0000000000000012
 10
1627.927403846146
 20
1731.905198605628
 30
-0.0000000000000012
 10
1627.927403846146
 20
1731.909340659339
 30
-0.0000000000000012
  0
SPLINE
  5
64
330
1F
100
AcDbEntity
  8
1
  6
Continuous
 62
   155
420
  5010073
370
    18
100
AcDbSpline
210
0.0
220
0.0
230
1.0
 70
     8
 71
     3
 72
    18
 73
    14
 74
     0
 42
0.0000000001
 43
0.0000000001
 40
0.0
 40
0.0
 40
0.0
 40
0.0
 40
0.17707200265844
 40
0.17707200265844
 40
0.3541367049159669
 40
0.3541367049159669
 40
0.5311947919057007
 40
0.5311947919057007
 40
0.7119913147464061
 40
0.7119913147464061
 40
0.8890905604359253
 40
0.8890905604359253
 40
1.0
 40
1.0
 40
1.0
 40
1.0
 10
1187.927403846146
 20
1731.909340659339
 30
0.0000000000000017
 10
1187.927403846146
 20
1731.871834092948
 30
0.0000000000000017
 10
1187.930045828002
 20
1731.834327770956
 30
0.0000000000000017
 10
1187.940561428753
 20
1731.76005691367
 30
0.0000000000000017
 10
1187.948434763086
 20
1731.72329283171
 30
0.0000000000000017
 10
1187.969257048235
 20
1731.651232243662
 30
0.0000000000000017
 10
1187.982205673457
 20
1731.615936152136
 30
0.0000000000000017
 10
1188.013247206944
 20
1731.546784679891
 30
0.0000000000000017
 10
1188.031442920265
 20
1731.512976012583
 30
0.0000000000000017
 10
1188.072066194811
 20
1731.448971526837
 30
0.0000000000000017
 10
1188.094399180708
 20
1731.418716292892
 30
0.0000000000000017
 10
1188.13398851375
 20
1731.372302362376
 30
0.0000000000000018
 10
1188.150022524035
 20
1731.355101506065
 30
0.0000000000000018
 10
1188.16678120869
 20
1731.338638359208
 30
0.0000000000000018
  0
SPLINE
  5
65
330
1F
100
AcDbEntity
  8
1
  6
Continuous
 62
   155
420
  5010073
370
    18
100
AcDbSpline
210
0.0
220
0.0
230
1.0
 70
     8
 71
     3
 72
    38
 73
    34
 74
     0
 42
0.0000000001
 43
0.0000000001
 40
0.0
 40
0.0
 40
0.0
 40
0.0
 40
0.1250000000000434
 40
0.1250000000000434
 40
0.1875000000000626
 40
0.1875000000000626
 40
0.2187500000000688
 40
0.2187500000000688
 40
0.2500000000000751
 40
0.2500000000000751
 40
0.3750000000000914
 40
0.3750000000000914
 40
0.406250000000099
 40
0.406250000000099
 40
0.4375000000001065
 40
0.4375000000001065
 40
0.5000000000001215
 40
0.5000000000001215
 40
0.6250000000001688
 40
0.6250000000001688
 40
0.6562500000001698
 40
0.6562500000001698
 40
0.6875000000001709
 40
0.6875000000001709
 40
0.7500000000001511
 40
0.7500000000001511
 40
0.8125000000001315
 40
0.8125000000001315
 40
0.8437500000001098
 40
0.8437500000001098
 40
0.875000000000088
 40
0.875000000000088
 40
1.0
 40
1.0
 40
1.0
 40
1.0
 10
1186.727403846146
 20
1731.909340659339
 30
0.0000000000000016
 10
1186.727403846146
 20
1731.77734407616
 30
0.0000000000000016
 10
1186.740350944093
 20
1731.647224982426
 30
0.0000000000000016
 10
1186.778612405766
 20
1731.454936777522
 30
0.0000000000000016
 10
1186.794527971547
 20
1731.391325667092
 30
0.0000000000000016
 10
1186.82326895615
 20
1731.296676403487
 30
0.0000000000000016
 10
1186.833621797219
 20
1731.265395956879
 30
0.0000000000000016
 10
1186.855749357914
 20
1731.203660345497
 30
0.0000000000000016
 10
1186.86753810642
 20
1731.173158517333
 30
0.0000000000000016
 10
1186.930050786219
 20
1731.022459926528
 30
0.0000000000000016
 10
1186.991385162176
 20
1730.907646727799
 30
0.0000000000000016
 10
1187.082291444602
 20
1730.771501847596
 30
0.0000000000000016
 10
1187.101190623426
 20
1730.744644593688
 30
0.0000000000000016
 10
1187.140451845957
 20
1730.691691399417
 30
0.0000000000000016
 10
1187.160739241313
 20
1730.665701783
 30
0.0000000000000016
 10
1187.22316763799
 20
1730.589652823073
 30
0.0000000000000016
 10
1187.267018539223
 20
1730.541308494699
 30
0.0000000000000016
 10
1187.405089623347
 20
1730.403208497527
 30
0.0000000000000017
 10
1187.505768277023
 20
1730.320322096146
 30
0.0000000000000017
 10
1187.642709761002
 20
1730.228708461989
 30
0.0000000000000017
 10
1187.670573049932
 20
1730.211051894943
 30
0.0000000000000017
 10
1187.726836063925
 20
1730.177307122631
 30
0.0000000000000017
 10
1187.75529460276
 20
1730.161179099907
 30
0.0000000000000017
 10
1187.841632180911
 20
1730.114996926138
 30
0.0000000000000017
 10
1187.90047100211
 20
1730.087139795978
 30
0.0000000000000017
 10
1188.020662314767
 20
1730.037242819267
 30
0.0000000000000017
 10
1188.082014474944
 20
1730.015202979363
 30
0.0000000000000017
 10
1188.17594337942
 20
1729.986591949438
 30
0.0000000000000018
 10
1188.207570312694
 20
1729.977797646367
 30
0.0000000000000018
 10
1188.271468005175
 20
1729.961724726363
 30
0.0000000000000018
 10
1188.303674563814
 20
1729.954466131844
 30
0.0000000000000018
 10
1188.464881468361
 20
1729.922288378079
 30
-0.0000000000000018
 10
1188.595407263365
 20
1729.90934065934
 30
-0.0000000000000017
 10
1188.727403846146
 20
1729.90934065934
 30
-0.0000000000000017
  0
SPLINE
  5
66
330
1F
100
AcDbEntity
  8
1
  6
Continuous
 62
   155
420
  5010073
370
    18
100
AcDbSpline
210
0.0
220
0.0
230
1.0
 70
     8
 71
     3
 72
    38
 73
    34
 74
     0
 42
0.0000000001
 43
0.0000000001
 40
0.0
 40
0.0
 40
0.0
 40
0.0
 40
0.125
 40
0.125
 40
0.1875000000000022
 40
0.1875000000000022
 40
0.2187499999999997
 40
0.2187499999999997
 40
0.2499999999999972
 40
0.2499999999999972
 40
0.3750000000000046
 40
0.3750000000000046
 40
0.4062500000000101
 40
0.4062500000000101
 40
0.4375000000000157
 40
0.4375000000000157
 40
0.5000000000000273
 40
0.5000000000000273
 40
0.6250000000000514
 40
0.6250000000000514
 40
0.6562500000000626
 40
0.6562500000000626
 40
0.6875000000000738
 40
0.6875000000000738
 40
0.7500000000000733
 40
0.7500000000000733
 40
0.8125000000000727
 40
0.8125000000000727
 40
0.8437500000000603
 40
0.8437500000000603
 40
0.8750000000000479
 40
0.8750000000000479
 40
1.0
 40
1.0
 40
1.0
 40
1.0
 10
1034.780104023707
 20
1731.909340659339
 30
0.000000000000002
 10
1034.752477138847
 20
1731.77734407616
 30
0.000000000000002
 10
1034.725240188555
 20
1731.647224982426
 30
0.000000000000002
 10
1034.684207273057
 20
1731.454936777522
 30
0.000000000000002
 10
1034.670500303887
 20
1731.391325667092
 30
0.000000000000002
 10
1034.649796852987
 20
1731.296676403487
 30
0.000000000000002
 10
1034.642902465806
 20
1731.265395956879
 30
0.000000000000002
 10
1034.629175769039
 20
1731.203660345497
 30
0.000000000000002
 10
1034.622333282266
 20
1731.173158517333
 30
0.000000000000002
 10
1034.588185948782
 20
1731.022459926528
 30
0.000000000000002
 10
1034.561071252316
 20
1730.907646727799
 30
0.000000000000002
 10
1034.526809463526
 20
1730.771501847596
 30
0.000000000000002
 10
1034.519938396712
 20
1730.744644593688
 30
0.000000000000002
 10
1034.506141723612
 20
1730.691691399417
 30
0.000000000000002
 10
1034.499243236269
 20
1730.665701783
 30
0.0000000000000019
 10
1034.47864984945
 20
1730.589652823073
 30
0.0000000000000019
 10
1034.465004392008
 20
1730.541308494699
 30
0.0000000000000019
 10
1034.424131746468
 20
1730.403208497527
 30
0.0000000000000019
 10
1034.396967700387
 20
1730.320322096146
 30
0.0000000000000019
 10
1034.362485037022
 20
1730.228708461988
 30
0.0000000000000019
 10
1034.355583372316
 20
1730.211051894943
 30
0.0000000000000019
 10
1034.341852336737
 20
1730.177307122631
 30
0.0000000000000019
 10
1034.335008108613
 20
1730.161179099907
 30
0.0000000000000019
 10
1034.314514717575
 20
1730.114996926138
 30
0.0000000000000019
 10
1034.30090454014
 20
1730.087139795978
 30
0.0000000000000019
 10
1034.273666792163
 20
1730.037242819267
 30
0.0000000000000019
 10
1034.260037763661
 20
1730.015202979363
 30
0.0000000000000019
 10
1034.239486463853
 20
1729.986591949438
 30
0.0000000000000019
 10
1034.232617980608
 20
1729.977797646367
 30
0.0000000000000019
 10
1034.218828018099
 20
1729.961724726363
 30
0.0000000000000019
 10
1034.211920543489
 20
1729.954466131844
 30
0.0000000000000019
 10
1034.177516032951
 20
1729.922288378079
 30
0.0000000000000019
 10
1034.150195580406
 20
1729.909340659339
 30
0.0000000000000019
 10
1034.12256868131
 20
1729.909340659339
 30
0.0000000000000019
  0
SPLINE
  5
67
330
1F
100
AcDbEntity
  8
1
  6
Continuous
 62
   155
420
  5010073
370
    18
100
AcDbSpline
210
0.0
220
0.0
230
1.0
 70
     8
 71
     3
 72
    38
 73
    34
 74
     0
 42
0.0000000001
 43
0.0000000001
 40
0.0
 40
0.0
 40
0.0
 40
0.0
 40
0.1249999999999491
 40
0.1249999999999491
 40
0.1874999999999236
 40
0.1874999999999236
 40
0.2187499999999109
 40
0.2187499999999109
 40
0.2499999999998981
 40
0.2499999999998981
 40
0.374999999999872
 40
0.374999999999872
 40
0.4062499999998709
 40
0.4062499999998709
 40
0.4374999999998699
 40
0.4374999999998699
 40
0.499999999999888
 40
0.499999999999888
 40
0.6249999999999234
 40
0.6249999999999234
 40
0.6562499999999291
 40
0.6562499999999291
 40
0.6874999999999345
 40
0.6874999999999345
 40
0.7499999999999458
 40
0.7499999999999458
 40
0.8124999999999573
 40
0.8124999999999573
 40
0.8437499999999627
 40
0.8437499999999627
 40
0.8749999999999682
 40
0.8749999999999682
 40
1.0
 40
1.0
 40
1.0
 40
1.0
 10
999.7225686813103
 20
1729.909340659339
 30
-0.0000000000000002
 10
999.6949417827394
 20
1729.909340659339
 30
-0.0000000000000002
 10
999.6677048325735
 20
1729.922287756869
 30
-0.0000000000000002
 10
999.6266719221848
 20
1729.96054921855
 30
-0.0000000000000002
 10
999.6129649555671
 20
1729.976464784413
 30
-0.0000000000000002
 10
999.5922615078617
 20
1730.005205769179
 30
-0.0000000000000002
 10
999.585367121635
 20
1730.015558610306
 30
-0.0000000000000002
 10
999.5716404262312
 20
1730.037686171091
 30
-0.0000000000000002
 10
999.5647979398613
 20
1730.049474919628
 30
-0.0000000000000002
 10
999.5306506063828
 20
1730.111987599419
 30
-0.0000000000000002
 10
999.503535909924
 20
1730.173321975361
 30
-0.0000000000000002
 10
999.4692741211463
 20
1730.26422825775
 30
-0.0000000000000002
 10
999.4624030543351
 20
1730.283127436566
 30
-0.0000000000000002
 10
999.4486063812409
 20
1730.322388659079
 30
-0.0000000000000002
 10
999.4417078938912
 20
1730.34267605445
 30
-0.0000000000000002
 10
999.4211145070648
 20
1730.405104451146
 30
-0.0000000000000002
 10
999.4074690496199
 20
1730.44895535239
 30
-0.0000000000000002
 10
999.3665964040721
 20
1730.587026436535
 30
-0.0000000000000002
 10
999.3394323579907
 20
1730.687705090215
 30
-0.0000000000000002
 10
999.3049496946312
 20
1730.82464657417
 30
-0.0000000000000002
 10
999.2980480299232
 20
1730.852509863111
 30
-0.0000000000000002
 10
999.2843169943422
 20
1730.908772877114
 30
-0.0000000000000002
 10
999.2774727662171
 20
1730.937231415953
 30
-0.0000000000000002
 10
999.2569793751751
 20
1731.023568994118
 30
-0.0000000000000002
 10
999.243369197739
 20
1731.082407815326
 30
-0.0000000000000002
 10
999.2161314497587
 20
1731.202599127997
 30
-0.0000000000000002
 10
999.2025024196349
 20
1731.263951287861
 30
-0.0000000000000002
 10
999.1819511166655
 20
1731.357880191685
 30
-0.0000000000000002
 10
999.1750826322531
 20
1731.389507124714
 30
-0.0000000000000002
 10
999.1612926674973
 20
1731.45340481671
 30
-0.0000000000000002
 10
999.1543851918091
 20
1731.485611375125
 30
-0.0000000000000002
 10
999.1199806769588
 20
1731.646818278752
 30
-0.0000000000000002
 10
999.0926602242947
 20
1731.77734407367
 30
-0.0000000000000002
 10
999.065033338914
 20
1731.909340659339
 30
-0.0000000000000001
  0
SPLINE
  5
68
330
1F
100
AcDbEntity
  8
1
  6
Continuous
 62
   155
420
  5010073
370
    18
100
AcDbSpline
210
0.0
220
0.0
230
1.0
 70
     8
 71
     3
 72
    38
 73
    34
 74
     0
 42
0.0000000001
 43
0.0000000001
 40
0.0
 40
0.0
 40
0.0
 40
0.0
 40
0.1249999999999993
 40
0.1249999999999993
 40
0.1874999999999966
 40
0.1874999999999966
 40
0.2187499999999952
 40
0.2187499999999952
 40
0.2499999999999938
 40
0.2499999999999938
 40
0.3749999999999823
 40
0.3749999999999823
 40
0.4062499999999808
 40
0.4062499999999808
 40
0.4374999999999793
 40
0.4374999999999793
 40
0.4999999999999741
 40
0.4999999999999741
 40
0.6249999999999638
 40
0.6249999999999638
 40
0.6562499999999639
 40
0.6562499999999639
 40
0.6874999999999639
 40
0.6874999999999639
 40
0.7499999999999694
 40
0.7499999999999694
 40
0.8124999999999747
 40
0.8124999999999747
 40
0.8437499999999785
 40
0.8437499999999785
 40
0.8749999999999823
 40
0.8749999999999823
 40
1.0
 40
1.0
 40
1.0
 40
1.0
 10
1036.12256868131
 20
1731.909340659339
 30
0.0000000000000021
 10
1036.12256868131
 20
1731.77734407616
 30
0.0000000000000021
 10
1036.109621583364
 20
1731.64722498243
 30
0.0000000000000021
 10
1036.071360121694
 20
1731.454936777537
 30
0.0000000000000021
 10
1036.055444555914
 20
1731.391325667112
 30
0.0000000000000021
 10
1036.026703571316
 20
1731.296676403516
 30
0.0000000000000021
 10
1036.016350730244
 20
1731.2653959569
 30
0.0000000000000021
 10
1035.994223169548
 20
1731.203660345512
 30
0.0000000000000021
 10
1035.982434421041
 20
1731.173158517346
 30
0.0000000000000021
 10
1035.919921741239
 20
1731.022459926532
 30
0.0000000000000021
 10
1035.858587365282
 20
1730.907646727804
 30
0.000000000000002
 10
1035.767681082864
 20
1730.771501847611
 30
0.000000000000002
 10
1035.748781904042
 20
1730.744644593704
 30
0.000000000000002
 10
1035.709520681516
 20
1730.691691399438
 30
0.000000000000002
 10
1035.689233286156
 20
1730.665701783015
 30
0.000000000000002
 10
1035.626804889474
 20
1730.58965282308
 30
0.000000000000002
 10
1035.582953988237
 20
1730.541308494704
 30
0.000000000000002
 10
1035.444882904111
 20
1730.403208497529
 30
0.000000000000002
 10
1035.344204250438
 20
1730.320322096151
 30
0.000000000000002
 10
1035.207262766475
 20
1730.228708462002
 30
0.000000000000002
 10
1035.179399477539
 20
1730.211051894952
 30
0.000000000000002
 10
1035.123136463541
 20
1730.177307122637
 30
0.000000000000002
 10
1035.094677924704
 20
1730.161179099912
 30
0.000000000000002
 10
1035.008340346548
 20
1730.11499692614
 30
0.0000000000000019
 10
1034.949501525347
 20
1730.087139795979
 30
0.0000000000000019
 10
1034.829310212691
 20
1730.037242819268
 30
0.0000000000000019
 10
1034.767958052517
 20
1730.015202979364
 30
0.0000000000000019
 10
1034.674029148048
 20
1729.986591949441
 30
0.0000000000000019
 10
1034.642402214776
 20
1729.97779764637
 30
0.0000000000000019
 10
1034.578504522302
 20
1729.961724726368
 30
0.0000000000000019
 10
1034.546297963658
 20
1729.954466131847
 30
0.0000000000000019
 10
1034.385091059101
 20
1729.922288378079
 30
0.0000000000000019
 10
1034.254565264092
 20
1729.909340659339
 30
0.0000000000000019
 10
1034.12256868131
 20
1729.909340659339
 30
0.0000000000000019
  0
SPLINE
  5
69
330
1F
100
AcDbEntity
  8
1
  6
Continuous
 62
   155
420
  5010073
370
    18
100
AcDbSpline
210
0.0
220
0.0
230
1.0
 70
     8
 71
     3
 72
    20
 73
    16
 74
     0
 42
0.0000000001
 43
0.0000000001
 40
0.0
 40
0.0
 40
0.0
 40
0.0
 40
0.1769957862481078
 40
0.1769957862481078
 40
0.3540301038138357
 40
0.3540301038138357
 40
0.4914910610062934
 40
0.4914910610062934
 40
0.6675170678063547
 40
0.6675170678063547
 40
0.8435705684308289
 40
0.8435705684308289
 40
0.9829821220125867
 40
0.9829821220125867
 40
1.0
 40
1.0
 40
1.0
 40
1.0
 10
1034.92256868131
 20
1731.909340659339
 30
0.0000000000000021
 10
1034.92256868131
 20
1731.871623678299
 30
0.000000000000002
 10
1034.919897023031
 20
1731.833910781218
 30
0.000000000000002
 10
1034.909264566541
 20
1731.759232849929
 30
0.000000000000002
 10
1034.901302685425
 20
1731.72226845074
 30
0.000000000000002
 10
1034.882600633642
 20
1731.657926358899
 30
0.000000000000002
 10
1034.872880402069
 20
1731.6302526478
 30
0.000000000000002
 10
1034.847319750762
 20
1731.568543776751
 30
0.000000000000002
 10
1034.830526605349
 20
1731.534904806816
 30
0.000000000000002
 10
1034.792387359575
 20
1731.470307622365
 30
0.000000000000002
 10
1034.771040796013
 20
1731.439350249303
 30
0.000000000000002
 10
1034.729090530391
 20
1731.386833662731
 30
0.000000000000002
 10
1034.709257841657
 20
1731.364658969788
 30
0.000000000000002
 10
1034.685690193893
 20
1731.341091322024
 30
0.000000000000002
 10
1034.683108823308
 20
1731.338544870827
 30
0.000000000000002
 10
1034.680510247469
 20
1731.336016100479
 30
0.000000000000002
  0
SPLINE
  5
6A
330
1F
100
AcDbEntity
  8
1
  6
Continuous
 62
   155
420
  5010073
370
    18
100
AcDbSpline
210
0.0
220
0.0
230
1.0
 70
     8
 71
     3
 72
    20
 73
    16
 74
     0
 42
0.0000000001
 43
0.0000000001
 40
0.0
 40
0.0
 40
0.0
 40
0.0
 40
0.0079057510463682
 40
0.0079057510463682
 40
0.1855634979167692
 40
0.1855634979167692
 40
0.3632489934760418
 40
0.3632489934760418
 40
0.5039528755231841
 40
0.5039528755231841
 40
0.682602728354285
 40
0.682602728354285
 40
0.8612685225912596
 40
0.8612685225912596
 40
1.0
 40
1.0
 40
1.0
 40
1.0
 10
999.160434742637
 20
1731.34012592664
 30
-0.0000000000000002
 10
999.1592472334077
 20
1731.341298651043
 30
-0.0000000000000002
 10
999.1580633965299
 20
1731.342475094222
 30
-0.0000000000000002
 10
999.1303631898755
 20
1731.370175300876
 30
-0.0000000000000002
 10
999.1057112925849
 20
1731.398563220685
 30
-0.0000000000000002
 10
999.0606265334943
 20
1731.458519561507
 30
-0.0000000000000002
 10
999.0401946263547
 20
1731.490088088451
 30
-0.0000000000000002
 10
999.0077292985402
 20
1731.548942307849
 30
-0.0000000000000002
 10
998.9948321949873
 20
1731.575751210652
 30
-0.0000000000000002
 10
998.9690323488084
 20
1731.638037549204
 30
-0.0000000000000002
 10
998.9570684293362
 20
1731.673901462498
 30
-0.0000000000000002
 10
998.9383139145774
 20
1731.746961578567
 30
-0.0000000000000002
 10
998.9315239002156
 20
1731.784157439901
 30
-0.0000000000000002
 10
998.9241789964146
 20
1731.850760026143
 30
-0.0000000000000002
 10
998.9225686813104
 20
1731.880049153781
 30
-0.0000000000000002
 10
998.9225686813104
 20
1731.909340659339
 30
-0.0000000000000002
  0
SPLINE
  5
6B
330
1F
100
AcDbEntity
  8
1
  6
Continuous
 62
   155
420
  5010073
370
    18
100
AcDbSpline
210
0.0
220
0.0
230
1.0
 70
     8
 71
     3
 72
    38
 73
    34
 74
     0
 42
0.0000000001
 43
0.0000000001
 40
0.0
 40
0.0
 40
0.0
 40
0.0
 40
0.1250000000000018
 40
0.1250000000000018
 40
0.1875000000000027
 40
0.1875000000000027
 40
0.2187500000000016
 40
0.2187500000000016
 40
0.2500000000000006
 40
0.2500000000000006
 40
0.3750000000000123
 40
0.3750000000000123
 40
0.4062500000000146
 40
0.4062500000000146
 40
0.4375000000000169
 40
0.4375000000000169
 40
0.5000000000000137
 40
0.5000000000000137
 40
0.6250000000000072
 40
0.6250000000000072
 40
0.6562500000000051
 40
0.6562500000000051
 40
0.6875000000000031
 40
0.6875000000000031
 40
0.7499999999999993
 40
0.7499999999999993
 40
0.8124999999999956
 40
0.8124999999999956
 40
0.8437499999999937
 40
0.8437499999999937
 40
0.8749999999999918
 40
0.8749999999999918
 40
1.0
 40
1.0
 40
1.0
 40
1.0
 10
999.7225686813103
 20
1729.909340659339
 30
-0.0000000000000002
 10
999.5905721010381
 20
1729.909340659339
 30
-0.0000000000000002
 10
999.4604530072068
 20
1729.922287756869
 30
-0.0000000000000002
 10
999.2681648012092
 20
1729.960549218547
 30
-0.0000000000000003
 10
999.204553690247
 20
1729.976464784408
 30
-0.0000000000000003
 10
999.1099044259855
 20
1730.00520576917
 30
-0.0000000000000003
 10
999.0786239791765
 20
1730.015558610299
 30
-0.0000000000000003
 10
999.0168883675211
 20
1730.037686171085
 30
-0.0000000000000003
 10
998.9863865392812
 20
1730.049474919623
 30
-0.0000000000000003
 10
998.8356879484936
 20
1730.111987599417
 30
-0.0000000000000003
 10
998.7208747497964
 20
1730.173321975358
 30
-0.0000000000000003
 10
998.5847298696475
 20
1730.26422825774
 30
-0.0000000000000003
 10
998.5578726157504
 20
1730.283127436554
 30
-0.0000000000000003
 10
998.5049194215031
 20
1730.322388659062
 30
-0.0000000000000003
 10
998.478929805057
 20
1730.342676054438
 30
-0.0000000000000003
 10
998.4028808450929
 20
1730.405104451139
 30
-0.0000000000000003
 10
998.3545365167035
 20
1730.448955352385
 30
-0.0000000000000003
 10
998.2164365195019
 20
1730.587026436534
 30
-0.0000000000000003
 10
998.1335501181253
 20
1730.68770509021
 30
-0.0000000000000003
 10
998.0419364839888
 20
1730.82464657415
 30
-0.0000000000000003
 10
998.0242799169325
 20
1730.852509863096
 30
-0.0000000000000003
 10
997.9905351446105
 20
1730.908772877104
 30
-0.0000000000000003
 10
997.9744071218825
 20
1730.937231415946
 30
-0.0000000000000003
 10
997.9282249481033
 20
1731.023568994116
 30
-0.0000000000000003
 10
997.900367817939
 20
1731.082407815325
 30
-0.0000000000000003
 10
997.8504708412246
 20
1731.202599127995
 30
-0.0000000000000003
 10
997.8284310014449
 20
1731.263951287857
 30
-0.0000000000000003
 10
997.7998199716816
 20
1731.357880191674
 30
-0.0000000000000003
 10
997.7910256686614
 20
1731.3895071247
 30
-0.0000000000000003
 10
997.7749527487313
 20
1731.453404816689
 30
-0.0000000000000003
 10
997.7676941542295
 20
1731.485611375108
 30
-0.0000000000000002
 10
997.7355164004674
 20
1731.646818278747
 30
-0.0000000000000002
 10
997.7225686813103
 20
1731.777344073669
 30
-0.0000000000000002
 10
997.7225686813103
 20
1731.909340659339
 30
-0.0000000000000002
  0
SPLINE
  5
6C
330
1F
100
AcDbEntity
  8
1
  6
Continuous
 62
   155
420
  5010073
370
    18
100
AcDbSpline
210
0.0
220
0.0
230
1.0
 70
     8
 71
     3
 72
    38
 73
    34
 74
     0
 42
0.0000000001
 43
0.0000000001
 40
0.0
 40
0.0
 40
0.0
 40
0.0
 40
0.1250000000000434
 40
0.1250000000000434
 40
0.1875000000000626
 40
0.1875000000000626
 40
0.2187500000000688
 40
0.2187500000000688
 40
0.2500000000000751
 40
0.2500000000000751
 40
0.3750000000000914
 40
0.3750000000000914
 40
0.406250000000099
 40
0.406250000000099
 40
0.4375000000001065
 40
0.4375000000001065
 40
0.5000000000001215
 40
0.5000000000001215
 40
0.6250000000001688
 40
0.6250000000001688
 40
0.6562500000001698
 40
0.6562500000001698
 40
0.6875000000001709
 40
0.6875000000001709
 40
0.7500000000001511
 40
0.7500000000001511
 40
0.8125000000001315
 40
0.8125000000001315
 40
0.8437500000001098
 40
0.8437500000001098
 40
0.875000000000088
 40
0.875000000000088
 40
1.0
 40
1.0
 40
1.0
 40
1.0
 10
292.5629611665659
 20
1731.909340659339
 30
0.0
 10
292.5353342817064
 20
1731.77734407616
 30
0.0
 10
292.5080973314135
 20
1731.647224982426
 30
0.0
 10
292.4670644159159
 20
1731.454936777522
 30
0.0
 10
292.4533574467461
 20
1731.391325667092
 30
0.0
 10
292.4326539958459
 20
1731.296676403487
 30
0.0
 10
292.4257596086656
 20
1731.265395956879
 30
0.0
 10
292.4120329118979
 20
1731.203660345497
 30
0.0
 10
292.4051904251246
 20
1731.173158517333
 30
0.0
 10
292.3710430916406
 20
1731.022459926528
 30
0.0
 10
292.3439283951747
 20
1730.907646727799
 30
0.0
 10
292.309666606385
 20
1730.771501847596
 30
0.0
 10
292.3027955395713
 20
1730.744644593688
 30
0.0
 10
292.2889988664716
 20
1730.691691399417
 30
0.0
 10
292.2821003791279
 20
1730.665701783
 30
0.0
 10
292.2615069923085
 20
1730.589652823073
 30
0.0
 10
292.2478615348671
 20
1730.541308494699
 30
0.0
 10
292.2069888893265
 20
1730.403208497527
 30
0.0
 10
292.1798248432455
 20
1730.320322096146
 30
0.0
 10
292.1453421798805
 20
1730.228708461989
 30
0.0
 10
292.1384405151748
 20
1730.211051894943
 30
0.0
 10
292.1247094795964
 20
1730.177307122631
 30
0.0
 10
292.1178652514725
 20
1730.161179099907
 30
0.0
 10
292.0973718604337
 20
1730.114996926138
 30
0.0
 10
292.0837616829995
 20
1730.087139795978
 30
0.0
 10
292.0565239350221
 20
1730.037242819267
 30
0.0
 10
292.0428949065203
 20
1730.015202979363
 30
0.0
 10
292.0223436067119
 20
1729.986591949438
 30
0.0
 10
292.0154751234675
 20
1729.977797646367
 30
0.0
 10
292.0016851609582
 20
1729.961724726363
 30
0.0
 10
291.9947776863484
 20
1729.954466131844
 30
0.0
 10
291.9603731758104
 20
1729.922288378079
 30
0.0
 10
291.9330527232655
 20
1729.909340659339
 30
0.0
 10
291.9054258241695
 20
1729.909340659339
 30
0.0
  0
SPLINE
  5
6D
330
1F
100
AcDbEntity
  8
1
  6
Continuous
 62
   155
420
  5010073
370
    18
100
AcDbSpline
210
0.0
220
0.0
230
1.0
 70
     8
 71
     3
 72
    38
 73
    34
 74
     0
 42
0.0000000001
 43
0.0000000001
 40
0.0
 40
0.0
 40
0.0
 40
0.0
 40
0.1250000000000126
 40
0.1250000000000126
 40
0.1875000000000189
 40
0.1875000000000189
 40
0.2187500000000221
 40
0.2187500000000221
 40
0.2500000000000253
 40
0.2500000000000253
 40
0.3749999999999908
 40
0.3749999999999908
 40
0.4062499999999871
 40
0.4062499999999871
 40
0.4374999999999835
 40
0.4374999999999835
 40
0.4999999999999957
 40
0.4999999999999957
 40
0.625000000000021
 40
0.625000000000021
 40
0.6562500000000199
 40
0.6562500000000199
 40
0.6875000000000189
 40
0.6875000000000189
 40
0.7500000000000175
 40
0.7500000000000175
 40
0.8125000000000163
 40
0.8125000000000163
 40
0.8437500000000153
 40
0.8437500000000153
 40
0.8750000000000142
 40
0.8750000000000142
 40
1.0
 40
1.0
 40
1.0
 40
1.0
 10
257.5054258241695
 20
1729.909340659339
 30
0.0
 10
257.4777989255984
 20
1729.909340659339
 30
0.0
 10
257.4505619754325
 20
1729.922287756868
 30
0.0
 10
257.4095290650438
 20
1729.96054921855
 30
0.0
 10
257.3958220984262
 20
1729.976464784413
 30
0.0
 10
257.3751186507207
 20
1730.005205769179
 30
0.0
 10
257.368224264494
 20
1730.015558610306
 30
0.0
 10
257.3544975690901
 20
1730.037686171091
 30
0.0
 10
257.3476550827202
 20
1730.049474919628
 30
0.0
 10
257.3135077492418
 20
1730.111987599419
 30
0.0
 10
257.2863930527831
 20
1730.173321975361
 30
0.0
 10
257.2521312640054
 20
1730.26422825775
 30
0.0
 10
257.2452601971942
 20
1730.283127436566
 30
0.0
 10
257.2314635240999
 20
1730.322388659079
 30
0.0
 10
257.2245650367503
 20
1730.34267605445
 30
0.0
 10
257.2039716499238
 20
1730.405104451146
 30
0.0
 10
257.1903261924789
 20
1730.44895535239
 30
0.0
 10
257.1494535469312
 20
1730.587026436535
 30
0.0
 10
257.1222895008498
 20
1730.687705090215
 30
0.0
 10
257.0878068374902
 20
1730.82464657417
 30
0.0
 10
257.0809051727822
 20
1730.852509863111
 30
0.0
 10
257.0671741372013
 20
1730.908772877114
 30
0.0
 10
257.0603299090761
 20
1730.937231415953
 30
0.0
 10
257.0398365180341
 20
1731.023568994118
 30
0.0
 10
257.0262263405979
 20
1731.082407815326
 30
0.0
 10
256.9989885926177
 20
1731.202599127997
 30
0.0
 10
256.9853595624939
 20
1731.263951287861
 30
0.0
 10
256.9648082595245
 20
1731.357880191685
 30
0.0
 10
256.9579397751121
 20
1731.389507124714
 30
0.0
 10
256.9441498103564
 20
1731.45340481671
 30
0.0
 10
256.9372423346681
 20
1731.485611375125
 30
0.0
 10
256.9028378198179
 20
1731.646818278752
 30
0.0
 10
256.8755173671537
 20
1731.77734407367
 30
0.0
 10
256.847890481773
 20
1731.909340659339
 30
0.0
  0
SPLINE
  5
6E
330
1F
100
AcDbEntity
  8
1
  6
Continuous
 62
   155
420
  5010073
370
    18
100
AcDbSpline
210
0.0
220
0.0
230
1.0
 70
     8
 71
     3
 72
    20
 73
    16
 74
     0
 42
0.0000000001
 43
0.0000000001
 40
0.0
 40
0.0
 40
0.0
 40
0.0
 40
0.007905751046427
 40
0.007905751046427
 40
0.1855634979176647
 40
0.1855634979176647
 40
0.3632489934777402
 40
0.3632489934777402
 40
0.5039528755232134
 40
0.5039528755232134
 40
0.6826027283548949
 40
0.6826027283548949
 40
0.861268522592498
 40
0.861268522592498
 40
1.0
 40
1.0
 40
1.0
 40
1.0
 10
256.9432918854961
 20
1731.34012592664
 30
0.0
 10
256.9421043762667
 20
1731.341298651043
 30
0.0
 10
256.940920539389
 20
1731.342475094222
 30
0.0
 10
256.9132203327344
 20
1731.370175300876
 30
0.0
 10
256.8885684354437
 20
1731.398563220685
 30
0.0
 10
256.8434836763529
 20
1731.458519561508
 30
0.0
 10
256.8230517692133
 20
1731.490088088452
 30
0.0
 10
256.790586441399
 20
1731.54894230785
 30
0.0
 10
256.7776893378463
 20
1731.575751210652
 30
0.0
 10
256.7518894916675
 20
1731.638037549205
 30
0.0
 10
256.7399255721953
 20
1731.673901462498
 30
0.0
 10
256.7211710574365
 20
1731.746961578568
 30
0.0
 10
256.7143810430746
 20
1731.784157439901
 30
0.0
 10
256.7070361392738
 20
1731.850760026144
 30
0.0
 10
256.7054258241695
 20
1731.880049153781
 30
0.0
 10
256.7054258241695
 20
1731.909340659339
 30
0.0
  0
SPLINE
  5
6F
330
1F
100
AcDbEntity
  8
1
  6
Continuous
 62
   155
420
  5010073
370
    18
100
AcDbSpline
210
0.0
220
0.0
230
1.0
 70
     8
 71
     3
 72
    38
 73
    34
 74
     0
 42
0.0000000001
 43
0.0000000001
 40
0.0
 40
0.0
 40
0.0
 40
0.0
 40
0.1249999999999955
 40
0.1249999999999955
 40
0.1874999999999944
 40
0.1874999999999944
 40
0.2187499999999912
 40
0.2187499999999912
 40
0.249999999999988
 40
0.249999999999988
 40
0.3749999999999676
 40
0.3749999999999676
 40
0.4062499999999671
 40
0.4062499999999671
 40
0.4374999999999666
 40
0.4374999999999666
 40
0.4999999999999681
 40
0.4999999999999681
 40
0.6249999999999765
 40
0.6249999999999765
 40
0.6562499999999799
 40
0.6562499999999799
 40
0.6874999999999833
 40
0.6874999999999833
 40
0.7499999999999901
 40
0.7499999999999901
 40
0.812499999999997
 40
0.812499999999997
 40
0.8437499999999977
 40
0.8437499999999977
 40
0.8749999999999983
 40
0.8749999999999983
 40
1.0
 40
1.0
 40
1.0
 40
1.0
 10
257.5054258241695
 20
1729.909340659339
 30
0.0
 10
257.3734292438972
 20
1729.909340659339
 30
0.0
 10
257.2433101500659
 20
1729.922287756869
 30
0.0
 10
257.0510219440684
 20
1729.960549218547
 30
0.0
 10
256.9874108331062
 20
1729.976464784408
 30
0.0
 10
256.8927615688447
 20
1730.00520576917
 30
0.0
 10
256.8614811220358
 20
1730.015558610299
 30
0.0
 10
256.7997455103803
 20
1730.037686171085
 30
0.0
 10
256.7692436821403
 20
1730.049474919623
 30
0.0
 10
256.6185450913527
 20
1730.111987599417
 30
0.0
 10
256.5037318926555
 20
1730.173321975359
 30
0.0
 10
256.3675870125066
 20
1730.26422825774
 30
0.0
 10
256.3407297586095
 20
1730.283127436554
 30
0.0
 10
256.2877765643623
 20
1730.322388659062
 30
0.0
 10
256.261786947916
 20
1730.342676054438
 30
0.0
 10
256.185737987952
 20
1730.405104451139
 30
0.0
 10
256.1373936595626
 20
1730.448955352385
 30
0.0
 10
255.9992936623609
 20
1730.587026436534
 30
0.0
 10
255.9164072609843
 20
1730.68770509021
 30
0.0
 10
255.8247936268479
 20
1730.82464657415
 30
0.0
 10
255.8071370597916
 20
1730.852509863096
 30
0.0
 10
255.7733922874696
 20
1730.908772877104
 30
0.0
 10
255.7572642647416
 20
1730.937231415946
 30
0.0
 10
255.7110820909624
 20
1731.023568994116
 30
0.0
 10
255.6832249607981
 20
1731.082407815325
 30
0.0
 10
255.6333279840837
 20
1731.202599127995
 30
0.0
 10
255.611288144304
 20
1731.263951287857
 30
0.0
 10
255.5826771145407
 20
1731.357880191674
 30
0.0
 10
255.5738828115205
 20
1731.3895071247
 30
0.0
 10
255.5578098915904
 20
1731.453404816689
 30
0.0
 10
255.5505512970886
 20
1731.485611375109
 30
0.0
 10
255.5183735433265
 20
1731.646818278747
 30
0.0
 10
255.5054258241695
 20
1731.777344073669
 30
0.0
 10
255.5054258241695
 20
1731.909340659339
 30
0.0
  0
SPLINE
  5
70
330
1F
100
AcDbEntity
  8
1
  6
Continuous
 62
   155
420
  5010073
370
    18
100
AcDbSpline
210
0.0
220
0.0
230
1.0
 70
     8
 71
     3
 72
    20
 73
    16
 74
     0
 42
0.0000000001
 43
0.0000000001
 40
0.0
 40
0.0
 40
0.0
 40
0.0
 40
0.1769957862473497
 40
0.1769957862473497
 40
0.3540301038123224
 40
0.3540301038123224
 40
0.4914910610062885
 40
0.4914910610062885
 40
0.6675170678043272
 40
0.6675170678043272
 40
0.8435705684268338
 40
0.8435705684268338
 40
0.9829821220125771
 40
0.9829821220125771
 40
1.0
 40
1.0
 40
1.0
 40
1.0
 10
292.7054258241695
 20
1731.909340659339
 30
0.0
 10
292.7054258241695
 20
1731.871623678299
 30
0.0
 10
292.70275416589
 20
1731.833910781218
 30
0.0
 10
292.6921217094006
 20
1731.759232849929
 30
0.0
 10
292.6841598282837
 20
1731.722268450741
 30
0.0
 10
292.6654577765012
 20
1731.6579263589
 30
0.0
 10
292.6557375449281
 20
1731.6302526478
 30
0.0
 10
292.6301768936208
 20
1731.568543776751
 30
0.0
 10
292.6133837482085
 20
1731.534904806817
 30
0.0
 10
292.5752445024348
 20
1731.470307622367
 30
0.0
 10
292.553897938873
 20
1731.439350249305
 30
0.0
 10
292.5119476732507
 20
1731.386833662732
 30
0.0
 10
292.4921149845168
 20
1731.364658969788
 30
0.0
 10
292.4685473367521
 20
1731.341091322024
 30
0.0
 10
292.4659659661677
 20
1731.338544870827
 30
0.0
 10
292.4633673903282
 20
1731.336016100479
 30
0.0
  0
SPLINE
  5
71
330
1F
100
AcDbEntity
  8
1
  6
Continuous
 62
   155
420
  5010073
370
    18
100
AcDbSpline
210
0.0
220
0.0
230
1.0
 70
     8
 71
     3
 72
    38
 73
    34
 74
     0
 42
0.0000000001
 43
0.0000000001
 40
0.0
 40
0.0
 40
0.0
 40
0.0
 40
0.125000000000018
 40
0.125000000000018
 40
0.1875000000000246
 40
0.1875000000000246
 40
0.2187500000000275
 40
0.2187500000000275
 40
0.2500000000000304
 40
0.2500000000000304
 40
0.3750000000000369
 40
0.3750000000000369
 40
0.4062500000000359
 40
0.4062500000000359
 40
0.4375000000000349
 40
0.4375000000000349
 40
0.5000000000000296
 40
0.5000000000000296
 40
0.6250000000000269
 40
0.6250000000000269
 40
0.6562500000000235
 40
0.6562500000000235
 40
0.6875000000000201
 40
0.6875000000000201
 40
0.7500000000000105
 40
0.7500000000000105
 40
0.8125000000000011
 40
0.8125000000000011
 40
0.843749999999999
 40
0.843749999999999
 40
0.874999999999997
 40
0.874999999999997
 40
1.0
 40
1.0
 40
1.0
 40
1.0
 10
293.9054258241695
 20
1731.909340659339
 30
0.0
 10
293.9054258241695
 20
1731.77734407616
 30
0.0
 10
293.8924787262226
 20
1731.64722498243
 30
0.0
 10
293.8542172645531
 20
1731.454936777537
 30
0.0
 10
293.8383016987732
 20
1731.391325667112
 30
0.0
 10
293.8095607141748
 20
1731.296676403516
 30
0.0
 10
293.7992078731031
 20
1731.2653959569
 30
0.0
 10
293.777080312407
 20
1731.203660345511
 30
0.0
 10
293.7652915639005
 20
1731.173158517346
 30
0.0
 10
293.7027788840984
 20
1731.022459926532
 30
0.0
 10
293.6414445081413
 20
1730.907646727804
 30
0.0
 10
293.5505382257234
 20
1730.771501847611
 30
0.0
 10
293.5316390469014
 20
1730.744644593704
 30
0.0
 10
293.4923778243751
 20
1730.691691399438
 30
0.0
 10
293.472090429015
 20
1730.665701783016
 30
0.0
 10
293.4096620323326
 20
1730.58965282308
 30
0.0
 10
293.3658111310966
 20
1730.541308494704
 30
0.0
 10
293.2277400469703
 20
1730.403208497529
 30
0.0
 10
293.1270613932968
 20
1730.320322096151
 30
0.0
 10
292.9901199093342
 20
1730.228708462002
 30
0.0
 10
292.9622566203977
 20
1730.211051894952
 30
0.0
 10
292.9059936063998
 20
1730.177307122637
 30
0.0
 10
292.877535067563
 20
1730.161179099912
 30
0.0
 10
292.7911974894071
 20
1730.11499692614
 30
0.0
 10
292.7323586682063
 20
1730.087139795979
 30
0.0
 10
292.6121673555502
 20
1730.037242819267
 30
0.0
 10
292.5508151953757
 20
1730.015202979364
 30
0.0
 10
292.4568862909069
 20
1729.986591949441
 30
0.0
 10
292.425259357635
 20
1729.97779764637
 30
0.0
 10
292.3613616651607
 20
1729.961724726368
 30
0.0
 10
292.3291551065171
 20
1729.954466131847
 30
0.0
 10
292.16794820196
 20
1729.922288378079
 30
0.0
 10
292.0374224069505
 20
1729.909340659339
 30
0.0
 10
291.9054258241695
 20
1729.909340659339
 30
0.0
  0
SPLINE
  5
72
330
1F
100
AcDbEntity
  8
1
  6
Continuous
 62
   155
420
  5010073
370
    18
100
AcDbSpline
210
0.0
220
0.0
230
1.0
 70
     8
 71
     3
 72
    30
 73
    26
 74
     0
 42
0.0000000001
 43
0.0000000001
 40
0.0
 40
0.0
 40
0.0
 40
0.0
 40
0.0900294639690103
 40
0.0900294639690103
 40
0.180078520488498
 40
0.180078520488498
 40
0.25
 40
0.25
 40
0.33953672851837
 40
0.33953672851837
 40
0.429087441942361
 40
0.429087441942361
 40
0.5
 40
0.5
 40
0.589536728520816
 40
0.589536728520816
 40
0.6790874419472329
 40
0.6790874419472329
 40
0.75
 40
0.75
 40
0.840036734423224
 40
0.840036734423224
 40
0.9300815030659481
 40
0.9300815030659481
 40
1.0
 40
1.0
 40
1.0
 40
1.0
 10
872.7302197802202
 20
1546.155137362645
 30
0.0000000000000001
 10
872.7499550773931
 20
1546.117420617411
 30
0.0000000000000001
 10
872.769688373007
 20
1546.07970795185
 30
0.0000000000000001
 10
872.8091574177402
 20
1546.005030468692
 30
0.0000000000000002
 10
872.8288931664591
 20
1545.968066286073
 30
0.0000000000000002
 10
872.8639536568292
 20
1545.903723937712
 30
0.0000000000000002
 10
872.8792783344951
 20
1545.876049778542
 30
0.0000000000000002
 10
872.9142281369672
 20
1545.814340480058
 30
0.0000000000000002
 10
872.9338526581141
 20
1545.780701510124
 30
0.0000000000000002
 10
872.9731047656002
 20
1545.716104325675
 30
0.0000000000000002
 10
872.9927323519381
 20
1545.685146952614
 30
0.0000000000000002
 10
873.0279024426571
 20
1545.63263036604
 30
0.0000000000000002
 10
873.0434449470372
 20
1545.610455673095
 30
0.0000000000000002
 10
873.0786119725661
 20
1545.56293187121
 30
0.0000000000000002
 10
873.0982364937151
 20
1545.53827997392
 30
0.0000000000000002
 10
873.1374886012011
 20
1545.493195214829
 30
-0.0000000000000016
 10
873.1571161875402
 20
1545.472763307689
 30
-0.0000000000000016
 10
873.1922862782582
 20
1545.440297979875
 30
-0.0000000000000016
 10
873.2078287826381
 20
1545.427400876322
 30
-0.0000000000000016
 10
873.2431053986832
 20
1545.401601030143
 30
-0.0000000000000016
 10
873.2628385119912
 20
1545.389637110671
 30
-0.0000000000000016
 10
873.3023066600712
 20
1545.370882595912
 30
-0.0000000000000016
 10
873.3220416948561
 20
1545.36409258155
 30
-0.0000000000000016
 10
873.3571027661442
 20
1545.35674767775
 30
-0.0000000000000015
 10
873.3724283423331
 20
1545.355137362645
 30
-0.0000000000000015
 10
873.3877551226161
 20
1545.355137362645
 30
-0.0000000000000015
  0
SPLINE
  5
73
330
1F
100
AcDbEntity
  8
1
  6
Continuous
 62
   155
420
  5010073
370
    18
100
AcDbSpline
210
0.0
220
0.0
230
1.0
 70
     8
 71
     3
 72
    30
 73
    26
 74
     0
 42
0.0000000001
 43
0.0000000001
 40
0.0
 40
0.0
 40
0.0
 40
0.0
 40
0.0900300128987704
 40
0.0900300128987704
 40
0.180079624993069
 40
0.180079624993069
 40
0.25
 40
0.25
 40
0.3395367285214
 40
0.3395367285214
 40
0.429087441948424
 40
0.429087441948424
 40
0.5
 40
0.5
 40
0.589536728521247
 40
0.589536728521247
 40
0.679087441948123
 40
0.679087441948123
 40
0.75
 40
0.75
 40
0.840036177639391
 40
0.840036177639391
 40
0.93008039640241
 40
0.93008039640241
 40
1.0
 40
1.0
 40
1.0
 40
1.0
 10
433.6726844378242
 20
1545.355137362645
 30
0.0
 10
433.6924198481531
 20
1545.355137362645
 30
0.0
 10
433.7121532620661
 20
1545.357809020925
 30
0.0
 10
433.7516225495962
 20
1545.368441477414
 30
0.0
 10
433.7713584228152
 20
1545.376403358531
 30
0.0
 10
433.8064187970222
 20
1545.395105410314
 30
0.0
 10
433.8217432341821
 20
1545.404825641887
 30
0.0
 10
433.8566927945711
 20
1545.430386293194
 30
0.0
 10
433.8763173157201
 20
1545.447179438607
 30
0.0
 10
433.9155694232061
 20
1545.485318684381
 30
0.0
 10
433.9351970095452
 20
1545.506665247943
 30
0.0
 10
433.9703671002632
 20
1545.548615513565
 30
0.0
 10
433.9859096046422
 20
1545.568448202298
 30
0.0
 10
434.0210766301701
 20
1545.615972004182
 30
0.0
 10
434.0407011513191
 20
1545.644359923991
 30
0.0
 10
434.0799532588052
 20
1545.704316264814
 30
0.0
 10
434.0995808451441
 20
1545.735884791759
 30
0.0
 10
434.1347509358621
 20
1545.794739011156
 30
0.0
 10
434.1502934402412
 20
1545.821547913959
 30
0.0
 10
434.1855699342522
 20
1545.883834037039
 30
0.0
 10
434.2053029229531
 20
1545.919697724215
 30
-0.0000000000000001
 10
434.2447708237331
 20
1545.992757378741
 30
-0.0000000000000001
 10
434.2645057358251
 20
1546.029953004733
 30
-0.0000000000000001
 10
434.2995669305782
 20
1546.096555808804
 30
-0.0000000000000001
 10
434.3148927517742
 20
1546.125845397998
 30
-0.0000000000000001
 10
434.3302197802201
 20
1546.155137362645
 30
-0.0000000000000001
  0
SPLINE
  5
74
330
1F
100
AcDbEntity
  8
1
  6
Continuous
 62
   155
420
  5010073
370
    18
100
AcDbSpline
210
0.0
220
0.0
230
1.0
 70
     8
 71
     3
 72
    30
 73
    26
 74
     0
 42
0.0000000001
 43
0.0000000001
 40
0.0
 40
0.0
 40
0.0
 40
0.0
 40
0.0895403315943018
 40
0.0895403315943018
 40
0.179076971581175
 40
0.179076971581175
 40
0.268610266413183
 40
0.268610266413183
 40
0.360033983111536
 40
0.360033983111536
 40
0.449588090740445
 40
0.449588090740445
 40
0.539132993791985
 40
0.539132993791985
 40
0.628670079542595
 40
0.628670079542595
 40
0.7215025596569461
 40
0.7215025596569461
 40
0.811048092095912
 40
0.811048092095912
 40
0.900579171617083
 40
0.900579171617083
 40
0.990111575158676
 40
0.990111575158676
 40
1.0
 40
1.0
 40
1.0
 40
1.0
 10
433.5302197802201
 20
1545.497602020249
 30
-0.0000000000000001
 10
433.5302197802201
 20
1545.517227331113
 30
-0.0000000000000001
 10
433.5328617620762
 20
1545.536852641978
 30
-0.0000000000000001
 10
433.5433773628271
 20
1545.576102454585
 30
-0.0000000000000001
 10
433.5512506971601
 20
1545.595726956329
 30
-0.0000000000000001
 10
433.5720729823091
 20
1545.634975226631
 30
-0.0000000000000001
 10
433.5850216075311
 20
1545.654598995188
 30
-0.0000000000000001
 10
433.6160631410172
 20
1545.694260872034
 30
-0.0000000000000001
 10
433.6342588543391
 20
1545.714298980321
 30
-0.0000000000000001
 10
433.6748821288851
 20
1545.753965418883
 30
-0.0000000000000001
 10
433.6972151147821
 20
1545.773593749157
 30
-0.0000000000000001
 10
433.7459003181272
 20
1545.81284839226
 30
-0.0000000000000001
 10
433.7722518042151
 20
1545.83247470509
 30
-0.0000000000000001
 10
433.8284527899501
 20
1545.871725617365
 30
-0.0000000000000001
 10
433.8583016173221
 20
1545.89135021681
 30
-0.0000000000000001
 10
433.9220618439211
 20
1545.931321695121
 30
-0.0000000000000001
 10
433.9560820608561
 20
1545.951668573987
 30
-0.0000000000000001
 10
434.0252822895951
 20
1545.99164190363
 30
-0.0000000000000001
 10
434.0603779804692
 20
1546.011268354408
 30
-0.0000000000000001
 10
434.1321096019601
 20
1546.050518088194
 30
-0.0000000000000001
 10
434.1687448153561
 20
1546.070141371204
 30
-0.0000000000000001
 10
434.2428379482332
 20
1546.109388227419
 30
-0.0000000000000001
 10
434.2802953972641
 20
1546.129011800625
 30
-0.0000000000000001
 10
434.3219356728011
 20
1546.150802703436
 30
-0.0000000000000001
 10
434.3260777265082
 20
1546.152970033041
 30
-0.0000000000000001
 10
434.3302197802201
 20
1546.155137362645
 30
-0.0000000000000001
  0
SPLINE
  5
75
330
1F
100
AcDbEntity
  8
1
  6
Continuous
 62
   155
420
  5010073
370
    18
100
AcDbSpline
210
0.0
220
0.0
230
1.0
 70
     8
 71
     3
 72
    30
 73
    26
 74
     0
 42
0.0000000001
 43
0.0000000001
 40
0.0
 40
0.0
 40
0.0
 40
0.0
 40
0.0895403315943165
 40
0.0895403315943165
 40
0.179076971581185
 40
0.179076971581185
 40
0.268610266413184
 40
0.268610266413184
 40
0.360033983111536
 40
0.360033983111536
 40
0.44958809074045
 40
0.44958809074045
 40
0.539132993791972
 40
0.539132993791972
 40
0.628670079542589
 40
0.628670079542589
 40
0.721502559656942
 40
0.721502559656942
 40
0.811048092095892
 40
0.811048092095892
 40
0.900579171617098
 40
0.900579171617098
 40
0.990111575158685
 40
0.990111575158685
 40
1.0
 40
1.0
 40
1.0
 40
1.0
 10
434.3302197802201
 20
1580.555137362645
 30
0.0000000000000014
 10
434.2927132138292
 20
1580.57476267351
 30
0.0000000000000014
 10
434.2552068918371
 20
1580.594387984374
 30
0.0000000000000014
 10
434.1809360345511
 20
1580.633637796982
 30
0.0000000000000014
 10
434.1441719525911
 20
1580.653262298726
 30
0.0000000000000014
 10
434.0721113645421
 20
1580.692510569027
 30
0.0000000000000014
 10
434.0368152730161
 20
1580.712134337585
 30
0.0000000000000014
 10
433.9676638007721
 20
1580.75179621443
 30
0.0000000000000014
 10
433.9338551334641
 20
1580.771834322717
 30
0.0000000000000014
 10
433.8698506477172
 20
1580.811500761279
 30
0.0000000000000013
 10
433.8395954137721
 20
1580.831129091553
 30
0.0000000000000013
 10
433.7825176235812
 20
1580.870383734657
 30
0.0000000000000013
 10
433.7556950863031
 20
1580.890010047486
 30
0.0000000000000013
 10
433.7060110587091
 20
1580.929260959761
 30
0.0000000000000013
 10
433.6831495459621
 20
1580.948885559206
 30
0.0000000000000013
 10
433.6410759728481
 20
1580.988857037517
 30
0.0000000000000013
 10
433.6220297950101
 20
1581.009203916383
 30
0.0000000000000013
 10
433.5896659113112
 20
1581.049177246027
 30
0.0000000000000013
 10
433.5761691790981
 20
1581.068803696804
 30
0.0000000000000013
 10
433.5542308569142
 20
1581.108053430591
 30
0.0000000000000013
 10
433.5457885929601
 20
1581.1276767136
 30
0.0000000000000013
 10
433.5341224816061
 20
1581.166923569816
 30
0.0000000000000013
 10
433.5308987874961
 20
1581.186547143022
 30
0.0000000000000013
 10
433.5302519495091
 20
1581.208338045832
 30
0.0000000000000013
 10
433.5302197802201
 20
1581.210505375437
 30
0.0000000000000013
 10
433.5302197802201
 20
1581.212672705042
 30
0.0000000000000013
  0
SPLINE
  5
76
330
1F
100
AcDbEntity
  8
1
  6
Continuous
 62
   155
420
  5010073
370
    18
100
AcDbSpline
210
0.0
220
0.0
230
1.0
 70
     8
 71
     3
 72
    30
 73
    26
 74
     0
 42
0.0000000001
 43
0.0000000001
 40
0.0
 40
0.0
 40
0.0
 40
0.0
 40
0.0900294639702628
 40
0.0900294639702628
 40
0.180078520491027
 40
0.180078520491027
 40
0.25
 40
0.25
 40
0.339536728520696
 40
0.339536728520696
 40
0.429087441947013
 40
0.429087441947013
 40
0.5
 40
0.5
 40
0.589536728520389
 40
0.589536728520389
 40
0.6790874419463959
 40
0.6790874419463959
 40
0.75
 40
0.75
 40
0.840036734422926
 40
0.840036734422926
 40
0.930081503065328
 40
0.930081503065328
 40
1.0
 40
1.0
 40
1.0
 40
1.0
 10
434.3302197802201
 20
1580.555137362645
 30
0.0000000000000014
 10
434.3104844830461
 20
1580.59285410788
 30
0.0000000000000014
 10
434.2907511874332
 20
1580.630566773442
 30
0.0000000000000014
 10
434.2512821426991
 20
1580.705244256601
 30
0.0000000000000014
 10
434.2315463939791
 20
1580.74220843922
 30
0.0000000000000014
 10
434.1964859036101
 20
1580.80655078758
 30
0.0000000000000014
 10
434.1811612259442
 20
1580.834224946749
 30
0.0000000000000014
 10
434.1462114234731
 20
1580.895934245234
 30
0.0000000000000014
 10
434.1265869023241
 20
1580.929573215168
 30
0.0000000000000014
 10
434.0873347948382
 20
1580.994170399618
 30
0.0000000000000013
 10
434.0677072084991
 20
1581.025127772681
 30
0.0000000000000013
 10
434.0325371177811
 20
1581.077644359253
 30
0.0000000000000013
 10
434.0169946134021
 20
1581.099819052197
 30
0.0000000000000013
 10
433.9818275878741
 20
1581.14734285408
 30
0.0000000000000013
 10
433.9622030667251
 20
1581.171994751371
 30
0.0000000000000013
 10
433.9229509592391
 20
1581.217079510461
 30
0.0000000000000013
 10
433.9033233729011
 20
1581.237511417601
 30
0.0000000000000013
 10
433.8681532821831
 20
1581.269976745415
 30
0.0000000000000013
 10
433.8526107778031
 20
1581.282873848968
 30
0.0000000000000013
 10
433.8173341617571
 20
1581.308673695147
 30
0.0000000000000013
 10
433.7976010484491
 20
1581.320637614619
 30
0.0000000000000013
 10
433.7581329003701
 20
1581.339392129378
 30
0.0000000000000013
 10
433.7383978655841
 20
1581.34618214374
 30
0.0000000000000013
 10
433.7033367942961
 20
1581.353527047541
 30
0.0000000000000013
 10
433.6880112181071
 20
1581.355137362645
 30
0.0000000000000013
 10
433.6726844378242
 20
1581.355137362645
 30
0.0000000000000013
  0
SPLINE
  5
77
330
1F
100
AcDbEntity
  8
1
  6
Continuous
 62
   155
420
  5010073
370
    18
100
AcDbSpline
210
0.0
220
0.0
230
1.0
 70
     8
 71
     3
 72
    30
 73
    26
 74
     0
 42
0.0000000001
 43
0.0000000001
 40
0.0
 40
0.0
 40
0.0
 40
0.0
 40
0.0895403315943063
 40
0.0895403315943063
 40
0.1790769715811946
 40
0.1790769715811946
 40
0.2686102664132144
 40
0.2686102664132144
 40
0.3600339831115624
 40
0.3600339831115624
 40
0.4495880907404752
 40
0.4495880907404752
 40
0.5391329937920241
 40
0.5391329937920241
 40
0.628670079542649
 40
0.628670079542649
 40
0.7215025596569871
 40
0.7215025596569871
 40
0.8110480920959378
 40
0.8110480920959378
 40
0.9005791716171526
 40
0.9005791716171526
 40
0.9901115751587124
 40
0.9901115751587124
 40
1.0
 40
1.0
 40
1.0
 40
1.0
 10
873.5302197802201
 20
1581.212672705042
 30
-0.0000000000000002
 10
873.5302197802201
 20
1581.193047394177
 30
-0.0000000000000002
 10
873.5275777983641
 20
1581.173422083313
 30
-0.0000000000000002
 10
873.5170621976131
 20
1581.134172270705
 30
-0.0000000000000002
 10
873.5091888632801
 20
1581.114547768961
 30
-0.0000000000000002
 10
873.4883665781311
 20
1581.07529949866
 30
-0.0000000000000002
 10
873.4754179529091
 20
1581.055675730102
 30
-0.0000000000000002
 10
873.4443764194222
 20
1581.016013853257
 30
-0.0000000000000002
 10
873.4261807061011
 20
1580.995975744969
 30
-0.0000000000000002
 10
873.3855574315552
 20
1580.956309306408
 30
-0.0000000000000002
 10
873.3632244456581
 20
1580.936680976133
 30
-0.0000000000000002
 10
873.3145392423131
 20
1580.89742633303
 30
-0.0000000000000002
 10
873.2881877562252
 20
1580.877800020201
 30
-0.0000000000000002
 10
873.2319867704902
 20
1580.838549107926
 30
-0.0000000000000002
 10
873.2021379431181
 20
1580.81892450848
 30
-0.0000000000000002
 10
873.1383777165191
 20
1580.778953030169
 30
-0.0000000000000002
 10
873.1043574995841
 20
1580.758606151303
 30
0.0000000000000016
 10
873.0351572708452
 20
1580.71863282166
 30
0.0000000000000016
 10
873.0000615799711
 20
1580.699006370883
 30
0.0000000000000016
 10
872.9283299584802
 20
1580.659756637096
 30
0.0000000000000016
 10
872.8916947450841
 20
1580.640133354087
 30
0.0000000000000016
 10
872.8176016122071
 20
1580.600886497871
 30
0.0000000000000016
 10
872.7801441631761
 20
1580.581262924665
 30
0.0000000000000016
 10
872.7385038876391
 20
1580.559472021854
 30
0.0000000000000016
 10
872.7343618339321
 20
1580.55730469225
 30
0.0000000000000016
 10
872.7302197802202
 20
1580.555137362645
 30
0.0000000000000016
  0
SPLINE
  5
78
330
1F
100
AcDbEntity
  8
1
  6
Continuous
 62
   155
420
  5010073
370
    18
100
AcDbSpline
210
0.0
220
0.0
230
1.0
 70
     8
 71
     3
 72
    30
 73
    26
 74
     0
 42
0.0000000001
 43
0.0000000001
 40
0.0
 40
0.0
 40
0.0
 40
0.0
 40
0.0900300128983881
 40
0.0900300128983881
 40
0.1800796249923057
 40
0.1800796249923057
 40
0.2500000000000065
 40
0.2500000000000065
 40
0.3395367285203809
 40
0.3395367285203809
 40
0.4290874419464072
 40
0.4290874419464072
 40
0.500000000000013
 40
0.500000000000013
 40
0.5895367285207004
 40
0.5895367285207004
 40
0.6790874419470057
 40
0.6790874419470057
 40
0.7500000000000195
 40
0.7500000000000195
 40
0.8400361776365709
 40
0.8400361776365709
 40
0.9300803963967602
 40
0.9300803963967602
 40
1.0
 40
1.0
 40
1.0
 40
1.0
 10
873.3877551226161
 20
1581.355137362645
 30
-0.0000000000000002
 10
873.3680197122872
 20
1581.355137362645
 30
-0.0000000000000002
 10
873.3482862983742
 20
1581.352465704366
 30
-0.0000000000000002
 10
873.3088170108441
 20
1581.341833247876
 30
-0.0000000000000002
 10
873.2890811376261
 20
1581.333871366759
 30
-0.0000000000000002
 10
873.2540207634191
 20
1581.315169314977
 30
-0.0000000000000002
 10
873.2386963262582
 20
1581.305449083404
 30
-0.0000000000000002
 10
873.2037467658691
 20
1581.279888432096
 30
-0.0000000000000002
 10
873.1841222447212
 20
1581.263095286684
 30
-0.0000000000000002
 10
873.1448701372342
 20
1581.22495604091
 30
-0.0000000000000002
 10
873.1252425508961
 20
1581.203609477349
 30
-0.0000000000000002
 10
873.0900724601781
 20
1581.161659211726
 30
0.0000000000000016
 10
873.0745299557981
 20
1581.141826522992
 30
0.0000000000000016
 10
873.0393629302702
 20
1581.094302721109
 30
0.0000000000000016
 10
873.0197384091222
 20
1581.0659148013
 30
0.0000000000000016
 10
872.9804863016351
 20
1581.005958460478
 30
0.0000000000000016
 10
872.9608587152971
 20
1580.974389933533
 30
0.0000000000000016
 10
872.9256886245792
 20
1580.915535714135
 30
0.0000000000000016
 10
872.9101461201991
 20
1580.888726811332
 30
0.0000000000000016
 10
872.8748696261891
 20
1580.826440688253
 30
0.0000000000000016
 10
872.8551366374882
 20
1580.790577001077
 30
0.0000000000000016
 10
872.8156687367101
 20
1580.717517346554
 30
0.0000000000000016
 10
872.7959338246181
 20
1580.680321720563
 30
0.0000000000000016
 10
872.7608726298652
 20
1580.613718916491
 30
0.0000000000000016
 10
872.7455468086671
 20
1580.584429327294
 30
0.0000000000000016
 10
872.7302197802202
 20
1580.555137362645
 30
0.0000000000000016
  0
SPLINE
  5
79
330
1F
100
AcDbEntity
  8
1
  6
Continuous
 62
   155
420
  5010073
370
    18
100
AcDbSpline
210
0.0
220
0.0
230
1.0
 70
     8
 71
     3
 72
    30
 73
    26
 74
     0
 42
0.0000000001
 43
0.0000000001
 40
0.0
 40
0.0
 40
0.0
 40
0.0
 40
0.0895403315943106
 40
0.0895403315943106
 40
0.179076971581175
 40
0.179076971581175
 40
0.268610266413157
 40
0.268610266413157
 40
0.360033983111512
 40
0.360033983111512
 40
0.449588090740425
 40
0.449588090740425
 40
0.539132993791959
 40
0.539132993791959
 40
0.628670079542554
 40
0.628670079542554
 40
0.721502559656916
 40
0.721502559656916
 40
0.811048092095874
 40
0.811048092095874
 40
0.9005791716170429
 40
0.9005791716170429
 40
0.990111575158614
 40
0.990111575158614
 40
1.0
 40
1.0
 40
1.0
 40
1.0
 10
872.7302197802202
 20
1546.155137362645
 30
0.0000000000000001
 10
872.7677263466121
 20
1546.135512051781
 30
0.0000000000000001
 10
872.8052326686031
 20
1546.115886740916
 30
0.0000000000000001
 10
872.8795035258892
 20
1546.076636928309
 30
0.0000000000000002
 10
872.9162676078491
 20
1546.057012426565
 30
0.0000000000000002
 10
872.9883281958981
 20
1546.017764156263
 30
0.0000000000000002
 10
873.0236242874241
 20
1545.998140387706
 30
0.0000000000000002
 10
873.0927757596692
 20
1545.958478510861
 30
0.0000000000000002
 10
873.1265844269761
 20
1545.938440402573
 30
-0.0000000000000016
 10
873.1905889127231
 20
1545.898773964012
 30
-0.0000000000000016
 10
873.2208441466681
 20
1545.879145633737
 30
-0.0000000000000016
 10
873.2779219368591
 20
1545.839890990634
 30
-0.0000000000000016
 10
873.3047444741371
 20
1545.820264677804
 30
-0.0000000000000016
 10
873.3544285017322
 20
1545.78101376553
 30
-0.0000000000000016
 10
873.3772900144781
 20
1545.761389166084
 30
-0.0000000000000016
 10
873.4193635875922
 20
1545.721417687773
 30
-0.0000000000000016
 10
873.4384097654302
 20
1545.701070808907
 30
-0.0000000000000016
 10
873.4707736491301
 20
1545.661097479264
 30
-0.0000000000000016
 10
873.4842703813422
 20
1545.641471028486
 30
-0.0000000000000016
 10
873.5062087035261
 20
1545.6022212947
 30
-0.0000000000000016
 10
873.5146509674802
 20
1545.58259801169
 30
-0.0000000000000016
 10
873.5263170788351
 20
1545.543351155475
 30
-0.0000000000000015
 10
873.5295407729441
 20
1545.523727582269
 30
-0.0000000000000015
 10
873.5301876109321
 20
1545.501936679458
 30
-0.0000000000000015
 10
873.5302197802201
 20
1545.499769349854
 30
-0.0000000000000015
 10
873.5302197802201
 20
1545.497602020249
 30
-0.0000000000000015
  0
SPLINE
  5
7A
330
1F
100
AcDbEntity
  8
1
  6
Continuous
 62
   155
420
  5010073
370
    18
100
AcDbSpline
210
0.0
220
0.0
230
1.0
 70
     8
 71
     3
 72
    38
 73
    34
 74
     0
 42
0.0000000001
 43
0.0000000001
 40
0.0
 40
0.0
 40
0.0
 40
0.0
 40
0.1249999999999955
 40
0.1249999999999955
 40
0.1874999999999944
 40
0.1874999999999944
 40
0.2187499999999912
 40
0.2187499999999912
 40
0.249999999999988
 40
0.249999999999988
 40
0.3749999999999676
 40
0.3749999999999676
 40
0.4062499999999671
 40
0.4062499999999671
 40
0.4374999999999666
 40
0.4374999999999666
 40
0.4999999999999681
 40
0.4999999999999681
 40
0.6249999999999765
 40
0.6249999999999765
 40
0.6562499999999799
 40
0.6562499999999799
 40
0.6874999999999833
 40
0.6874999999999833
 40
0.7499999999999901
 40
0.7499999999999901
 40
0.812499999999997
 40
0.812499999999997
 40
0.8437499999999977
 40
0.8437499999999977
 40
0.8749999999999983
 40
0.8749999999999983
 40
1.0
 40
1.0
 40
1.0
 40
1.0
 10
872.7302197802202
 20
1729.90934065934
 30
0.0
 10
872.7578466787913
 20
1729.90934065934
 30
0.0
 10
872.7850836289563
 20
1729.922287756869
 30
0.0
 10
872.8261165393428
 20
1729.960549218547
 30
0.0
 10
872.8398235059594
 20
1729.976464784409
 30
0.0
 10
872.8605269536629
 20
1730.00520576917
 30
0.0
 10
872.8674213398913
 20
1730.0155586103
 30
0.0
 10
872.8811480352963
 20
1730.037686171085
 30
0.0
 10
872.8879905216667
 20
1730.049474919623
 30
0.0
 10
872.9221378551466
 20
1730.111987599417
 30
0.0
 10
872.9492525516052
 20
1730.173321975359
 30
0.0
 10
872.9835143403805
 20
1730.26422825774
 30
0.0
 10
872.9903854071908
 20
1730.283127436554
 30
0.0
 10
873.0041820802837
 20
1730.322388659062
 30
0.0
 10
873.0110805676352
 20
1730.342676054438
 30
0.0
 10
873.0316739544635
 20
1730.405104451139
 30
0.0
 10
873.0453194119091
 20
1730.448955352385
 30
0.0
 10
873.0861920574575
 20
1730.587026436534
 30
0.0
 10
873.1133561035381
 20
1730.68770509021
 30
0.0
 10
873.1478387668941
 20
1730.82464657415
 30
0.0
 10
873.1547404316036
 20
1730.852509863096
 30
0.0
 10
873.1684714671858
 20
1730.908772877104
 30
0.0
 10
873.1753156953115
 20
1730.937231415946
 30
0.0
 10
873.1958090863548
 20
1731.023568994116
 30
0.0
 10
873.2094192637915
 20
1731.082407815325
 30
0.0
 10
873.2366570117713
 20
1731.202599127995
 30
0.0
 10
873.2502860418945
 20
1731.263951287857
 30
0.0
 10
873.2708373448625
 20
1731.357880191674
 30
0.0
 10
873.2777058292743
 20
1731.3895071247
 30
0.0
 10
873.2914957940286
 20
1731.453404816689
 30
0.0
 10
873.2984032697178
 20
1731.485611375109
 30
0.0
 10
873.3328077845705
 20
1731.646818278747
 30
0.0
 10
873.3601282372357
 20
1731.77734407367
 30
0.0
 10
873.3877551226167
 20
1731.90934065934
 30
0.0
  0
SPLINE
  5
7B
330
1F
100
AcDbEntity
  8
1
  6
Continuous
 62
   155
420
  5010073
370
    18
100
AcDbSpline
210
0.0
220
0.0
230
1.0
 70
     8
 71
     3
 72
    38
 73
    34
 74
     0
 42
0.0000000001
 43
0.0000000001
 40
0.0
 40
0.0
 40
0.0
 40
0.0
 40
0.1249999999999993
 40
0.1249999999999993
 40
0.1874999999999966
 40
0.1874999999999966
 40
0.2187499999999952
 40
0.2187499999999952
 40
0.2499999999999938
 40
0.2499999999999938
 40
0.3749999999999823
 40
0.3749999999999823
 40
0.4062499999999808
 40
0.4062499999999808
 40
0.4374999999999793
 40
0.4374999999999793
 40
0.4999999999999741
 40
0.4999999999999741
 40
0.6249999999999638
 40
0.6249999999999638
 40
0.6562499999999639
 40
0.6562499999999639
 40
0.6874999999999639
 40
0.6874999999999639
 40
0.7499999999999694
 40
0.7499999999999694
 40
0.8124999999999747
 40
0.8124999999999747
 40
0.8437499999999785
 40
0.8437499999999785
 40
0.8749999999999823
 40
0.8749999999999823
 40
1.0
 40
1.0
 40
1.0
 40
1.0
 10
433.6726844378236
 20
1731.90934065934
 30
0.0
 10
433.7003113226834
 20
1731.77734407616
 30
0.0
 10
433.7275482729755
 20
1731.64722498243
 30
0.0
 10
433.7685811884705
 20
1731.454936777537
 30
0.0
 10
433.7822881576392
 20
1731.391325667112
 30
0.0
 10
433.8029916085374
 20
1731.296676403516
 30
0.0
 10
433.8098859957194
 20
1731.2653959569
 30
0.0
 10
433.8236126924883
 20
1731.203660345512
 30
0.0
 10
433.8304551792622
 20
1731.173158517346
 30
0.0
 10
433.8646025127481
 20
1731.022459926532
 30
0.0
 10
433.8917172092138
 20
1730.907646727804
 30
0.0
 10
433.9259789980007
 20
1730.771501847611
 30
0.0
 10
433.9328500648137
 20
1730.744644593705
 30
0.0
 10
433.946646737912
 20
1730.691691399439
 30
0.0
 10
433.9535452252574
 20
1730.665701783016
 30
0.0
 10
433.9741386120786
 20
1730.589652823081
 30
0.0
 10
433.9877840695207
 20
1730.541308494704
 30
0.0
 10
434.0286567150624
 20
1730.403208497529
 30
0.0
 10
434.0558207611426
 20
1730.320322096151
 30
0.0
 10
434.0903034245042
 20
1730.228708462002
 30
0.0
 10
434.0972050892113
 20
1730.211051894953
 30
0.0
 10
434.110936124791
 20
1730.177307122637
 30
0.0
 10
434.1177803529155
 20
1730.161179099912
 30
0.0
 10
434.1382737439554
 20
1730.11499692614
 30
0.0
 10
434.1518839213901
 20
1730.087139795979
 30
0.0
 10
434.1791216693672
 20
1730.037242819268
 30
0.0
 10
434.1927506978685
 20
1730.015202979365
 30
0.0
 10
434.2133019976754
 20
1729.986591949441
 30
0.0
 10
434.2201704809194
 20
1729.977797646371
 30
0.0
 10
434.2339604434271
 20
1729.961724726368
 30
0.0
 10
434.240867918038
 20
1729.954466131848
 30
0.0
 10
434.2752724285784
 20
1729.922288378079
 30
0.0
 10
434.3025928811239
 20
1729.90934065934
 30
0.0
 10
434.3302197802201
 20
1729.90934065934
 30
0.0
  0
SPLINE
  5
7C
330
1F
100
AcDbEntity
  8
1
  6
Continuous
 62
   155
420
  5010073
370
    18
100
AcDbSpline
210
0.0
220
0.0
230
1.0
 70
     8
 71
     3
 72
    38
 73
    34
 74
     0
 42
0.0000000001
 43
0.0000000001
 40
0.0
 40
0.0
 40
0.0
 40
0.0
 40
0.125
 40
0.125
 40
0.1875000000000022
 40
0.1875000000000022
 40
0.2187499999999997
 40
0.2187499999999997
 40
0.2499999999999972
 40
0.2499999999999972
 40
0.3750000000000046
 40
0.3750000000000046
 40
0.4062500000000101
 40
0.4062500000000101
 40
0.4375000000000157
 40
0.4375000000000157
 40
0.5000000000000273
 40
0.5000000000000273
 40
0.6250000000000514
 40
0.6250000000000514
 40
0.6562500000000626
 40
0.6562500000000626
 40
0.6875000000000738
 40
0.6875000000000738
 40
0.7500000000000733
 40
0.7500000000000733
 40
0.8125000000000727
 40
0.8125000000000727
 40
0.8437500000000603
 40
0.8437500000000603
 40
0.8750000000000479
 40
0.8750000000000479
 40
1.0
 40
1.0
 40
1.0
 40
1.0
 10
432.3302197802201
 20
1731.90934065934
 30
0.0
 10
432.3302197802201
 20
1731.77734407616
 30
0.0
 10
432.3431668781669
 20
1731.647224982427
 30
0.0
 10
432.3814283398398
 20
1731.454936777522
 30
0.0
 10
432.3973439056215
 20
1731.391325667092
 30
0.0
 10
432.4260848902239
 20
1731.296676403488
 30
0.0
 10
432.4364377312936
 20
1731.265395956879
 30
0.0
 10
432.4585652919884
 20
1731.203660345497
 30
0.0
 10
432.470354040494
 20
1731.173158517333
 30
0.0
 10
432.5328667202933
 20
1731.022459926528
 30
0.0
 10
432.5942010962503
 20
1730.907646727799
 30
0.0
 10
432.685107378676
 20
1730.771501847597
 30
0.0
 10
432.7040065574999
 20
1730.744644593688
 30
0.0
 10
432.7432677800312
 20
1730.691691399417
 30
0.0
 10
432.7635551753867
 20
1730.665701783001
 30
0.0
 10
432.8259835720641
 20
1730.589652823073
 30
0.0
 10
432.8698344732977
 20
1730.541308494699
 30
0.0
 10
433.0079055574208
 20
1730.403208497528
 30
0.0
 10
433.1085842110978
 20
1730.320322096146
 30
0.0
 10
433.2455256950759
 20
1730.228708461989
 30
0.0
 10
433.2733889840066
 20
1730.211051894943
 30
0.0
 10
433.3296519979995
 20
1730.177307122631
 30
0.0
 10
433.3581105368343
 20
1730.161179099907
 30
0.0
 10
433.4444481149853
 20
1730.114996926139
 30
0.0
 10
433.5032869361844
 20
1730.087139795978
 30
0.0
 10
433.6234782488413
 20
1730.037242819267
 30
0.0
 10
433.6848304090181
 20
1730.015202979363
 30
0.0
 10
433.7787593134938
 20
1729.986591949438
 30
0.0
 10
433.8103862467686
 20
1729.977797646367
 30
0.0
 10
433.8742839392498
 20
1729.961724726363
 30
0.0
 10
433.9064904978886
 20
1729.954466131844
 30
0.0
 10
434.0676974024349
 20
1729.922288378079
 30
0.0
 10
434.1982231974397
 20
1729.90934065934
 30
0.0
 10
434.3302197802201
 20
1729.90934065934
 30
0.0
  0
SPLINE
  5
7D
330
1F
100
AcDbEntity
  8
1
  6
Continuous
 62
   155
420
  5010073
370
    18
100
AcDbSpline
210
0.0
220
0.0
230
1.0
 70
     8
 71
     3
 72
    18
 73
    14
 74
     0
 42
0.0000000001
 43
0.0000000001
 40
0.0
 40
0.0
 40
0.0
 40
0.0
 40
0.1770720026584847
 40
0.1770720026584847
 40
0.3541367049160352
 40
0.3541367049160352
 40
0.5311947919057993
 40
0.5311947919057993
 40
0.7119913147465694
 40
0.7119913147465694
 40
0.8890905604361347
 40
0.8890905604361347
 40
1.0
 40
1.0
 40
1.0
 40
1.0
 10
433.5302197802201
 20
1731.90934065934
 30
0.0
 10
433.5302197802201
 20
1731.871834092948
 30
0.0
 10
433.5328617620762
 20
1731.834327770957
 30
0.0
 10
433.5433773628271
 20
1731.76005691367
 30
0.0
 10
433.5512506971601
 20
1731.72329283171
 30
0.0
 10
433.5720729823091
 20
1731.651232243662
 30
0.0
 10
433.5850216075311
 20
1731.615936152136
 30
0.0
 10
433.6160631410172
 20
1731.546784679891
 30
0.0
 10
433.6342588543391
 20
1731.512976012584
 30
0.0
 10
433.6748821288851
 20
1731.448971526837
 30
0.0
 10
433.6972151147821
 20
1731.418716292892
 30
0.0
 10
433.7368044478241
 20
1731.372302362377
 30
0.0
 10
433.7528384581092
 20
1731.355101506065
 30
0.0
 10
433.769597142764
 20
1731.338638359208
 30
0.0
  0
SPLINE
  5
7E
330
1F
100
AcDbEntity
  8
1
  6
Continuous
 62
   155
420
  5010073
370
    18
100
AcDbSpline
210
0.0
220
0.0
230
1.0
 70
     8
 71
     3
 72
    20
 73
    16
 74
     0
 42
0.0000000001
 43
0.0000000001
 40
0.0
 40
0.0
 40
0.0
 40
0.0
 40
0.0842754300744087
 40
0.0842754300744087
 40
0.2621820891255072
 40
0.2621820891255072
 40
0.4466365668441313
 40
0.4466365668441313
 40
0.6245600091319646
 40
0.6245600091319646
 40
0.8024547340420115
 40
0.8024547340420115
 40
0.980352089728393
 40
0.980352089728393
 40
1.0
 40
1.0
 40
1.0
 40
1.0
 10
873.2929814937419
 20
1731.340747697086
 30
0.0
 10
873.3056088806682
 20
1731.353245506721
 30
0.0
 10
873.3178202780797
 20
1731.366163615279
 30
0.0
 10
873.3544285017322
 20
1731.40757366907
 30
0.0
 10
873.3772900144781
 20
1731.437422496442
 30
0.0
 10
873.4193635875922
 20
1731.501182723041
 30
0.0
 10
873.4384097654302
 20
1731.535202939976
 30
0.0
 10
873.4707736491301
 20
1731.604403168715
 30
0.0
 10
873.4842703813422
 20
1731.639498859588
 30
0.0
 10
873.5062087035261
 20
1731.71123048108
 30
0.0
 10
873.5146509674802
 20
1731.747865694476
 30
0.0
 10
873.5263170788351
 20
1731.821958827353
 30
0.0
 10
873.5295407729441
 20
1731.859416276384
 30
0.0
 10
873.5301876109321
 20
1731.90105655192
 30
0.0
 10
873.5302197802201
 20
1731.905198605628
 30
0.0
 10
873.5302197802201
 20
1731.90934065934
 30
0.0
  0
SPLINE
  5
7F
330
1F
100
AcDbEntity
  8
1
  6
Continuous
 62
   155
420
  5010073
370
    18
100
AcDbSpline
210
0.0
220
0.0
230
1.0
 70
     8
 71
     3
 72
    38
 73
    34
 74
     0
 42
0.0000000001
 43
0.0000000001
 40
0.0
 40
0.0
 40
0.0
 40
0.0
 40
0.1250000000000126
 40
0.1250000000000126
 40
0.1875000000000189
 40
0.1875000000000189
 40
0.2187500000000221
 40
0.2187500000000221
 40
0.2500000000000253
 40
0.2500000000000253
 40
0.3749999999999908
 40
0.3749999999999908
 40
0.4062499999999871
 40
0.4062499999999871
 40
0.4374999999999835
 40
0.4374999999999835
 40
0.4999999999999957
 40
0.4999999999999957
 40
0.625000000000021
 40
0.625000000000021
 40
0.6562500000000199
 40
0.6562500000000199
 40
0.6875000000000189
 40
0.6875000000000189
 40
0.7500000000000175
 40
0.7500000000000175
 40
0.8125000000000163
 40
0.8125000000000163
 40
0.8437500000000153
 40
0.8437500000000153
 40
0.8750000000000142
 40
0.8750000000000142
 40
1.0
 40
1.0
 40
1.0
 40
1.0
 10
872.7302197802202
 20
1729.90934065934
 30
0.0
 10
872.8622163604921
 20
1729.90934065934
 30
0.0
 10
872.9923354543272
 20
1729.922287756869
 30
0.0
 10
873.1846236603365
 20
1729.960549218551
 30
0.0
 10
873.2482347713035
 20
1729.976464784414
 30
0.0
 10
873.3428840355737
 20
1730.005205769179
 30
0.0
 10
873.3741644823745
 20
1730.015558610307
 30
0.0
 10
873.4359000940242
 20
1730.037686171091
 30
0.0
 10
873.4664019222619
 20
1730.049474919628
 30
0.0
 10
873.6171005130404
 20
1730.111987599419
 30
0.0
 10
873.731913711739
 20
1730.173321975361
 30
0.0
 10
873.8680585918971
 20
1730.26422825775
 30
0.0
 10
873.8949158457966
 20
1730.283127436566
 30
0.0
 10
873.9478690400492
 20
1730.322388659079
 30
0.0
 10
873.9738586564889
 20
1730.34267605445
 30
0.0
 10
874.0499076164455
 20
1730.405104451146
 30
0.0
 10
874.098251944832
 20
1730.44895535239
 30
0.0
 10
874.2363519420297
 20
1730.587026436536
 30
0.0
 10
874.3192383434102
 20
1730.687705090215
 30
0.0
 10
874.4108519775551
 20
1730.824646574171
 30
0.0
 10
874.4285085446071
 20
1730.852509863111
 30
0.0
 10
874.4622533169256
 20
1730.908772877114
 30
0.0
 10
874.4783813396524
 20
1730.937231415954
 30
0.0
 10
874.5245635134285
 20
1731.023568994119
 30
0.0
 10
874.5524206435921
 20
1731.082407815326
 30
0.0
 10
874.6023176203068
 20
1731.202599127997
 30
0.0
 10
874.6243574600874
 20
1731.263951287861
 30
0.0
 10
874.6529684898521
 20
1731.357880191685
 30
0.0
 10
874.661762792873
 20
1731.389507124714
 30
0.0
 10
874.6778357128042
 20
1731.45340481671
 30
0.0
 10
874.6850943073047
 20
1731.485611375125
 30
0.0
 10
874.7172720610632
 20
1731.646818278752
 30
0.0
 10
874.7302197802201
 20
1731.77734407367
 30
0.0
 10
874.7302197802202
 20
1731.90934065934
 30
0.0
  0
SPLINE
  5
80
330
1F
100
AcDbEntity
  8
1
  6
Continuous
 62
   155
420
  5010073
370
    18
100
AcDbSpline
210
0.0
220
0.0
230
1.0
 70
    12
 71
     2
 72
     6
 73
     3
 74
     0
 42
0.0000000001
 43
0.0000000001
 40
3.141592653589793
 40
3.141592653589793
 40
3.141592653589793
 40
4.71238898038469
 40
4.71238898038469
 40
4.71238898038469
 10
450.03022
 20
1549.551837
 30
0.0
 41
1.0
 10
450.03022
 20
1548.4911765
 30
0.0
 41
0.7071067811865476
 10
451.53022
 20
1548.4911765
 30
0.0
 41
1.0
  0
SPLINE
  5
81
330
1F
100
AcDbEntity
  8
1
  6
Continuous
 62
   155
420
  5010073
370
    18
100
AcDbSpline
210
0.0
220
0.0
230
1.0
 70
    12
 71
     2
 72
     6
 73
     3
 74
     0
 42
0.0000000001
 43
0.0000000001
 40
4.71238898038469
 40
4.71238898038469
 40
4.71238898038469
 40
6.283185307179586
 40
6.283185307179586
 40
6.283185307179586
 10
457.03022
 20
1548.4911765
 30
0.0
 41
1.0
 10
458.53022
 20
1548.4911765
 30
0.0
 41
0.7071067811865476
 10
458.53022
 20
1549.551837
 30
0.0
 41
1.0
  0
SPLINE
  5
82
330
1F
100
AcDbEntity
  8
1
  6
Continuous
 62
   155
420
  5010073
370
    18
100
AcDbSpline
210
0.0
220
0.0
230
1.0
 70
    12
 71
     2
 72
     6
 73
     3
 74
     0
 42
0.0000000001
 43
0.0000000001
 40
3.141592653589793
 40
3.141592653589793
 40
3.141592653589793
 40
4.71238898038469
 40
4.71238898038469
 40
4.71238898038469
 10
848.53022
 20
1549.551837
 30
0.0
 41
1.0
 10
848.53022
 20
1548.4911765
 30
0.0
 41
0.7071067811865476
 10
850.03022
 20
1548.4911765
 30
0.0
 41
1.0
  0
SPLINE
  5
83
330
1F
100
AcDbEntity
  8
1
  6
Continuous
 62
   155
420
  5010073
370
    18
100
AcDbSpline
210
0.0
220
0.0
230
1.0
 70
    12
 71
     2
 72
     6
 73
     3
 74
     0
 42
0.0000000001
 43
0.0000000001
 40
4.71238898038469
 40
4.71238898038469
 40
4.71238898038469
 40
6.283185307179586
 40
6.283185307179586
 40
6.283185307179586
 10
855.53022
 20
1548.4911765
 30
0.0
 41
1.0
 10
857.03022
 20
1548.4911765
 30
0.0
 41
0.7071067811865476
 10
857.03022
 20
1549.551837
 30
0.0
 41
1.0
  0
ARC
  5
84
330
1F
100
AcDbEntity
  8
1
  6
Continuous
 62
   155
420
  5010073
370
    18
100
AcDbCircle
 10
1043.422569
 20
1703.409341
 30
0.0
 40
0.5
100
AcDbArc
 50
270.0
 51
0.0
  0
ARC
  5
85
330
1F
100
AcDbEntity
  8
1
  6
Continuous
 62
   155
420
  5010073
370
    18
100
AcDbCircle
 10
990.422569
 20
1703.409341
 30
0.0
 40
0.5
100
AcDbArc
 50
180.0
 51
270.0
  0
ARC
  5
86
330
1F
100
AcDbEntity
  8
1
  6
Continuous
 62
   155
420
  5010073
370
    18
100
AcDbCircle
 10
990.422569
 20
1729.409341
 30
0.0
 40
0.5
100
AcDbArc
 50
90.0
 51
180.0
  0
ARC
  5
87
330
1F
100
AcDbEntity
  8
1
  6
Continuous
 62
   155
420
  5010073
370
    18
100
AcDbCircle
 10
1043.422569
 20
1729.409341
 30
0.0
 40
0.5
100
AcDbArc
 50
0.0
 51
90.0
  0
ARC
  5
88
330
1F
100
AcDbEntity
  8
1
  6
Continuous
 62
   155
420
  5010073
370
    18
100
AcDbCircle
 10
248.205426
 20
1729.409341
 30
0.0
 40
0.5
100
AcDbArc
 50
90.0
 51
180.0
  0
ARC
  5
89
330
1F
100
AcDbEntity
  8
1
  6
Continuous
 62
   155
420
  5010073
370
    18
100
AcDbCircle
 10
248.205426
 20
1703.409341
 30
0.0
 40
0.5
100
AcDbArc
 50
180.0
 51
270.0
  0
ARC
  5
8A
330
1F
100
AcDbEntity
  8
1
  6
Continuous
 62
   155
420
  5010073
370
    18
100
AcDbCircle
 10
301.205426
 20
1729.409341
 30
0.0
 40
0.5
100
AcDbArc
 50
0.0
 51
90.0
  0
ARC
  5
8B
330
1F
100
AcDbEntity
  8
1
  6
Continuous
 62
   155
420
  5010073
370
    18
100
AcDbCircle
 10
301.205426
 20
1703.409341
 30
0.0
 40
0.5
100
AcDbArc
 50
270.0
 51
0.0
  0
ARC
  5
8C
330
1F
100
AcDbEntity
  8
1
  6
Continuous
 62
   155
420
  5010073
370
    18
100
AcDbCircle
 10
855.53022
 20
1563.355137
 30
0.0
 40
1.8
100
AcDbArc
 50
15.13124999999782
 51
50.83312499999998
  0
CIRCLE
  5
8D
330
1F
100
AcDbEntity
  8
1
  6
Continuous
 62
   155
420
  5010073
370
    18
100
AcDbCircle
 10
804.53022
 20
1563.355137
 30
0.0
 40
1.8
  0
CIRCLE
  5
8E
330
1F
100
AcDbEntity
  8
1
  6
Continuous
 62
   155
420
  5010073
370
    18
100
AcDbCircle
 10
534.53022
 20
1563.355137
 30
0.0
 40
1.8
  0
ARC
  5
8F
330
1F
100
AcDbEntity
  8
1
  6
Continuous
 62
   155
420
  5010073
370
    18
100
AcDbCircle
 10
522.53022
 20
1557.355137
 30
0.0
 40
5.0
100
AcDbArc
 50
306.8704689999997
 51
0.0
  0
ARC
  5
90
330
1F
100
AcDbEntity
  8
1
  6
Continuous
 62
   155
420
  5010073
370
    18
100
AcDbCircle
 10
522.53022
 20
1569.355137
 30
0.0
 40
5.0
100
AcDbArc
 50
0.0
 51
53.12953100000026
  0
CIRCLE
  5
91
330
1F
100
AcDbEntity
  8
1
  6
Continuous
 62
   155
420
  5010073
370
    18
100
AcDbCircle
 10
804.53022
 20
1563.355137
 30
0.0
 40
2.1
  0
ARC
  5
92
330
1F
100
AcDbEntity
  8
1
  6
Continuous
 62
   155
420
  5010073
370
    18
100
AcDbCircle
 10
546.53022
 20
1557.355137
 30
0.0
 40
5.0
100
AcDbArc
 50
180.0
 51
233.1295310000003
  0
ARC
  5
93
330
1F
100
AcDbEntity
  8
1
  6
Continuous
 62
   155
420
  5010073
370
    18
100
AcDbCircle
 10
787.53022
 20
1557.355137
 30
0.0
 40
5.0
100
AcDbArc
 50
306.8704689999997
 51
0.0
  0
ARC
  5
94
330
1F
100
AcDbEntity
  8
1
  6
Continuous
 62
   155
420
  5010073
370
    18
100
AcDbCircle
 10
787.53022
 20
1569.355137
 30
0.0
 40
5.0
100
AcDbArc
 50
0.0
 51
53.12953100000026
  0
ARC
  5
95
330
1F
100
AcDbEntity
  8
1
  6
Continuous
 62
   155
420
  5010073
370
    18
100
AcDbCircle
 10
546.53022
 20
1569.355137
 30
0.0
 40
5.0
100
AcDbArc
 50
126.8704689999997
 51
180.0
  0
CIRCLE
  5
96
330
1F
100
AcDbEntity
  8
1
  6
Continuous
 62
   155
420
  5010073
370
    18
100
AcDbCircle
 10
534.53022
 20
1563.355137
 30
0.0
 40
2.1
  0
ARC
  5
97
330
1F
100
AcDbEntity
  8
1
  6
Continuous
 62
   155
420
  5010073
370
    18
100
AcDbCircle
 10
862.73022
 20
1573.855137
 30
0.0
 40
0.5
100
AcDbArc
 50
90.0
 51
270.0
  0
ARC
  5
98
330
1F
100
AcDbEntity
  8
1
  6
Continuous
 62
   155
420
  5010073
370
    18
100
AcDbCircle
 10
862.73022
 20
1552.855137
 30
0.0
 40
0.5
100
AcDbArc
 50
90.0
 51
270.0
  0
ARC
  5
99
330
1F
100
AcDbEntity
  8
1
  6
Continuous
 62
   155
420
  5010073
370
    18
100
AcDbCircle
 10
860.03022
 20
1547.855137
 30
0.0
 40
2.0
100
AcDbArc
 50
180.0
 51
270.0
  0
ARC
  5
9A
330
1F
100
AcDbEntity
  8
1
  6
Continuous
 62
   155
420
  5010073
370
    18
100
AcDbCircle
 10
857.53022
 20
1557.307829
 30
0.0
 40
0.5
100
AcDbArc
 50
0.0
 51
180.0
  0
ARC
  5
9B
330
1F
100
AcDbEntity
  8
1
  6
Continuous
 62
   155
420
  5010073
370
    18
100
AcDbCircle
 10
848.03022
 20
1557.307829
 30
0.0
 40
0.5
100
AcDbArc
 50
0.0
 51
90.0
  0
ARC
  5
9C
330
1F
100
AcDbEntity
  8
1
  6
Continuous
 62
   155
420
  5010073
370
    18
100
AcDbCircle
 10
846.03022
 20
1557.307829
 30
0.0
 40
0.5
100
AcDbArc
 50
90.0
 51
180.0
  0
ARC
  5
9D
330
1F
100
AcDbEntity
  8
1
  6
Continuous
 62
   155
420
  5010073
370
    18
100
AcDbCircle
 10
461.03022
 20
1557.307829
 30
0.0
 40
0.5
100
AcDbArc
 50
0.0
 51
90.0
  0
ARC
  5
9E
330
1F
100
AcDbEntity
  8
1
  6
Continuous
 62
   155
420
  5010073
370
    18
100
AcDbCircle
 10
802.53022
 20
1559.355137
 30
0.0
 40
6.0
100
AcDbArc
 50
270.0
 51
0.0
  0
ARC
  5
9F
330
1F
100
AcDbEntity
  8
1
  6
Continuous
 62
   155
420
  5010073
370
    18
100
AcDbCircle
 10
802.53022
 20
1567.355137
 30
0.0
 40
6.0
100
AcDbArc
 50
0.0
 51
90.0
  0
ARC
  5
A0
330
1F
100
AcDbEntity
  8
1
  6
Continuous
 62
   155
420
  5010073
370
    18
100
AcDbCircle
 10
679.53022
 20
1567.355137
 30
0.0
 40
6.0
100
AcDbArc
 50
90.0
 51
180.0
  0
ARC
  5
A1
330
1F
100
AcDbEntity
  8
1
  6
Continuous
 62
   155
420
  5010073
370
    18
100
AcDbCircle
 10
679.53022
 20
1559.355137
 30
0.0
 40
6.0
100
AcDbArc
 50
180.0
 51
270.0
  0
CIRCLE
  5
A2
330
1F
100
AcDbEntity
  8
1
  6
Continuous
 62
   155
420
  5010073
370
    18
100
AcDbCircle
 10
858.53022
 20
1565.355137
 30
0.0
 40
1.975
  0
ARC
  5
A3
330
1F
100
AcDbEntity
  8
1
  6
Continuous
 62
   155
420
  5010073
370
    18
100
AcDbCircle
 10
627.53022
 20
1559.355137
 30
0.0
 40
6.0
100
AcDbArc
 50
270.0
 51
0.0
  0
ARC
  5
A4
330
1F
100
AcDbEntity
  8
1
  6
Continuous
 62
   155
420
  5010073
370
    18
100
AcDbCircle
 10
627.53022
 20
1567.355137
 30
0.0
 40
6.0
100
AcDbArc
 50
0.0
 51
90.0
  0
ARC
  5
A5
330
1F
100
AcDbEntity
  8
1
  6
Continuous
 62
   155
420
  5010073
370
    18
100
AcDbCircle
 10
489.53022
 20
1567.355137
 30
0.0
 40
6.0
100
AcDbArc
 50
90.0
 51
180.0
  0
ARC
  5
A6
330
1F
100
AcDbEntity
  8
1
  6
Continuous
 62
   155
420
  5010073
370
    18
100
AcDbCircle
 10
489.53022
 20
1559.355137
 30
0.0
 40
6.0
100
AcDbArc
 50
180.0
 51
270.0
  0
CIRCLE
  5
A7
330
1F
100
AcDbEntity
  8
1
  6
Continuous
 62
   155
420
  5010073
370
    18
100
AcDbCircle
 10
653.53022
 20
1563.355137
 30
0.0
 40
10.0
  0
ARC
  5
A8
330
1F
100
AcDbEntity
  8
1
  6
Continuous
 62
   155
420
  5010073
370
    18
100
AcDbCircle
 10
459.03022
 20
1557.307829
 30
0.0
 40
0.5
100
AcDbArc
 50
90.0
 51
180.0
  0
ARC
  5
A9
330
1F
100
AcDbEntity
  8
1
  6
Continuous
 62
   155
420
  5010073
370
    18
100
AcDbCircle
 10
449.53022
 20
1557.307829
 30
0.0
 40
0.5
100
AcDbArc
 50
0.0
 51
180.0
  0
ARC
  5
AA
330
1F
100
AcDbEntity
  8
1
  6
Continuous
 62
   155
420
  5010073
370
    18
100
AcDbCircle
 10
447.03022
 20
1547.855137
 30
0.0
 40
2.0
100
AcDbArc
 50
270.0
 51
0.0
  0
ARC
  5
AB
330
1F
100
AcDbEntity
  8
1
  6
Continuous
 62
   155
420
  5010073
370
    18
100
AcDbCircle
 10
444.33022
 20
1552.855137
 30
0.0
 40
0.5
100
AcDbArc
 50
270.0
 51
90.0
  0
ARC
  5
AC
330
1F
100
AcDbEntity
  8
1
  6
Continuous
 62
   155
420
  5010073
370
    18
100
AcDbCircle
 10
444.33022
 20
1573.855137
 30
0.0
 40
0.5
100
AcDbArc
 50
270.0
 51
90.0
  0
ARC
  5
AD
330
1F
100
AcDbEntity
  8
1
  6
Continuous
 62
   155
420
  5010073
370
    18
100
AcDbCircle
 10
451.03022
 20
1578.355137
 30
0.0
 40
2.5
100
AcDbArc
 50
0.0
 51
90.0
  0
ARC
  5
AE
330
1F
100
AcDbEntity
  8
1
  6
Continuous
 62
   155
420
  5010073
370
    18
100
AcDbCircle
 10
454.03022
 20
1577.555137
 30
0.0
 40
0.5
100
AcDbArc
 50
180.0
 51
0.0
  0
ARC
  5
AF
330
1F
100
AcDbEntity
  8
1
  6
Continuous
 62
   155
420
  5010073
370
    18
100
AcDbCircle
 10
853.03022
 20
1577.555137
 30
0.0
 40
0.5
100
AcDbArc
 50
180.0
 51
0.0
  0
ARC
  5
B0
330
1F
100
AcDbEntity
  8
1
  6
Continuous
 62
   155
420
  5010073
370
    18
100
AcDbCircle
 10
856.03022
 20
1578.355137
 30
0.0
 40
2.5
100
AcDbArc
 50
90.0
 51
180.0
  0
ARC
  5
B1
330
1F
100
AcDbEntity
  8
1
  6
Continuous
 62
   155
420
  5010073
370
    18
100
AcDbCircle
 10
821.53022
 20
1563.355137
 30
0.0
 40
2.25
100
AcDbArc
 50
90.0
 51
270.0
  0
ARC
  5
B2
330
1F
100
AcDbEntity
  8
1
  6
Continuous
 62
   155
420
  5010073
370
    18
100
AcDbCircle
 10
825.53022
 20
1563.355137
 30
0.0
 40
2.25
100
AcDbArc
 50
270.0
 51
90.0
  0
ARC
  5
B3
330
1F
100
AcDbEntity
  8
1
  6
Continuous
 62
   155
420
  5010073
370
    18
100
AcDbCircle
 10
468.53022
 20
1561.355137
 30
0.0
 40
2.25
100
AcDbArc
 50
180.0
 51
0.0
  0
ARC
  5
B4
330
1F
100
AcDbEntity
  8
1
  6
Continuous
 62
   155
420
  5010073
370
    18
100
AcDbCircle
 10
468.53022
 20
1565.355137
 30
0.0
 40
2.25
100
AcDbArc
 50
0.0
 51
180.0
  0
ARC
  5
B5
330
1F
100
AcDbEntity
  8
1
  6
Continuous
 62
   155
420
  5010073
370
    18
100
AcDbCircle
 10
855.53022
 20
1563.355137
 30
0.0
 40
2.1
100
AcDbArc
 50
6.823124999999227
 51
60.54749999999734
  0
CIRCLE
  5
B6
330
1F
100
AcDbEntity
  8
1
  6
Continuous
 62
   155
420
  5010073
370
    18
100
AcDbCircle
 10
852.78022
 20
1757.409341
 30
0.0
 40
2.11
  0
CIRCLE
  5
B7
330
1F
100
AcDbEntity
  8
1
  6
Continuous
 62
   155
420
  5010073
370
    18
100
AcDbCircle
 10
454.28022
 20
1757.409341
 30
0.0
 40
2.11
  0
LINE
  5
B8
330
1F
100
AcDbEntity
  8
1
  6
Continuous
 62
   155
420
  5010073
370
    13
100
AcDbLine
 10
1113.427404
 20
1729.409341
 30
0.0
 11
1110.927404
 21
1729.409341
 31
0.0
  0
LINE
  5
B9
330
1F
100
AcDbEntity
  8
1
  6
Continuous
 62
   155
420
  5010073
370
    18
100
AcDbLine
 10
1110.927404
 20
1729.409341
 30
0.0
 11
1110.927404
 21
1729.909341
 31
0.0
  0
LINE
  5
BA
330
1F
100
AcDbEntity
  8
1
  6
Continuous
 62
   155
420
  5010073
370
    18
100
AcDbLine
 10
1110.927404
 20
1729.909341
 30
0.0
 11
1113.427404
 21
1729.909341
 31
0.0
  0
LINE
  5
BB
330
1F
100
AcDbEntity
  8
1
  6
Continuous
 62
   155
420
  5010073
370
    18
100
AcDbLine
 10
1113.427404
 20
1729.909341
 30
0.0
 11
1113.427404
 21
1729.409341
 31
0.0
  0
LINE
  5
BC
330
1F
100
AcDbEntity
  8
1
  6
Continuous
 62
   155
420
  5010073
370
    13
100
AcDbLine
 10
1110.927404
 20
1703.409341
 30
0.0
 11
1113.427404
 21
1703.409341
 31
0.0
  0
LINE
  5
BD
330
1F
100
AcDbEntity
  8
1
  6
Continuous
 62
   155
420
  5010073
370
    18
100
AcDbLine
 10
1110.927404
 20
1729.409341
 30
0.0
 11
1110.927404
 21
1703.409341
 31
0.0
  0
LINE
  5
BE
330
1F
100
AcDbEntity
  8
1
  6
Continuous
 62
   155
420
  5010073
370
    18
100
AcDbLine
 10
1113.427404
 20
1729.409341
 30
0.0
 11
1113.427404
 21
1703.409341
 31
0.0
  0
LINE
  5
BF
330
1F
100
AcDbEntity
  8
1
  6
Continuous
 62
   155
420
  5010073
370
    18
100
AcDbLine
 10
1113.427404
 20
1702.909341
 30
0.0
 11
1110.927404
 21
1702.909341
 31
0.0
  0
LINE
  5
C0
330
1F
100
AcDbEntity
  8
1
  6
Continuous
 62
   155
420
  5010073
370
    18
100
AcDbLine
 10
1110.927404
 20
1702.909341
 30
0.0
 11
1110.927404
 21
1703.409341
 31
0.0
  0
LINE
  5
C1
330
1F
100
AcDbEntity
  8
1
  6
Continuous
 62
   155
420
  5010073
370
    18
100
AcDbLine
 10
1113.427404
 20
1702.909341
 30
0.0
 11
1113.427404
 21
1703.409341
 31
0.0
  0
LINE
  5
C2
330
1F
100
AcDbEntity
  8
1
  6
Continuous
 62
   155
420
  5010073
370
    13
100
AcDbLine
 10
1113.427404
 20
1705.109341
 30
0.0
 11
1702.427404
 21
1705.109341
 31
0.0
  0
LINE
  5
C3
330
1F
100
AcDbEntity
  8
1
  6
Continuous
 62
   155
420
  5010073
370
    18
100
AcDbLine
 10
1113.427404
 20
1705.409341
 30
0.0
 11
1702.427404
 21
1705.409341
 31
0.0
  0
LINE
  5
C4
330
1F
100
AcDbEntity
  8
1
  6
Continuous
 62
   155
420
  5010073
370
    18
100
AcDbLine
 10
1113.427404
 20
1702.909341
 30
0.0
 11
1702.427404
 21
1702.909341
 31
0.0
  0
LINE
  5
C5
330
1F
100
AcDbEntity
  8
1
  6
Continuous
 62
   155
420
  5010073
370
    18
100
AcDbLine
 10
1113.427404
 20
1702.909341
 30
0.0
 11
1113.427404
 21
1703.409341
 31
0.0
  0
LINE
  5
C6
330
1F
100
AcDbEntity
  8
1
  6
Continuous
 62
   155
420
  5010073
370
    13
100
AcDbLine
 10
1113.427404
 20
1703.409341
 30
0.0
 11
1702.427404
 21
1703.409341
 31
0.0
  0
LINE
  5
C7
330
1F
100
AcDbEntity
  8
1
  6
Continuous
 62
   155
420
  5010073
370
    18
100
AcDbLine
 10
1702.427404
 20
1702.909341
 30
0.0
 11
1702.427404
 21
1703.409341
 31
0.0
  0
LINE
  5
C8
330
1F
100
AcDbEntity
  8
1
  6
Continuous
 62
   155
420
  5010073
370
    18
100
AcDbLine
 10
1113.427404
 20
1703.409341
 30
0.0
 11
1113.427404
 21
1705.109341
 31
0.0
  0
LINE
  5
C9
330
1F
100
AcDbEntity
  8
1
  6
Continuous
 62
   155
420
  5010073
370
    18
100
AcDbLine
 10
1702.427404
 20
1703.409341
 30
0.0
 11
1702.427404
 21
1705.109341
 31
0.0
  0
LINE
  5
CA
330
1F
100
AcDbEntity
  8
1
  6
Continuous
 62
   155
420
  5010073
370
    13
100
AcDbLine
 10
1113.427404
 20
1729.409341
 30
0.0
 11
1702.427404
 21
1729.409341
 31
0.0
  0
LINE
  5
CB
330
1F
100
AcDbEntity
  8
1
  6
Continuous
 62
   155
420
  5010073
370
    18
100
AcDbLine
 10
1113.427404
 20
1729.409341
 30
0.0
 11
1113.427404
 21
1729.909341
 31
0.0
  0
LINE
  5
CC
330
1F
100
AcDbEntity
  8
1
  6
Continuous
 62
   155
420
  5010073
370
    18
100
AcDbLine
 10
1113.427404
 20
1729.909341
 30
0.0
 11
1702.427404
 21
1729.909341
 31
0.0
  0
LINE
  5
CD
330
1F
100
AcDbEntity
  8
1
  6
Continuous
 62
   155
420
  5010073
370
    18
100
AcDbLine
 10
1702.427404
 20
1729.409341
 30
0.0
 11
1702.427404
 21
1729.909341
 31
0.0
  0
LINE
  5
CE
330
1F
100
AcDbEntity
  8
1
  6
Continuous
 62
   155
420
  5010073
370
    18
100
AcDbLine
 10
1113.427404
 20
1727.409341
 30
0.0
 11
1702.427404
 21
1727.409341
 31
0.0
  0
LINE
  5
CF
330
1F
100
AcDbEntity
  8
1
  6
Continuous
 62
   155
420
  5010073
370
    13
100
AcDbLine
 10
1113.427404
 20
1727.709341
 30
0.0
 11
1702.427404
 21
1727.709341
 31
0.0
  0
LINE
  5
D0
330
1F
100
AcDbEntity
  8
1
  6
Continuous
 62
   155
420
  5010073
370
    18
100
AcDbLine
 10
1113.427404
 20
1727.709341
 30
0.0
 11
1113.427404
 21
1729.409341
 31
0.0
  0
LINE
  5
D1
330
1F
100
AcDbEntity
  8
1
  6
Continuous
 62
   155
420
  5010073
370
    18
100
AcDbLine
 10
1702.427404
 20
1727.709341
 30
0.0
 11
1702.427404
 21
1729.409341
 31
0.0
  0
LINE
  5
D2
330
1F
100
AcDbEntity
  8
1
  6
Continuous
 62
   155
420
  5010073
370
    13
100
AcDbLine
 10
1702.270951
 20
1705.709341
 30
0.0
 11
1702.427404
 21
1705.709341
 31
0.0
  0
LINE
  5
D3
330
1F
100
AcDbEntity
  8
1
  6
Continuous
 62
   155
420
  5010073
370
    13
100
AcDbLine
 10
1113.427404
 20
1705.709341
 30
0.0
 11
1113.583857
 21
1705.709341
 31
0.0
  0
LINE
  5
D4
330
1F
100
AcDbEntity
  8
1
  6
Continuous
 62
   155
420
  5010073
370
    18
100
AcDbLine
 10
1702.270951
 20
1706.009341
 30
0.0
 11
1702.427404
 21
1706.009341
 31
0.0
  0
LINE
  5
D5
330
1F
100
AcDbEntity
  8
1
  6
Continuous
 62
   155
420
  5010073
370
    18
100
AcDbLine
 10
1113.427404
 20
1706.009341
 30
0.0
 11
1113.583857
 21
1706.009341
 31
0.0
  0
LINE
  5
D6
330
1F
100
AcDbEntity
  8
1
  6
Continuous
 62
   155
420
  5010073
370
    18
100
AcDbLine
 10
1702.270951
 20
1726.809341
 30
0.0
 11
1702.427404
 21
1726.809341
 31
0.0
  0
LINE
  5
D7
330
1F
100
AcDbEntity
  8
1
  6
Continuous
 62
   155
420
  5010073
370
    18
100
AcDbLine
 10
1113.427404
 20
1726.809341
 30
0.0
 11
1113.583857
 21
1726.809341
 31
0.0
  0
LINE
  5
D8
330
1F
100
AcDbEntity
  8
1
  6
Continuous
 62
   155
420
  5010073
370
    13
100
AcDbLine
 10
1702.270951
 20
1727.109341
 30
0.0
 11
1702.427404
 21
1727.109341
 31
0.0
  0
LINE
  5
D9
330
1F
100
AcDbEntity
  8
1
  6
Continuous
 62
   155
420
  5010073
370
    13
100
AcDbLine
 10
1113.427404
 20
1727.109341
 30
0.0
 11
1113.583857
 21
1727.109341
 31
0.0
  0
LINE
  5
DA
330
1F
100
AcDbEntity
  8
1
  6
Continuous
 62
   155
420
  5010073
370
    18
100
AcDbLine
 10
1113.583857
 20
1706.073828
 30
0.0
 11
1113.427404
 21
1706.073828
 31
0.0
  0
LINE
  5
DB
330
1F
100
AcDbEntity
  8
1
  6
Continuous
 62
   155
420
  5010073
370
    18
100
AcDbLine
 10
1702.427404
 20
1706.073828
 30
0.0
 11
1702.270951
 21
1706.073828
 31
0.0
  0
LINE
  5
DC
330
1F
100
AcDbEntity
  8
1
  6
Continuous
 62
   155
420
  5010073
370
    18
100
AcDbLine
 10
1702.270951
 20
1726.744853
 30
0.0
 11
1702.427404
 21
1726.744853
 31
0.0
  0
LINE
  5
DD
330
1F
100
AcDbEntity
  8
1
  6
Continuous
 62
   155
420
  5010073
370
    18
100
AcDbLine
 10
1113.427404
 20
1726.744853
 30
0.0
 11
1113.583857
 21
1726.744853
 31
0.0
  0
LINE
  5
DE
330
1F
100
AcDbEntity
  8
1
  6
Continuous
 62
   155
420
  5010073
370
    18
100
AcDbLine
 10
1113.427404
 20
1706.909341
 30
0.0
 11
1113.577412
 21
1706.909341
 31
0.0
  0
LINE
  5
DF
330
1F
100
AcDbEntity
  8
1
  6
Continuous
 62
   155
420
  5010073
370
    18
100
AcDbLine
 10
1113.577412
 20
1725.909341
 30
0.0
 11
1113.427404
 21
1725.909341
 31
0.0
  0
LINE
  5
E0
330
1F
100
AcDbEntity
  8
1
  6
Continuous
 62
   155
420
  5010073
370
    18
100
AcDbLine
 10
1702.427404
 20
1725.909341
 30
0.0
 11
1702.277396
 21
1725.909341
 31
0.0
  0
LINE
  5
E1
330
1F
100
AcDbEntity
  8
1
  6
Continuous
 62
   155
420
  5010073
370
    18
100
AcDbLine
 10
1702.277396
 20
1706.909341
 30
0.0
 11
1702.427404
 21
1706.909341
 31
0.0
  0
LINE
  5
E2
330
1F
100
AcDbEntity
  8
1
  6
Continuous
 62
   155
420
  5010073
370
    13
100
AcDbLine
 10
1702.277318
 20
1724.909341
 30
0.0
 11
1702.427404
 21
1724.909341
 31
0.0
  0
LINE
  5
E3
330
1F
100
AcDbEntity
  8
1
  6
Continuous
 62
   155
420
  5010073
370
    18
100
AcDbLine
 10
1702.276657
 20
1724.609341
 30
0.0
 11
1702.427404
 21
1724.609341
 31
0.0
  0
LINE
  5
E4
330
1F
100
AcDbEntity
  8
1
  6
Continuous
 62
   155
420
  5010073
370
    13
100
AcDbLine
 10
1113.427404
 20
1724.909341
 30
0.0
 11
1113.578484
 21
1724.909341
 31
0.0
  0
LINE
  5
E5
330
1F
100
AcDbEntity
  8
1
  6
Continuous
 62
   155
420
  5010073
370
    18
100
AcDbLine
 10
1113.427404
 20
1724.609341
 30
0.0
 11
1113.578439
 21
1724.609341
 31
0.0
  0
LINE
  5
E6
330
1F
100
AcDbEntity
  8
1
  6
Continuous
 62
   155
420
  5010073
370
    18
100
AcDbLine
 10
1702.276657
 20
1708.209341
 30
0.0
 11
1702.427404
 21
1708.209341
 31
0.0
  0
LINE
  5
E7
330
1F
100
AcDbEntity
  8
1
  6
Continuous
 62
   155
420
  5010073
370
    13
100
AcDbLine
 10
1702.277318
 20
1707.909341
 30
0.0
 11
1702.427404
 21
1707.909341
 31
0.0
  0
LINE
  5
E8
330
1F
100
AcDbEntity
  8
1
  6
Continuous
 62
   155
420
  5010073
370
    13
100
AcDbLine
 10
1113.427404
 20
1707.909341
 30
0.0
 11
1113.578484
 21
1707.909341
 31
0.0
  0
LINE
  5
E9
330
1F
100
AcDbEntity
  8
1
  6
Continuous
 62
   155
420
  5010073
370
    18
100
AcDbLine
 10
1113.427404
 20
1708.209341
 30
0.0
 11
1113.578439
 21
1708.209341
 31
0.0
  0
LINE
  5
EA
330
1F
100
AcDbEntity
  8
1
  6
Continuous
 62
   155
420
  5010073
370
    18
100
AcDbLine
 10
1702.276987
 20
1710.209341
 30
0.0
 11
1702.427404
 21
1710.209341
 31
0.0
  0
LINE
  5
EB
330
1F
100
AcDbEntity
  8
1
  6
Continuous
 62
   155
420
  5010073
370
    13
100
AcDbLine
 10
1702.277142
 20
1709.909341
 30
0.0
 11
1702.427404
 21
1709.909341
 31
0.0
  0
LINE
  5
EC
330
1F
100
AcDbEntity
  8
1
  6
Continuous
 62
   155
420
  5010073
370
    13
100
AcDbLine
 10
1113.427404
 20
1709.909341
 30
0.0
 11
1113.578377
 21
1709.909341
 31
0.0
  0
LINE
  5
ED
330
1F
100
AcDbEntity
  8
1
  6
Continuous
 62
   155
420
  5010073
370
    18
100
AcDbLine
 10
1113.427404
 20
1710.209341
 30
0.0
 11
1113.578397
 21
1710.209341
 31
0.0
  0
LINE
  5
EE
330
1F
100
AcDbEntity
  8
1
  6
Continuous
 62
   155
420
  5010073
370
    13
100
AcDbLine
 10
1702.277142
 20
1722.909341
 30
0.0
 11
1702.427404
 21
1722.909341
 31
0.0
  0
LINE
  5
EF
330
1F
100
AcDbEntity
  8
1
  6
Continuous
 62
   155
420
  5010073
370
    18
100
AcDbLine
 10
1702.276987
 20
1722.609341
 30
0.0
 11
1702.427404
 21
1722.609341
 31
0.0
  0
LINE
  5
F0
330
1F
100
AcDbEntity
  8
1
  6
Continuous
 62
   155
420
  5010073
370
    18
100
AcDbLine
 10
1113.427404
 20
1722.609341
 30
0.0
 11
1113.583427
 21
1722.609341
 31
0.0
  0
LINE
  5
F1
330
1F
100
AcDbEntity
  8
1
  6
Continuous
 62
   155
420
  5010073
370
    13
100
AcDbLine
 10
1113.427404
 20
1722.909341
 30
0.0
 11
1113.583382
 21
1722.909341
 31
0.0
  0
LINE
  5
F2
330
1F
100
AcDbEntity
  8
1
  6
Continuous
 62
   155
420
  5010073
370
    18
100
AcDbLine
 10
1704.927404
 20
1702.909341
 30
0.0
 11
1702.427404
 21
1702.909341
 31
0.0
  0
LINE
  5
F3
330
1F
100
AcDbEntity
  8
1
  6
Continuous
 62
   155
420
  5010073
370
    18
100
AcDbLine
 10
1702.427404
 20
1702.909341
 30
0.0
 11
1702.427404
 21
1703.409341
 31
0.0
  0
LINE
  5
F4
330
1F
100
AcDbEntity
  8
1
  6
Continuous
 62
   155
420
  5010073
370
    18
100
AcDbLine
 10
1704.927404
 20
1702.909341
 30
0.0
 11
1704.927404
 21
1703.409341
 31
0.0
  0
LINE
  5
F5
330
1F
100
AcDbEntity
  8
1
  6
Continuous
 62
   155
420
  5010073
370
    13
100
AcDbLine
 10
1704.927404
 20
1729.409341
 30
0.0
 11
1702.427404
 21
1729.409341
 31
0.0
  0
LINE
  5
F6
330
1F
100
AcDbEntity
  8
1
  6
Continuous
 62
   155
420
  5010073
370
    18
100
AcDbLine
 10
1702.427404
 20
1729.409341
 30
0.0
 11
1702.427404
 21
1729.909341
 31
0.0
  0
LINE
  5
F7
330
1F
100
AcDbEntity
  8
1
  6
Continuous
 62
   155
420
  5010073
370
    18
100
AcDbLine
 10
1702.427404
 20
1729.909341
 30
0.0
 11
1704.927404
 21
1729.909341
 31
0.0
  0
LINE
  5
F8
330
1F
100
AcDbEntity
  8
1
  6
Continuous
 62
   155
420
  5010073
370
    18
100
AcDbLine
 10
1704.927404
 20
1729.909341
 30
0.0
 11
1704.927404
 21
1729.409341
 31
0.0
  0
LINE
  5
F9
330
1F
100
AcDbEntity
  8
1
  6
Continuous
 62
   155
420
  5010073
370
    13
100
AcDbLine
 10
1702.427404
 20
1703.409341
 30
0.0
 11
1704.927404
 21
1703.409341
 31
0.0
  0
LINE
  5
FA
330
1F
100
AcDbEntity
  8
1
  6
Continuous
 62
   155
420
  5010073
370
    18
100
AcDbLine
 10
1702.427404
 20
1729.409341
 30
0.0
 11
1702.427404
 21
1703.409341
 31
0.0
  0
LINE
  5
FB
330
1F
100
AcDbEntity
  8
1
  6
Continuous
 62
   155
420
  5010073
370
    18
100
AcDbLine
 10
1704.927404
 20
1729.409341
 30
0.0
 11
1704.927404
 21
1703.409341
 31
0.0
  0
LINE
  5
FC
330
1F
100
AcDbEntity
  8
1
  6
Continuous
 62
   155
420
  5010073
370
    13
100
AcDbLine
 10
1188.069869
 20
1731.909341
 30
0.0
 11
1627.784939
 21
1731.909341
 31
0.0
  0
LINE
  5
FD
330
1F
100
AcDbEntity
  8
1
  6
Continuous
 62
   155
420
  5010073
370
    18
100
AcDbLine
 10
1629.127404
 20
1732.030668
 30
0.0
 11
1629.127404
 21
1763.409341
 31
0.0
  0
LINE
  5
FE
330
1F
100
AcDbEntity
  8
1
  6
Continuous
 62
   155
420
  5010073
370
    18
100
AcDbLine
 10
1627.827404
 20
1732.030668
 30
0.0
 11
1629.127404
 21
1732.030668
 31
0.0
  0
LINE
  5
FF
330
1F
100
AcDbEntity
  8
1
  6
Continuous
 62
   155
420
  5010073
370
    18
100
AcDbLine
 10
1627.784939
 20
1731.909341
 30
0.0
 11
1627.827404
 21
1732.030668
 31
0.0
  0
LINE
  5
100
330
1F
100
AcDbEntity
  8
1
  6
Continuous
 62
   155
420
  5010073
370
    18
100
AcDbLine
 10
1188.027404
 20
1732.030668
 30
0.0
 11
1188.069869
 21
1731.909341
 31
0.0
  0
LINE
  5
101
330
1F
100
AcDbEntity
  8
1
  6
Continuous
 62
   155
420
  5010073
370
    18
100
AcDbLine
 10
1186.727404
 20
1732.030668
 30
0.0
 11
1188.027404
 21
1732.030668
 31
0.0
  0
LINE
  5
102
330
1F
100
AcDbEntity
  8
1
  6
Continuous
 62
   155
420
  5010073
370
    18
100
AcDbLine
 10
1186.727404
 20
1763.409341
 30
0.0
 11
1186.727404
 21
1732.030668
 31
0.0
  0
LINE
  5
103
330
1F
100
AcDbEntity
  8
1
  6
Continuous
 62
   155
420
  5010073
370
    18
100
AcDbLine
 10
1186.727404
 20
1763.409341
 30
0.0
 11
1629.127404
 21
1763.409341
 31
0.0
  0
LINE
  5
104
330
1F
100
AcDbEntity
  8
1
  6
Continuous
 62
   155
420
  5010073
370
    18
100
AcDbLine
 10
1627.927404
 20
1731.909341
 30
0.0
 11
1629.127404
 21
1731.909341
 31
0.0
  0
LINE
  5
105
330
1F
100
AcDbEntity
  8
1
  6
Continuous
 62
   155
420
  5010073
370
    18
100
AcDbLine
 10
1629.127404
 20
1731.909341
 30
0.0
 11
1629.127404
 21
1732.030668
 31
0.0
  0
LINE
  5
106
330
1F
100
AcDbEntity
  8
1
  6
Continuous
 62
   155
420
  5010073
370
    18
100
AcDbLine
 10
1627.927404
 20
1731.909341
 30
0.0
 11
1627.927404
 21
1732.030668
 31
0.0
  0
LINE
  5
107
330
1F
100
AcDbEntity
  8
1
  6
Continuous
 62
   155
420
  5010073
370
    18
100
AcDbLine
 10
1187.927404
 20
1731.909341
 30
0.0
 11
1186.727404
 21
1731.909341
 31
0.0
  0
LINE
  5
108
330
1F
100
AcDbEntity
  8
1
  6
Continuous
 62
   155
420
  5010073
370
    18
100
AcDbLine
 10
1186.727404
 20
1732.030668
 30
0.0
 11
1186.727404
 21
1731.909341
 31
0.0
  0
LINE
  5
109
330
1F
100
AcDbEntity
  8
1
  6
Continuous
 62
   155
420
  5010073
370
    18
100
AcDbLine
 10
1187.927404
 20
1732.030668
 30
0.0
 11
1187.927404
 21
1731.909341
 31
0.0
  0
LINE
  5
10A
330
1F
100
AcDbEntity
  8
1
  6
Continuous
 62
   155
420
  5010073
370
    18
100
AcDbLine
 10
1702.277404
 20
1727.199341
 30
0.0
 11
1702.277404
 21
1726.899341
 31
0.0
  0
LINE
  5
10B
330
1F
100
AcDbEntity
  8
1
  6
Continuous
 62
   155
420
  5010073
370
    13
100
AcDbLine
 10
1113.577404
 20
1726.899341
 30
0.0
 11
1702.277404
 21
1726.899341
 31
0.0
  0
LINE
  5
10C
330
1F
100
AcDbEntity
  8
1
  6
Continuous
 62
   155
420
  5010073
370
    18
100
AcDbLine
 10
1113.577404
 20
1727.199341
 30
0.0
 11
1113.577404
 21
1726.899341
 31
0.0
  0
LINE
  5
10D
330
1F
100
AcDbEntity
  8
1
  6
Continuous
 62
   155
420
  5010073
370
    18
100
AcDbLine
 10
1113.577404
 20
1727.199341
 30
0.0
 11
1702.277404
 21
1727.199341
 31
0.0
  0
LINE
  5
10E
330
1F
100
AcDbEntity
  8
1
  6
Continuous
 62
   155
420
  5010073
370
    18
100
AcDbLine
 10
1702.277404
 20
1705.619341
 30
0.0
 11
1702.277404
 21
1705.919341
 31
0.0
  0
LINE
  5
10F
330
1F
100
AcDbEntity
  8
1
  6
Continuous
 62
   155
420
  5010073
370
    18
100
AcDbLine
 10
1113.577404
 20
1705.619341
 30
0.0
 11
1702.277404
 21
1705.619341
 31
0.0
  0
LINE
  5
110
330
1F
100
AcDbEntity
  8
1
  6
Continuous
 62
   155
420
  5010073
370
    18
100
AcDbLine
 10
1113.577404
 20
1705.619341
 30
0.0
 11
1113.577404
 21
1705.919341
 31
0.0
  0
LINE
  5
111
330
1F
100
AcDbEntity
  8
1
  6
Continuous
 62
   155
420
  5010073
370
    13
100
AcDbLine
 10
1113.577404
 20
1705.919341
 30
0.0
 11
1702.277404
 21
1705.919341
 31
0.0
  0
LINE
  5
112
330
1F
100
AcDbEntity
  8
1
  6
Continuous
 62
   155
420
  5010073
370
    18
100
AcDbLine
 10
1702.277404
 20
1726.899341
 30
0.0
 11
1702.277404
 21
1705.919341
 31
0.0
  0
LINE
  5
113
330
1F
100
AcDbEntity
  8
1
  6
Continuous
 62
   155
420
  5010073
370
    18
100
AcDbLine
 10
1113.577404
 20
1726.899341
 30
0.0
 11
1113.577404
 21
1705.919341
 31
0.0
  0
LINE
  5
114
330
1F
100
AcDbEntity
  8
1
  6
Continuous
 62
   155
420
  5010073
370
    18
100
AcDbLine
 10
1123.577404
 20
1727.199341
 30
0.0
 11
1123.577404
 21
1727.409336
 31
0.0
  0
LINE
  5
115
330
1F
100
AcDbEntity
  8
1
  6
Continuous
 62
   155
420
  5010073
370
    18
100
AcDbLine
 10
1113.577404
 20
1727.409336
 30
0.0
 11
1113.577404
 21
1727.199341
 31
0.0
  0
LINE
  5
116
330
1F
100
AcDbEntity
  8
1
  6
Continuous
 62
   155
420
  5010073
370
    18
100
AcDbLine
 10
1123.577404
 20
1705.619341
 30
0.0
 11
1123.577404
 21
1705.409346
 31
0.0
  0
LINE
  5
117
330
1F
100
AcDbEntity
  8
1
  6
Continuous
 62
   155
420
  5010073
370
    18
100
AcDbLine
 10
1113.577404
 20
1705.619341
 30
0.0
 11
1113.577404
 21
1705.409346
 31
0.0
  0
LINE
  5
118
330
1F
100
AcDbEntity
  8
1
  6
Continuous
 62
   155
420
  5010073
370
    18
100
AcDbLine
 10
1692.277404
 20
1705.619341
 30
0.0
 11
1692.277404
 21
1705.409346
 31
0.0
  0
LINE
  5
119
330
1F
100
AcDbEntity
  8
1
  6
Continuous
 62
   155
420
  5010073
370
    18
100
AcDbLine
 10
1702.277404
 20
1705.619341
 30
0.0
 11
1702.277404
 21
1705.409346
 31
0.0
  0
LINE
  5
11A
330
1F
100
AcDbEntity
  8
1
  6
Continuous
 62
   155
420
  5010073
370
    18
100
AcDbLine
 10
1692.277404
 20
1727.199341
 30
0.0
 11
1692.277404
 21
1727.409336
 31
0.0
  0
LINE
  5
11B
330
1F
100
AcDbEntity
  8
1
  6
Continuous
 62
   155
420
  5010073
370
    18
100
AcDbLine
 10
1702.277404
 20
1727.409336
 30
0.0
 11
1702.277404
 21
1727.199341
 31
0.0
  0
LINE
  5
11C
330
1F
100
AcDbEntity
  8
1
  6
Continuous
 62
   155
420
  5010073
370
    18
100
AcDbLine
 10
1143.577404
 20
1727.199341
 30
0.0
 11
1143.577404
 21
1727.409336
 31
0.0
  0
LINE
  5
11D
330
1F
100
AcDbEntity
  8
1
  6
Continuous
 62
   155
420
  5010073
370
    18
100
AcDbLine
 10
1672.277404
 20
1727.199341
 30
0.0
 11
1672.277404
 21
1727.409336
 31
0.0
  0
LINE
  5
11E
330
1F
100
AcDbEntity
  8
1
  6
Continuous
 62
   155
420
  5010073
370
    18
100
AcDbLine
 10
1672.277404
 20
1705.619341
 30
0.0
 11
1672.277404
 21
1705.409346
 31
0.0
  0
LINE
  5
11F
330
1F
100
AcDbEntity
  8
1
  6
Continuous
 62
   155
420
  5010073
370
    18
100
AcDbLine
 10
1143.577404
 20
1705.619341
 30
0.0
 11
1143.577404
 21
1705.409346
 31
0.0
  0
LINE
  5
120
330
1F
100
AcDbEntity
  8
1
  6
Continuous
 62
   155
420
  5010073
370
    18
100
AcDbLine
 10
990.422569
 20
1702.909341
 30
0.0
 11
1043.422569
 21
1702.909341
 31
0.0
  0
LINE
  5
121
330
1F
100
AcDbEntity
  8
1
  6
Continuous
 62
   155
420
  5010073
370
    18
100
AcDbLine
 10
989.922569
 20
1729.409341
 30
0.0
 11
989.922569
 21
1703.409341
 31
0.0
  0
LINE
  5
122
330
1F
100
AcDbEntity
  8
1
  6
Continuous
 62
   155
420
  5010073
370
    18
100
AcDbLine
 10
1043.922569
 20
1703.409341
 30
0.0
 11
1043.922569
 21
1729.409341
 31
0.0
  0
LINE
  5
123
330
1F
100
AcDbEntity
  8
1
  6
Continuous
 62
   155
420
  5010073
370
    18
100
AcDbLine
 10
1043.422569
 20
1729.909341
 30
0.0
 11
990.422569
 21
1729.909341
 31
0.0
  0
LINE
  5
124
330
1F
100
AcDbEntity
  8
1
  6
Continuous
 62
   155
420
  5010073
370
    18
100
AcDbLine
 10
1034.822569
 20
1732.030668
 30
0.0
 11
1034.780104
 21
1731.909341
 31
0.0
  0
LINE
  5
125
330
1F
100
AcDbEntity
  8
1
  6
Continuous
 62
   155
420
  5010073
370
    13
100
AcDbLine
 10
999.065033
 20
1731.909341
 30
0.0
 11
1034.780104
 21
1731.909341
 31
0.0
  0
LINE
  5
126
330
1F
100
AcDbEntity
  8
1
  6
Continuous
 62
   155
420
  5010073
370
    18
100
AcDbLine
 10
999.022569
 20
1763.409341
 30
0.0
 11
1034.822569
 21
1763.409341
 31
0.0
  0
LINE
  5
127
330
1F
100
AcDbEntity
  8
1
  6
Continuous
 62
   155
420
  5010073
370
    18
100
AcDbLine
 10
1034.822569
 20
1763.409341
 30
0.0
 11
1034.822569
 21
1732.030668
 31
0.0
  0
LINE
  5
128
330
1F
100
AcDbEntity
  8
1
  6
Continuous
 62
   155
420
  5010073
370
    18
100
AcDbLine
 10
999.065033
 20
1731.909341
 30
0.0
 11
999.022569
 21
1732.030668
 31
0.0
  0
LINE
  5
129
330
1F
100
AcDbEntity
  8
1
  6
Continuous
 62
   155
420
  5010073
370
    18
100
AcDbLine
 10
999.022569
 20
1732.030668
 30
0.0
 11
999.022569
 21
1763.409341
 31
0.0
  0
LINE
  5
12A
330
1F
100
AcDbEntity
  8
1
  6
Continuous
 62
   155
420
  5010073
370
    18
100
AcDbLine
 10
998.922569
 20
1732.030668
 30
0.0
 11
997.722569
 21
1732.030668
 31
0.0
  0
LINE
  5
12B
330
1F
100
AcDbEntity
  8
1
  6
Continuous
 62
   155
420
  5010073
370
    18
100
AcDbLine
 10
998.922569
 20
1763.409341
 30
0.0
 11
998.922569
 21
1732.030668
 31
0.0
  0
LINE
  5
12C
330
1F
100
AcDbEntity
  8
1
  6
Continuous
 62
   155
420
  5010073
370
    18
100
AcDbLine
 10
997.722569
 20
1732.030668
 30
0.0
 11
997.722569
 21
1763.409341
 31
0.0
  0
LINE
  5
12D
330
1F
100
AcDbEntity
  8
1
  6
Continuous
 62
   155
420
  5010073
370
    18
100
AcDbLine
 10
997.722569
 20
1763.409341
 30
0.0
 11
998.922569
 21
1763.409341
 31
0.0
  0
LINE
  5
12E
330
1F
100
AcDbEntity
  8
1
  6
Continuous
 62
   155
420
  5010073
370
    18
100
AcDbLine
 10
1034.922569
 20
1763.409341
 30
0.0
 11
1036.122569
 21
1763.409341
 31
0.0
  0
LINE
  5
12F
330
1F
100
AcDbEntity
  8
1
  6
Continuous
 62
   155
420
  5010073
370
    18
100
AcDbLine
 10
1036.122569
 20
1732.030668
 30
0.0
 11
1034.922569
 21
1732.030668
 31
0.0
  0
LINE
  5
130
330
1F
100
AcDbEntity
  8
1
  6
Continuous
 62
   155
420
  5010073
370
    18
100
AcDbLine
 10
1036.122569
 20
1763.409341
 30
0.0
 11
1036.122569
 21
1732.030668
 31
0.0
  0
LINE
  5
131
330
1F
100
AcDbEntity
  8
1
  6
Continuous
 62
   155
420
  5010073
370
    18
100
AcDbLine
 10
1034.922569
 20
1732.030668
 30
0.0
 11
1034.922569
 21
1763.409341
 31
0.0
  0
LINE
  5
132
330
1F
100
AcDbEntity
  8
1
  6
Continuous
 62
   155
420
  5010073
370
    18
100
AcDbLine
 10
1034.922569
 20
1731.909341
 30
0.0
 11
1036.122569
 21
1731.909341
 31
0.0
  0
LINE
  5
133
330
1F
100
AcDbEntity
  8
1
  6
Continuous
 62
   155
420
  5010073
370
    18
100
AcDbLine
 10
1036.122569
 20
1732.030668
 30
0.0
 11
1036.122569
 21
1731.909341
 31
0.0
  0
LINE
  5
134
330
1F
100
AcDbEntity
  8
1
  6
Continuous
 62
   155
420
  5010073
370
    18
100
AcDbLine
 10
1034.922569
 20
1732.030668
 30
0.0
 11
1034.922569
 21
1731.909341
 31
0.0
  0
LINE
  5
135
330
1F
100
AcDbEntity
  8
1
  6
Continuous
 62
   155
420
  5010073
370
    18
100
AcDbLine
 10
998.922569
 20
1731.909341
 30
0.0
 11
997.722569
 21
1731.909341
 31
0.0
  0
LINE
  5
136
330
1F
100
AcDbEntity
  8
1
  6
Continuous
 62
   155
420
  5010073
370
    18
100
AcDbLine
 10
998.922569
 20
1731.909341
 30
0.0
 11
998.922569
 21
1732.030668
 31
0.0
  0
LINE
  5
137
330
1F
100
AcDbEntity
  8
1
  6
Continuous
 62
   155
420
  5010073
370
    18
100
AcDbLine
 10
997.722569
 20
1731.909341
 30
0.0
 11
997.722569
 21
1732.030668
 31
0.0
  0
LINE
  5
138
330
1F
100
AcDbEntity
  8
1
  6
Continuous
 62
   155
420
  5010073
370
    18
100
AcDbLine
 10
301.705426
 20
1729.409341
 30
0.0
 11
301.705426
 21
1703.409341
 31
0.0
  0
LINE
  5
139
330
1F
100
AcDbEntity
  8
1
  6
Continuous
 62
   155
420
  5010073
370
    18
100
AcDbLine
 10
301.205426
 20
1702.909341
 30
0.0
 11
248.205426
 21
1702.909341
 31
0.0
  0
LINE
  5
13A
330
1F
100
AcDbEntity
  8
1
  6
Continuous
 62
   155
420
  5010073
370
    18
100
AcDbLine
 10
247.705426
 20
1703.409341
 30
0.0
 11
247.705426
 21
1729.409341
 31
0.0
  0
LINE
  5
13B
330
1F
100
AcDbEntity
  8
1
  6
Continuous
 62
   155
420
  5010073
370
    18
100
AcDbLine
 10
248.205426
 20
1729.909341
 30
0.0
 11
301.205426
 21
1729.909341
 31
0.0
  0
LINE
  5
13C
330
1F
100
AcDbEntity
  8
1
  6
Continuous
 62
   155
420
  5010073
370
    13
100
AcDbLine
 10
256.84789
 20
1731.909341
 30
0.0
 11
292.562961
 21
1731.909341
 31
0.0
  0
LINE
  5
13D
330
1F
100
AcDbEntity
  8
1
  6
Continuous
 62
   155
420
  5010073
370
    18
100
AcDbLine
 10
256.84789
 20
1731.909341
 30
0.0
 11
256.805426
 21
1732.030668
 31
0.0
  0
LINE
  5
13E
330
1F
100
AcDbEntity
  8
1
  6
Continuous
 62
   155
420
  5010073
370
    18
100
AcDbLine
 10
256.805426
 20
1732.030668
 30
0.0
 11
256.805426
 21
1763.409341
 31
0.0
  0
LINE
  5
13F
330
1F
100
AcDbEntity
  8
1
  6
Continuous
 62
   155
420
  5010073
370
    18
100
AcDbLine
 10
256.805426
 20
1763.409341
 30
0.0
 11
292.605426
 21
1763.409341
 31
0.0
  0
LINE
  5
140
330
1F
100
AcDbEntity
  8
1
  6
Continuous
 62
   155
420
  5010073
370
    18
100
AcDbLine
 10
292.605426
 20
1763.409341
 30
0.0
 11
292.605426
 21
1732.030668
 31
0.0
  0
LINE
  5
141
330
1F
100
AcDbEntity
  8
1
  6
Continuous
 62
   155
420
  5010073
370
    18
100
AcDbLine
 10
292.605426
 20
1732.030668
 30
0.0
 11
292.562961
 21
1731.909341
 31
0.0
  0
LINE
  5
142
330
1F
100
AcDbEntity
  8
1
  6
Continuous
 62
   155
420
  5010073
370
    18
100
AcDbLine
 10
256.705426
 20
1763.409341
 30
0.0
 11
256.705426
 21
1732.030668
 31
0.0
  0
LINE
  5
143
330
1F
100
AcDbEntity
  8
1
  6
Continuous
 62
   155
420
  5010073
370
    18
100
AcDbLine
 10
255.505426
 20
1732.030668
 30
0.0
 11
255.505426
 21
1763.409341
 31
0.0
  0
LINE
  5
144
330
1F
100
AcDbEntity
  8
1
  6
Continuous
 62
   155
420
  5010073
370
    18
100
AcDbLine
 10
255.505426
 20
1763.409341
 30
0.0
 11
256.705426
 21
1763.409341
 31
0.0
  0
LINE
  5
145
330
1F
100
AcDbEntity
  8
1
  6
Continuous
 62
   155
420
  5010073
370
    18
100
AcDbLine
 10
256.705426
 20
1732.030668
 30
0.0
 11
255.505426
 21
1732.030668
 31
0.0
  0
LINE
  5
146
330
1F
100
AcDbEntity
  8
1
  6
Continuous
 62
   155
420
  5010073
370
    18
100
AcDbLine
 10
292.705426
 20
1732.030668
 30
0.0
 11
292.705426
 21
1763.409341
 31
0.0
  0
LINE
  5
147
330
1F
100
AcDbEntity
  8
1
  6
Continuous
 62
   155
420
  5010073
370
    18
100
AcDbLine
 10
292.705426
 20
1763.409341
 30
0.0
 11
293.905426
 21
1763.409341
 31
0.0
  0
LINE
  5
148
330
1F
100
AcDbEntity
  8
1
  6
Continuous
 62
   155
420
  5010073
370
    18
100
AcDbLine
 10
293.905426
 20
1763.409341
 30
0.0
 11
293.905426
 21
1732.030668
 31
0.0
  0
LINE
  5
149
330
1F
100
AcDbEntity
  8
1
  6
Continuous
 62
   155
420
  5010073
370
    18
100
AcDbLine
 10
293.905426
 20
1732.030668
 30
0.0
 11
292.705426
 21
1732.030668
 31
0.0
  0
LINE
  5
14A
330
1F
100
AcDbEntity
  8
1
  6
Continuous
 62
   155
420
  5010073
370
    18
100
AcDbLine
 10
256.705426
 20
1731.909341
 30
0.0
 11
255.505426
 21
1731.909341
 31
0.0
  0
LINE
  5
14B
330
1F
100
AcDbEntity
  8
1
  6
Continuous
 62
   155
420
  5010073
370
    18
100
AcDbLine
 10
256.705426
 20
1731.909341
 30
0.0
 11
256.705426
 21
1732.030668
 31
0.0
  0
LINE
  5
14C
330
1F
100
AcDbEntity
  8
1
  6
Continuous
 62
   155
420
  5010073
370
    18
100
AcDbLine
 10
255.505426
 20
1731.909341
 30
0.0
 11
255.505426
 21
1732.030668
 31
0.0
  0
LINE
  5
14D
330
1F
100
AcDbEntity
  8
1
  6
Continuous
 62
   155
420
  5010073
370
    18
100
AcDbLine
 10
292.705426
 20
1731.909341
 30
0.0
 11
293.905426
 21
1731.909341
 31
0.0
  0
LINE
  5
14E
330
1F
100
AcDbEntity
  8
1
  6
Continuous
 62
   155
420
  5010073
370
    18
100
AcDbLine
 10
292.705426
 20
1732.030668
 30
0.0
 11
292.705426
 21
1731.909341
 31
0.0
  0
LINE
  5
14F
330
1F
100
AcDbEntity
  8
1
  6
Continuous
 62
   155
420
  5010073
370
    18
100
AcDbLine
 10
293.905426
 20
1732.030668
 30
0.0
 11
293.905426
 21
1731.909341
 31
0.0
  0
LINE
  5
150
330
1F
100
AcDbEntity
  8
1
  6
Continuous
 62
   155
420
  5010073
370
    13
100
AcDbLine
 10
948.03022
 20
1536.855137
 30
0.0
 11
950.53022
 21
1536.855137
 31
0.0
  0
LINE
  5
151
330
1F
100
AcDbEntity
  8
1
  6
Continuous
 62
   155
420
  5010073
370
    18
100
AcDbLine
 10
950.53022
 20
1536.355137
 30
0.0
 11
948.03022
 21
1536.355137
 31
0.0
  0
LINE
  5
152
330
1F
100
AcDbEntity
  8
1
  6
Continuous
 62
   155
420
  5010073
370
    18
100
AcDbLine
 10
950.53022
 20
1536.855137
 30
0.0
 11
950.53022
 21
1536.355137
 31
0.0
  0
LINE
  5
153
330
1F
100
AcDbEntity
  8
1
  6
Continuous
 62
   155
420
  5010073
370
    18
100
AcDbLine
 10
948.03022
 20
1536.355137
 30
0.0
 11
948.03022
 21
1536.855137
 31
0.0
  0
LINE
  5
154
330
1F
100
AcDbEntity
  8
1
  6
Continuous
 62
   155
420
  5010073
370
    13
100
AcDbLine
 10
950.53022
 20
1589.855137
 30
0.0
 11
948.03022
 21
1589.855137
 31
0.0
  0
LINE
  5
155
330
1F
100
AcDbEntity
  8
1
  6
Continuous
 62
   155
420
  5010073
370
    18
100
AcDbLine
 10
950.53022
 20
1536.855137
 30
0.0
 11
950.53022
 21
1589.855137
 31
0.0
  0
LINE
  5
156
330
1F
100
AcDbEntity
  8
1
  6
Continuous
 62
   155
420
  5010073
370
    18
100
AcDbLine
 10
948.03022
 20
1536.855137
 30
0.0
 11
948.03022
 21
1589.855137
 31
0.0
  0
LINE
  5
157
330
1F
100
AcDbEntity
  8
1
  6
Continuous
 62
   155
420
  5010073
370
    18
100
AcDbLine
 10
948.03022
 20
1590.355137
 30
0.0
 11
950.53022
 21
1590.355137
 31
0.0
  0
LINE
  5
158
330
1F
100
AcDbEntity
  8
1
  6
Continuous
 62
   155
420
  5010073
370
    18
100
AcDbLine
 10
950.53022
 20
1590.355137
 30
0.0
 11
950.53022
 21
1589.855137
 31
0.0
  0
LINE
  5
159
330
1F
100
AcDbEntity
  8
1
  6
Continuous
 62
   155
420
  5010073
370
    18
100
AcDbLine
 10
948.03022
 20
1589.855137
 30
0.0
 11
948.03022
 21
1590.355137
 31
0.0
  0
LINE
  5
15A
330
1F
100
AcDbEntity
  8
1
  6
Continuous
 62
   155
420
  5010073
370
    13
100
AcDbLine
 10
948.03022
 20
1589.855137
 30
0.0
 11
359.03022
 21
1589.855137
 31
0.0
  0
LINE
  5
15B
330
1F
100
AcDbEntity
  8
1
  6
Continuous
 62
   155
420
  5010073
370
    18
100
AcDbLine
 10
948.03022
 20
1589.855137
 30
0.0
 11
948.03022
 21
1536.855137
 31
0.0
  0
LINE
  5
15C
330
1F
100
AcDbEntity
  8
1
  6
Continuous
 62
   155
420
  5010073
370
    13
100
AcDbLine
 10
948.03022
 20
1536.855137
 30
0.0
 11
359.03022
 21
1536.855137
 31
0.0
  0
LINE
  5
15D
330
1F
100
AcDbEntity
  8
1
  6
Continuous
 62
   155
420
  5010073
370
    18
100
AcDbLine
 10
359.03022
 20
1589.855137
 30
0.0
 11
359.03022
 21
1536.855137
 31
0.0
  0
LINE
  5
15E
330
1F
100
AcDbEntity
  8
1
  6
Continuous
 62
   155
420
  5010073
370
    18
100
AcDbLine
 10
948.03022
 20
1536.855137
 30
0.0
 11
948.03022
 21
1536.355137
 31
0.0
  0
LINE
  5
15F
330
1F
100
AcDbEntity
  8
1
  6
Continuous
 62
   155
420
  5010073
370
    18
100
AcDbLine
 10
948.03022
 20
1536.355137
 30
0.0
 11
359.03022
 21
1536.355137
 31
0.0
  0
LINE
  5
160
330
1F
100
AcDbEntity
  8
1
  6
Continuous
 62
   155
420
  5010073
370
    18
100
AcDbLine
 10
359.03022
 20
1536.855137
 30
0.0
 11
359.03022
 21
1536.355137
 31
0.0
  0
LINE
  5
161
330
1F
100
AcDbEntity
  8
1
  6
Continuous
 62
   155
420
  5010073
370
    18
100
AcDbLine
 10
948.03022
 20
1590.355137
 30
0.0
 11
359.03022
 21
1590.355137
 31
0.0
  0
LINE
  5
162
330
1F
100
AcDbEntity
  8
1
  6
Continuous
 62
   155
420
  5010073
370
    18
100
AcDbLine
 10
359.03022
 20
1590.355137
 30
0.0
 11
359.03022
 21
1589.855137
 31
0.0
  0
LINE
  5
163
330
1F
100
AcDbEntity
  8
1
  6
Continuous
 62
   155
420
  5010073
370
    18
100
AcDbLine
 10
948.03022
 20
1590.355137
 30
0.0
 11
948.03022
 21
1589.855137
 31
0.0
  0
LINE
  5
164
330
1F
100
AcDbEntity
  8
1
  6
Continuous
 62
   155
420
  5010073
370
    18
100
AcDbLine
 10
532.873948
 20
1562.656227
 30
0.0
 11
532.870354
 21
1562.656227
 31
0.0
  0
LINE
  5
165
330
1F
100
AcDbEntity
  8
1
  6
Continuous
 62
   155
420
  5010073
370
    18
100
AcDbLine
 10
806.189122
 20
1562.656227
 30
0.0
 11
806.187632
 21
1562.656227
 31
0.0
  0
LINE
  5
166
330
1F
100
AcDbEntity
  8
1
  6
Continuous
 62
   155
420
  5010073
370
    18
100
AcDbLine
 10
536.193013
 20
1562.656227
 30
0.0
 11
532.879005
 21
1562.656227
 31
0.0
  0
LINE
  5
167
330
1F
100
AcDbEntity
  8
1
  6
Continuous
 62
   155
420
  5010073
370
    18
100
AcDbLine
 10
806.181113
 20
1562.656227
 30
0.0
 11
802.867104
 21
1562.656227
 31
0.0
  0
LINE
  5
168
330
1F
100
AcDbEntity
  8
1
  6
Continuous
 62
   155
420
  5010073
370
    13
100
AcDbLine
 10
535.86796
 20
1562.142253
 30
0.0
 11
533.202278
 21
1562.142253
 31
0.0
  0
LINE
  5
169
330
1F
100
AcDbEntity
  8
1
  6
Continuous
 62
   155
420
  5010073
370
    13
100
AcDbLine
 10
805.857833
 20
1562.142253
 30
0.0
 11
803.200108
 21
1562.142253
 31
0.0
  0
LINE
  5
16A
330
1F
100
AcDbEntity
  8
1
  6
Continuous
 62
   155
420
  5010073
370
    18
100
AcDbLine
 10
535.960298
 20
1564.454454
 30
0.0
 11
533.107329
 21
1564.454454
 31
0.0
  0
LINE
  5
16B
330
1F
100
AcDbEntity
  8
1
  6
Continuous
 62
   155
420
  5010073
370
    18
100
AcDbLine
 10
805.952376
 20
1564.454454
 30
0.0
 11
803.099407
 21
1564.454454
 31
0.0
  0
LINE
  5
16C
330
1F
100
AcDbEntity
  8
1
  6
Continuous
 62
   155
420
  5010073
370
    18
100
AcDbLine
 10
856.946892
 20
1564.454454
 30
0.0
 11
856.772032
 21
1564.454454
 31
0.0
  0
LINE
  5
16D
330
1F
100
AcDbEntity
  8
1
  6
Continuous
 62
   155
420
  5010073
370
    13
100
AcDbLine
 10
536.273204
 20
1563.825044
 30
0.0
 11
532.794423
 21
1563.825044
 31
0.0
  0
LINE
  5
16E
330
1F
100
AcDbEntity
  8
1
  6
Continuous
 62
   155
420
  5010073
370
    13
100
AcDbLine
 10
806.265282
 20
1563.825044
 30
0.0
 11
802.786501
 21
1563.825044
 31
0.0
  0
LINE
  5
16F
330
1F
100
AcDbEntity
  8
1
  6
Continuous
 62
   155
420
  5010073
370
    13
100
AcDbLine
 10
536.328423
 20
1563.526021
 30
0.0
 11
532.739204
 21
1563.526021
 31
0.0
  0
LINE
  5
170
330
1F
100
AcDbEntity
  8
1
  6
Continuous
 62
   155
420
  5010073
370
    13
100
AcDbLine
 10
806.320501
 20
1563.526021
 30
0.0
 11
802.731282
 21
1563.526021
 31
0.0
  0
LINE
  5
171
330
1F
100
AcDbEntity
  8
1
  6
Continuous
 62
   155
420
  5010073
370
    18
100
AcDbLine
 10
802.722079
 20
1563.303667
 30
0.0
 11
806.320501
 21
1563.303667
 31
0.0
  0
LINE
  5
172
330
1F
100
AcDbEntity
  8
1
  6
Continuous
 62
   155
420
  5010073
370
    18
100
AcDbLine
 10
532.739204
 20
1563.303667
 30
0.0
 11
536.337626
 21
1563.303667
 31
0.0
  0
LINE
  5
173
330
1F
100
AcDbEntity
  8
1
  6
Continuous
 62
   155
420
  5010073
370
    13
100
AcDbLine
 10
535.675001
 20
1564.750722
 30
0.0
 11
533.401829
 21
1564.750722
 31
0.0
  0
LINE
  5
174
330
1F
100
AcDbEntity
  8
1
  6
Continuous
 62
   155
420
  5010073
370
    13
100
AcDbLine
 10
805.657876
 20
1564.750722
 30
0.0
 11
803.384704
 21
1564.750722
 31
0.0
  0
LINE
  5
175
330
1F
100
AcDbEntity
  8
1
  6
Continuous
 62
   155
420
  5010073
370
    13
100
AcDbLine
 10
856.661595
 20
1564.750722
 30
0.0
 11
856.643189
 21
1564.750722
 31
0.0
  0
LINE
  5
176
330
1F
100
AcDbEntity
  8
1
  6
Continuous
 62
   155
420
  5010073
370
    13
100
AcDbLine
 10
356.53022
 20
1536.855137
 30
0.0
 11
359.03022
 21
1536.855137
 31
0.0
  0
LINE
  5
177
330
1F
100
AcDbEntity
  8
1
  6
Continuous
 62
   155
420
  5010073
370
    18
100
AcDbLine
 10
436.33022
 20
1573.355137
 30
0.0
 11
434.03022
 21
1573.355137
 31
0.0
  0
LINE
  5
178
330
1F
100
AcDbEntity
  8
1
  6
Continuous
 62
   155
420
  5010073
370
    18
100
AcDbLine
 10
436.33022
 20
1553.355137
 30
0.0
 11
434.03022
 21
1553.355137
 31
0.0
  0
LINE
  5
179
330
1F
100
AcDbEntity
  8
1
  6
Continuous
 62
   155
420
  5010073
370
    18
100
AcDbLine
 10
442.03022
 20
1574.355137
 30
0.0
 11
442.03022
 21
1580.855137
 31
0.0
  0
LINE
  5
17A
330
1F
100
AcDbEntity
  8
1
  6
Continuous
 62
   155
420
  5010073
370
    18
100
AcDbLine
 10
444.33022
 20
1580.855137
 30
0.0
 11
442.03022
 21
1580.855137
 31
0.0
  0
LINE
  5
17B
330
1F
100
AcDbEntity
  8
1
  6
Continuous
 62
   155
420
  5010073
370
    18
100
AcDbLine
 10
444.33022
 20
1574.355137
 30
0.0
 11
442.03022
 21
1574.355137
 31
0.0
  0
LINE
  5
17C
330
1F
100
AcDbEntity
  8
1
  6
Continuous
 62
   155
420
  5010073
370
    18
100
AcDbLine
 10
865.03022
 20
1552.355137
 30
0.0
 11
865.03022
 21
1545.855137
 31
0.0
  0
LINE
  5
17D
330
1F
100
AcDbEntity
  8
1
  6
Continuous
 62
   155
420
  5010073
370
    18
100
AcDbLine
 10
865.03022
 20
1552.355137
 30
0.0
 11
862.73022
 21
1552.355137
 31
0.0
  0
LINE
  5
17E
330
1F
100
AcDbEntity
  8
1
  6
Continuous
 62
   155
420
  5010073
370
    18
100
AcDbLine
 10
865.03022
 20
1545.855137
 30
0.0
 11
862.73022
 21
1545.855137
 31
0.0
  0
LINE
  5
17F
330
1F
100
AcDbEntity
  8
1
  6
Continuous
 62
   155
420
  5010073
370
    18
100
AcDbLine
 10
873.03022
 20
1573.355137
 30
0.0
 11
873.03022
 21
1553.355137
 31
0.0
  0
LINE
  5
180
330
1F
100
AcDbEntity
  8
1
  6
Continuous
 62
   155
420
  5010073
370
    18
100
AcDbLine
 10
873.03022
 20
1553.355137
 30
0.0
 11
870.73022
 21
1553.355137
 31
0.0
  0
LINE
  5
181
330
1F
100
AcDbEntity
  8
1
  6
Continuous
 62
   155
420
  5010073
370
    18
100
AcDbLine
 10
873.03022
 20
1573.355137
 30
0.0
 11
870.73022
 21
1573.355137
 31
0.0
  0
LINE
  5
182
330
1F
100
AcDbEntity
  8
1
  6
Continuous
 62
   155
420
  5010073
370
    13
100
AcDbLine
 10
857.03022
 20
1555.681483
 30
0.0
 11
848.53022
 21
1555.681483
 31
0.0
  0
LINE
  5
183
330
1F
100
AcDbEntity
  8
1
  6
Continuous
 62
   155
420
  5010073
370
    18
100
AcDbLine
 10
848.53022
 20
1555.681483
 30
0.0
 11
848.53022
 21
1557.307829
 31
0.0
  0
LINE
  5
184
330
1F
100
AcDbEntity
  8
1
  6
Continuous
 62
   155
420
  5010073
370
    18
100
AcDbLine
 10
857.03022
 20
1555.681483
 30
0.0
 11
857.03022
 21
1557.307829
 31
0.0
  0
LINE
  5
185
330
1F
100
AcDbEntity
  8
1
  6
Continuous
 62
   155
420
  5010073
370
    18
100
AcDbLine
 10
442.03022
 20
1545.855137
 30
0.0
 11
442.03022
 21
1552.355137
 31
0.0
  0
LINE
  5
186
330
1F
100
AcDbEntity
  8
1
  6
Continuous
 62
   155
420
  5010073
370
    18
100
AcDbLine
 10
444.33022
 20
1552.355137
 30
0.0
 11
442.03022
 21
1552.355137
 31
0.0
  0
LINE
  5
187
330
1F
100
AcDbEntity
  8
1
  6
Continuous
 62
   155
420
  5010073
370
    18
100
AcDbLine
 10
442.03022
 20
1545.855137
 30
0.0
 11
444.33022
 21
1545.855137
 31
0.0
  0
LINE
  5
188
330
1F
100
AcDbEntity
  8
1
  6
Continuous
 62
   155
420
  5010073
370
    18
100
AcDbLine
 10
457.03022
 20
1548.491176
 30
0.0
 11
451.53022
 21
1548.491176
 31
0.0
  0
LINE
  5
189
330
1F
100
AcDbEntity
  8
1
  6
Continuous
 62
   155
420
  5010073
370
    18
100
AcDbLine
 10
450.03022
 20
1555.681483
 30
0.0
 11
450.03022
 21
1549.551837
 31
0.0
  0
LINE
  5
18A
330
1F
100
AcDbEntity
  8
1
  6
Continuous
 62
   155
420
  5010073
370
    18
100
AcDbLine
 10
458.53022
 20
1555.681483
 30
0.0
 11
458.53022
 21
1549.551837
 31
0.0
  0
LINE
  5
18B
330
1F
100
AcDbEntity
  8
1
  6
Continuous
 62
   155
420
  5010073
370
    18
100
AcDbLine
 10
855.53022
 20
1548.491176
 30
0.0
 11
850.03022
 21
1548.491176
 31
0.0
  0
LINE
  5
18C
330
1F
100
AcDbEntity
  8
1
  6
Continuous
 62
   155
420
  5010073
370
    18
100
AcDbLine
 10
848.53022
 20
1549.551837
 30
0.0
 11
848.53022
 21
1555.681483
 31
0.0
  0
LINE
  5
18D
330
1F
100
AcDbEntity
  8
1
  6
Continuous
 62
   155
420
  5010073
370
    18
100
AcDbLine
 10
857.03022
 20
1549.551837
 30
0.0
 11
857.03022
 21
1555.681483
 31
0.0
  0
LINE
  5
18E
330
1F
100
AcDbEntity
  8
1
  6
Continuous
 62
   155
420
  5010073
370
    18
100
AcDbLine
 10
527.53022
 20
1557.355137
 30
0.0
 11
527.53022
 21
1569.355137
 31
0.0
  0
LINE
  5
18F
330
1F
100
AcDbEntity
  8
1
  6
Continuous
 62
   155
420
  5010073
370
    18
100
AcDbLine
 10
469.53022
 20
1567.370637
 30
0.0
 11
469.53022
 21
1559.339637
 31
0.0
  0
LINE
  5
190
330
1F
100
AcDbEntity
  8
1
  6
Continuous
 62
   155
420
  5010073
370
    18
100
AcDbLine
 10
792.53022
 20
1557.355137
 30
0.0
 11
792.53022
 21
1569.355137
 31
0.0
  0
LINE
  5
191
330
1F
100
AcDbEntity
  8
1
  6
Continuous
 62
   155
420
  5010073
370
    18
100
AcDbLine
 10
541.53022
 20
1569.355137
 30
0.0
 11
541.53022
 21
1557.355137
 31
0.0
  0
LINE
  5
192
330
1F
100
AcDbEntity
  8
1
  6
Continuous
 62
   155
420
  5010073
370
    13
100
AcDbLine
 10
862.73022
 20
1580.855137
 30
0.0
 11
862.73022
 21
1574.355137
 31
0.0
  0
LINE
  5
193
330
1F
100
AcDbEntity
  8
1
  6
Continuous
 62
   155
420
  5010073
370
    18
100
AcDbLine
 10
862.73022
 20
1573.355137
 30
0.0
 11
870.73022
 21
1573.355137
 31
0.0
  0
LINE
  5
194
330
1F
100
AcDbEntity
  8
1
  6
Continuous
 62
   155
420
  5010073
370
    13
100
AcDbLine
 10
870.73022
 20
1573.355137
 30
0.0
 11
870.73022
 21
1553.355137
 31
0.0
  0
LINE
  5
195
330
1F
100
AcDbEntity
  8
1
  6
Continuous
 62
   155
420
  5010073
370
    18
100
AcDbLine
 10
862.73022
 20
1553.355137
 30
0.0
 11
870.73022
 21
1553.355137
 31
0.0
  0
LINE
  5
196
330
1F
100
AcDbEntity
  8
1
  6
Continuous
 62
   155
420
  5010073
370
    13
100
AcDbLine
 10
862.73022
 20
1552.355137
 30
0.0
 11
862.73022
 21
1545.855137
 31
0.0
  0
LINE
  5
197
330
1F
100
AcDbEntity
  8
1
  6
Continuous
 62
   155
420
  5010073
370
    18
100
AcDbLine
 10
862.73022
 20
1545.855137
 30
0.0
 11
860.03022
 21
1545.855137
 31
0.0
  0
LINE
  5
198
330
1F
100
AcDbEntity
  8
1
  6
Continuous
 62
   155
420
  5010073
370
    18
100
AcDbLine
 10
858.03022
 20
1557.307829
 30
0.0
 11
858.03022
 21
1547.855137
 31
0.0
  0
LINE
  5
199
330
1F
100
AcDbEntity
  8
1
  6
Continuous
 62
   155
420
  5010073
370
    13
100
AcDbLine
 10
848.53022
 20
1557.307829
 30
0.0
 11
857.03022
 21
1557.307829
 31
0.0
  0
LINE
  5
19A
330
1F
100
AcDbEntity
  8
1
  6
Continuous
 62
   155
420
  5010073
370
    18
100
AcDbLine
 10
848.03022
 20
1557.807829
 30
0.0
 11
846.03022
 21
1557.807829
 31
0.0
  0
LINE
  5
19B
330
1F
100
AcDbEntity
  8
1
  6
Continuous
 62
   155
420
  5010073
370
    18
100
AcDbLine
 10
845.53022
 20
1548.155137
 30
0.0
 11
845.53022
 21
1557.307829
 31
0.0
  0
LINE
  5
19C
330
1F
100
AcDbEntity
  8
1
  6
Continuous
 62
   155
420
  5010073
370
    13
100
AcDbLine
 10
845.53022
 20
1548.155137
 30
0.0
 11
461.53022
 21
1548.155137
 31
0.0
  0
LINE
  5
19D
330
1F
100
AcDbEntity
  8
1
  6
Continuous
 62
   155
420
  5010073
370
    18
100
AcDbLine
 10
461.53022
 20
1557.307829
 30
0.0
 11
461.53022
 21
1548.155137
 31
0.0
  0
LINE
  5
19E
330
1F
100
AcDbEntity
  8
1
  6
Continuous
 62
   155
420
  5010073
370
    18
100
AcDbLine
 10
461.03022
 20
1557.807829
 30
0.0
 11
459.03022
 21
1557.807829
 31
0.0
  0
LINE
  5
19F
330
1F
100
AcDbEntity
  8
1
  6
Continuous
 62
   155
420
  5010073
370
    18
100
AcDbLine
 10
808.53022
 20
1559.355137
 30
0.0
 11
808.53022
 21
1567.355137
 31
0.0
  0
LINE
  5
1A0
330
1F
100
AcDbEntity
  8
1
  6
Continuous
 62
   155
420
  5010073
370
    18
100
AcDbLine
 10
802.53022
 20
1573.355137
 30
0.0
 11
679.53022
 21
1573.355137
 31
0.0
  0
LINE
  5
1A1
330
1F
100
AcDbEntity
  8
1
  6
Continuous
 62
   155
420
  5010073
370
    18
100
AcDbLine
 10
673.53022
 20
1567.355137
 30
0.0
 11
673.53022
 21
1559.355137
 31
0.0
  0
LINE
  5
1A2
330
1F
100
AcDbEntity
  8
1
  6
Continuous
 62
   155
420
  5010073
370
    18
100
AcDbLine
 10
679.53022
 20
1553.355137
 30
0.0
 11
802.53022
 21
1553.355137
 31
0.0
  0
LINE
  5
1A3
330
1F
100
AcDbEntity
  8
1
  6
Continuous
 62
   155
420
  5010073
370
    18
100
AcDbLine
 10
633.53022
 20
1559.355137
 30
0.0
 11
633.53022
 21
1567.355137
 31
0.0
  0
LINE
  5
1A4
330
1F
100
AcDbEntity
  8
1
  6
Continuous
 62
   155
420
  5010073
370
    18
100
AcDbLine
 10
627.53022
 20
1573.355137
 30
0.0
 11
489.53022
 21
1573.355137
 31
0.0
  0
LINE
  5
1A5
330
1F
100
AcDbEntity
  8
1
  6
Continuous
 62
   155
420
  5010073
370
    18
100
AcDbLine
 10
483.53022
 20
1567.355137
 30
0.0
 11
483.53022
 21
1559.355137
 31
0.0
  0
LINE
  5
1A6
330
1F
100
AcDbEntity
  8
1
  6
Continuous
 62
   155
420
  5010073
370
    18
100
AcDbLine
 10
489.53022
 20
1553.355137
 30
0.0
 11
627.53022
 21
1553.355137
 31
0.0
  0
LINE
  5
1A7
330
1F
100
AcDbEntity
  8
1
  6
Continuous
 62
   155
420
  5010073
370
    18
100
AcDbLine
 10
865.03022
 20
1580.855137
 30
0.0
 11
865.03022
 21
1574.355137
 31
0.0
  0
LINE
  5
1A8
330
1F
100
AcDbEntity
  8
1
  6
Continuous
 62
   155
420
  5010073
370
    18
100
AcDbLine
 10
865.03022
 20
1574.355137
 30
0.0
 11
862.73022
 21
1574.355137
 31
0.0
  0
LINE
  5
1A9
330
1F
100
AcDbEntity
  8
1
  6
Continuous
 62
   155
420
  5010073
370
    18
100
AcDbLine
 10
865.03022
 20
1580.855137
 30
0.0
 11
862.73022
 21
1580.855137
 31
0.0
  0
LINE
  5
1AA
330
1F
100
AcDbEntity
  8
1
  6
Continuous
 62
   155
420
  5010073
370
    18
100
AcDbLine
 10
845.53022
 20
1545.855137
 30
0.0
 11
461.53022
 21
1545.855137
 31
0.0
  0
LINE
  5
1AB
330
1F
100
AcDbEntity
  8
1
  6
Continuous
 62
   155
420
  5010073
370
    18
100
AcDbLine
 10
461.53022
 20
1545.855137
 30
0.0
 11
461.53022
 21
1548.155137
 31
0.0
  0
LINE
  5
1AC
330
1F
100
AcDbEntity
  8
1
  6
Continuous
 62
   155
420
  5010073
370
    18
100
AcDbLine
 10
845.53022
 20
1545.855137
 30
0.0
 11
845.53022
 21
1548.155137
 31
0.0
  0
LINE
  5
1AD
330
1F
100
AcDbEntity
  8
1
  6
Continuous
 62
   155
420
  5010073
370
    18
100
AcDbLine
 10
454.53022
 20
1580.355137
 30
0.0
 11
454.53022
 21
1578.055137
 31
0.0
  0
LINE
  5
1AE
330
1F
100
AcDbEntity
  8
1
  6
Continuous
 62
   155
420
  5010073
370
    18
100
AcDbLine
 10
454.53022
 20
1580.355137
 30
0.0
 11
852.53022
 21
1580.355137
 31
0.0
  0
LINE
  5
1AF
330
1F
100
AcDbEntity
  8
1
  6
Continuous
 62
   155
420
  5010073
370
    18
100
AcDbLine
 10
852.53022
 20
1580.355137
 30
0.0
 11
852.53022
 21
1578.055137
 31
0.0
  0
LINE
  5
1B0
330
1F
100
AcDbEntity
  8
1
  6
Continuous
 62
   155
420
  5010073
370
    18
100
AcDbLine
 10
458.53022
 20
1557.307829
 30
0.0
 11
458.53022
 21
1555.681483
 31
0.0
  0
LINE
  5
1B1
330
1F
100
AcDbEntity
  8
1
  6
Continuous
 62
   155
420
  5010073
370
    13
100
AcDbLine
 10
458.53022
 20
1555.681483
 30
0.0
 11
450.03022
 21
1555.681483
 31
0.0
  0
LINE
  5
1B2
330
1F
100
AcDbEntity
  8
1
  6
Continuous
 62
   155
420
  5010073
370
    18
100
AcDbLine
 10
450.03022
 20
1557.307829
 30
0.0
 11
450.03022
 21
1555.681483
 31
0.0
  0
LINE
  5
1B3
330
1F
100
AcDbEntity
  8
1
  6
Continuous
 62
   155
420
  5010073
370
    18
100
AcDbLine
 10
434.03022
 20
1553.355137
 30
0.0
 11
434.03022
 21
1573.355137
 31
0.0
  0
LINE
  5
1B4
330
1F
100
AcDbEntity
  8
1
  6
Continuous
 62
   155
420
  5010073
370
    13
100
AcDbLine
 10
450.03022
 20
1557.307829
 30
0.0
 11
458.53022
 21
1557.307829
 31
0.0
  0
LINE
  5
1B5
330
1F
100
AcDbEntity
  8
1
  6
Continuous
 62
   155
420
  5010073
370
    18
100
AcDbLine
 10
449.03022
 20
1547.855137
 30
0.0
 11
449.03022
 21
1557.307829
 31
0.0
  0
LINE
  5
1B6
330
1F
100
AcDbEntity
  8
1
  6
Continuous
 62
   155
420
  5010073
370
    18
100
AcDbLine
 10
447.03022
 20
1545.855137
 30
0.0
 11
444.33022
 21
1545.855137
 31
0.0
  0
LINE
  5
1B7
330
1F
100
AcDbEntity
  8
1
  6
Continuous
 62
   155
420
  5010073
370
    13
100
AcDbLine
 10
444.33022
 20
1545.855137
 30
0.0
 11
444.33022
 21
1552.355137
 31
0.0
  0
LINE
  5
1B8
330
1F
100
AcDbEntity
  8
1
  6
Continuous
 62
   155
420
  5010073
370
    18
100
AcDbLine
 10
436.33022
 20
1553.355137
 30
0.0
 11
444.33022
 21
1553.355137
 31
0.0
  0
LINE
  5
1B9
330
1F
100
AcDbEntity
  8
1
  6
Continuous
 62
   155
420
  5010073
370
    13
100
AcDbLine
 10
436.33022
 20
1553.355137
 30
0.0
 11
436.33022
 21
1573.355137
 31
0.0
  0
LINE
  5
1BA
330
1F
100
AcDbEntity
  8
1
  6
Continuous
 62
   155
420
  5010073
370
    18
100
AcDbLine
 10
436.33022
 20
1573.355137
 30
0.0
 11
444.33022
 21
1573.355137
 31
0.0
  0
LINE
  5
1BB
330
1F
100
AcDbEntity
  8
1
  6
Continuous
 62
   155
420
  5010073
370
    13
100
AcDbLine
 10
444.33022
 20
1574.355137
 30
0.0
 11
444.33022
 21
1580.855137
 31
0.0
  0
LINE
  5
1BC
330
1F
100
AcDbEntity
  8
1
  6
Continuous
 62
   155
420
  5010073
370
    18
100
AcDbLine
 10
444.33022
 20
1580.855137
 30
0.0
 11
451.03022
 21
1580.855137
 31
0.0
  0
LINE
  5
1BD
330
1F
100
AcDbEntity
  8
1
  6
Continuous
 62
   155
420
  5010073
370
    18
100
AcDbLine
 10
453.53022
 20
1578.355137
 30
0.0
 11
453.53022
 21
1577.555137
 31
0.0
  0
LINE
  5
1BE
330
1F
100
AcDbEntity
  8
1
  6
Continuous
 62
   155
420
  5010073
370
    18
100
AcDbLine
 10
454.53022
 20
1577.555137
 30
0.0
 11
454.53022
 21
1578.055137
 31
0.0
  0
LINE
  5
1BF
330
1F
100
AcDbEntity
  8
1
  6
Continuous
 62
   155
420
  5010073
370
    13
100
AcDbLine
 10
454.53022
 20
1578.055137
 30
0.0
 11
852.53022
 21
1578.055137
 31
0.0
  0
LINE
  5
1C0
330
1F
100
AcDbEntity
  8
1
  6
Continuous
 62
   155
420
  5010073
370
    18
100
AcDbLine
 10
852.53022
 20
1577.555137
 30
0.0
 11
852.53022
 21
1578.055137
 31
0.0
  0
LINE
  5
1C1
330
1F
100
AcDbEntity
  8
1
  6
Continuous
 62
   155
420
  5010073
370
    18
100
AcDbLine
 10
853.53022
 20
1578.355137
 30
0.0
 11
853.53022
 21
1577.555137
 31
0.0
  0
LINE
  5
1C2
330
1F
100
AcDbEntity
  8
1
  6
Continuous
 62
   155
420
  5010073
370
    18
100
AcDbLine
 10
856.03022
 20
1580.855137
 30
0.0
 11
862.73022
 21
1580.855137
 31
0.0
  0
LINE
  5
1C3
330
1F
100
AcDbEntity
  8
1
  6
Continuous
 62
   155
420
  5010073
370
    18
100
AcDbLine
 10
825.53022
 20
1565.605137
 30
0.0
 11
821.53022
 21
1565.605137
 31
0.0
  0
LINE
  5
1C4
330
1F
100
AcDbEntity
  8
1
  6
Continuous
 62
   155
420
  5010073
370
    18
100
AcDbLine
 10
821.53022
 20
1561.105137
 30
0.0
 11
825.53022
 21
1561.105137
 31
0.0
  0
LINE
  5
1C5
330
1F
100
AcDbEntity
  8
1
  6
Continuous
 62
   155
420
  5010073
370
    18
100
AcDbLine
 10
466.28022
 20
1561.355137
 30
0.0
 11
466.28022
 21
1565.355137
 31
0.0
  0
LINE
  5
1C6
330
1F
100
AcDbEntity
  8
1
  6
Continuous
 62
   155
420
  5010073
370
    18
100
AcDbLine
 10
470.78022
 20
1565.355137
 30
0.0
 11
470.78022
 21
1561.355137
 31
0.0
  0
LINE
  5
1C7
330
1F
100
AcDbEntity
  8
1
  6
Continuous
 62
   155
420
  5010073
370
    18
100
AcDbLine
 10
359.03022
 20
1536.355137
 30
0.0
 11
356.53022
 21
1536.355137
 31
0.0
  0
LINE
  5
1C8
330
1F
100
AcDbEntity
  8
1
  6
Continuous
 62
   155
420
  5010073
370
    18
100
AcDbLine
 10
359.03022
 20
1536.855137
 30
0.0
 11
359.03022
 21
1536.355137
 31
0.0
  0
LINE
  5
1C9
330
1F
100
AcDbEntity
  8
1
  6
Continuous
 62
   155
420
  5010073
370
    18
100
AcDbLine
 10
356.53022
 20
1536.355137
 30
0.0
 11
356.53022
 21
1536.855137
 31
0.0
  0
LINE
  5
1CA
330
1F
100
AcDbEntity
  8
1
  6
Continuous
 62
   155
420
  5010073
370
    13
100
AcDbLine
 10
359.03022
 20
1589.855137
 30
0.0
 11
356.53022
 21
1589.855137
 31
0.0
  0
LINE
  5
1CB
330
1F
100
AcDbEntity
  8
1
  6
Continuous
 62
   155
420
  5010073
370
    18
100
AcDbLine
 10
359.03022
 20
1536.855137
 30
0.0
 11
359.03022
 21
1589.855137
 31
0.0
  0
LINE
  5
1CC
330
1F
100
AcDbEntity
  8
1
  6
Continuous
 62
   155
420
  5010073
370
    18
100
AcDbLine
 10
356.53022
 20
1536.855137
 30
0.0
 11
356.53022
 21
1589.855137
 31
0.0
  0
LINE
  5
1CD
330
1F
100
AcDbEntity
  8
1
  6
Continuous
 62
   155
420
  5010073
370
    18
100
AcDbLine
 10
356.53022
 20
1590.355137
 30
0.0
 11
359.03022
 21
1590.355137
 31
0.0
  0
LINE
  5
1CE
330
1F
100
AcDbEntity
  8
1
  6
Continuous
 62
   155
420
  5010073
370
    18
100
AcDbLine
 10
359.03022
 20
1590.355137
 30
0.0
 11
359.03022
 21
1589.855137
 31
0.0
  0
LINE
  5
1CF
330
1F
100
AcDbEntity
  8
1
  6
Continuous
 62
   155
420
  5010073
370
    18
100
AcDbLine
 10
356.53022
 20
1589.855137
 30
0.0
 11
356.53022
 21
1590.355137
 31
0.0
  0
LINE
  5
1D0
330
1F
100
AcDbEntity
  8
1
  6
Continuous
 62
   155
420
  5010073
370
    18
100
AcDbLine
 10
432.33022
 20
1581.255137
 30
0.0
 11
432.33022
 21
1545.455137
 31
0.0
  0
LINE
  5
1D1
330
1F
100
AcDbEntity
  8
1
  6
Continuous
 62
   155
420
  5010073
370
    18
100
AcDbLine
 10
432.33022
 20
1545.455137
 30
0.0
 11
433.53022
 21
1545.455137
 31
0.0
  0
LINE
  5
1D2
330
1F
100
AcDbEntity
  8
1
  6
Continuous
 62
   155
420
  5010073
370
    18
100
AcDbLine
 10
433.53022
 20
1581.255137
 30
0.0
 11
432.33022
 21
1581.255137
 31
0.0
  0
LINE
  5
1D3
330
1F
100
AcDbEntity
  8
1
  6
Continuous
 62
   155
420
  5010073
370
    18
100
AcDbLine
 10
433.53022
 20
1581.255137
 30
0.0
 11
433.53022
 21
1545.455137
 31
0.0
  0
LINE
  5
1D4
330
1F
100
AcDbEntity
  8
1
  6
Continuous
 62
   155
420
  5010073
370
    18
100
AcDbLine
 10
432.33022
 20
1545.355137
 30
0.0
 11
432.33022
 21
1544.155137
 31
0.0
  0
LINE
  5
1D5
330
1F
100
AcDbEntity
  8
1
  6
Continuous
 62
   155
420
  5010073
370
    18
100
AcDbLine
 10
432.33022
 20
1545.355137
 30
0.0
 11
874.73022
 21
1545.355137
 31
0.0
  0
LINE
  5
1D6
330
1F
100
AcDbEntity
  8
1
  6
Continuous
 62
   155
420
  5010073
370
    18
100
AcDbLine
 10
874.73022
 20
1544.155137
 30
0.0
 11
874.73022
 21
1545.355137
 31
0.0
  0
LINE
  5
1D7
330
1F
100
AcDbEntity
  8
1
  6
Continuous
 62
   155
420
  5010073
370
    18
100
AcDbLine
 10
432.33022
 20
1544.155137
 30
0.0
 11
874.73022
 21
1544.155137
 31
0.0
  0
LINE
  5
1D8
330
1F
100
AcDbEntity
  8
1
  6
Continuous
 62
   155
420
  5010073
370
    18
100
AcDbLine
 10
874.73022
 20
1581.255137
 30
0.0
 11
873.53022
 21
1581.255137
 31
0.0
  0
LINE
  5
1D9
330
1F
100
AcDbEntity
  8
1
  6
Continuous
 62
   155
420
  5010073
370
    18
100
AcDbLine
 10
874.73022
 20
1545.455137
 30
0.0
 11
874.73022
 21
1581.255137
 31
0.0
  0
LINE
  5
1DA
330
1F
100
AcDbEntity
  8
1
  6
Continuous
 62
   155
420
  5010073
370
    18
100
AcDbLine
 10
873.53022
 20
1545.455137
 30
0.0
 11
873.53022
 21
1581.255137
 31
0.0
  0
LINE
  5
1DB
330
1F
100
AcDbEntity
  8
1
  6
Continuous
 62
   155
420
  5010073
370
    18
100
AcDbLine
 10
873.53022
 20
1545.455137
 30
0.0
 11
874.73022
 21
1545.455137
 31
0.0
  0
LINE
  5
1DC
330
1F
100
AcDbEntity
  8
1
  6
Continuous
 62
   155
420
  5010073
370
    18
100
AcDbLine
 10
874.73022
 20
1581.355137
 30
0.0
 11
432.33022
 21
1581.355137
 31
0.0
  0
LINE
  5
1DD
330
1F
100
AcDbEntity
  8
1
  6
Continuous
 62
   155
420
  5010073
370
    18
100
AcDbLine
 10
432.33022
 20
1582.555137
 30
0.0
 11
432.33022
 21
1581.355137
 31
0.0
  0
LINE
  5
1DE
330
1F
100
AcDbEntity
  8
1
  6
Continuous
 62
   155
420
  5010073
370
    18
100
AcDbLine
 10
874.73022
 20
1581.355137
 30
0.0
 11
874.73022
 21
1582.555137
 31
0.0
  0
LINE
  5
1DF
330
1F
100
AcDbEntity
  8
1
  6
Continuous
 62
   155
420
  5010073
370
    18
100
AcDbLine
 10
874.73022
 20
1582.555137
 30
0.0
 11
432.33022
 21
1582.555137
 31
0.0
  0
LINE
  5
1E0
330
1F
100
AcDbEntity
  8
1
  6
Continuous
 62
   155
420
  5010073
370
    13
100
AcDbLine
 10
865.02397
 20
1546.155137
 30
0.0
 11
872.73022
 21
1546.155137
 31
0.0
  0
LINE
  5
1E1
330
1F
100
AcDbEntity
  8
1
  6
Continuous
 62
   155
420
  5010073
370
    13
100
AcDbLine
 10
845.52887
 20
1546.155137
 30
0.0
 11
858.97542
 21
1546.155137
 31
0.0
  0
LINE
  5
1E2
330
1F
100
AcDbEntity
  8
1
  6
Continuous
 62
   155
420
  5010073
370
    13
100
AcDbLine
 10
448.08502
 20
1546.155137
 30
0.0
 11
461.53157
 21
1546.155137
 31
0.0
  0
LINE
  5
1E3
330
1F
100
AcDbEntity
  8
1
  6
Continuous
 62
   155
420
  5010073
370
    13
100
AcDbLine
 10
434.33022
 20
1546.155137
 30
0.0
 11
442.03647
 21
1546.155137
 31
0.0
  0
LINE
  5
1E4
330
1F
100
AcDbEntity
  8
1
  6
Continuous
 62
   155
420
  5010073
370
    13
100
AcDbLine
 10
434.33022
 20
1553.355487
 30
0.0
 11
434.33022
 21
1546.155137
 31
0.0
  0
LINE
  5
1E5
330
1F
100
AcDbEntity
  8
1
  6
Continuous
 62
   155
420
  5010073
370
    13
100
AcDbLine
 10
434.33022
 20
1580.555137
 30
0.0
 11
434.33022
 21
1573.354787
 31
0.0
  0
LINE
  5
1E6
330
1F
100
AcDbEntity
  8
1
  6
Continuous
 62
   155
420
  5010073
370
    13
100
AcDbLine
 10
442.03647
 20
1580.555137
 30
0.0
 11
434.33022
 21
1580.555137
 31
0.0
  0
LINE
  5
1E7
330
1F
100
AcDbEntity
  8
1
  6
Continuous
 62
   155
420
  5010073
370
    13
100
AcDbLine
 10
854.83802
 20
1580.555137
 30
0.0
 11
452.22242
 21
1580.555137
 31
0.0
  0
LINE
  5
1E8
330
1F
100
AcDbEntity
  8
1
  6
Continuous
 62
   155
420
  5010073
370
    13
100
AcDbLine
 10
872.73022
 20
1580.555137
 30
0.0
 11
865.02397
 21
1580.555137
 31
0.0
  0
LINE
  5
1E9
330
1F
100
AcDbEntity
  8
1
  6
Continuous
 62
   155
420
  5010073
370
    13
100
AcDbLine
 10
872.73022
 20
1573.354787
 30
0.0
 11
872.73022
 21
1580.555137
 31
0.0
  0
LINE
  5
1EA
330
1F
100
AcDbEntity
  8
1
  6
Continuous
 62
   155
420
  5010073
370
    13
100
AcDbLine
 10
872.73022
 20
1546.155137
 30
0.0
 11
872.73022
 21
1553.355487
 31
0.0
  0
LINE
  5
1EB
330
1F
100
AcDbEntity
  8
1
  6
Continuous
 62
   155
420
  5010073
370
    13
100
AcDbLine
 10
948.03022
 20
1834.434038
 30
0.0
 11
950.53022
 21
1834.434038
 31
0.0
  0
LINE
  5
1EC
330
1F
100
AcDbEntity
  8
1
  6
Continuous
 62
   155
420
  5010073
370
    18
100
AcDbLine
 10
950.53022
 20
1834.434038
 30
0.0
 11
950.53022
 21
1833.934038
 31
0.0
  0
LINE
  5
1ED
330
1F
100
AcDbEntity
  8
1
  6
Continuous
 62
   155
420
  5010073
370
    18
100
AcDbLine
 10
950.53022
 20
1833.934038
 30
0.0
 11
948.03022
 21
1833.934038
 31
0.0
  0
LINE
  5
1EE
330
1F
100
AcDbEntity
  8
1
  6
Continuous
 62
   155
420
  5010073
370
    18
100
AcDbLine
 10
948.03022
 20
1833.934038
 30
0.0
 11
948.03022
 21
1834.434038
 31
0.0
  0
LINE
  5
1EF
330
1F
100
AcDbEntity
  8
1
  6
Continuous
 62
   155
420
  5010073
370
    18
100
AcDbLine
 10
948.03022
 20
1887.934038
 30
0.0
 11
950.53022
 21
1887.934038
 31
0.0
  0
LINE
  5
1F0
330
1F
100
AcDbEntity
  8
1
  6
Continuous
 62
   155
420
  5010073
370
    18
100
AcDbLine
 10
950.53022
 20
1887.934038
 30
0.0
 11
950.53022
 21
1887.434038
 31
0.0
  0
LINE
  5
1F1
330
1F
100
AcDbEntity
  8
1
  6
Continuous
 62
   155
420
  5010073
370
    13
100
AcDbLine
 10
950.53022
 20
1887.434038
 30
0.0
 11
948.03022
 21
1887.434038
 31
0.0
  0
LINE
  5
1F2
330
1F
100
AcDbEntity
  8
1
  6
Continuous
 62
   155
420
  5010073
370
    18
100
AcDbLine
 10
948.03022
 20
1887.434038
 30
0.0
 11
948.03022
 21
1887.934038
 31
0.0
  0
LINE
  5
1F3
330
1F
100
AcDbEntity
  8
1
  6
Continuous
 62
   155
420
  5010073
370
    18
100
AcDbLine
 10
950.53022
 20
1834.434038
 30
0.0
 11
950.53022
 21
1887.434038
 31
0.0
  0
LINE
  5
1F4
330
1F
100
AcDbEntity
  8
1
  6
Continuous
 62
   155
420
  5010073
370
    18
100
AcDbLine
 10
948.03022
 20
1834.434038
 30
0.0
 11
948.03022
 21
1887.434038
 31
0.0
  0
LINE
  5
1F5
330
1F
100
AcDbEntity
  8
1
  6
Continuous
 62
   155
420
  5010073
370
    13
100
AcDbLine
 10
948.03022
 20
1887.434038
 30
0.0
 11
359.03022
 21
1887.434038
 31
0.0
  0
LINE
  5
1F6
330
1F
100
AcDbEntity
  8
1
  6
Continuous
 62
   155
420
  5010073
370
    18
100
AcDbLine
 10
948.03022
 20
1887.434038
 30
0.0
 11
948.03022
 21
1834.434038
 31
0.0
  0
LINE
  5
1F7
330
1F
100
AcDbEntity
  8
1
  6
Continuous
 62
   155
420
  5010073
370
    13
100
AcDbLine
 10
948.03022
 20
1834.434038
 30
0.0
 11
359.03022
 21
1834.434038
 31
0.0
  0
LINE
  5
1F8
330
1F
100
AcDbEntity
  8
1
  6
Continuous
 62
   155
420
  5010073
370
    18
100
AcDbLine
 10
359.03022
 20
1887.434038
 30
0.0
 11
359.03022
 21
1834.434038
 31
0.0
  0
LINE
  5
1F9
330
1F
100
AcDbEntity
  8
1
  6
Continuous
 62
   155
420
  5010073
370
    18
100
AcDbLine
 10
948.03022
 20
1887.934038
 30
0.0
 11
359.03022
 21
1887.934038
 31
0.0
  0
LINE
  5
1FA
330
1F
100
AcDbEntity
  8
1
  6
Continuous
 62
   155
420
  5010073
370
    18
100
AcDbLine
 10
948.03022
 20
1887.934038
 30
0.0
 11
948.03022
 21
1887.434038
 31
0.0
  0
LINE
  5
1FB
330
1F
100
AcDbEntity
  8
1
  6
Continuous
 62
   155
420
  5010073
370
    18
100
AcDbLine
 10
359.03022
 20
1887.934038
 30
0.0
 11
359.03022
 21
1887.434038
 31
0.0
  0
LINE
  5
1FC
330
1F
100
AcDbEntity
  8
1
  6
Continuous
 62
   155
420
  5010073
370
    18
100
AcDbLine
 10
948.03022
 20
1833.934038
 30
0.0
 11
359.03022
 21
1833.934038
 31
0.0
  0
LINE
  5
1FD
330
1F
100
AcDbEntity
  8
1
  6
Continuous
 62
   155
420
  5010073
370
    18
100
AcDbLine
 10
359.03022
 20
1834.434038
 30
0.0
 11
359.03022
 21
1833.934038
 31
0.0
  0
LINE
  5
1FE
330
1F
100
AcDbEntity
  8
1
  6
Continuous
 62
   155
420
  5010073
370
    18
100
AcDbLine
 10
948.03022
 20
1834.434038
 30
0.0
 11
948.03022
 21
1833.934038
 31
0.0
  0
LINE
  5
1FF
330
1F
100
AcDbEntity
  8
1
  6
Continuous
 62
   155
420
  5010073
370
    18
100
AcDbLine
 10
356.53022
 20
1887.934038
 30
0.0
 11
359.03022
 21
1887.934038
 31
0.0
  0
LINE
  5
200
330
1F
100
AcDbEntity
  8
1
  6
Continuous
 62
   155
420
  5010073
370
    18
100
AcDbLine
 10
359.03022
 20
1887.934038
 30
0.0
 11
359.03022
 21
1887.434038
 31
0.0
  0
LINE
  5
201
330
1F
100
AcDbEntity
  8
1
  6
Continuous
 62
   155
420
  5010073
370
    13
100
AcDbLine
 10
359.03022
 20
1887.434038
 30
0.0
 11
356.53022
 21
1887.434038
 31
0.0
  0
LINE
  5
202
330
1F
100
AcDbEntity
  8
1
  6
Continuous
 62
   155
420
  5010073
370
    18
100
AcDbLine
 10
356.53022
 20
1887.434038
 30
0.0
 11
356.53022
 21
1887.934038
 31
0.0
  0
LINE
  5
203
330
1F
100
AcDbEntity
  8
1
  6
Continuous
 62
   155
420
  5010073
370
    18
100
AcDbLine
 10
359.03022
 20
1834.434038
 30
0.0
 11
359.03022
 21
1887.434038
 31
0.0
  0
LINE
  5
204
330
1F
100
AcDbEntity
  8
1
  6
Continuous
 62
   155
420
  5010073
370
    18
100
AcDbLine
 10
356.53022
 20
1834.434038
 30
0.0
 11
356.53022
 21
1887.434038
 31
0.0
  0
LINE
  5
205
330
1F
100
AcDbEntity
  8
1
  6
Continuous
 62
   155
420
  5010073
370
    13
100
AcDbLine
 10
356.53022
 20
1834.434038
 30
0.0
 11
359.03022
 21
1834.434038
 31
0.0
  0
LINE
  5
206
330
1F
100
AcDbEntity
  8
1
  6
Continuous
 62
   155
420
  5010073
370
    18
100
AcDbLine
 10
359.03022
 20
1834.434038
 30
0.0
 11
359.03022
 21
1833.934038
 31
0.0
  0
LINE
  5
207
330
1F
100
AcDbEntity
  8
1
  6
Continuous
 62
   155
420
  5010073
370
    18
100
AcDbLine
 10
359.03022
 20
1833.934038
 30
0.0
 11
356.53022
 21
1833.934038
 31
0.0
  0
LINE
  5
208
330
1F
100
AcDbEntity
  8
1
  6
Continuous
 62
   155
420
  5010073
370
    18
100
AcDbLine
 10
356.53022
 20
1833.934038
 30
0.0
 11
356.53022
 21
1834.434038
 31
0.0
  0
LINE
  5
209
330
1F
100
AcDbEntity
  8
1
  6
Continuous
 62
   155
420
  5010073
370
    18
100
AcDbLine
 10
359.03022
 20
1705.109341
 30
0.0
 11
359.03022
 21
1703.409341
 31
0.0
  0
LINE
  5
20A
330
1F
100
AcDbEntity
  8
1
  6
Continuous
 62
   155
420
  5010073
370
    13
100
AcDbLine
 10
948.03022
 20
1726.113438
 30
0.0
 11
947.878754
 21
1726.113438
 31
0.0
  0
LINE
  5
20B
330
1F
100
AcDbEntity
  8
1
  6
Continuous
 62
   155
420
  5010073
370
    13
100
AcDbLine
 10
359.18124
 20
1726.113438
 30
0.0
 11
359.03022
 21
1726.113438
 31
0.0
  0
LINE
  5
20C
330
1F
100
AcDbEntity
  8
1
  6
Continuous
 62
   155
420
  5010073
370
    13
100
AcDbLine
 10
948.03022
 20
1706.705243
 30
0.0
 11
947.878754
 21
1706.705243
 31
0.0
  0
LINE
  5
20D
330
1F
100
AcDbEntity
  8
1
  6
Continuous
 62
   155
420
  5010073
370
    13
100
AcDbLine
 10
359.18124
 20
1706.705243
 30
0.0
 11
359.03022
 21
1706.705243
 31
0.0
  0
LINE
  5
20E
330
1F
100
AcDbEntity
  8
1
  6
Continuous
 62
   155
420
  5010073
370
    18
100
AcDbLine
 10
948.03022
 20
1706.861709
 30
0.0
 11
947.878838
 21
1706.861709
 31
0.0
  0
LINE
  5
20F
330
1F
100
AcDbEntity
  8
1
  6
Continuous
 62
   155
420
  5010073
370
    18
100
AcDbLine
 10
359.03022
 20
1725.956972
 30
0.0
 11
359.180598
 21
1725.956972
 31
0.0
  0
LINE
  5
210
330
1F
100
AcDbEntity
  8
1
  6
Continuous
 62
   155
420
  5010073
370
    18
100
AcDbLine
 10
359.180599
 20
1706.861709
 30
0.0
 11
359.03022
 21
1706.861709
 31
0.0
  0
LINE
  5
211
330
1F
100
AcDbEntity
  8
1
  6
Continuous
 62
   155
420
  5010073
370
    18
100
AcDbLine
 10
947.878837
 20
1725.956972
 30
0.0
 11
948.03022
 21
1725.956972
 31
0.0
  0
LINE
  5
212
330
1F
100
AcDbEntity
  8
1
  6
Continuous
 62
   155
420
  5010073
370
    18
100
AcDbLine
 10
947.880212
 20
1706.909341
 30
0.0
 11
948.03022
 21
1706.909341
 31
0.0
  0
LINE
  5
213
330
1F
100
AcDbEntity
  8
1
  6
Continuous
 62
   155
420
  5010073
370
    18
100
AcDbLine
 10
359.180228
 20
1725.909341
 30
0.0
 11
359.03022
 21
1725.909341
 31
0.0
  0
LINE
  5
214
330
1F
100
AcDbEntity
  8
1
  6
Continuous
 62
   155
420
  5010073
370
    18
100
AcDbLine
 10
948.03022
 20
1725.909341
 30
0.0
 11
947.880212
 21
1725.909341
 31
0.0
  0
LINE
  5
215
330
1F
100
AcDbEntity
  8
1
  6
Continuous
 62
   155
420
  5010073
370
    18
100
AcDbLine
 10
359.03022
 20
1706.909341
 30
0.0
 11
359.180228
 21
1706.909341
 31
0.0
  0
LINE
  5
216
330
1F
100
AcDbEntity
  8
1
  6
Continuous
 62
   155
420
  5010073
370
    18
100
AcDbLine
 10
948.03022
 20
1710.209341
 30
0.0
 11
947.879227
 21
1710.209341
 31
0.0
  0
LINE
  5
217
330
1F
100
AcDbEntity
  8
1
  6
Continuous
 62
   155
420
  5010073
370
    13
100
AcDbLine
 10
948.03022
 20
1703.409341
 30
0.0
 11
950.53022
 21
1703.409341
 31
0.0
  0
LINE
  5
218
330
1F
100
AcDbEntity
  8
1
  6
Continuous
 62
   155
420
  5010073
370
    18
100
AcDbLine
 10
950.53022
 20
1702.909341
 30
0.0
 11
948.03022
 21
1702.909341
 31
0.0
  0
LINE
  5
219
330
1F
100
AcDbEntity
  8
1
  6
Continuous
 62
   155
420
  5010073
370
    18
100
AcDbLine
 10
948.03022
 20
1702.909341
 30
0.0
 11
948.03022
 21
1703.409341
 31
0.0
  0
LINE
  5
21A
330
1F
100
AcDbEntity
  8
1
  6
Continuous
 62
   155
420
  5010073
370
    18
100
AcDbLine
 10
950.53022
 20
1702.909341
 30
0.0
 11
950.53022
 21
1703.409341
 31
0.0
  0
LINE
  5
21B
330
1F
100
AcDbEntity
  8
1
  6
Continuous
 62
   155
420
  5010073
370
    18
100
AcDbLine
 10
948.03022
 20
1703.409341
 30
0.0
 11
948.03022
 21
1729.409341
 31
0.0
  0
LINE
  5
21C
330
1F
100
AcDbEntity
  8
1
  6
Continuous
 62
   155
420
  5010073
370
    13
100
AcDbLine
 10
950.53022
 20
1729.409341
 30
0.0
 11
948.03022
 21
1729.409341
 31
0.0
  0
LINE
  5
21D
330
1F
100
AcDbEntity
  8
1
  6
Continuous
 62
   155
420
  5010073
370
    18
100
AcDbLine
 10
950.53022
 20
1703.409341
 30
0.0
 11
950.53022
 21
1729.409341
 31
0.0
  0
LINE
  5
21E
330
1F
100
AcDbEntity
  8
1
  6
Continuous
 62
   155
420
  5010073
370
    18
100
AcDbLine
 10
948.03022
 20
1729.909341
 30
0.0
 11
950.53022
 21
1729.909341
 31
0.0
  0
LINE
  5
21F
330
1F
100
AcDbEntity
  8
1
  6
Continuous
 62
   155
420
  5010073
370
    18
100
AcDbLine
 10
948.03022
 20
1729.409341
 30
0.0
 11
948.03022
 21
1729.909341
 31
0.0
  0
LINE
  5
220
330
1F
100
AcDbEntity
  8
1
  6
Continuous
 62
   155
420
  5010073
370
    18
100
AcDbLine
 10
950.53022
 20
1729.909341
 30
0.0
 11
950.53022
 21
1729.409341
 31
0.0
  0
LINE
  5
221
330
1F
100
AcDbEntity
  8
1
  6
Continuous
 62
   155
420
  5010073
370
    13
100
AcDbLine
 10
948.03022
 20
1727.709341
 30
0.0
 11
359.03022
 21
1727.709341
 31
0.0
  0
LINE
  5
222
330
1F
100
AcDbEntity
  8
1
  6
Continuous
 62
   155
420
  5010073
370
    18
100
AcDbLine
 10
948.03022
 20
1727.409341
 30
0.0
 11
359.03022
 21
1727.409341
 31
0.0
  0
LINE
  5
223
330
1F
100
AcDbEntity
  8
1
  6
Continuous
 62
   155
420
  5010073
370
    13
100
AcDbLine
 10
948.03022
 20
1729.409341
 30
0.0
 11
359.03022
 21
1729.409341
 31
0.0
  0
LINE
  5
224
330
1F
100
AcDbEntity
  8
1
  6
Continuous
 62
   155
420
  5010073
370
    18
100
AcDbLine
 10
948.03022
 20
1729.409341
 30
0.0
 11
948.03022
 21
1727.709341
 31
0.0
  0
LINE
  5
225
330
1F
100
AcDbEntity
  8
1
  6
Continuous
 62
   155
420
  5010073
370
    18
100
AcDbLine
 10
359.03022
 20
1729.409341
 30
0.0
 11
359.03022
 21
1727.709341
 31
0.0
  0
LINE
  5
226
330
1F
100
AcDbEntity
  8
1
  6
Continuous
 62
   155
420
  5010073
370
    18
100
AcDbLine
 10
948.03022
 20
1729.909341
 30
0.0
 11
359.03022
 21
1729.909341
 31
0.0
  0
LINE
  5
227
330
1F
100
AcDbEntity
  8
1
  6
Continuous
 62
   155
420
  5010073
370
    18
100
AcDbLine
 10
948.03022
 20
1729.909341
 30
0.0
 11
948.03022
 21
1729.409341
 31
0.0
  0
LINE
  5
228
330
1F
100
AcDbEntity
  8
1
  6
Continuous
 62
   155
420
  5010073
370
    18
100
AcDbLine
 10
359.03022
 20
1729.909341
 30
0.0
 11
359.03022
 21
1729.409341
 31
0.0
  0
LINE
  5
229
330
1F
100
AcDbEntity
  8
1
  6
Continuous
 62
   155
420
  5010073
370
    18
100
AcDbLine
 10
948.03022
 20
1705.409341
 30
0.0
 11
359.03022
 21
1705.409341
 31
0.0
  0
LINE
  5
22A
330
1F
100
AcDbEntity
  8
1
  6
Continuous
 62
   155
420
  5010073
370
    13
100
AcDbLine
 10
948.03022
 20
1705.109341
 30
0.0
 11
359.03022
 21
1705.109341
 31
0.0
  0
LINE
  5
22B
330
1F
100
AcDbEntity
  8
1
  6
Continuous
 62
   155
420
  5010073
370
    13
100
AcDbLine
 10
948.03022
 20
1703.409341
 30
0.0
 11
359.03022
 21
1703.409341
 31
0.0
  0
LINE
  5
22C
330
1F
100
AcDbEntity
  8
1
  6
Continuous
 62
   155
420
  5010073
370
    18
100
AcDbLine
 10
948.03022
 20
1702.909341
 30
0.0
 11
359.03022
 21
1702.909341
 31
0.0
  0
LINE
  5
22D
330
1F
100
AcDbEntity
  8
1
  6
Continuous
 62
   155
420
  5010073
370
    18
100
AcDbLine
 10
948.03022
 20
1703.409341
 30
0.0
 11
948.03022
 21
1702.909341
 31
0.0
  0
LINE
  5
22E
330
1F
100
AcDbEntity
  8
1
  6
Continuous
 62
   155
420
  5010073
370
    18
100
AcDbLine
 10
359.03022
 20
1703.409341
 30
0.0
 11
359.03022
 21
1702.909341
 31
0.0
  0
LINE
  5
22F
330
1F
100
AcDbEntity
  8
1
  6
Continuous
 62
   155
420
  5010073
370
    18
100
AcDbLine
 10
948.03022
 20
1705.109341
 30
0.0
 11
948.03022
 21
1703.409341
 31
0.0
  0
LINE
  5
230
330
1F
100
AcDbEntity
  8
1
  6
Continuous
 62
   155
420
  5010073
370
    13
100
AcDbLine
 10
948.03022
 20
1709.909341
 30
0.0
 11
947.879246
 21
1709.909341
 31
0.0
  0
LINE
  5
231
330
1F
100
AcDbEntity
  8
1
  6
Continuous
 62
   155
420
  5010073
370
    13
100
AcDbLine
 10
359.180482
 20
1709.909341
 30
0.0
 11
359.03022
 21
1709.909341
 31
0.0
  0
LINE
  5
232
330
1F
100
AcDbEntity
  8
1
  6
Continuous
 62
   155
420
  5010073
370
    18
100
AcDbLine
 10
359.180637
 20
1710.209341
 30
0.0
 11
359.03022
 21
1710.209341
 31
0.0
  0
LINE
  5
233
330
1F
100
AcDbEntity
  8
1
  6
Continuous
 62
   155
420
  5010073
370
    13
100
AcDbLine
 10
948.03022
 20
1722.909341
 30
0.0
 11
947.873872
 21
1722.909341
 31
0.0
  0
LINE
  5
234
330
1F
100
AcDbEntity
  8
1
  6
Continuous
 62
   155
420
  5010073
370
    18
100
AcDbLine
 10
948.03022
 20
1722.609341
 30
0.0
 11
947.873952
 21
1722.609341
 31
0.0
  0
LINE
  5
235
330
1F
100
AcDbEntity
  8
1
  6
Continuous
 62
   155
420
  5010073
370
    18
100
AcDbLine
 10
359.180637
 20
1722.609341
 30
0.0
 11
359.03022
 21
1722.609341
 31
0.0
  0
LINE
  5
236
330
1F
100
AcDbEntity
  8
1
  6
Continuous
 62
   155
420
  5010073
370
    13
100
AcDbLine
 10
359.180482
 20
1722.909341
 30
0.0
 11
359.03022
 21
1722.909341
 31
0.0
  0
LINE
  5
237
330
1F
100
AcDbEntity
  8
1
  6
Continuous
 62
   155
420
  5010073
370
    18
100
AcDbLine
 10
356.53022
 20
1729.909341
 30
0.0
 11
359.03022
 21
1729.909341
 31
0.0
  0
LINE
  5
238
330
1F
100
AcDbEntity
  8
1
  6
Continuous
 62
   155
420
  5010073
370
    18
100
AcDbLine
 10
356.53022
 20
1729.409341
 30
0.0
 11
356.53022
 21
1729.909341
 31
0.0
  0
LINE
  5
239
330
1F
100
AcDbEntity
  8
1
  6
Continuous
 62
   155
420
  5010073
370
    18
100
AcDbLine
 10
359.03022
 20
1729.909341
 30
0.0
 11
359.03022
 21
1729.409341
 31
0.0
  0
LINE
  5
23A
330
1F
100
AcDbEntity
  8
1
  6
Continuous
 62
   155
420
  5010073
370
    18
100
AcDbLine
 10
356.53022
 20
1703.409341
 30
0.0
 11
356.53022
 21
1729.409341
 31
0.0
  0
LINE
  5
23B
330
1F
100
AcDbEntity
  8
1
  6
Continuous
 62
   155
420
  5010073
370
    13
100
AcDbLine
 10
359.03022
 20
1729.409341
 30
0.0
 11
356.53022
 21
1729.409341
 31
0.0
  0
LINE
  5
23C
330
1F
100
AcDbEntity
  8
1
  6
Continuous
 62
   155
420
  5010073
370
    18
100
AcDbLine
 10
359.03022
 20
1703.409341
 30
0.0
 11
359.03022
 21
1729.409341
 31
0.0
  0
LINE
  5
23D
330
1F
100
AcDbEntity
  8
1
  6
Continuous
 62
   155
420
  5010073
370
    13
100
AcDbLine
 10
356.53022
 20
1703.409341
 30
0.0
 11
359.03022
 21
1703.409341
 31
0.0
  0
LINE
  5
23E
330
1F
100
AcDbEntity
  8
1
  6
Continuous
 62
   155
420
  5010073
370
    18
100
AcDbLine
 10
359.03022
 20
1702.909341
 30
0.0
 11
356.53022
 21
1702.909341
 31
0.0
  0
LINE
  5
23F
330
1F
100
AcDbEntity
  8
1
  6
Continuous
 62
   155
420
  5010073
370
    18
100
AcDbLine
 10
356.53022
 20
1702.909341
 30
0.0
 11
356.53022
 21
1703.409341
 31
0.0
  0
LINE
  5
240
330
1F
100
AcDbEntity
  8
1
  6
Continuous
 62
   155
420
  5010073
370
    18
100
AcDbLine
 10
359.03022
 20
1702.909341
 30
0.0
 11
359.03022
 21
1703.409341
 31
0.0
  0
LINE
  5
241
330
1F
100
AcDbEntity
  8
1
  6
Continuous
 62
   155
420
  5010073
370
    18
100
AcDbLine
 10
359.18022
 20
1705.619341
 30
0.0
 11
359.18022
 21
1705.919341
 31
0.0
  0
LINE
  5
242
330
1F
100
AcDbEntity
  8
1
  6
Continuous
 62
   155
420
  5010073
370
    13
100
AcDbLine
 10
947.88022
 20
1705.919341
 30
0.0
 11
359.18022
 21
1705.919341
 31
0.0
  0
LINE
  5
243
330
1F
100
AcDbEntity
  8
1
  6
Continuous
 62
   155
420
  5010073
370
    18
100
AcDbLine
 10
947.88022
 20
1705.619341
 30
0.0
 11
947.88022
 21
1705.919341
 31
0.0
  0
LINE
  5
244
330
1F
100
AcDbEntity
  8
1
  6
Continuous
 62
   155
420
  5010073
370
    18
100
AcDbLine
 10
947.88022
 20
1705.619341
 30
0.0
 11
359.18022
 21
1705.619341
 31
0.0
  0
LINE
  5
245
330
1F
100
AcDbEntity
  8
1
  6
Continuous
 62
   155
420
  5010073
370
    18
100
AcDbLine
 10
359.18022
 20
1727.199341
 30
0.0
 11
359.18022
 21
1726.899341
 31
0.0
  0
LINE
  5
246
330
1F
100
AcDbEntity
  8
1
  6
Continuous
 62
   155
420
  5010073
370
    18
100
AcDbLine
 10
947.88022
 20
1727.199341
 30
0.0
 11
359.18022
 21
1727.199341
 31
0.0
  0
LINE
  5
247
330
1F
100
AcDbEntity
  8
1
  6
Continuous
 62
   155
420
  5010073
370
    13
100
AcDbLine
 10
947.88022
 20
1726.899341
 30
0.0
 11
359.18022
 21
1726.899341
 31
0.0
  0
LINE
  5
248
330
1F
100
AcDbEntity
  8
1
  6
Continuous
 62
   155
420
  5010073
370
    18
100
AcDbLine
 10
947.88022
 20
1727.199341
 30
0.0
 11
947.88022
 21
1726.899341
 31
0.0
  0
LINE
  5
249
330
1F
100
AcDbEntity
  8
1
  6
Continuous
 62
   155
420
  5010073
370
    18
100
AcDbLine
 10
359.18022
 20
1705.919341
 30
0.0
 11
359.18022
 21
1726.899341
 31
0.0
  0
LINE
  5
24A
330
1F
100
AcDbEntity
  8
1
  6
Continuous
 62
   155
420
  5010073
370
    18
100
AcDbLine
 10
947.88022
 20
1705.919341
 30
0.0
 11
947.88022
 21
1726.899341
 31
0.0
  0
LINE
  5
24B
330
1F
100
AcDbEntity
  8
1
  6
Continuous
 62
   155
420
  5010073
370
    18
100
AcDbLine
 10
937.88022
 20
1705.619341
 30
0.0
 11
937.88022
 21
1705.409346
 31
0.0
  0
LINE
  5
24C
330
1F
100
AcDbEntity
  8
1
  6
Continuous
 62
   155
420
  5010073
370
    18
100
AcDbLine
 10
947.88022
 20
1705.409346
 30
0.0
 11
947.88022
 21
1705.619341
 31
0.0
  0
LINE
  5
24D
330
1F
100
AcDbEntity
  8
1
  6
Continuous
 62
   155
420
  5010073
370
    18
100
AcDbLine
 10
937.88022
 20
1727.199341
 30
0.0
 11
937.88022
 21
1727.409336
 31
0.0
  0
LINE
  5
24E
330
1F
100
AcDbEntity
  8
1
  6
Continuous
 62
   155
420
  5010073
370
    18
100
AcDbLine
 10
947.88022
 20
1727.199341
 30
0.0
 11
947.88022
 21
1727.409336
 31
0.0
  0
LINE
  5
24F
330
1F
100
AcDbEntity
  8
1
  6
Continuous
 62
   155
420
  5010073
370
    18
100
AcDbLine
 10
917.88022
 20
1705.619341
 30
0.0
 11
917.88022
 21
1705.409346
 31
0.0
  0
LINE
  5
250
330
1F
100
AcDbEntity
  8
1
  6
Continuous
 62
   155
420
  5010073
370
    18
100
AcDbLine
 10
389.18022
 20
1705.619341
 30
0.0
 11
389.18022
 21
1705.409346
 31
0.0
  0
LINE
  5
251
330
1F
100
AcDbEntity
  8
1
  6
Continuous
 62
   155
420
  5010073
370
    18
100
AcDbLine
 10
389.18022
 20
1727.199341
 30
0.0
 11
389.18022
 21
1727.409336
 31
0.0
  0
LINE
  5
252
330
1F
100
AcDbEntity
  8
1
  6
Continuous
 62
   155
420
  5010073
370
    18
100
AcDbLine
 10
917.88022
 20
1727.199341
 30
0.0
 11
917.88022
 21
1727.409336
 31
0.0
  0
LINE
  5
253
330
1F
100
AcDbEntity
  8
1
  6
Continuous
 62
   155
420
  5010073
370
    18
100
AcDbLine
 10
369.18022
 20
1705.619341
 30
0.0
 11
369.18022
 21
1705.409346
 31
0.0
  0
LINE
  5
254
330
1F
100
AcDbEntity
  8
1
  6
Continuous
 62
   155
420
  5010073
370
    18
100
AcDbLine
 10
359.18022
 20
1705.409346
 30
0.0
 11
359.18022
 21
1705.619341
 31
0.0
  0
LINE
  5
255
330
1F
100
AcDbEntity
  8
1
  6
Continuous
 62
   155
420
  5010073
370
    18
100
AcDbLine
 10
369.18022
 20
1727.199341
 30
0.0
 11
369.18022
 21
1727.409336
 31
0.0
  0
LINE
  5
256
330
1F
100
AcDbEntity
  8
1
  6
Continuous
 62
   155
420
  5010073
370
    18
100
AcDbLine
 10
359.18022
 20
1727.199341
 30
0.0
 11
359.18022
 21
1727.409336
 31
0.0
  0
LINE
  5
257
330
1F
100
AcDbEntity
  8
1
  6
Continuous
 62
   155
420
  5010073
370
    18
100
AcDbLine
 10
433.63022
 20
1732.030668
 30
0.0
 11
433.672684
 21
1731.909341
 31
0.0
  0
LINE
  5
258
330
1F
100
AcDbEntity
  8
1
  6
Continuous
 62
   155
420
  5010073
370
    18
100
AcDbLine
 10
432.33022
 20
1732.030668
 30
0.0
 11
433.63022
 21
1732.030668
 31
0.0
  0
LINE
  5
259
330
1F
100
AcDbEntity
  8
1
  6
Continuous
 62
   155
420
  5010073
370
    18
100
AcDbLine
 10
432.33022
 20
1763.409341
 30
0.0
 11
432.33022
 21
1732.030668
 31
0.0
  0
LINE
  5
25A
330
1F
100
AcDbEntity
  8
1
  6
Continuous
 62
   155
420
  5010073
370
    18
100
AcDbLine
 10
432.33022
 20
1763.409341
 30
0.0
 11
874.73022
 21
1763.409341
 31
0.0
  0
LINE
  5
25B
330
1F
100
AcDbEntity
  8
1
  6
Continuous
 62
   155
420
  5010073
370
    18
100
AcDbLine
 10
874.73022
 20
1732.030668
 30
0.0
 11
874.73022
 21
1763.409341
 31
0.0
  0
LINE
  5
25C
330
1F
100
AcDbEntity
  8
1
  6
Continuous
 62
   155
420
  5010073
370
    18
100
AcDbLine
 10
873.43022
 20
1732.030668
 30
0.0
 11
874.73022
 21
1732.030668
 31
0.0
  0
LINE
  5
25D
330
1F
100
AcDbEntity
  8
1
  6
Continuous
 62
   155
420
  5010073
370
    18
100
AcDbLine
 10
873.387755
 20
1731.909341
 30
0.0
 11
873.43022
 21
1732.030668
 31
0.0
  0
LINE
  5
25E
330
1F
100
AcDbEntity
  8
1
  6
Continuous
 62
   155
420
  5010073
370
    13
100
AcDbLine
 10
433.672684
 20
1731.909341
 30
0.0
 11
873.387755
 21
1731.909341
 31
0.0
  0
LINE
  5
25F
330
1F
100
AcDbEntity
  8
1
  6
Continuous
 62
   155
420
  5010073
370
    18
100
AcDbLine
 10
433.53022
 20
1732.030668
 30
0.0
 11
433.53022
 21
1731.909341
 31
0.0
  0
LINE
  5
260
330
1F
100
AcDbEntity
  8
1
  6
Continuous
 62
   155
420
  5010073
370
    18
100
AcDbLine
 10
433.53022
 20
1731.909341
 30
0.0
 11
432.33022
 21
1731.909341
 31
0.0
  0
LINE
  5
261
330
1F
100
AcDbEntity
  8
1
  6
Continuous
 62
   155
420
  5010073
370
    18
100
AcDbLine
 10
432.33022
 20
1732.030668
 30
0.0
 11
432.33022
 21
1731.909341
 31
0.0
  0
LINE
  5
262
330
1F
100
AcDbEntity
  8
1
  6
Continuous
 62
   155
420
  5010073
370
    18
100
AcDbLine
 10
873.53022
 20
1731.909341
 30
0.0
 11
874.73022
 21
1731.909341
 31
0.0
  0
LINE
  5
263
330
1F
100
AcDbEntity
  8
1
  6
Continuous
 62
   155
420
  5010073
370
    18
100
AcDbLine
 10
873.53022
 20
1731.909341
 30
0.0
 11
873.53022
 21
1732.030668
 31
0.0
  0
LINE
  5
264
330
1F
100
AcDbEntity
  8
1
  6
Continuous
 62
   155
420
  5010073
370
    18
100
AcDbLine
 10
874.73022
 20
1731.909341
 30
0.0
 11
874.73022
 21
1732.030668
 31
0.0
  0
LINE
  5
265
330
1F
100
AcDbEntity
  8
1
  6
Continuous
 62
   155
420
  5010073
370
    18
100
AcDbLine
 10
455.269017
 20
1755.54538
 30
0.0
 11
453.291423
 21
1755.54538
 31
0.0
  0
LINE
  5
266
330
1F
100
AcDbEntity
  8
1
  6
Continuous
 62
   155
420
  5010073
370
    18
100
AcDbLine
 10
853.769017
 20
1755.54538
 30
0.0
 11
851.791423
 21
1755.54538
 31
0.0
  0
ENDSEC
  0
SECTION
  2
OBJECTS
  0
DICTIONARY
  5
C
330
0
100
AcDbDictionary
281
     1
  3
ACAD_DETAILVIEWSTYLE
350
2A2
  3
ACAD_GROUP
350
D
  3
ACAD_LAYOUT
350
1A
  3
ACAD_MATERIAL
350
43
  3
ACAD_MLEADERSTYLE
350
5B
  3
ACAD_MLINESTYLE
350
17
  3
ACAD_PLOTSETTINGS
350
19
  3
ACAD_PLOTSTYLENAME
350
E
  3
ACAD_SCALELIST
350
47
  3
ACAD_SECTIONVIEWSTYLE
350
2A3
  3
ACAD_TABLESTYLE
350
59
  3
ACAD_VISUALSTYLE
350
2A
  3
AcDbVariableDictionary
350
267
  3
ACDB_RECOMPOSE_DATA
350
29F
  0
SUN
  5
5D
330
29
100
AcDbSun
 90
        1
290
     0
 63
     7
421
 16777215
 40
1.0
291
     1
 91
  2455826
 92
 54000000
292
     0
 70
     2
 71
   256
280
     1
  0
DICTIONARY
  5
2A2
102
{ACAD_REACTORS
330
C
102
}
330
C
100
AcDbDictionary
281
     1
  0
DICTIONARY
  5
D
102
{ACAD_REACTORS
330
C
102
}
330
C
100
AcDbDictionary
281
     1
  0
DICTIONARY
  5
1A
102
{ACAD_REACTORS
330
C
102
}
330
C
100
AcDbDictionary
281
     1
  3
Layout1
350
1E
  3
Layout2
350
26
  3
Model
350
22
  0
DICTIONARY
  5
43
102
{ACAD_REACTORS
330
C
102
}
330
C
100
AcDbDictionary
281
     1
  3
ByBlock
350
45
  3
ByLayer
350
44
  3
Global
350
46
  0
DICTIONARY
  5
5B
102
{ACAD_REACTORS
330
C
102
}
330
C
100
AcDbDictionary
281
     1
  3
Standard
350
5C
  0
DICTIONARY
  5
17
102
{ACAD_REACTORS
330
C
102
}
330
C
100
AcDbDictionary
281
     1
  3
Standard
350
18
  0
DICTIONARY
  5
19
102
{ACAD_REACTORS
330
C
102
}
330
C
100
AcDbDictionary
281
     1
  0
ACDBDICTIONARYWDFLT
  5
E
102
{ACAD_REACTORS
330
C
102
}
330
C
100
AcDbDictionary
281
     1
  3
Normal
350
F
100
AcDbDictionaryWithDefault
340
F
  0
DICTIONARY
  5
47
102
{ACAD_REACTORS
330
C
102
}
330
C
100
AcDbDictionary
281
     1
  3
A0
350
48
  3
A1
350
49
  3
A2
350
4A
  3
A3
350
4B
  3
A4
350
4C
  3
A5
350
4D
  3
A6
350
4E
  3
A7
350
4F
  3
A8
350
50
  3
A9
350
51
  3
B1
350
52
  3
B2
350
53
  3
B3
350
54
  3
B4
350
55
  3
B5
350
56
  3
B6
350
57
  3
B7
350
58
  0
DICTIONARY
  5
2A3
102
{ACAD_REACTORS
330
C
102
}
330
C
100
AcDbDictionary
281
     1
  0
DICTIONARY
  5
59
102
{ACAD_REACTORS
330
C
102
}
330
C
100
AcDbDictionary
281
     1
  3
Standard
350
5A
  0
DICTIONARY
  5
2A
102
{ACAD_REACTORS
330
C
102
}
330
C
100
AcDbDictionary
281
     1
  3
2dWireframe
350
2F
  3
Basic
350
32
  3
Brighten
350
36
  3
ColorChange
350
3A
  3
Conceptual
350
34
  3
Dim
350
35
  3
EdgeColorOff
350
3D
  3
Facepattern
350
39
  3
Flat
350
2B
  3
FlatWithEdges
350
2C
  3
Gouraud
350
2D
  3
GouraudWithEdges
350
2E
  3
Hidden
350
31
  3
JitterOff
350
3B
  3
Linepattern
350
38
  3
OverhangOff
350
3C
  3
Realistic
350
33
  3
Shaded
350
42
  3
Shaded with edges
350
41
  3
Shades of Gray
350
3E
  3
Sketchy
350
3F
  3
Thicken
350
37
  3
Wireframe
350
30
  3
X-Ray
350
40
  0
DICTIONARY
  5
267
102
{ACAD_REACTORS
330
C
102
}
330
C
100
AcDbDictionary
281
     1
  3
CANNOSCALE
350
268
  3
CMLEADERSTYLE
350
2A1
  3
CTABLESTYLE
350
2A0
  3
XCLIPFRAME
350
269
  0
XRECORD
  5
29F
102
{ACAD_REACTORS
330
C
102
}
330
C
100
AcDbXrecord
280
     1
 90
        1
330
5A
  0
LAYOUT
  5
1E
102
{ACAD_REACTORS
330
1A
102
}
330
1A
100
AcDbPlotSettings
  1

  2
none_device
  4

  6

 40
0.0
 41
0.0
 42
0.0
 43
0.0
 44
0.0
 45
0.0
 46
0.0
 47
0.0
 48
0.0
 49
0.0
140
0.0
141
0.0
142
1.0
143
1.0
 70
   688
 72
     0
 73
     0
 74
     5
  7

 75
    16
 76
     0
 77
     2
 78
   300
147
1.0
148
0.0
149
0.0
100
AcDbLayout
  1
Layout1
 70
     1
 71
     1
 10
0.0
 20
0.0
 11
12.0
 21
9.0
 12
0.0
 22
0.0
 32
0.0
 14
1.000000000000000E+20
 24
1.000000000000000E+20
 34
1.000000000000000E+20
 15
-1.000000000000000E+20
 25
-1.000000000000000E+20
 35
-1.000000000000000E+20
146
0.0
 13
0.0
 23
0.0
 33
0.0
 16
1.0
 26
0.0
 36
0.0
 17
0.0
 27
1.0
 37
0.0
 76
     0
330
1B
  0
LAYOUT
  5
26
102
{ACAD_REACTORS
330
1A
102
}
330
1A
100
AcDbPlotSettings
  1

  2
none_device
  4

  6

 40
0.0
 41
0.0
 42
0.0
 43
0.0
 44
0.0
 45
0.0
 46
0.0
 47
0.0
 48
0.0
 49
0.0
140
0.0
141
0.0
142
1.0
143
1.0
 70
   688
 72
     0
 73
     0
 74
     5
  7

 75
    16
 76
     0
 77
     2
 78
   300
147
1.0
148
0.0
149
0.0
100
AcDbLayout
  1
Layout2
 70
     1
 71
     2
 10
0.0
 20
0.0
 11
0.0
 21
0.0
 12
0.0
 22
0.0
 32
0.0
 14
0.0
 24
0.0
 34
0.0
 15
0.0
 25
0.0
 35
0.0
146
0.0
 13
0.0
 23
0.0
 33
0.0
 16
1.0
 26
0.0
 36
0.0
 17
0.0
 27
1.0
 37
0.0
 76
     0
330
23
  0
LAYOUT
  5
22
102
{ACAD_REACTORS
330
1A
102
}
330
1A
100
AcDbPlotSettings
  1

  2
none_device
  4
Letter_(8.50_x_11.00_Inches)
  6

 40
6.35
 41
6.35
 42
6.35000508
 43
6.35000508
 44
215.9
 45
279.4
 46
0.0
 47
0.0
 48
0.0
 49
0.0
140
0.0
141
0.0
142
1.0
143
1.0
 70
  1712
 72
     0
 73
     0
 74
     0
  7

 75
     0
 76
     0
 77
     2
 78
   300
147
1.0
148
0.0
149
0.0
100
AcDbLayout
  1
Model
 70
     1
 71
     0
 10
0.0
 20
0.0
 11
12.0
 21
9.0
 12
0.0
 22
0.0
 32
0.0
 14
247.705426
 24
1536.355137
 34
-0.0000000000000018
 15
1704.927404
 25
1887.934038
 35
0.0000000000000021
146
0.0
 13
0.0
 23
0.0
 33
0.0
 16
1.0
 26
0.0
 36
0.0
 17
0.0
 27
1.0
 37
0.0
 76
     0
330
1F
331
29
  0
MATERIAL
  5
45
102
{ACAD_REACTORS
330
43
102
}
330
43
100
AcDbMaterial
  1
ByBlock
 72
     1
 94
      127
  0
MATERIAL
  5
44
102
{ACAD_REACTORS
330
43
102
}
330
43
100
AcDbMaterial
  1
ByLayer
 72
     1
 94
      127
  0
MATERIAL
  5
46
102
{ACAD_REACTORS
330
43
102
}
330
43
100
AcDbMaterial
  1
Global
 72
     1
 94
      127
  0
MLEADERSTYLE
  5
5C
102
{ACAD_REACTORS
330
5B
102
}
102
{ACAD_XDICTIONARY
360
29D
102
}
330
5B
100
AcDbMLeaderStyle
170
     2
171
     1
172
     0
 90
        2
 40
0.0
 41
0.0
173
     1
 91
-1056964608
340
14
 92
       -2
290
     1
 42
0.09
291
     1
 43
0.36
  3
Standard
341
0
 44
0.18
300

342
11
174
     1
178
     6
175
     1
176
     0
 93
-1056964608
 45
0.18
292
     0
297
     0
 46
0.18
343
0
 94
-1056964608
 47
1.0
 49
1.0
140
1.0
293
     1
141
0.0
294
     1
177
     0
142
1.0
295
     0
296
     0
143
0.125
1001
ACAD_MLEADERVER
1070
     2
  0
MLINESTYLE
  5
18
102
{ACAD_REACTORS
330
17
102
}
330
17
100
AcDbMlineStyle
  2
Standard
 70
     0
  3

 62
   256
 51
90.0
 52
90.0
 71
     2
 49
0.5
 62
   256
  6
BYLAYER
 49
-0.5
 62
   256
  6
BYLAYER
  0
ACDBPLACEHOLDER
  5
F
102
{ACAD_REACTORS
330
E
102
}
330
E
  0
SCALE
  5
48
102
{ACAD_REACTORS
330
47
102
}
330
47
100
AcDbScale
 70
     0
300
1:1
140
1.0
141
1.0
290
     1
  0
SCALE
  5
49
102
{ACAD_REACTORS
330
47
102
}
330
47
100
AcDbScale
 70
     0
300
1/128" = 1'-0"
140
0.0078125
141
12.0
290
     0
  0
SCALE
  5
4A
102
{ACAD_REACTORS
330
47
102
}
330
47
100
AcDbScale
 70
     0
300
1/64" = 1'-0"
140
0.015625
141
12.0
290
     0
  0
SCALE
  5
4B
102
{ACAD_REACTORS
330
47
102
}
330
47
100
AcDbScale
 70
     0
300
1/32" = 1'-0"
140
0.03125
141
12.0
290
     0
  0
SCALE
  5
4C
102
{ACAD_REACTORS
330
47
102
}
330
47
100
AcDbScale
 70
     0
300
1/16" = 1'-0"
140
0.0625
141
12.0
290
     0
  0
SCALE
  5
4D
102
{ACAD_REACTORS
330
47
102
}
330
47
100
AcDbScale
 70
     0
300
3/32" = 1'-0"
140
0.09375
141
12.0
290
     0
  0
SCALE
  5
4E
102
{ACAD_REACTORS
330
47
102
}
330
47
100
AcDbScale
 70
     0
300
1/8" = 1'-0"
140
0.125
141
12.0
290
     0
  0
SCALE
  5
4F
102
{ACAD_REACTORS
330
47
102
}
330
47
100
AcDbScale
 70
     0
300
3/16" = 1'-0"
140
0.1875
141
12.0
290
     0
  0
SCALE
  5
50
102
{ACAD_REACTORS
330
47
102
}
330
47
100
AcDbScale
 70
     0
300
1/4" = 1'-0"
140
0.25
141
12.0
290
     0
  0
SCALE
  5
51
102
{ACAD_REACTORS
330
47
102
}
330
47
100
AcDbScale
 70
     0
300
3/8" = 1'-0"
140
0.375
141
12.0
290
     0
  0
SCALE
  5
52
102
{ACAD_REACTORS
330
47
102
}
330
47
100
AcDbScale
 70
     0
300
1/2" = 1'-0"
140
0.5
141
12.0
290
     0
  0
SCALE
  5
53
102
{ACAD_REACTORS
330
47
102
}
330
47
100
AcDbScale
 70
     0
300
3/4" = 1'-0"
140
0.75
141
12.0
290
     0
  0
SCALE
  5
54
102
{ACAD_REACTORS
330
47
102
}
330
47
100
AcDbScale
 70
     0
300
1" = 1'-0"
140
1.0
141
12.0
290
     0
  0
SCALE
  5
55
102
{ACAD_REACTORS
330
47
102
}
330
47
100
AcDbScale
 70
     0
300
1-1/2" = 1'-0"
140
1.5
141
12.0
290
     0
  0
SCALE
  5
56
102
{ACAD_REACTORS
330
47
102
}
330
47
100
AcDbScale
 70
     0
300
3" = 1'-0"
140
3.0
141
12.0
290
     0
  0
SCALE
  5
57
102
{ACAD_REACTORS
330
47
102
}
330
47
100
AcDbScale
 70
     0
300
6" = 1'-0"
140
6.0
141
12.0
290
     0
  0
SCALE
  5
58
102
{ACAD_REACTORS
330
47
102
}
330
47
100
AcDbScale
 70
     0
300
1'-0" = 1'-0"
140
12.0
141
12.0
290
     0
  0
TABLESTYLE
  5
5A
102
{ACAD_REACTORS
330
59
102
}
102
{ACAD_XDICTIONARY
360
29A
102
}
330
59
100
AcDbTableStyle
  3
Standard
 70
     0
 71
     0
 40
0.06
 41
0.06
280
     0
281
     0
  7
Standard
140
0.18
170
     2
 62
     0
 63
   257
283
     0
 90
        4
 91
        0
  1

274
    -2
284
     1
 64
     0
275
    -2
285
     1
 65
     0
276
    -2
286
     1
 66
     0
277
    -2
287
     1
 67
     0
278
    -2
288
     1
 68
     0
279
    -2
289
     1
 69
     0
  7
Standard
140
0.25
170
     5
 62
     0
 63
   257
283
     0
 90
        4
 91
        0
  1

274
    -2
284
     1
 64
     0
275
    -2
285
     1
 65
     0
276
    -2
286
     1
 66
     0
277
    -2
287
     1
 67
     0
278
    -2
288
     1
 68
     0
279
    -2
289
     1
 69
     0
  7
Standard
140
0.18
170
     5
 62
     0
 63
   257
283
     0
 90
        4
 91
        0
  1

274
    -2
284
     1
 64
     0
275
    -2
285
     1
 65
     0
276
    -2
286
     1
 66
     0
277
    -2
287
     1
 67
     0
278
    -2
288
     1
 68
     0
279
    -2
289
     1
 69
     0
  0
VISUALSTYLE
  5
2F
102
{ACAD_REACTORS
330
2A
102
}
102
{ACAD_XDICTIONARY
360
272
102
}
330
2A
100
AcDbVisualStyle
  2
2dWireframe
 70
     4
 71
     0
 72
     2
 73
     0
 90
        0
 40
0.6
 41
30.0
 62
     5
 63
     7
421
 16777215
 74
     1
 91
        4
 64
     7
 65
   257
 75
     1
175
     1
 42
1.0
 92
        0
 66
   257
 43
1.0
 76
     1
 77
     6
 78
     2
 67
     7
 79
     5
170
     0
171
     0
290
     0
174
     0
 93
        1
 44
0.0
173
     0
291
     0
 45
0.0
  0
VISUALSTYLE
  5
32
102
{ACAD_REACTORS
330
2A
102
}
102
{ACAD_XDICTIONARY
360
278
102
}
330
2A
100
AcDbVisualStyle
  2
Basic
 70
     7
 71
     1
 72
     0
 73
     1
 90
        0
 40
0.6
 41
30.0
 62
     5
 63
     7
421
 16777215
 74
     0
 91
        4
 64
     7
 65
   257
 75
     1
175
     1
 42
1.0
 92
        8
 66
     7
 43
1.0
 76
     1
 77
     6
 78
     2
 67
     7
 79
     5
170
     0
171
     0
290
     0
174
     0
 93
        1
 44
0.0
173
     0
291
     1
 45
0.0
  0
VISUALSTYLE
  5
36
102
{ACAD_REACTORS
330
2A
102
}
102
{ACAD_XDICTIONARY
360
280
102
}
330
2A
100
AcDbVisualStyle
  2
Brighten
 70
    12
 71
     2
 72
     2
 73
     0
 90
        0
 40
0.6
 41
30.0
 62
     5
 63
     7
421
 16777215
 74
     1
 91
        4
 64
     7
 65
   257
 75
     1
175
     1
 42
1.0
 92
        8
 66
     7
 43
1.0
 76
     1
 77
     6
 78
     2
 67
     7
 79
     5
170
     0
171
     0
290
     0
174
     0
 93
        1
 44
50.0
173
     0
291
     1
 45
0.0
  0
VISUALSTYLE
  5
3A
102
{ACAD_REACTORS
330
2A
102
}
102
{ACAD_XDICTIONARY
360
288
102
}
330
2A
100
AcDbVisualStyle
  2
ColorChange
 70
    16
 71
     2
 72
     2
 73
     3
 90
        0
 40
0.6
 41
30.0
 62
     5
 63
     8
421
  8421504
 74
     1
 91
        4
 64
     7
 65
   257
 75
     1
175
     1
 42
1.0
 92
        8
 66
     8
424
  8421504
 43
1.0
 76
     1
 77
     6
 78
     2
 67
     7
 79
     5
170
     0
171
     0
290
     0
174
     0
 93
        1
 44
0.0
173
     0
291
     1
 45
0.0
  0
VISUALSTYLE
  5
34
102
{ACAD_REACTORS
330
2A
102
}
102
{ACAD_XDICTIONARY
360
27C
102
}
330
2A
100
AcDbVisualStyle
  2
Conceptual
 70
     9
 71
     3
 72
     2
 73
     0
 90
        0
 40
0.6
 41
30.0
 62
     5
 63
     7
421
 16777215
 74
     2
 91
        2
 64
     7
 65
   257
 75
     1
175
     1
 42
179.0
 92
        8
 66
     7
 43
1.0
 76
     1
 77
     6
 78
     2
 67
     7
 79
     3
170
     0
171
     0
290
     0
174
     0
 93
        1
 44
0.0
173
     0
291
     0
 45
0.0
  0
VISUALSTYLE
  5
35
102
{ACAD_REACTORS
330
2A
102
}
102
{ACAD_XDICTIONARY
360
27E
102
}
330
2A
100
AcDbVisualStyle
  2
Dim
 70
    11
 71
     2
 72
     2
 73
     0
 90
        0
 40
0.6
 41
30.0
 62
     5
 63
     7
421
 16777215
 74
     1
 91
        4
 64
     7
 65
   257
 75
     1
175
     1
 42
1.0
 92
        8
 66
     7
 43
1.0
 76
     1
 77
     6
 78
     2
 67
     7
 79
     5
170
     0
171
     0
290
     0
174
     0
 93
        1
 44
-50.0
173
     0
291
     1
 45
0.0
  0
VISUALSTYLE
  5
3D
102
{ACAD_REACTORS
330
2A
102
}
102
{ACAD_XDICTIONARY
360
28E
102
}
330
2A
100
AcDbVisualStyle
  2
EdgeColorOff
 70
    22
 71
     2
 72
     2
 73
     0
 90
        0
 40
0.6
 41
30.0
 62
     5
 63
     7
421
 16777215
 74
     1
 91
        4
 64
     7
 65
   257
 75
     1
175
     1
 42
1.0
 92
        8
 66
     7
 43
1.0
 76
     1
 77
     6
 78
     2
 67
     7
 79
     5
170
     0
171
     0
290
     0
174
     0
 93
        1
 44
0.0
173
     0
291
     1
 45
0.0
  0
VISUALSTYLE
  5
39
102
{ACAD_REACTORS
330
2A
102
}
102
{ACAD_XDICTIONARY
360
286
102
}
330
2A
100
AcDbVisualStyle
  2
Facepattern
 70
    15
 71
     2
 72
     2
 73
     0
 90
        0
 40
0.6
 41
30.0
 62
     5
 63
     7
421
 16777215
 74
     1
 91
        4
 64
     7
 65
   257
 75
     1
175
     1
 42
1.0
 92
        8
 66
     7
 43
1.0
 76
     1
 77
     6
 78
     2
 67
     7
 79
     5
170
     0
171
     0
290
     0
174
     0
 93
        1
 44
0.0
173
     0
291
     1
 45
0.0
  0
VISUALSTYLE
  5
2B
102
{ACAD_REACTORS
330
2A
102
}
102
{ACAD_XDICTIONARY
360
26A
102
}
330
2A
100
AcDbVisualStyle
  2
Flat
 70
     0
 71
     2
 72
     1
 73
     1
 90
        2
 40
0.6
 41
30.0
 62
     5
 63
     7
421
 16777215
 74
     0
 91
        0
 64
     7
 65
   257
 75
     1
175
     1
 42
1.0
 92
        8
 66
     7
 43
1.0
 76
     1
 77
     6
 78
     2
 67
     7
 79
     5
170
     0
171
     0
290
     0
174
     0
 93
       13
 44
0.0
173
     0
291
     1
 45
0.0
  0
VISUALSTYLE
  5
2C
102
{ACAD_REACTORS
330
2A
102
}
102
{ACAD_XDICTIONARY
360
26C
102
}
330
2A
100
AcDbVisualStyle
  2
FlatWithEdges
 70
     1
 71
     2
 72
     1
 73
     1
 90
        2
 40
0.6
 41
30.0
 62
     5
 63
     7
421
 16777215
 74
     1
 91
        0
 64
     7
 65
   257
 75
     1
175
     1
 42
1.0
 92
        0
 66
   257
 43
1.0
 76
     1
 77
     6
 78
     2
 67
     7
 79
     5
170
     0
171
     0
290
     0
174
     0
 93
       13
 44
0.0
173
     0
291
     1
 45
0.0
  0
VISUALSTYLE
  5
2D
102
{ACAD_REACTORS
330
2A
102
}
102
{ACAD_XDICTIONARY
360
26E
102
}
330
2A
100
AcDbVisualStyle
  2
Gouraud
 70
     2
 71
     2
 72
     2
 73
     1
 90
        2
 40
0.6
 41
30.0
 62
     5
 63
     7
421
 16777215
 74
     0
 91
        0
 64
     7
 65
   257
 75
     1
175
     1
 42
1.0
 92
        0
 66
     7
 43
1.0
 76
     1
 77
     6
 78
     2
 67
     7
 79
     5
170
     0
171
     0
290
     0
174
     0
 93
       13
 44
0.0
173
     0
291
     1
 45
0.0
  0
VISUALSTYLE
  5
2E
102
{ACAD_REACTORS
330
2A
102
}
102
{ACAD_XDICTIONARY
360
270
102
}
330
2A
100
AcDbVisualStyle
  2
GouraudWithEdges
 70
     3
 71
     2
 72
     2
 73
     1
 90
        2
 40
0.6
 41
30.0
 62
     5
 63
     7
421
 16777215
 74
     1
 91
        0
 64
     7
 65
   257
 75
     1
175
     1
 42
1.0
 92
        0
 66
   257
 43
1.0
 76
     1
 77
     6
 78
     2
 67
     7
 79
     5
170
     0
171
     0
290
     0
174
     0
 93
       13
 44
0.0
173
     0
291
     1
 45
0.0
  0
VISUALSTYLE
  5
31
102
{ACAD_REACTORS
330
2A
102
}
102
{ACAD_XDICTIONARY
360
276
102
}
330
2A
100
AcDbVisualStyle
  2
Hidden
 70
     6
 71
     1
 72
     2
 73
     2
 90
        0
 40
0.6
 41
30.0
 62
     5
 63
     7
421
 16777215
 74
     2
 91
        2
 64
     7
 65
   257
 75
     2
175
     1
 42
40.0
 92
        0
 66
   257
 43
1.0
 76
     1
 77
     6
 78
     2
 67
     7
 79
     3
170
     0
171
     0
290
     0
174
     0
 93
        1
 44
0.0
173
     0
291
     0
 45
0.0
  0
VISUALSTYLE
  5
3B
102
{ACAD_REACTORS
330
2A
102
}
102
{ACAD_XDICTIONARY
360
28A
102
}
330
2A
100
AcDbVisualStyle
  2
JitterOff
 70
    20
 71
     2
 72
     2
 73
     0
 90
        0
 40
0.6
 41
30.0
 62
     5
 63
     7
421
 16777215
 74
     1
 91
        4
 64
     7
 65
   257
 75
     1
175
     1
 42
1.0
 92
       10
 66
     7
 43
1.0
 76
     1
 77
     6
 78
     2
 67
     7
 79
     5
170
     0
171
     0
290
     0
174
     0
 93
        1
 44
0.0
173
     0
291
     1
 45
0.0
  0
VISUALSTYLE
  5
38
102
{ACAD_REACTORS
330
2A
102
}
102
{ACAD_XDICTIONARY
360
284
102
}
330
2A
100
AcDbVisualStyle
  2
Linepattern
 70
    14
 71
     2
 72
     2
 73
     0
 90
        0
 40
0.6
 41
30.0
 62
     5
 63
     7
421
 16777215
 74
     1
 91
        4
 64
     7
 65
   257
 75
     7
175
     7
 42
1.0
 92
        8
 66
     7
 43
1.0
 76
     1
 77
     6
 78
     2
 67
     7
 79
     5
170
     0
171
     0
290
     0
174
     0
 93
        1
 44
0.0
173
     0
291
     1
 45
0.0
  0
VISUALSTYLE
  5
3C
102
{ACAD_REACTORS
330
2A
102
}
102
{ACAD_XDICTIONARY
360
28C
102
}
330
2A
100
AcDbVisualStyle
  2
OverhangOff
 70
    21
 71
     2
 72
     2
 73
     0
 90
        0
 40
0.6
 41
30.0
 62
     5
 63
     7
421
 16777215
 74
     1
 91
        4
 64
     7
 65
   257
 75
     1
175
     1
 42
1.0
 92
        9
 66
     7
 43
1.0
 76
     1
 77
     6
 78
     2
 67
     7
 79
     5
170
     0
171
     0
290
     0
174
     0
 93
        1
 44
0.0
173
     0
291
     1
 45
0.0
  0
VISUALSTYLE
  5
33
102
{ACAD_REACTORS
330
2A
102
}
102
{ACAD_XDICTIONARY
360
27A
102
}
330
2A
100
AcDbVisualStyle
  2
Realistic
 70
     8
 71
     2
 72
     3
 73
     0
 90
        2
 40
0.6
 41
30.0
 62
     5
 63
     7
421
 16777215
 74
     0
 91
        0
 64
     7
 65
   257
 75
     1
175
     1
 42
1.0
 92
        8
 66
   257
 43
1.0
 76
     1
 77
     6
 78
     2
 67
     7
 79
     3
170
     0
171
     0
290
     0
174
     0
 93
       13
 44
0.0
173
     0
291
     0
 45
0.0
  0
VISUALSTYLE
  5
42
102
{ACAD_REACTORS
330
2A
102
}
102
{ACAD_XDICTIONARY
360
298
102
}
330
2A
100
AcDbVisualStyle
  2
Shaded
 70
    27
 71
     2
 72
     2
 73
     1
 90
        2
 40
0.6
 41
30.0
 62
     5
 63
     7
421
 16777215
 74
     0
 91
        4
 64
     7
 65
   257
 75
     1
175
     1
 42
1.0
 92
        8
 66
   257
 43
1.0
 76
     1
 77
     6
 78
     2
 67
     8
425
  7895160
 79
     3
170
     0
171
     0
290
     0
174
     0
 93
        5
 44
0.0
173
     0
291
     0
 45
0.0
  0
VISUALSTYLE
  5
41
102
{ACAD_REACTORS
330
2A
102
}
102
{ACAD_XDICTIONARY
360
296
102
}
330
2A
100
AcDbVisualStyle
  2
Shaded with edges
 70
    26
 71
     2
 72
     2
 73
     1
 90
        2
 40
0.6
 41
30.0
 62
     5
 63
     7
421
 16777215
 74
     1
 91
       10
 64
     7
 65
   257
 75
     2
175
     1
 42
1.0
 92
        8
 66
   257
 43
1.0
 76
     1
 77
     6
 78
     2
 67
     7
 79
     3
170
     0
171
     0
290
     0
174
     0
 93
        5
 44
0.0
173
     0
291
     0
 45
0.0
  0
VISUALSTYLE
  5
3E
102
{ACAD_REACTORS
330
2A
102
}
102
{ACAD_XDICTIONARY
360
290
102
}
330
2A
100
AcDbVisualStyle
  2
Shades of Gray
 70
    23
 71
     2
 72
     2
 73
     3
 90
        0
 40
0.6
 41
30.0
 62
     5
 63
     7
421
 16777215
 74
     2
 91
        2
 64
     7
 65
     7
 75
     1
175
     1
 42
40.0
 92
        8
 66
     7
 43
1.0
 76
     1
 77
     6
 78
     2
 67
     7
 79
     3
170
     0
171
     0
290
     0
174
     0
 93
        1
 44
0.0
173
     0
291
     0
 45
0.0
  0
VISUALSTYLE
  5
3F
102
{ACAD_REACTORS
330
2A
102
}
102
{ACAD_XDICTIONARY
360
292
102
}
330
2A
100
AcDbVisualStyle
  2
Sketchy
 70
    24
 71
     1
 72
     2
 73
     2
 90
        0
 40
0.6
 41
30.0
 62
     5
 63
     7
421
 16777215
 74
     2
 91
        2
 64
     7
 65
     7
 75
     1
175
     1
 42
40.0
 92
       11
 66
     7
 43
1.0
 76
     1
 77
     6
 78
     2
 67
     7
 79
     6
170
     0
171
     0
290
     0
174
     0
 93
        1
 44
0.0
173
     0
291
     0
 45
0.0
  0
VISUALSTYLE
  5
37
102
{ACAD_REACTORS
330
2A
102
}
102
{ACAD_XDICTIONARY
360
282
102
}
330
2A
100
AcDbVisualStyle
  2
Thicken
 70
    13
 71
     2
 72
     2
 73
     0
 90
        0
 40
0.6
 41
30.0
 62
     5
 63
     7
421
 16777215
 74
     1
 91
        4
 64
     7
 65
   257
 75
     1
175
     1
 42
1.0
 92
       12
 66
     7
 43
1.0
 76
     1
 77
     6
 78
     2
 67
     7
 79
     5
170
     0
171
     0
290
     0
174
     0
 93
        1
 44
0.0
173
     0
291
     1
 45
0.0
  0
VISUALSTYLE
  5
30
102
{ACAD_REACTORS
330
2A
102
}
102
{ACAD_XDICTIONARY
360
274
102
}
330
2A
100
AcDbVisualStyle
  2
Wireframe
 70
     5
 71
     0
 72
     2
 73
     0
 90
        0
 40
0.6
 41
30.0
 62
     5
 63
     7
421
 16777215
 74
     1
 91
        4
 64
     7
 65
   257
 75
     1
175
     1
 42
1.0
 92
        0
 66
   257
 43
1.0
 76
     1
 77
     6
 78
     2
 67
     7
 79
     3
170
     0
171
     0
290
     0
174
     0
 93
        1
 44
0.0
173
     0
291
     0
 45
0.0
  0
VISUALSTYLE
  5
40
102
{ACAD_REACTORS
330
2A
102
}
102
{ACAD_XDICTIONARY
360
294
102
}
330
2A
100
AcDbVisualStyle
  2
X-Ray
 70
    25
 71
     2
 72
     2
 73
     1
 90
        1
 40
0.5
 41
30.0
 62
     5
 63
     7
421
 16777215
 74
     1
 91
        0
 64
     7
 65
   257
 75
     1
175
     1
 42
1.0
 92
        8
 66
     7
 43
1.0
 76
     1
 77
     6
 78
     2
 67
     7
 79
     3
170
     0
171
     0
290
     0
174
     0
 93
       13
 44
0.0
173
     0
291
     0
 45
0.0
  0
DICTIONARYVAR
  5
268
102
{ACAD_REACTORS
330
267
102
}
330
267
100
DictionaryVariables
280
     0
  1
1:1
  0
DICTIONARYVAR
  5
2A1
102
{ACAD_REACTORS
330
267
102
}
330
267
100
DictionaryVariables
280
     0
  1
Standard
  0
DICTIONARYVAR
  5
2A0
102
{ACAD_REACTORS
330
267
102
}
330
267
100
DictionaryVariables
280
     0
  1
Standard
  0
DICTIONARYVAR
  5
269
102
{ACAD_REACTORS
330
267
102
}
330
267
100
DictionaryVariables
280
     0
  1
2
  0
DICTIONARY
  5
29D
330
5C
100
AcDbDictionary
280
     1
281
     1
  3
ACAD_XREC_ROUNDTRIP
360
29E
  0
DICTIONARY
  5
29A
330
5A
100
AcDbDictionary
280
     1
281
     1
  3
ACAD_ROUNDTRIP_2008_TABLESTYLE_CELLSTYLEMAP
360
29B
  0
DICTIONARY
  5
272
330
2F
100
AcDbDictionary
280
     1
281
     1
  3
ACAD_XREC_ROUNDTRIP
360
273
  0
DICTIONARY
  5
278
330
32
100
AcDbDictionary
280
     1
281
     1
  3
ACAD_XREC_ROUNDTRIP
360
279
  0
DICTIONARY
  5
280
330
36
100
AcDbDictionary
280
     1
281
     1
  3
ACAD_XREC_ROUNDTRIP
360
281
  0
DICTIONARY
  5
288
330
3A
100
AcDbDictionary
280
     1
281
     1
  3
ACAD_XREC_ROUNDTRIP
360
289
  0
DICTIONARY
  5
27C
330
34
100
AcDbDictionary
280
     1
281
     1
  3
ACAD_XREC_ROUNDTRIP
360
27D
  0
DICTIONARY
  5
27E
330
35
100
AcDbDictionary
280
     1
281
     1
  3
ACAD_XREC_ROUNDTRIP
360
27F
  0
DICTIONARY
  5
28E
330
3D
100
AcDbDictionary
280
     1
281
     1
  3
ACAD_XREC_ROUNDTRIP
360
28F
  0
DICTIONARY
  5
286
330
39
100
AcDbDictionary
280
     1
281
     1
  3
ACAD_XREC_ROUNDTRIP
360
287
  0
DICTIONARY
  5
26A
330
2B
100
AcDbDictionary
280
     1
281
     1
  3
ACAD_XREC_ROUNDTRIP
360
26B
  0
DICTIONARY
  5
26C
330
2C
100
AcDbDictionary
280
     1
281
     1
  3
ACAD_XREC_ROUNDTRIP
360
26D
  0
DICTIONARY
  5
26E
330
2D
100
AcDbDictionary
280
     1
281
     1
  3
ACAD_XREC_ROUNDTRIP
360
26F
  0
DICTIONARY
  5
270
330
2E
100
AcDbDictionary
280
     1
281
     1
  3
ACAD_XREC_ROUNDTRIP
360
271
  0
DICTIONARY
  5
276
330
31
100
AcDbDictionary
280
     1
281
     1
  3
ACAD_XREC_ROUNDTRIP
360
277
  0
DICTIONARY
  5
28A
330
3B
100
AcDbDictionary
280
     1
281
     1
  3
ACAD_XREC_ROUNDTRIP
360
28B
  0
DICTIONARY
  5
284
330
38
100
AcDbDictionary
280
     1
281
     1
  3
ACAD_XREC_ROUNDTRIP
360
285
  0
DICTIONARY
  5
28C
330
3C
100
AcDbDictionary
280
     1
281
     1
  3
ACAD_XREC_ROUNDTRIP
360
28D
  0
DICTIONARY
  5
27A
330
33
100
AcDbDictionary
280
     1
281
     1
  3
ACAD_XREC_ROUNDTRIP
360
27B
  0
DICTIONARY
  5
298
330
42
100
AcDbDictionary
280
     1
281
     1
  3
ACAD_XREC_ROUNDTRIP
360
299
  0
DICTIONARY
  5
296
330
41
100
AcDbDictionary
280
     1
281
     1
  3
ACAD_XREC_ROUNDTRIP
360
297
  0
DICTIONARY
  5
290
330
3E
100
AcDbDictionary
280
     1
281
     1
  3
ACAD_XREC_ROUNDTRIP
360
291
  0
DICTIONARY
  5
292
330
3F
100
AcDbDictionary
280
     1
281
     1
  3
ACAD_XREC_ROUNDTRIP
360
293
  0
DICTIONARY
  5
282
330
37
100
AcDbDictionary
280
     1
281
     1
  3
ACAD_XREC_ROUNDTRIP
360
283
  0
DICTIONARY
  5
274
330
30
100
AcDbDictionary
280
     1
281
     1
  3
ACAD_XREC_ROUNDTRIP
360
275
  0
DICTIONARY
  5
294
330
40
100
AcDbDictionary
280
     1
281
     1
  3
ACAD_XREC_ROUNDTRIP
360
295
  0
XRECORD
  5
29E
102
{ACAD_REACTORS
330
29D
102
}
330
29D
100
AcDbXrecord
280
     1
102
ACAD_ROUNDTRIP_2010_MLEADER_STYLE
  0
CELLSTYLEMAP
  5
29B
102
{ACAD_REACTORS
330
29A
102
}
330
29A
100
AcDbCellStyleMap
 90
        3
300
CELLSTYLE
  1
TABLEFORMAT_BEGIN
 90
        5
170
     1
 91
        0
 92
    32768
 62
   257
 93
        1
300
CONTENTFORMAT
  1
CONTENTFORMAT_BEGIN
 90
        0
 91
        0
 92
        4
 93
        0
300

 40
0.0
140
1.0
 94
        5
 62
     0
340
11
144
0.25
309
CONTENTFORMAT_END
171
     1
301
MARGIN
  1
CELLMARGIN_BEGIN
 40
0.06
 40
0.06
 40
0.06
 40
0.06
 40
0.06
 40
0.06
309
CELLMARGIN_END
 94
        6
 95
        1
302
GRIDFORMAT
  1
GRIDFORMAT_BEGIN
 90
        0
 91
        1
 62
     0
 92
       -2
340
14
 93
        0
 40
0.045
309
GRIDFORMAT_END
 95
        2
302
GRIDFORMAT
  1
GRIDFORMAT_BEGIN
 90
        0
 91
        1
 62
     0
 92
       -2
340
14
 93
        0
 40
0.045
309
GRIDFORMAT_END
 95
        4
302
GRIDFORMAT
  1
GRIDFORMAT_BEGIN
 90
        0
 91
        1
 62
     0
 92
       -2
340
14
 93
        0
 40
0.045
309
GRIDFORMAT_END
 95
        8
302
GRIDFORMAT
  1
GRIDFORMAT_BEGIN
 90
        0
 91
        1
 62
     0
 92
       -2
340
14
 93
        0
 40
0.045
309
GRIDFORMAT_END
 95
       16
302
GRIDFORMAT
  1
GRIDFORMAT_BEGIN
 90
        0
 91
        1
 62
     0
 92
       -2
340
14
 93
        0
 40
0.045
309
GRIDFORMAT_END
 95
       32
302
GRIDFORMAT
  1
GRIDFORMAT_BEGIN
 90
        0
 91
        1
 62
     0
 92
       -2
340
14
 93
        0
 40
0.045
309
GRIDFORMAT_END
309
TABLEFORMAT_END
  1
CELLSTYLE_BEGIN
 90
        1
 91
        1
300
_TITLE
309
CELLSTYLE_END
300
CELLSTYLE
  1
TABLEFORMAT_BEGIN
 90
        5
170
     1
 91
        0
 92
        0
 62
   257
 93
        1
300
CONTENTFORMAT
  1
CONTENTFORMAT_BEGIN
 90
        0
 91
        0
 92
        4
 93
        0
300

 40
0.0
140
1.0
 94
        5
 62
     0
340
11
144
0.18
309
CONTENTFORMAT_END
171
     1
301
MARGIN
  1
CELLMARGIN_BEGIN
 40
0.06
 40
0.06
 40
0.06
 40
0.06
 40
0.06
 40
0.06
309
CELLMARGIN_END
 94
        6
 95
        1
302
GRIDFORMAT
  1
GRIDFORMAT_BEGIN
 90
        0
 91
        1
 62
     0
 92
       -2
340
14
 93
        0
 40
0.045
309
GRIDFORMAT_END
 95
        2
302
GRIDFORMAT
  1
GRIDFORMAT_BEGIN
 90
        0
 91
        1
 62
     0
 92
       -2
340
14
 93
        0
 40
0.045
309
GRIDFORMAT_END
 95
        4
302
GRIDFORMAT
  1
GRIDFORMAT_BEGIN
 90
        0
 91
        1
 62
     0
 92
       -2
340
14
 93
        0
 40
0.045
309
GRIDFORMAT_END
 95
        8
302
GRIDFORMAT
  1
GRIDFORMAT_BEGIN
 90
        0
 91
        1
 62
     0
 92
       -2
340
14
 93
        0
 40
0.045
309
GRIDFORMAT_END
 95
       16
302
GRIDFORMAT
  1
GRIDFORMAT_BEGIN
 90
        0
 91
        1
 62
     0
 92
       -2
340
14
 93
        0
 40
0.045
309
GRIDFORMAT_END
 95
       32
302
GRIDFORMAT
  1
GRIDFORMAT_BEGIN
 90
        0
 91
        1
 62
     0
 92
       -2
340
14
 93
        0
 40
0.045
309
GRIDFORMAT_END
309
TABLEFORMAT_END
  1
CELLSTYLE_BEGIN
 90
        2
 91
        1
300
_HEADER
309
CELLSTYLE_END
300
CELLSTYLE
  1
TABLEFORMAT_BEGIN
 90
        5
170
     1
 91
        0
 92
        0
 62
   257
 93
        1
300
CONTENTFORMAT
  1
CONTENTFORMAT_BEGIN
 90
        0
 91
        0
 92
        4
 93
        0
300

 40
0.0
140
1.0
 94
        2
 62
     0
340
11
144
0.18
309
CONTENTFORMAT_END
171
     1
301
MARGIN
  1
CELLMARGIN_BEGIN
 40
0.06
 40
0.06
 40
0.06
 40
0.06
 40
0.06
 40
0.06
309
CELLMARGIN_END
 94
        6
 95
        1
302
GRIDFORMAT
  1
GRIDFORMAT_BEGIN
 90
        0
 91
        1
 62
     0
 92
       -2
340
14
 93
        0
 40
0.045
309
GRIDFORMAT_END
 95
        2
302
GRIDFORMAT
  1
GRIDFORMAT_BEGIN
 90
        0
 91
        1
 62
     0
 92
       -2
340
14
 93
        0
 40
0.045
309
GRIDFORMAT_END
 95
        4
302
GRIDFORMAT
  1
GRIDFORMAT_BEGIN
 90
        0
 91
        1
 62
     0
 92
       -2
340
14
 93
        0
 40
0.045
309
GRIDFORMAT_END
 95
        8
302
GRIDFORMAT
  1
GRIDFORMAT_BEGIN
 90
        0
 91
        1
 62
     0
 92
       -2
340
14
 93
        0
 40
0.045
309
GRIDFORMAT_END
 95
       16
302
GRIDFORMAT
  1
GRIDFORMAT_BEGIN
 90
        0
 91
        1
 62
     0
 92
       -2
340
14
 93
        0
 40
0.045
309
GRIDFORMAT_END
 95
       32
302
GRIDFORMAT
  1
GRIDFORMAT_BEGIN
 90
        0
 91
        1
 62
     0
 92
       -2
340
14
 93
        0
 40
0.045
309
GRIDFORMAT_END
309
TABLEFORMAT_END
  1
CELLSTYLE_BEGIN
 90
        3
 91
        2
300
_DATA
309
CELLSTYLE_END
  0
XRECORD
  5
273
102
{ACAD_REACTORS
330
272
102
}
330
272
100
AcDbXrecord
280
     1
102
RTVSPropertyOp0
 70
     1
102
RTVSPropertyOp1
 70
     1
102
RTVSPropertyOp2
 70
     1
102
RTVSPropertyOp3
 70
     1
102
RTVSPropertyOp4
 70
     1
102
RTVSPropertyOp5
 70
     1
102
RTVSPropertyOp6
 70
     1
102
RTVSPropertyOp7
 70
     1
102
RTVSPropertyOp8
 70
     1
102
RTVSPropertyOp9
 70
     1
102
RTVSPropertyOp10
 70
     1
102
RTVSPropertyOp11
 70
     1
102
RTVSPropertyOp12
 70
     1
102
RTVSPropertyOp13
 70
     1
102
RTVSPropertyOp14
 70
     1
102
RTVSPropertyOp15
 70
     1
102
RTVSPropertyOp16
 70
     1
102
RTVSPropertyOp17
 70
     1
102
RTVSPropertyOp18
 70
     1
102
RTVSPropertyOp19
 70
     1
102
RTVSPropertyOp20
 70
     1
102
RTVSPropertyOp21
 70
     1
102
RTVSPropertyOp22
 70
     1
102
RTVSPropertyOp23
 70
     1
102
RTVSPropertyOp24
 70
     1
102
RTVSPropertyOp25
 70
     1
102
RTVSPropertyOp26
 70
     1
102
RTVSPropertyOp27
 70
     1
102
RTVSPropertyOp28
 70
     1
102
RTVSPropertyOp29
 70
     1
102
RTVSPropertyOp30
 70
     1
102
RTVSPropertyOp31
 70
     1
102
RTVSPropertyOp32
 70
     1
102
RTVSPropertyOp33
 70
     1
102
RTVSPropertyOp34
 70
     1
102
RTVSPropertyOp35
 70
     1
102
RTVSPropertyOp36
 70
     1
102
RTVSPropertyOp37
 70
     1
102
RTVSPropertyOp38
 70
     1
102
RTVSPropertyOp39
 70
     1
102
RTVSPropertyOp40
 70
     1
102
RTVSPropertyOp41
 70
     1
102
RTVSPropertyOp42
 70
     1
102
RTVSPropertyOp43
 70
     1
102
RTVSPropertyOp44
 70
     1
102
RTVSPropertyOp45
 70
     1
102
RTVSPropertyOp46
 70
     1
102
RTVSPropertyOp47
 70
     1
102
RTVSPropertyOp48
 70
     1
102
RTVSPropertyOp49
 70
     1
102
RTVSPropertyOp50
 70
     1
102
RTVSPropertyOp51
 70
     0
102
RTVSPropertyOp52
 70
     0
102
RTVSPropertyOp53
 70
     1
102
RTVSPropertyOp54
 70
     1
102
RTVSPropertyOp55
 70
     1
102
RTVSPropertyOp56
 70
     1
102
RTVSPropertyOp57
 70
     1
102
RTVSPost2010Prop28
280
     1
102
RTVSPost2010PropOp28
 70
     1
102
RTVSPost2010Prop29
280
     1
102
RTVSPost2010PropOp29
 70
     1
102
RTVSPost2010Prop30
280
     0
102
RTVSPost2010PropOp30
 70
     1
102
RTVSPost2010Prop31
280
     0
102
RTVSPost2010PropOp31
 70
     1
102
RTVSPost2010Prop32
280
     0
102
RTVSPost2010PropOp32
 70
     1
102
RTVSPost2010Prop33
280
     0
102
RTVSPost2010PropOp33
 70
     1
102
RTVSPost2010Prop34
280
     0
102
RTVSPost2010PropOp34
 70
     1
102
RTVSPost2010Prop35
280
     0
102
RTVSPost2010PropOp35
 70
     1
102
RTVSPost2010Prop36
280
     0
102
RTVSPost2010PropOp36
 70
     1
102
RTVSPost2010Prop37
 90
       50
102
RTVSPost2010PropOp37
 70
     1
102
RTVSPost2010Prop38
140
0.0
102
RTVSPost2010PropOp38
 70
     1
102
RTVSPost2010Prop39
140
1.0
102
RTVSPost2010PropOp39
 70
     1
102
RTVSPost2010Prop40
 90
        0
102
RTVSPost2010PropOp40
 70
     1
102
RTVSPost2010Prop41ColorIndex
 90
       18
102
RTVSPost2010Prop41ColorRGB
 90
        0
102
RTVSPost2010PropOp41
 70
     1
102
RTVSPost2010Prop42
 90
       50
102
RTVSPost2010PropOp42
 70
     1
102
RTVSPost2010Prop43
 90
        3
102
RTVSPost2010PropOp43
 70
     1
102
RTVSPost2010Prop44ColorIndex
 90
        5
102
RTVSPost2010Prop44ColorRGB
 90
      255
102
RTVSPost2010PropOp44
 70
     1
102
RTVSPost2010Prop45
280
     0
102
RTVSPost2010PropOp45
 70
     1
102
RTVSPost2010Prop46
 90
       50
102
RTVSPost2010PropOp46
 70
     1
102
RTVSPost2010Prop47
 90
       50
102
RTVSPost2010PropOp47
 70
     1
102
RTVSPost2010Prop48
 90
       50
102
RTVSPost2010PropOp48
 70
     1
102
RTVSPost2010Prop49
280
     0
102
RTVSPost2010PropOp49
 70
     1
102
RTVSPost2010Prop50
 90
       50
102
RTVSPost2010PropOp50
 70
     1
102
RTVSPost2010Prop51ColorIndex
 90
      256
102
RTVSPost2010Prop51ColorRGB
 90
-16777216
102
RTVSPost2010PropOp51
 70
     0
102
RTVSPost2010Prop52
140
1.0
102
RTVSPost2010PropOp52
 70
     0
102
RTVSPost2010Prop53
 90
        2
102
RTVSPost2010PropOp53
 70
     1
102
RTVSPost2010Prop54
  1
strokes_ogs.tif
102
RTVSPost2010PropOp54
 70
     1
102
RTVSPost2010Prop55
280
     0
102
RTVSPost2010PropOp55
 70
     1
102
RTVSPost2010Prop56
140
1.0
102
RTVSPost2010PropOp56
 70
     1
102
RTVSPost2010Prop57
140
1.0
102
RTVSPost2010PropOp57
 70
     1
  0
XRECORD
  5
279
102
{ACAD_REACTORS
330
278
102
}
330
278
100
AcDbXrecord
280
     1
102
RTVSPropertyOp0
 70
     1
102
RTVSPropertyOp1
 70
     1
102
RTVSPropertyOp2
 70
     1
102
RTVSPropertyOp3
 70
     1
102
RTVSPropertyOp4
 70
     1
102
RTVSPropertyOp5
 70
     1
102
RTVSPropertyOp6
 70
     1
102
RTVSPropertyOp7
 70
     1
102
RTVSPropertyOp8
 70
     1
102
RTVSPropertyOp9
 70
     1
102
RTVSPropertyOp10
 70
     1
102
RTVSPropertyOp11
 70
     1
102
RTVSPropertyOp12
 70
     1
102
RTVSPropertyOp13
 70
     1
102
RTVSPropertyOp14
 70
     1
102
RTVSPropertyOp15
 70
     1
102
RTVSPropertyOp16
 70
     1
102
RTVSPropertyOp17
 70
     1
102
RTVSPropertyOp18
 70
     1
102
RTVSPropertyOp19
 70
     1
102
RTVSPropertyOp20
 70
     1
102
RTVSPropertyOp21
 70
     1
102
RTVSPropertyOp22
 70
     1
102
RTVSPropertyOp23
 70
     1
102
RTVSPropertyOp24
 70
     1
102
RTVSPropertyOp25
 70
     1
102
RTVSPropertyOp26
 70
     1
102
RTVSPropertyOp27
 70
     1
102
RTVSPropertyOp28
 70
     1
102
RTVSPropertyOp29
 70
     1
102
RTVSPropertyOp30
 70
     1
102
RTVSPropertyOp31
 70
     1
102
RTVSPropertyOp32
 70
     1
102
RTVSPropertyOp33
 70
     1
102
RTVSPropertyOp34
 70
     1
102
RTVSPropertyOp35
 70
     1
102
RTVSPropertyOp36
 70
     1
102
RTVSPropertyOp37
 70
     1
102
RTVSPropertyOp38
 70
     1
102
RTVSPropertyOp39
 70
     1
102
RTVSPropertyOp40
 70
     1
102
RTVSPropertyOp41
 70
     1
102
RTVSPropertyOp42
 70
     1
102
RTVSPropertyOp43
 70
     1
102
RTVSPropertyOp44
 70
     1
102
RTVSPropertyOp45
 70
     1
102
RTVSPropertyOp46
 70
     1
102
RTVSPropertyOp47
 70
     1
102
RTVSPropertyOp48
 70
     1
102
RTVSPropertyOp49
 70
     1
102
RTVSPropertyOp50
 70
     1
102
RTVSPropertyOp51
 70
     0
102
RTVSPropertyOp52
 70
     0
102
RTVSPropertyOp53
 70
     1
102
RTVSPropertyOp54
 70
     1
102
RTVSPropertyOp55
 70
     1
102
RTVSPropertyOp56
 70
     1
102
RTVSPropertyOp57
 70
     1
102
RTVSPost2010Prop28
280
     0
102
RTVSPost2010PropOp28
 70
     1
102
RTVSPost2010Prop29
280
     1
102
RTVSPost2010PropOp29
 70
     1
102
RTVSPost2010Prop30
280
     1
102
RTVSPost2010PropOp30
 70
     1
102
RTVSPost2010Prop31
280
     0
102
RTVSPost2010PropOp31
 70
     1
102
RTVSPost2010Prop32
280
     0
102
RTVSPost2010PropOp32
 70
     1
102
RTVSPost2010Prop33
280
     0
102
RTVSPost2010PropOp33
 70
     1
102
RTVSPost2010Prop34
280
     0
102
RTVSPost2010PropOp34
 70
     1
102
RTVSPost2010Prop35
280
     0
102
RTVSPost2010PropOp35
 70
     1
102
RTVSPost2010Prop36
280
     0
102
RTVSPost2010PropOp36
 70
     1
102
RTVSPost2010Prop37
 90
       50
102
RTVSPost2010PropOp37
 70
     1
102
RTVSPost2010Prop38
140
0.0
102
RTVSPost2010PropOp38
 70
     1
102
RTVSPost2010Prop39
140
1.0
102
RTVSPost2010PropOp39
 70
     1
102
RTVSPost2010Prop40
 90
        0
102
RTVSPost2010PropOp40
 70
     1
102
RTVSPost2010Prop41ColorIndex
 90
       18
102
RTVSPost2010Prop41ColorRGB
 90
        0
102
RTVSPost2010PropOp41
 70
     1
102
RTVSPost2010Prop42
 90
       50
102
RTVSPost2010PropOp42
 70
     1
102
RTVSPost2010Prop43
 90
        3
102
RTVSPost2010PropOp43
 70
     1
102
RTVSPost2010Prop44ColorIndex
 90
        5
102
RTVSPost2010Prop44ColorRGB
 90
      255
102
RTVSPost2010PropOp44
 70
     1
102
RTVSPost2010Prop45
280
     0
102
RTVSPost2010PropOp45
 70
     1
102
RTVSPost2010Prop46
 90
       50
102
RTVSPost2010PropOp46
 70
     1
102
RTVSPost2010Prop47
 90
       50
102
RTVSPost2010PropOp47
 70
     1
102
RTVSPost2010Prop48
 90
       50
102
RTVSPost2010PropOp48
 70
     1
102
RTVSPost2010Prop49
280
     0
102
RTVSPost2010PropOp49
 70
     1
102
RTVSPost2010Prop50
 90
       50
102
RTVSPost2010PropOp50
 70
     1
102
RTVSPost2010Prop51ColorIndex
 90
      256
102
RTVSPost2010Prop51ColorRGB
 90
-16777216
102
RTVSPost2010PropOp51
 70
     0
102
RTVSPost2010Prop52
140
1.0
102
RTVSPost2010PropOp52
 70
     0
102
RTVSPost2010Prop53
 90
        2
102
RTVSPost2010PropOp53
 70
     1
102
RTVSPost2010Prop54
  1
strokes_ogs.tif
102
RTVSPost2010PropOp54
 70
     1
102
RTVSPost2010Prop55
280
     0
102
RTVSPost2010PropOp55
 70
     1
102
RTVSPost2010Prop56
140
1.0
102
RTVSPost2010PropOp56
 70
     1
102
RTVSPost2010Prop57
140
1.0
102
RTVSPost2010PropOp57
 70
     1
  0
XRECORD
  5
281
102
{ACAD_REACTORS
330
280
102
}
330
280
100
AcDbXrecord
280
     1
102
RTVSPropertyOp0
 70
     1
102
RTVSPropertyOp1
 70
     1
102
RTVSPropertyOp2
 70
     1
102
RTVSPropertyOp3
 70
     1
102
RTVSPropertyOp4
 70
     1
102
RTVSPropertyOp5
 70
     1
102
RTVSPropertyOp6
 70
     1
102
RTVSPropertyOp7
 70
     1
102
RTVSPropertyOp8
 70
     1
102
RTVSPropertyOp9
 70
     1
102
RTVSPropertyOp10
 70
     1
102
RTVSPropertyOp11
 70
     1
102
RTVSPropertyOp12
 70
     1
102
RTVSPropertyOp13
 70
     1
102
RTVSPropertyOp14
 70
     1
102
RTVSPropertyOp15
 70
     1
102
RTVSPropertyOp16
 70
     1
102
RTVSPropertyOp17
 70
     1
102
RTVSPropertyOp18
 70
     1
102
RTVSPropertyOp19
 70
     1
102
RTVSPropertyOp20
 70
     1
102
RTVSPropertyOp21
 70
     1
102
RTVSPropertyOp22
 70
     1
102
RTVSPropertyOp23
 70
     1
102
RTVSPropertyOp24
 70
     1
102
RTVSPropertyOp25
 70
     1
102
RTVSPropertyOp26
 70
     1
102
RTVSPropertyOp27
 70
     1
102
RTVSPropertyOp28
 70
     1
102
RTVSPropertyOp29
 70
     1
102
RTVSPropertyOp30
 70
     1
102
RTVSPropertyOp31
 70
     1
102
RTVSPropertyOp32
 70
     1
102
RTVSPropertyOp33
 70
     1
102
RTVSPropertyOp34
 70
     1
102
RTVSPropertyOp35
 70
     1
102
RTVSPropertyOp36
 70
     1
102
RTVSPropertyOp37
 70
     1
102
RTVSPropertyOp38
 70
     1
102
RTVSPropertyOp39
 70
     1
102
RTVSPropertyOp40
 70
     1
102
RTVSPropertyOp41
 70
     1
102
RTVSPropertyOp42
 70
     1
102
RTVSPropertyOp43
 70
     1
102
RTVSPropertyOp44
 70
     1
102
RTVSPropertyOp45
 70
     1
102
RTVSPropertyOp46
 70
     1
102
RTVSPropertyOp47
 70
     1
102
RTVSPropertyOp48
 70
     1
102
RTVSPropertyOp49
 70
     1
102
RTVSPropertyOp50
 70
     1
102
RTVSPropertyOp51
 70
     0
102
RTVSPropertyOp52
 70
     0
102
RTVSPropertyOp53
 70
     1
102
RTVSPropertyOp54
 70
     1
102
RTVSPropertyOp55
 70
     1
102
RTVSPropertyOp56
 70
     1
102
RTVSPropertyOp57
 70
     1
102
RTVSPost2010Prop28
280
     0
102
RTVSPost2010PropOp28
 70
     1
102
RTVSPost2010Prop29
280
     1
102
RTVSPost2010PropOp29
 70
     1
102
RTVSPost2010Prop30
280
     1
102
RTVSPost2010PropOp30
 70
     1
102
RTVSPost2010Prop31
280
     0
102
RTVSPost2010PropOp31
 70
     1
102
RTVSPost2010Prop32
280
     0
102
RTVSPost2010PropOp32
 70
     1
102
RTVSPost2010Prop33
280
     0
102
RTVSPost2010PropOp33
 70
     1
102
RTVSPost2010Prop34
280
     0
102
RTVSPost2010PropOp34
 70
     1
102
RTVSPost2010Prop35
280
     0
102
RTVSPost2010PropOp35
 70
     1
102
RTVSPost2010Prop36
280
     0
102
RTVSPost2010PropOp36
 70
     1
102
RTVSPost2010Prop37
 90
       50
102
RTVSPost2010PropOp37
 70
     1
102
RTVSPost2010Prop38
140
0.0
102
RTVSPost2010PropOp38
 70
     1
102
RTVSPost2010Prop39
140
1.0
102
RTVSPost2010PropOp39
 70
     1
102
RTVSPost2010Prop40
 90
        0
102
RTVSPost2010PropOp40
 70
     1
102
RTVSPost2010Prop41ColorIndex
 90
       18
102
RTVSPost2010Prop41ColorRGB
 90
        0
102
RTVSPost2010PropOp41
 70
     1
102
RTVSPost2010Prop42
 90
       50
102
RTVSPost2010PropOp42
 70
     1
102
RTVSPost2010Prop43
 90
        3
102
RTVSPost2010PropOp43
 70
     1
102
RTVSPost2010Prop44ColorIndex
 90
        5
102
RTVSPost2010Prop44ColorRGB
 90
      255
102
RTVSPost2010PropOp44
 70
     1
102
RTVSPost2010Prop45
280
     0
102
RTVSPost2010PropOp45
 70
     1
102
RTVSPost2010Prop46
 90
       50
102
RTVSPost2010PropOp46
 70
     1
102
RTVSPost2010Prop47
 90
       50
102
RTVSPost2010PropOp47
 70
     1
102
RTVSPost2010Prop48
 90
       50
102
RTVSPost2010PropOp48
 70
     1
102
RTVSPost2010Prop49
280
     0
102
RTVSPost2010PropOp49
 70
     1
102
RTVSPost2010Prop50
 90
       50
102
RTVSPost2010PropOp50
 70
     1
102
RTVSPost2010Prop51ColorIndex
 90
      256
102
RTVSPost2010Prop51ColorRGB
 90
-16777216
102
RTVSPost2010PropOp51
 70
     0
102
RTVSPost2010Prop52
140
1.0
102
RTVSPost2010PropOp52
 70
     0
102
RTVSPost2010Prop53
 90
        2
102
RTVSPost2010PropOp53
 70
     1
102
RTVSPost2010Prop54
  1
strokes_ogs.tif
102
RTVSPost2010PropOp54
 70
     1
102
RTVSPost2010Prop55
280
     0
102
RTVSPost2010PropOp55
 70
     1
102
RTVSPost2010Prop56
140
1.0
102
RTVSPost2010PropOp56
 70
     1
102
RTVSPost2010Prop57
140
1.0
102
RTVSPost2010PropOp57
 70
     1
  0
XRECORD
  5
289
102
{ACAD_REACTORS
330
288
102
}
330
288
100
AcDbXrecord
280
     1
102
RTVSPropertyOp0
 70
     1
102
RTVSPropertyOp1
 70
     1
102
RTVSPropertyOp2
 70
     1
102
RTVSPropertyOp3
 70
     1
102
RTVSPropertyOp4
 70
     1
102
RTVSPropertyOp5
 70
     1
102
RTVSPropertyOp6
 70
     1
102
RTVSPropertyOp7
 70
     1
102
RTVSPropertyOp8
 70
     1
102
RTVSPropertyOp9
 70
     1
102
RTVSPropertyOp10
 70
     1
102
RTVSPropertyOp11
 70
     1
102
RTVSPropertyOp12
 70
     1
102
RTVSPropertyOp13
 70
     1
102
RTVSPropertyOp14
 70
     1
102
RTVSPropertyOp15
 70
     1
102
RTVSPropertyOp16
 70
     1
102
RTVSPropertyOp17
 70
     1
102
RTVSPropertyOp18
 70
     1
102
RTVSPropertyOp19
 70
     1
102
RTVSPropertyOp20
 70
     1
102
RTVSPropertyOp21
 70
     1
102
RTVSPropertyOp22
 70
     1
102
RTVSPropertyOp23
 70
     1
102
RTVSPropertyOp24
 70
     1
102
RTVSPropertyOp25
 70
     1
102
RTVSPropertyOp26
 70
     1
102
RTVSPropertyOp27
 70
     1
102
RTVSPropertyOp28
 70
     1
102
RTVSPropertyOp29
 70
     1
102
RTVSPropertyOp30
 70
     1
102
RTVSPropertyOp31
 70
     1
102
RTVSPropertyOp32
 70
     1
102
RTVSPropertyOp33
 70
     1
102
RTVSPropertyOp34
 70
     1
102
RTVSPropertyOp35
 70
     1
102
RTVSPropertyOp36
 70
     1
102
RTVSPropertyOp37
 70
     1
102
RTVSPropertyOp38
 70
     1
102
RTVSPropertyOp39
 70
     1
102
RTVSPropertyOp40
 70
     1
102
RTVSPropertyOp41
 70
     1
102
RTVSPropertyOp42
 70
     1
102
RTVSPropertyOp43
 70
     1
102
RTVSPropertyOp44
 70
     1
102
RTVSPropertyOp45
 70
     1
102
RTVSPropertyOp46
 70
     1
102
RTVSPropertyOp47
 70
     1
102
RTVSPropertyOp48
 70
     1
102
RTVSPropertyOp49
 70
     1
102
RTVSPropertyOp50
 70
     1
102
RTVSPropertyOp51
 70
     0
102
RTVSPropertyOp52
 70
     0
102
RTVSPropertyOp53
 70
     1
102
RTVSPropertyOp54
 70
     1
102
RTVSPropertyOp55
 70
     1
102
RTVSPropertyOp56
 70
     1
102
RTVSPropertyOp57
 70
     1
102
RTVSPost2010Prop28
280
     0
102
RTVSPost2010PropOp28
 70
     1
102
RTVSPost2010Prop29
280
     1
102
RTVSPost2010PropOp29
 70
     1
102
RTVSPost2010Prop30
280
     1
102
RTVSPost2010PropOp30
 70
     1
102
RTVSPost2010Prop31
280
     0
102
RTVSPost2010PropOp31
 70
     1
102
RTVSPost2010Prop32
280
     0
102
RTVSPost2010PropOp32
 70
     1
102
RTVSPost2010Prop33
280
     0
102
RTVSPost2010PropOp33
 70
     1
102
RTVSPost2010Prop34
280
     0
102
RTVSPost2010PropOp34
 70
     1
102
RTVSPost2010Prop35
280
     0
102
RTVSPost2010PropOp35
 70
     1
102
RTVSPost2010Prop36
280
     0
102
RTVSPost2010PropOp36
 70
     1
102
RTVSPost2010Prop37
 90
       50
102
RTVSPost2010PropOp37
 70
     1
102
RTVSPost2010Prop38
140
0.0
102
RTVSPost2010PropOp38
 70
     1
102
RTVSPost2010Prop39
140
1.0
102
RTVSPost2010PropOp39
 70
     1
102
RTVSPost2010Prop40
 90
        0
102
RTVSPost2010PropOp40
 70
     1
102
RTVSPost2010Prop41ColorIndex
 90
       18
102
RTVSPost2010Prop41ColorRGB
 90
        0
102
RTVSPost2010PropOp41
 70
     1
102
RTVSPost2010Prop42
 90
       50
102
RTVSPost2010PropOp42
 70
     1
102
RTVSPost2010Prop43
 90
        3
102
RTVSPost2010PropOp43
 70
     1
102
RTVSPost2010Prop44ColorIndex
 90
        5
102
RTVSPost2010Prop44ColorRGB
 90
      255
102
RTVSPost2010PropOp44
 70
     1
102
RTVSPost2010Prop45
280
     0
102
RTVSPost2010PropOp45
 70
     1
102
RTVSPost2010Prop46
 90
       50
102
RTVSPost2010PropOp46
 70
     1
102
RTVSPost2010Prop47
 90
       50
102
RTVSPost2010PropOp47
 70
     1
102
RTVSPost2010Prop48
 90
       50
102
RTVSPost2010PropOp48
 70
     1
102
RTVSPost2010Prop49
280
     0
102
RTVSPost2010PropOp49
 70
     1
102
RTVSPost2010Prop50
 90
       50
102
RTVSPost2010PropOp50
 70
     1
102
RTVSPost2010Prop51ColorIndex
 90
      256
102
RTVSPost2010Prop51ColorRGB
 90
-16777216
102
RTVSPost2010PropOp51
 70
     0
102
RTVSPost2010Prop52
140
1.0
102
RTVSPost2010PropOp52
 70
     0
102
RTVSPost2010Prop53
 90
        2
102
RTVSPost2010PropOp53
 70
     1
102
RTVSPost2010Prop54
  1
strokes_ogs.tif
102
RTVSPost2010PropOp54
 70
     1
102
RTVSPost2010Prop55
280
     0
102
RTVSPost2010PropOp55
 70
     1
102
RTVSPost2010Prop56
140
1.0
102
RTVSPost2010PropOp56
 70
     1
102
RTVSPost2010Prop57
140
1.0
102
RTVSPost2010PropOp57
 70
     1
  0
XRECORD
  5
27D
102
{ACAD_REACTORS
330
27C
102
}
330
27C
100
AcDbXrecord
280
     1
102
RTVSPropertyOp0
 70
     1
102
RTVSPropertyOp1
 70
     1
102
RTVSPropertyOp2
 70
     1
102
RTVSPropertyOp3
 70
     1
102
RTVSPropertyOp4
 70
     1
102
RTVSPropertyOp5
 70
     1
102
RTVSPropertyOp6
 70
     1
102
RTVSPropertyOp7
 70
     1
102
RTVSPropertyOp8
 70
     1
102
RTVSPropertyOp9
 70
     1
102
RTVSPropertyOp10
 70
     1
102
RTVSPropertyOp11
 70
     1
102
RTVSPropertyOp12
 70
     1
102
RTVSPropertyOp13
 70
     1
102
RTVSPropertyOp14
 70
     1
102
RTVSPropertyOp15
 70
     1
102
RTVSPropertyOp16
 70
     1
102
RTVSPropertyOp17
 70
     1
102
RTVSPropertyOp18
 70
     1
102
RTVSPropertyOp19
 70
     1
102
RTVSPropertyOp20
 70
     1
102
RTVSPropertyOp21
 70
     1
102
RTVSPropertyOp22
 70
     1
102
RTVSPropertyOp23
 70
     1
102
RTVSPropertyOp24
 70
     1
102
RTVSPropertyOp25
 70
     1
102
RTVSPropertyOp26
 70
     1
102
RTVSPropertyOp27
 70
     1
102
RTVSPropertyOp28
 70
     1
102
RTVSPropertyOp29
 70
     1
102
RTVSPropertyOp30
 70
     1
102
RTVSPropertyOp31
 70
     1
102
RTVSPropertyOp32
 70
     1
102
RTVSPropertyOp33
 70
     1
102
RTVSPropertyOp34
 70
     1
102
RTVSPropertyOp35
 70
     1
102
RTVSPropertyOp36
 70
     1
102
RTVSPropertyOp37
 70
     1
102
RTVSPropertyOp38
 70
     1
102
RTVSPropertyOp39
 70
     1
102
RTVSPropertyOp40
 70
     1
102
RTVSPropertyOp41
 70
     1
102
RTVSPropertyOp42
 70
     1
102
RTVSPropertyOp43
 70
     1
102
RTVSPropertyOp44
 70
     1
102
RTVSPropertyOp45
 70
     1
102
RTVSPropertyOp46
 70
     1
102
RTVSPropertyOp47
 70
     1
102
RTVSPropertyOp48
 70
     1
102
RTVSPropertyOp49
 70
     1
102
RTVSPropertyOp50
 70
     1
102
RTVSPropertyOp51
 70
     0
102
RTVSPropertyOp52
 70
     0
102
RTVSPropertyOp53
 70
     1
102
RTVSPropertyOp54
 70
     1
102
RTVSPropertyOp55
 70
     1
102
RTVSPropertyOp56
 70
     1
102
RTVSPropertyOp57
 70
     1
102
RTVSPost2010Prop28
280
     0
102
RTVSPost2010PropOp28
 70
     1
102
RTVSPost2010Prop29
280
     1
102
RTVSPost2010PropOp29
 70
     1
102
RTVSPost2010Prop30
280
     1
102
RTVSPost2010PropOp30
 70
     1
102
RTVSPost2010Prop31
280
     0
102
RTVSPost2010PropOp31
 70
     1
102
RTVSPost2010Prop32
280
     0
102
RTVSPost2010PropOp32
 70
     1
102
RTVSPost2010Prop33
280
     0
102
RTVSPost2010PropOp33
 70
     1
102
RTVSPost2010Prop34
280
     0
102
RTVSPost2010PropOp34
 70
     1
102
RTVSPost2010Prop35
280
     0
102
RTVSPost2010PropOp35
 70
     1
102
RTVSPost2010Prop36
280
     0
102
RTVSPost2010PropOp36
 70
     1
102
RTVSPost2010Prop37
 90
       50
102
RTVSPost2010PropOp37
 70
     1
102
RTVSPost2010Prop38
140
0.0
102
RTVSPost2010PropOp38
 70
     1
102
RTVSPost2010Prop39
140
1.0
102
RTVSPost2010PropOp39
 70
     1
102
RTVSPost2010Prop40
 90
        0
102
RTVSPost2010PropOp40
 70
     1
102
RTVSPost2010Prop41ColorIndex
 90
       18
102
RTVSPost2010Prop41ColorRGB
 90
        0
102
RTVSPost2010PropOp41
 70
     1
102
RTVSPost2010Prop42
 90
       50
102
RTVSPost2010PropOp42
 70
     1
102
RTVSPost2010Prop43
 90
        3
102
RTVSPost2010PropOp43
 70
     1
102
RTVSPost2010Prop44ColorIndex
 90
        5
102
RTVSPost2010Prop44ColorRGB
 90
      255
102
RTVSPost2010PropOp44
 70
     1
102
RTVSPost2010Prop45
280
     0
102
RTVSPost2010PropOp45
 70
     1
102
RTVSPost2010Prop46
 90
       50
102
RTVSPost2010PropOp46
 70
     1
102
RTVSPost2010Prop47
 90
       50
102
RTVSPost2010PropOp47
 70
     1
102
RTVSPost2010Prop48
 90
       50
102
RTVSPost2010PropOp48
 70
     1
102
RTVSPost2010Prop49
280
     0
102
RTVSPost2010PropOp49
 70
     1
102
RTVSPost2010Prop50
 90
       50
102
RTVSPost2010PropOp50
 70
     1
102
RTVSPost2010Prop51ColorIndex
 90
      256
102
RTVSPost2010Prop51ColorRGB
 90
-16777216
102
RTVSPost2010PropOp51
 70
     0
102
RTVSPost2010Prop52
140
1.0
102
RTVSPost2010PropOp52
 70
     0
102
RTVSPost2010Prop53
 90
        2
102
RTVSPost2010PropOp53
 70
     1
102
RTVSPost2010Prop54
  1
strokes_ogs.tif
102
RTVSPost2010PropOp54
 70
     1
102
RTVSPost2010Prop55
280
     0
102
RTVSPost2010PropOp55
 70
     1
102
RTVSPost2010Prop56
140
1.0
102
RTVSPost2010PropOp56
 70
     1
102
RTVSPost2010Prop57
140
1.0
102
RTVSPost2010PropOp57
 70
     1
  0
XRECORD
  5
27F
102
{ACAD_REACTORS
330
27E
102
}
330
27E
100
AcDbXrecord
280
     1
102
RTVSPropertyOp0
 70
     1
102
RTVSPropertyOp1
 70
     1
102
RTVSPropertyOp2
 70
     1
102
RTVSPropertyOp3
 70
     1
102
RTVSPropertyOp4
 70
     1
102
RTVSPropertyOp5
 70
     1
102
RTVSPropertyOp6
 70
     1
102
RTVSPropertyOp7
 70
     1
102
RTVSPropertyOp8
 70
     1
102
RTVSPropertyOp9
 70
     1
102
RTVSPropertyOp10
 70
     1
102
RTVSPropertyOp11
 70
     1
102
RTVSPropertyOp12
 70
     1
102
RTVSPropertyOp13
 70
     1
102
RTVSPropertyOp14
 70
     1
102
RTVSPropertyOp15
 70
     1
102
RTVSPropertyOp16
 70
     1
102
RTVSPropertyOp17
 70
     1
102
RTVSPropertyOp18
 70
     1
102
RTVSPropertyOp19
 70
     1
102
RTVSPropertyOp20
 70
     1
102
RTVSPropertyOp21
 70
     1
102
RTVSPropertyOp22
 70
     1
102
RTVSPropertyOp23
 70
     1
102
RTVSPropertyOp24
 70
     1
102
RTVSPropertyOp25
 70
     1
102
RTVSPropertyOp26
 70
     1
102
RTVSPropertyOp27
 70
     1
102
RTVSPropertyOp28
 70
     1
102
RTVSPropertyOp29
 70
     1
102
RTVSPropertyOp30
 70
     1
102
RTVSPropertyOp31
 70
     1
102
RTVSPropertyOp32
 70
     1
102
RTVSPropertyOp33
 70
     1
102
RTVSPropertyOp34
 70
     1
102
RTVSPropertyOp35
 70
     1
102
RTVSPropertyOp36
 70
     1
102
RTVSPropertyOp37
 70
     1
102
RTVSPropertyOp38
 70
     1
102
RTVSPropertyOp39
 70
     1
102
RTVSPropertyOp40
 70
     1
102
RTVSPropertyOp41
 70
     1
102
RTVSPropertyOp42
 70
     1
102
RTVSPropertyOp43
 70
     1
102
RTVSPropertyOp44
 70
     1
102
RTVSPropertyOp45
 70
     1
102
RTVSPropertyOp46
 70
     1
102
RTVSPropertyOp47
 70
     1
102
RTVSPropertyOp48
 70
     1
102
RTVSPropertyOp49
 70
     1
102
RTVSPropertyOp50
 70
     1
102
RTVSPropertyOp51
 70
     0
102
RTVSPropertyOp52
 70
     0
102
RTVSPropertyOp53
 70
     1
102
RTVSPropertyOp54
 70
     1
102
RTVSPropertyOp55
 70
     1
102
RTVSPropertyOp56
 70
     1
102
RTVSPropertyOp57
 70
     1
102
RTVSPost2010Prop28
280
     0
102
RTVSPost2010PropOp28
 70
     1
102
RTVSPost2010Prop29
280
     1
102
RTVSPost2010PropOp29
 70
     1
102
RTVSPost2010Prop30
280
     1
102
RTVSPost2010PropOp30
 70
     1
102
RTVSPost2010Prop31
280
     0
102
RTVSPost2010PropOp31
 70
     1
102
RTVSPost2010Prop32
280
     0
102
RTVSPost2010PropOp32
 70
     1
102
RTVSPost2010Prop33
280
     0
102
RTVSPost2010PropOp33
 70
     1
102
RTVSPost2010Prop34
280
     0
102
RTVSPost2010PropOp34
 70
     1
102
RTVSPost2010Prop35
280
     0
102
RTVSPost2010PropOp35
 70
     1
102
RTVSPost2010Prop36
280
     0
102
RTVSPost2010PropOp36
 70
     1
102
RTVSPost2010Prop37
 90
       50
102
RTVSPost2010PropOp37
 70
     1
102
RTVSPost2010Prop38
140
0.0
102
RTVSPost2010PropOp38
 70
     1
102
RTVSPost2010Prop39
140
1.0
102
RTVSPost2010PropOp39
 70
     1
102
RTVSPost2010Prop40
 90
        0
102
RTVSPost2010PropOp40
 70
     1
102
RTVSPost2010Prop41ColorIndex
 90
       18
102
RTVSPost2010Prop41ColorRGB
 90
        0
102
RTVSPost2010PropOp41
 70
     1
102
RTVSPost2010Prop42
 90
       50
102
RTVSPost2010PropOp42
 70
     1
102
RTVSPost2010Prop43
 90
        3
102
RTVSPost2010PropOp43
 70
     1
102
RTVSPost2010Prop44ColorIndex
 90
        5
102
RTVSPost2010Prop44ColorRGB
 90
      255
102
RTVSPost2010PropOp44
 70
     1
102
RTVSPost2010Prop45
280
     0
102
RTVSPost2010PropOp45
 70
     1
102
RTVSPost2010Prop46
 90
       50
102
RTVSPost2010PropOp46
 70
     1
102
RTVSPost2010Prop47
 90
       50
102
RTVSPost2010PropOp47
 70
     1
102
RTVSPost2010Prop48
 90
       50
102
RTVSPost2010PropOp48
 70
     1
102
RTVSPost2010Prop49
280
     0
102
RTVSPost2010PropOp49
 70
     1
102
RTVSPost2010Prop50
 90
       50
102
RTVSPost2010PropOp50
 70
     1
102
RTVSPost2010Prop51ColorIndex
 90
      256
102
RTVSPost2010Prop51ColorRGB
 90
-16777216
102
RTVSPost2010PropOp51
 70
     0
102
RTVSPost2010Prop52
140
1.0
102
RTVSPost2010PropOp52
 70
     0
102
RTVSPost2010Prop53
 90
        2
102
RTVSPost2010PropOp53
 70
     1
102
RTVSPost2010Prop54
  1
strokes_ogs.tif
102
RTVSPost2010PropOp54
 70
     1
102
RTVSPost2010Prop55
280
     0
102
RTVSPost2010PropOp55
 70
     1
102
RTVSPost2010Prop56
140
1.0
102
RTVSPost2010PropOp56
 70
     1
102
RTVSPost2010Prop57
140
1.0
102
RTVSPost2010PropOp57
 70
     1
  0
XRECORD
  5
28F
102
{ACAD_REACTORS
330
28E
102
}
330
28E
100
AcDbXrecord
280
     1
102
RTVSPropertyOp0
 70
     0
102
RTVSPropertyOp1
 70
     0
102
RTVSPropertyOp2
 70
     0
102
RTVSPropertyOp3
 70
     0
102
RTVSPropertyOp4
 70
     0
102
RTVSPropertyOp5
 70
     0
102
RTVSPropertyOp6
 70
     0
102
RTVSPropertyOp7
 70
     0
102
RTVSPropertyOp8
 70
     0
102
RTVSPropertyOp9
 70
     0
102
RTVSPropertyOp10
 70
     0
102
RTVSPropertyOp11
 70
     0
102
RTVSPropertyOp12
 70
     0
102
RTVSPropertyOp13
 70
     0
102
RTVSPropertyOp14
 70
     2
102
RTVSPropertyOp15
 70
     0
102
RTVSPropertyOp16
 70
     0
102
RTVSPropertyOp17
 70
     0
102
RTVSPropertyOp18
 70
     0
102
RTVSPropertyOp19
 70
     0
102
RTVSPropertyOp20
 70
     0
102
RTVSPropertyOp21
 70
     0
102
RTVSPropertyOp22
 70
     0
102
RTVSPropertyOp23
 70
     0
102
RTVSPropertyOp24
 70
     0
102
RTVSPropertyOp25
 70
     0
102
RTVSPropertyOp26
 70
     0
102
RTVSPropertyOp27
 70
     0
102
RTVSPropertyOp28
 70
     0
102
RTVSPropertyOp29
 70
     0
102
RTVSPropertyOp30
 70
     0
102
RTVSPropertyOp31
 70
     0
102
RTVSPropertyOp32
 70
     0
102
RTVSPropertyOp33
 70
     0
102
RTVSPropertyOp34
 70
     0
102
RTVSPropertyOp35
 70
     0
102
RTVSPropertyOp36
 70
     0
102
RTVSPropertyOp37
 70
     0
102
RTVSPropertyOp38
 70
     0
102
RTVSPropertyOp39
 70
     0
102
RTVSPropertyOp40
 70
     0
102
RTVSPropertyOp41
 70
     0
102
RTVSPropertyOp42
 70
     0
102
RTVSPropertyOp43
 70
     0
102
RTVSPropertyOp44
 70
     0
102
RTVSPropertyOp45
 70
     0
102
RTVSPropertyOp46
 70
     0
102
RTVSPropertyOp47
 70
     0
102
RTVSPropertyOp48
 70
     0
102
RTVSPropertyOp49
 70
     0
102
RTVSPropertyOp50
 70
     0
102
RTVSPropertyOp51
 70
     0
102
RTVSPropertyOp52
 70
     0
102
RTVSPropertyOp53
 70
     0
102
RTVSPropertyOp54
 70
     0
102
RTVSPropertyOp55
 70
     0
102
RTVSPropertyOp56
 70
     0
102
RTVSPropertyOp57
 70
     0
102
RTVSPost2010Prop28
280
     0
102
RTVSPost2010PropOp28
 70
     0
102
RTVSPost2010Prop29
280
     1
102
RTVSPost2010PropOp29
 70
     0
102
RTVSPost2010Prop30
280
     1
102
RTVSPost2010PropOp30
 70
     0
102
RTVSPost2010Prop31
280
     0
102
RTVSPost2010PropOp31
 70
     0
102
RTVSPost2010Prop32
280
     0
102
RTVSPost2010PropOp32
 70
     0
102
RTVSPost2010Prop33
280
     0
102
RTVSPost2010PropOp33
 70
     0
102
RTVSPost2010Prop34
280
     0
102
RTVSPost2010PropOp34
 70
     0
102
RTVSPost2010Prop35
280
     0
102
RTVSPost2010PropOp35
 70
     0
102
RTVSPost2010Prop36
280
     0
102
RTVSPost2010PropOp36
 70
     0
102
RTVSPost2010Prop37
 90
       50
102
RTVSPost2010PropOp37
 70
     0
102
RTVSPost2010Prop38
140
0.0
102
RTVSPost2010PropOp38
 70
     0
102
RTVSPost2010Prop39
140
1.0
102
RTVSPost2010PropOp39
 70
     0
102
RTVSPost2010Prop40
 90
        0
102
RTVSPost2010PropOp40
 70
     0
102
RTVSPost2010Prop41ColorIndex
 90
       18
102
RTVSPost2010Prop41ColorRGB
 90
        0
102
RTVSPost2010PropOp41
 70
     0
102
RTVSPost2010Prop42
 90
       50
102
RTVSPost2010PropOp42
 70
     0
102
RTVSPost2010Prop43
 90
        3
102
RTVSPost2010PropOp43
 70
     0
102
RTVSPost2010Prop44ColorIndex
 90
        5
102
RTVSPost2010Prop44ColorRGB
 90
      255
102
RTVSPost2010PropOp44
 70
     0
102
RTVSPost2010Prop45
280
     0
102
RTVSPost2010PropOp45
 70
     0
102
RTVSPost2010Prop46
 90
       50
102
RTVSPost2010PropOp46
 70
     0
102
RTVSPost2010Prop47
 90
       50
102
RTVSPost2010PropOp47
 70
     0
102
RTVSPost2010Prop48
 90
       50
102
RTVSPost2010PropOp48
 70
     0
102
RTVSPost2010Prop49
280
     0
102
RTVSPost2010PropOp49
 70
     0
102
RTVSPost2010Prop50
 90
       50
102
RTVSPost2010PropOp50
 70
     0
102
RTVSPost2010Prop51ColorIndex
 90
      256
102
RTVSPost2010Prop51ColorRGB
 90
-16777216
102
RTVSPost2010PropOp51
 70
     0
102
RTVSPost2010Prop52
140
1.0
102
RTVSPost2010PropOp52
 70
     0
102
RTVSPost2010Prop53
 90
        2
102
RTVSPost2010PropOp53
 70
     0
102
RTVSPost2010Prop54
  1
strokes_ogs.tif
102
RTVSPost2010PropOp54
 70
     0
102
RTVSPost2010Prop55
280
     0
102
RTVSPost2010PropOp55
 70
     0
102
RTVSPost2010Prop56
140
1.0
102
RTVSPost2010PropOp56
 70
     0
102
RTVSPost2010Prop57
140
1.0
102
RTVSPost2010PropOp57
 70
     0
  0
XRECORD
  5
287
102
{ACAD_REACTORS
330
286
102
}
330
286
100
AcDbXrecord
280
     1
102
RTVSPropertyOp0
 70
     1
102
RTVSPropertyOp1
 70
     1
102
RTVSPropertyOp2
 70
     1
102
RTVSPropertyOp3
 70
     1
102
RTVSPropertyOp4
 70
     1
102
RTVSPropertyOp5
 70
     1
102
RTVSPropertyOp6
 70
     1
102
RTVSPropertyOp7
 70
     1
102
RTVSPropertyOp8
 70
     1
102
RTVSPropertyOp9
 70
     1
102
RTVSPropertyOp10
 70
     1
102
RTVSPropertyOp11
 70
     1
102
RTVSPropertyOp12
 70
     1
102
RTVSPropertyOp13
 70
     1
102
RTVSPropertyOp14
 70
     1
102
RTVSPropertyOp15
 70
     1
102
RTVSPropertyOp16
 70
     1
102
RTVSPropertyOp17
 70
     1
102
RTVSPropertyOp18
 70
     1
102
RTVSPropertyOp19
 70
     1
102
RTVSPropertyOp20
 70
     1
102
RTVSPropertyOp21
 70
     1
102
RTVSPropertyOp22
 70
     1
102
RTVSPropertyOp23
 70
     1
102
RTVSPropertyOp24
 70
     1
102
RTVSPropertyOp25
 70
     1
102
RTVSPropertyOp26
 70
     1
102
RTVSPropertyOp27
 70
     1
102
RTVSPropertyOp28
 70
     1
102
RTVSPropertyOp29
 70
     1
102
RTVSPropertyOp30
 70
     1
102
RTVSPropertyOp31
 70
     1
102
RTVSPropertyOp32
 70
     1
102
RTVSPropertyOp33
 70
     1
102
RTVSPropertyOp34
 70
     1
102
RTVSPropertyOp35
 70
     1
102
RTVSPropertyOp36
 70
     1
102
RTVSPropertyOp37
 70
     1
102
RTVSPropertyOp38
 70
     1
102
RTVSPropertyOp39
 70
     1
102
RTVSPropertyOp40
 70
     1
102
RTVSPropertyOp41
 70
     1
102
RTVSPropertyOp42
 70
     1
102
RTVSPropertyOp43
 70
     1
102
RTVSPropertyOp44
 70
     1
102
RTVSPropertyOp45
 70
     1
102
RTVSPropertyOp46
 70
     1
102
RTVSPropertyOp47
 70
     1
102
RTVSPropertyOp48
 70
     1
102
RTVSPropertyOp49
 70
     1
102
RTVSPropertyOp50
 70
     1
102
RTVSPropertyOp51
 70
     0
102
RTVSPropertyOp52
 70
     0
102
RTVSPropertyOp53
 70
     1
102
RTVSPropertyOp54
 70
     1
102
RTVSPropertyOp55
 70
     1
102
RTVSPropertyOp56
 70
     1
102
RTVSPropertyOp57
 70
     1
102
RTVSPost2010Prop28
280
     0
102
RTVSPost2010PropOp28
 70
     1
102
RTVSPost2010Prop29
280
     1
102
RTVSPost2010PropOp29
 70
     1
102
RTVSPost2010Prop30
280
     1
102
RTVSPost2010PropOp30
 70
     1
102
RTVSPost2010Prop31
280
     0
102
RTVSPost2010PropOp31
 70
     1
102
RTVSPost2010Prop32
280
     0
102
RTVSPost2010PropOp32
 70
     1
102
RTVSPost2010Prop33
280
     0
102
RTVSPost2010PropOp33
 70
     1
102
RTVSPost2010Prop34
280
     0
102
RTVSPost2010PropOp34
 70
     1
102
RTVSPost2010Prop35
280
     0
102
RTVSPost2010PropOp35
 70
     1
102
RTVSPost2010Prop36
280
     0
102
RTVSPost2010PropOp36
 70
     1
102
RTVSPost2010Prop37
 90
       50
102
RTVSPost2010PropOp37
 70
     1
102
RTVSPost2010Prop38
140
0.0
102
RTVSPost2010PropOp38
 70
     1
102
RTVSPost2010Prop39
140
1.0
102
RTVSPost2010PropOp39
 70
     1
102
RTVSPost2010Prop40
 90
        0
102
RTVSPost2010PropOp40
 70
     1
102
RTVSPost2010Prop41ColorIndex
 90
       18
102
RTVSPost2010Prop41ColorRGB
 90
        0
102
RTVSPost2010PropOp41
 70
     1
102
RTVSPost2010Prop42
 90
       50
102
RTVSPost2010PropOp42
 70
     1
102
RTVSPost2010Prop43
 90
        3
102
RTVSPost2010PropOp43
 70
     1
102
RTVSPost2010Prop44ColorIndex
 90
        5
102
RTVSPost2010Prop44ColorRGB
 90
      255
102
RTVSPost2010PropOp44
 70
     1
102
RTVSPost2010Prop45
280
     0
102
RTVSPost2010PropOp45
 70
     1
102
RTVSPost2010Prop46
 90
       50
102
RTVSPost2010PropOp46
 70
     1
102
RTVSPost2010Prop47
 90
       50
102
RTVSPost2010PropOp47
 70
     1
102
RTVSPost2010Prop48
 90
       50
102
RTVSPost2010PropOp48
 70
     1
102
RTVSPost2010Prop49
280
     0
102
RTVSPost2010PropOp49
 70
     1
102
RTVSPost2010Prop50
 90
       50
102
RTVSPost2010PropOp50
 70
     1
102
RTVSPost2010Prop51ColorIndex
 90
      256
102
RTVSPost2010Prop51ColorRGB
 90
-16777216
102
RTVSPost2010PropOp51
 70
     0
102
RTVSPost2010Prop52
140
1.0
102
RTVSPost2010PropOp52
 70
     0
102
RTVSPost2010Prop53
 90
        2
102
RTVSPost2010PropOp53
 70
     1
102
RTVSPost2010Prop54
  1
strokes_ogs.tif
102
RTVSPost2010PropOp54
 70
     1
102
RTVSPost2010Prop55
280
     0
102
RTVSPost2010PropOp55
 70
     1
102
RTVSPost2010Prop56
140
1.0
102
RTVSPost2010PropOp56
 70
     1
102
RTVSPost2010Prop57
140
1.0
102
RTVSPost2010PropOp57
 70
     1
  0
XRECORD
  5
26B
102
{ACAD_REACTORS
330
26A
102
}
330
26A
100
AcDbXrecord
280
     1
102
RTVSPropertyOp0
 70
     1
102
RTVSPropertyOp1
 70
     1
102
RTVSPropertyOp2
 70
     1
102
RTVSPropertyOp3
 70
     1
102
RTVSPropertyOp4
 70
     1
102
RTVSPropertyOp5
 70
     1
102
RTVSPropertyOp6
 70
     1
102
RTVSPropertyOp7
 70
     1
102
RTVSPropertyOp8
 70
     1
102
RTVSPropertyOp9
 70
     1
102
RTVSPropertyOp10
 70
     1
102
RTVSPropertyOp11
 70
     1
102
RTVSPropertyOp12
 70
     1
102
RTVSPropertyOp13
 70
     1
102
RTVSPropertyOp14
 70
     1
102
RTVSPropertyOp15
 70
     1
102
RTVSPropertyOp16
 70
     1
102
RTVSPropertyOp17
 70
     1
102
RTVSPropertyOp18
 70
     1
102
RTVSPropertyOp19
 70
     1
102
RTVSPropertyOp20
 70
     1
102
RTVSPropertyOp21
 70
     1
102
RTVSPropertyOp22
 70
     1
102
RTVSPropertyOp23
 70
     1
102
RTVSPropertyOp24
 70
     1
102
RTVSPropertyOp25
 70
     1
102
RTVSPropertyOp26
 70
     1
102
RTVSPropertyOp27
 70
     1
102
RTVSPropertyOp28
 70
     1
102
RTVSPropertyOp29
 70
     1
102
RTVSPropertyOp30
 70
     1
102
RTVSPropertyOp31
 70
     1
102
RTVSPropertyOp32
 70
     1
102
RTVSPropertyOp33
 70
     1
102
RTVSPropertyOp34
 70
     1
102
RTVSPropertyOp35
 70
     1
102
RTVSPropertyOp36
 70
     1
102
RTVSPropertyOp37
 70
     1
102
RTVSPropertyOp38
 70
     1
102
RTVSPropertyOp39
 70
     1
102
RTVSPropertyOp40
 70
     1
102
RTVSPropertyOp41
 70
     1
102
RTVSPropertyOp42
 70
     1
102
RTVSPropertyOp43
 70
     1
102
RTVSPropertyOp44
 70
     1
102
RTVSPropertyOp45
 70
     1
102
RTVSPropertyOp46
 70
     1
102
RTVSPropertyOp47
 70
     1
102
RTVSPropertyOp48
 70
     1
102
RTVSPropertyOp49
 70
     1
102
RTVSPropertyOp50
 70
     1
102
RTVSPropertyOp51
 70
     0
102
RTVSPropertyOp52
 70
     0
102
RTVSPropertyOp53
 70
     1
102
RTVSPropertyOp54
 70
     1
102
RTVSPropertyOp55
 70
     1
102
RTVSPropertyOp56
 70
     1
102
RTVSPropertyOp57
 70
     1
102
RTVSPost2010Prop28
280
     0
102
RTVSPost2010PropOp28
 70
     1
102
RTVSPost2010Prop29
280
     1
102
RTVSPost2010PropOp29
 70
     1
102
RTVSPost2010Prop30
280
     1
102
RTVSPost2010PropOp30
 70
     1
102
RTVSPost2010Prop31
280
     0
102
RTVSPost2010PropOp31
 70
     1
102
RTVSPost2010Prop32
280
     0
102
RTVSPost2010PropOp32
 70
     1
102
RTVSPost2010Prop33
280
     0
102
RTVSPost2010PropOp33
 70
     1
102
RTVSPost2010Prop34
280
     0
102
RTVSPost2010PropOp34
 70
     1
102
RTVSPost2010Prop35
280
     0
102
RTVSPost2010PropOp35
 70
     1
102
RTVSPost2010Prop36
280
     0
102
RTVSPost2010PropOp36
 70
     1
102
RTVSPost2010Prop37
 90
       50
102
RTVSPost2010PropOp37
 70
     1
102
RTVSPost2010Prop38
140
0.0
102
RTVSPost2010PropOp38
 70
     1
102
RTVSPost2010Prop39
140
1.0
102
RTVSPost2010PropOp39
 70
     1
102
RTVSPost2010Prop40
 90
        0
102
RTVSPost2010PropOp40
 70
     1
102
RTVSPost2010Prop41ColorIndex
 90
       18
102
RTVSPost2010Prop41ColorRGB
 90
        0
102
RTVSPost2010PropOp41
 70
     1
102
RTVSPost2010Prop42
 90
       50
102
RTVSPost2010PropOp42
 70
     1
102
RTVSPost2010Prop43
 90
        3
102
RTVSPost2010PropOp43
 70
     1
102
RTVSPost2010Prop44ColorIndex
 90
        5
102
RTVSPost2010Prop44ColorRGB
 90
      255
102
RTVSPost2010PropOp44
 70
     1
102
RTVSPost2010Prop45
280
     0
102
RTVSPost2010PropOp45
 70
     1
102
RTVSPost2010Prop46
 90
       50
102
RTVSPost2010PropOp46
 70
     1
102
RTVSPost2010Prop47
 90
       50
102
RTVSPost2010PropOp47
 70
     1
102
RTVSPost2010Prop48
 90
       50
102
RTVSPost2010PropOp48
 70
     1
102
RTVSPost2010Prop49
280
     0
102
RTVSPost2010PropOp49
 70
     1
102
RTVSPost2010Prop50
 90
       50
102
RTVSPost2010PropOp50
 70
     1
102
RTVSPost2010Prop51ColorIndex
 90
      256
102
RTVSPost2010Prop51ColorRGB
 90
-16777216
102
RTVSPost2010PropOp51
 70
     0
102
RTVSPost2010Prop52
140
1.0
102
RTVSPost2010PropOp52
 70
     0
102
RTVSPost2010Prop53
 90
        2
102
RTVSPost2010PropOp53
 70
     1
102
RTVSPost2010Prop54
  1
strokes_ogs.tif
102
RTVSPost2010PropOp54
 70
     1
102
RTVSPost2010Prop55
280
     0
102
RTVSPost2010PropOp55
 70
     1
102
RTVSPost2010Prop56
140
1.0
102
RTVSPost2010PropOp56
 70
     1
102
RTVSPost2010Prop57
140
1.0
102
RTVSPost2010PropOp57
 70
     1
  0
XRECORD
  5
26D
102
{ACAD_REACTORS
330
26C
102
}
330
26C
100
AcDbXrecord
280
     1
102
RTVSPropertyOp0
 70
     1
102
RTVSPropertyOp1
 70
     1
102
RTVSPropertyOp2
 70
     1
102
RTVSPropertyOp3
 70
     1
102
RTVSPropertyOp4
 70
     1
102
RTVSPropertyOp5
 70
     1
102
RTVSPropertyOp6
 70
     1
102
RTVSPropertyOp7
 70
     1
102
RTVSPropertyOp8
 70
     1
102
RTVSPropertyOp9
 70
     1
102
RTVSPropertyOp10
 70
     1
102
RTVSPropertyOp11
 70
     1
102
RTVSPropertyOp12
 70
     1
102
RTVSPropertyOp13
 70
     1
102
RTVSPropertyOp14
 70
     1
102
RTVSPropertyOp15
 70
     1
102
RTVSPropertyOp16
 70
     1
102
RTVSPropertyOp17
 70
     1
102
RTVSPropertyOp18
 70
     1
102
RTVSPropertyOp19
 70
     1
102
RTVSPropertyOp20
 70
     1
102
RTVSPropertyOp21
 70
     1
102
RTVSPropertyOp22
 70
     1
102
RTVSPropertyOp23
 70
     1
102
RTVSPropertyOp24
 70
     1
102
RTVSPropertyOp25
 70
     1
102
RTVSPropertyOp26
 70
     1
102
RTVSPropertyOp27
 70
     1
102
RTVSPropertyOp28
 70
     1
102
RTVSPropertyOp29
 70
     1
102
RTVSPropertyOp30
 70
     1
102
RTVSPropertyOp31
 70
     1
102
RTVSPropertyOp32
 70
     1
102
RTVSPropertyOp33
 70
     1
102
RTVSPropertyOp34
 70
     1
102
RTVSPropertyOp35
 70
     1
102
RTVSPropertyOp36
 70
     1
102
RTVSPropertyOp37
 70
     1
102
RTVSPropertyOp38
 70
     1
102
RTVSPropertyOp39
 70
     1
102
RTVSPropertyOp40
 70
     1
102
RTVSPropertyOp41
 70
     1
102
RTVSPropertyOp42
 70
     1
102
RTVSPropertyOp43
 70
     1
102
RTVSPropertyOp44
 70
     1
102
RTVSPropertyOp45
 70
     1
102
RTVSPropertyOp46
 70
     1
102
RTVSPropertyOp47
 70
     1
102
RTVSPropertyOp48
 70
     1
102
RTVSPropertyOp49
 70
     1
102
RTVSPropertyOp50
 70
     1
102
RTVSPropertyOp51
 70
     0
102
RTVSPropertyOp52
 70
     0
102
RTVSPropertyOp53
 70
     1
102
RTVSPropertyOp54
 70
     1
102
RTVSPropertyOp55
 70
     1
102
RTVSPropertyOp56
 70
     1
102
RTVSPropertyOp57
 70
     1
102
RTVSPost2010Prop28
280
     0
102
RTVSPost2010PropOp28
 70
     1
102
RTVSPost2010Prop29
280
     1
102
RTVSPost2010PropOp29
 70
     1
102
RTVSPost2010Prop30
280
     1
102
RTVSPost2010PropOp30
 70
     1
102
RTVSPost2010Prop31
280
     0
102
RTVSPost2010PropOp31
 70
     1
102
RTVSPost2010Prop32
280
     0
102
RTVSPost2010PropOp32
 70
     1
102
RTVSPost2010Prop33
280
     0
102
RTVSPost2010PropOp33
 70
     1
102
RTVSPost2010Prop34
280
     0
102
RTVSPost2010PropOp34
 70
     1
102
RTVSPost2010Prop35
280
     0
102
RTVSPost2010PropOp35
 70
     1
102
RTVSPost2010Prop36
280
     0
102
RTVSPost2010PropOp36
 70
     1
102
RTVSPost2010Prop37
 90
       50
102
RTVSPost2010PropOp37
 70
     1
102
RTVSPost2010Prop38
140
0.0
102
RTVSPost2010PropOp38
 70
     1
102
RTVSPost2010Prop39
140
1.0
102
RTVSPost2010PropOp39
 70
     1
102
RTVSPost2010Prop40
 90
        0
102
RTVSPost2010PropOp40
 70
     1
102
RTVSPost2010Prop41ColorIndex
 90
       18
102
RTVSPost2010Prop41ColorRGB
 90
        0
102
RTVSPost2010PropOp41
 70
     1
102
RTVSPost2010Prop42
 90
       50
102
RTVSPost2010PropOp42
 70
     1
102
RTVSPost2010Prop43
 90
        3
102
RTVSPost2010PropOp43
 70
     1
102
RTVSPost2010Prop44ColorIndex
 90
        5
102
RTVSPost2010Prop44ColorRGB
 90
      255
102
RTVSPost2010PropOp44
 70
     1
102
RTVSPost2010Prop45
280
     0
102
RTVSPost2010PropOp45
 70
     1
102
RTVSPost2010Prop46
 90
       50
102
RTVSPost2010PropOp46
 70
     1
102
RTVSPost2010Prop47
 90
       50
102
RTVSPost2010PropOp47
 70
     1
102
RTVSPost2010Prop48
 90
       50
102
RTVSPost2010PropOp48
 70
     1
102
RTVSPost2010Prop49
280
     0
102
RTVSPost2010PropOp49
 70
     1
102
RTVSPost2010Prop50
 90
       50
102
RTVSPost2010PropOp50
 70
     1
102
RTVSPost2010Prop51ColorIndex
 90
      256
102
RTVSPost2010Prop51ColorRGB
 90
-16777216
102
RTVSPost2010PropOp51
 70
     0
102
RTVSPost2010Prop52
140
1.0
102
RTVSPost2010PropOp52
 70
     0
102
RTVSPost2010Prop53
 90
        2
102
RTVSPost2010PropOp53
 70
     1
102
RTVSPost2010Prop54
  1
strokes_ogs.tif
102
RTVSPost2010PropOp54
 70
     1
102
RTVSPost2010Prop55
280
     0
102
RTVSPost2010PropOp55
 70
     1
102
RTVSPost2010Prop56
140
1.0
102
RTVSPost2010PropOp56
 70
     1
102
RTVSPost2010Prop57
140
1.0
102
RTVSPost2010PropOp57
 70
     1
  0
XRECORD
  5
26F
102
{ACAD_REACTORS
330
26E
102
}
330
26E
100
AcDbXrecord
280
     1
102
RTVSPropertyOp0
 70
     1
102
RTVSPropertyOp1
 70
     1
102
RTVSPropertyOp2
 70
     1
102
RTVSPropertyOp3
 70
     1
102
RTVSPropertyOp4
 70
     1
102
RTVSPropertyOp5
 70
     1
102
RTVSPropertyOp6
 70
     1
102
RTVSPropertyOp7
 70
     1
102
RTVSPropertyOp8
 70
     1
102
RTVSPropertyOp9
 70
     1
102
RTVSPropertyOp10
 70
     1
102
RTVSPropertyOp11
 70
     1
102
RTVSPropertyOp12
 70
     1
102
RTVSPropertyOp13
 70
     1
102
RTVSPropertyOp14
 70
     1
102
RTVSPropertyOp15
 70
     1
102
RTVSPropertyOp16
 70
     1
102
RTVSPropertyOp17
 70
     1
102
RTVSPropertyOp18
 70
     1
102
RTVSPropertyOp19
 70
     1
102
RTVSPropertyOp20
 70
     1
102
RTVSPropertyOp21
 70
     1
102
RTVSPropertyOp22
 70
     1
102
RTVSPropertyOp23
 70
     1
102
RTVSPropertyOp24
 70
     1
102
RTVSPropertyOp25
 70
     1
102
RTVSPropertyOp26
 70
     1
102
RTVSPropertyOp27
 70
     1
102
RTVSPropertyOp28
 70
     1
102
RTVSPropertyOp29
 70
     1
102
RTVSPropertyOp30
 70
     1
102
RTVSPropertyOp31
 70
     1
102
RTVSPropertyOp32
 70
     1
102
RTVSPropertyOp33
 70
     1
102
RTVSPropertyOp34
 70
     1
102
RTVSPropertyOp35
 70
     1
102
RTVSPropertyOp36
 70
     1
102
RTVSPropertyOp37
 70
     1
102
RTVSPropertyOp38
 70
     1
102
RTVSPropertyOp39
 70
     1
102
RTVSPropertyOp40
 70
     1
102
RTVSPropertyOp41
 70
     1
102
RTVSPropertyOp42
 70
     1
102
RTVSPropertyOp43
 70
     1
102
RTVSPropertyOp44
 70
     1
102
RTVSPropertyOp45
 70
     1
102
RTVSPropertyOp46
 70
     1
102
RTVSPropertyOp47
 70
     1
102
RTVSPropertyOp48
 70
     1
102
RTVSPropertyOp49
 70
     1
102
RTVSPropertyOp50
 70
     1
102
RTVSPropertyOp51
 70
     0
102
RTVSPropertyOp52
 70
     0
102
RTVSPropertyOp53
 70
     1
102
RTVSPropertyOp54
 70
     1
102
RTVSPropertyOp55
 70
     1
102
RTVSPropertyOp56
 70
     1
102
RTVSPropertyOp57
 70
     1
102
RTVSPost2010Prop28
280
     0
102
RTVSPost2010PropOp28
 70
     1
102
RTVSPost2010Prop29
280
     1
102
RTVSPost2010PropOp29
 70
     1
102
RTVSPost2010Prop30
280
     1
102
RTVSPost2010PropOp30
 70
     1
102
RTVSPost2010Prop31
280
     0
102
RTVSPost2010PropOp31
 70
     1
102
RTVSPost2010Prop32
280
     0
102
RTVSPost2010PropOp32
 70
     1
102
RTVSPost2010Prop33
280
     0
102
RTVSPost2010PropOp33
 70
     1
102
RTVSPost2010Prop34
280
     0
102
RTVSPost2010PropOp34
 70
     1
102
RTVSPost2010Prop35
280
     0
102
RTVSPost2010PropOp35
 70
     1
102
RTVSPost2010Prop36
280
     0
102
RTVSPost2010PropOp36
 70
     1
102
RTVSPost2010Prop37
 90
       50
102
RTVSPost2010PropOp37
 70
     1
102
RTVSPost2010Prop38
140
0.0
102
RTVSPost2010PropOp38
 70
     1
102
RTVSPost2010Prop39
140
1.0
102
RTVSPost2010PropOp39
 70
     1
102
RTVSPost2010Prop40
 90
        0
102
RTVSPost2010PropOp40
 70
     1
102
RTVSPost2010Prop41ColorIndex
 90
       18
102
RTVSPost2010Prop41ColorRGB
 90
        0
102
RTVSPost2010PropOp41
 70
     1
102
RTVSPost2010Prop42
 90
       50
102
RTVSPost2010PropOp42
 70
     1
102
RTVSPost2010Prop43
 90
        3
102
RTVSPost2010PropOp43
 70
     1
102
RTVSPost2010Prop44ColorIndex
 90
        5
102
RTVSPost2010Prop44ColorRGB
 90
      255
102
RTVSPost2010PropOp44
 70
     1
102
RTVSPost2010Prop45
280
     0
102
RTVSPost2010PropOp45
 70
     1
102
RTVSPost2010Prop46
 90
       50
102
RTVSPost2010PropOp46
 70
     1
102
RTVSPost2010Prop47
 90
       50
102
RTVSPost2010PropOp47
 70
     1
102
RTVSPost2010Prop48
 90
       50
102
RTVSPost2010PropOp48
 70
     1
102
RTVSPost2010Prop49
280
     0
102
RTVSPost2010PropOp49
 70
     1
102
RTVSPost2010Prop50
 90
       50
102
RTVSPost2010PropOp50
 70
     1
102
RTVSPost2010Prop51ColorIndex
 90
      256
102
RTVSPost2010Prop51ColorRGB
 90
-16777216
102
RTVSPost2010PropOp51
 70
     0
102
RTVSPost2010Prop52
140
1.0
102
RTVSPost2010PropOp52
 70
     0
102
RTVSPost2010Prop53
 90
        2
102
RTVSPost2010PropOp53
 70
     1
102
RTVSPost2010Prop54
  1
strokes_ogs.tif
102
RTVSPost2010PropOp54
 70
     1
102
RTVSPost2010Prop55
280
     0
102
RTVSPost2010PropOp55
 70
     1
102
RTVSPost2010Prop56
140
1.0
102
RTVSPost2010PropOp56
 70
     1
102
RTVSPost2010Prop57
140
1.0
102
RTVSPost2010PropOp57
 70
     1
  0
XRECORD
  5
271
102
{ACAD_REACTORS
330
270
102
}
330
270
100
AcDbXrecord
280
     1
102
RTVSPropertyOp0
 70
     1
102
RTVSPropertyOp1
 70
     1
102
RTVSPropertyOp2
 70
     1
102
RTVSPropertyOp3
 70
     1
102
RTVSPropertyOp4
 70
     1
102
RTVSPropertyOp5
 70
     1
102
RTVSPropertyOp6
 70
     1
102
RTVSPropertyOp7
 70
     1
102
RTVSPropertyOp8
 70
     1
102
RTVSPropertyOp9
 70
     1
102
RTVSPropertyOp10
 70
     1
102
RTVSPropertyOp11
 70
     1
102
RTVSPropertyOp12
 70
     1
102
RTVSPropertyOp13
 70
     1
102
RTVSPropertyOp14
 70
     1
102
RTVSPropertyOp15
 70
     1
102
RTVSPropertyOp16
 70
     1
102
RTVSPropertyOp17
 70
     1
102
RTVSPropertyOp18
 70
     1
102
RTVSPropertyOp19
 70
     1
102
RTVSPropertyOp20
 70
     1
102
RTVSPropertyOp21
 70
     1
102
RTVSPropertyOp22
 70
     1
102
RTVSPropertyOp23
 70
     1
102
RTVSPropertyOp24
 70
     1
102
RTVSPropertyOp25
 70
     1
102
RTVSPropertyOp26
 70
     1
102
RTVSPropertyOp27
 70
     1
102
RTVSPropertyOp28
 70
     1
102
RTVSPropertyOp29
 70
     1
102
RTVSPropertyOp30
 70
     1
102
RTVSPropertyOp31
 70
     1
102
RTVSPropertyOp32
 70
     1
102
RTVSPropertyOp33
 70
     1
102
RTVSPropertyOp34
 70
     1
102
RTVSPropertyOp35
 70
     1
102
RTVSPropertyOp36
 70
     1
102
RTVSPropertyOp37
 70
     1
102
RTVSPropertyOp38
 70
     1
102
RTVSPropertyOp39
 70
     1
102
RTVSPropertyOp40
 70
     1
102
RTVSPropertyOp41
 70
     1
102
RTVSPropertyOp42
 70
     1
102
RTVSPropertyOp43
 70
     1
102
RTVSPropertyOp44
 70
     1
102
RTVSPropertyOp45
 70
     1
102
RTVSPropertyOp46
 70
     1
102
RTVSPropertyOp47
 70
     1
102
RTVSPropertyOp48
 70
     1
102
RTVSPropertyOp49
 70
     1
102
RTVSPropertyOp50
 70
     1
102
RTVSPropertyOp51
 70
     0
102
RTVSPropertyOp52
 70
     0
102
RTVSPropertyOp53
 70
     1
102
RTVSPropertyOp54
 70
     1
102
RTVSPropertyOp55
 70
     1
102
RTVSPropertyOp56
 70
     1
102
RTVSPropertyOp57
 70
     1
102
RTVSPost2010Prop28
280
     0
102
RTVSPost2010PropOp28
 70
     1
102
RTVSPost2010Prop29
280
     1
102
RTVSPost2010PropOp29
 70
     1
102
RTVSPost2010Prop30
280
     1
102
RTVSPost2010PropOp30
 70
     1
102
RTVSPost2010Prop31
280
     0
102
RTVSPost2010PropOp31
 70
     1
102
RTVSPost2010Prop32
280
     0
102
RTVSPost2010PropOp32
 70
     1
102
RTVSPost2010Prop33
280
     0
102
RTVSPost2010PropOp33
 70
     1
102
RTVSPost2010Prop34
280
     0
102
RTVSPost2010PropOp34
 70
     1
102
RTVSPost2010Prop35
280
     0
102
RTVSPost2010PropOp35
 70
     1
102
RTVSPost2010Prop36
280
     0
102
RTVSPost2010PropOp36
 70
     1
102
RTVSPost2010Prop37
 90
       50
102
RTVSPost2010PropOp37
 70
     1
102
RTVSPost2010Prop38
140
0.0
102
RTVSPost2010PropOp38
 70
     1
102
RTVSPost2010Prop39
140
1.0
102
RTVSPost2010PropOp39
 70
     1
102
RTVSPost2010Prop40
 90
        0
102
RTVSPost2010PropOp40
 70
     1
102
RTVSPost2010Prop41ColorIndex
 90
       18
102
RTVSPost2010Prop41ColorRGB
 90
        0
102
RTVSPost2010PropOp41
 70
     1
102
RTVSPost2010Prop42
 90
       50
102
RTVSPost2010PropOp42
 70
     1
102
RTVSPost2010Prop43
 90
        3
102
RTVSPost2010PropOp43
 70
     1
102
RTVSPost2010Prop44ColorIndex
 90
        5
102
RTVSPost2010Prop44ColorRGB
 90
      255
102
RTVSPost2010PropOp44
 70
     1
102
RTVSPost2010Prop45
280
     0
102
RTVSPost2010PropOp45
 70
     1
102
RTVSPost2010Prop46
 90
       50
102
RTVSPost2010PropOp46
 70
     1
102
RTVSPost2010Prop47
 90
       50
102
RTVSPost2010PropOp47
 70
     1
102
RTVSPost2010Prop48
 90
       50
102
RTVSPost2010PropOp48
 70
     1
102
RTVSPost2010Prop49
280
     0
102
RTVSPost2010PropOp49
 70
     1
102
RTVSPost2010Prop50
 90
       50
102
RTVSPost2010PropOp50
 70
     1
102
RTVSPost2010Prop51ColorIndex
 90
      256
102
RTVSPost2010Prop51ColorRGB
 90
-16777216
102
RTVSPost2010PropOp51
 70
     0
102
RTVSPost2010Prop52
140
1.0
102
RTVSPost2010PropOp52
 70
     0
102
RTVSPost2010Prop53
 90
        2
102
RTVSPost2010PropOp53
 70
     1
102
RTVSPost2010Prop54
  1
strokes_ogs.tif
102
RTVSPost2010PropOp54
 70
     1
102
RTVSPost2010Prop55
280
     0
102
RTVSPost2010PropOp55
 70
     1
102
RTVSPost2010Prop56
140
1.0
102
RTVSPost2010PropOp56
 70
     1
102
RTVSPost2010Prop57
140
1.0
102
RTVSPost2010PropOp57
 70
     1
  0
XRECORD
  5
277
102
{ACAD_REACTORS
330
276
102
}
330
276
100
AcDbXrecord
280
     1
102
RTVSPropertyOp0
 70
     1
102
RTVSPropertyOp1
 70
     1
102
RTVSPropertyOp2
 70
     1
102
RTVSPropertyOp3
 70
     1
102
RTVSPropertyOp4
 70
     1
102
RTVSPropertyOp5
 70
     1
102
RTVSPropertyOp6
 70
     1
102
RTVSPropertyOp7
 70
     1
102
RTVSPropertyOp8
 70
     1
102
RTVSPropertyOp9
 70
     1
102
RTVSPropertyOp10
 70
     1
102
RTVSPropertyOp11
 70
     1
102
RTVSPropertyOp12
 70
     1
102
RTVSPropertyOp13
 70
     1
102
RTVSPropertyOp14
 70
     1
102
RTVSPropertyOp15
 70
     1
102
RTVSPropertyOp16
 70
     1
102
RTVSPropertyOp17
 70
     1
102
RTVSPropertyOp18
 70
     1
102
RTVSPropertyOp19
 70
     1
102
RTVSPropertyOp20
 70
     1
102
RTVSPropertyOp21
 70
     1
102
RTVSPropertyOp22
 70
     1
102
RTVSPropertyOp23
 70
     1
102
RTVSPropertyOp24
 70
     1
102
RTVSPropertyOp25
 70
     1
102
RTVSPropertyOp26
 70
     1
102
RTVSPropertyOp27
 70
     1
102
RTVSPropertyOp28
 70
     1
102
RTVSPropertyOp29
 70
     1
102
RTVSPropertyOp30
 70
     1
102
RTVSPropertyOp31
 70
     1
102
RTVSPropertyOp32
 70
     1
102
RTVSPropertyOp33
 70
     1
102
RTVSPropertyOp34
 70
     1
102
RTVSPropertyOp35
 70
     1
102
RTVSPropertyOp36
 70
     1
102
RTVSPropertyOp37
 70
     1
102
RTVSPropertyOp38
 70
     1
102
RTVSPropertyOp39
 70
     1
102
RTVSPropertyOp40
 70
     1
102
RTVSPropertyOp41
 70
     1
102
RTVSPropertyOp42
 70
     1
102
RTVSPropertyOp43
 70
     1
102
RTVSPropertyOp44
 70
     1
102
RTVSPropertyOp45
 70
     1
102
RTVSPropertyOp46
 70
     1
102
RTVSPropertyOp47
 70
     1
102
RTVSPropertyOp48
 70
     1
102
RTVSPropertyOp49
 70
     1
102
RTVSPropertyOp50
 70
     1
102
RTVSPropertyOp51
 70
     0
102
RTVSPropertyOp52
 70
     0
102
RTVSPropertyOp53
 70
     1
102
RTVSPropertyOp54
 70
     1
102
RTVSPropertyOp55
 70
     1
102
RTVSPropertyOp56
 70
     1
102
RTVSPropertyOp57
 70
     1
102
RTVSPost2010Prop28
280
     0
102
RTVSPost2010PropOp28
 70
     1
102
RTVSPost2010Prop29
280
     1
102
RTVSPost2010PropOp29
 70
     1
102
RTVSPost2010Prop30
280
     1
102
RTVSPost2010PropOp30
 70
     1
102
RTVSPost2010Prop31
280
     0
102
RTVSPost2010PropOp31
 70
     1
102
RTVSPost2010Prop32
280
     0
102
RTVSPost2010PropOp32
 70
     1
102
RTVSPost2010Prop33
280
     0
102
RTVSPost2010PropOp33
 70
     1
102
RTVSPost2010Prop34
280
     0
102
RTVSPost2010PropOp34
 70
     1
102
RTVSPost2010Prop35
280
     0
102
RTVSPost2010PropOp35
 70
     1
102
RTVSPost2010Prop36
280
     0
102
RTVSPost2010PropOp36
 70
     1
102
RTVSPost2010Prop37
 90
       50
102
RTVSPost2010PropOp37
 70
     1
102
RTVSPost2010Prop38
140
0.0
102
RTVSPost2010PropOp38
 70
     1
102
RTVSPost2010Prop39
140
1.0
102
RTVSPost2010PropOp39
 70
     1
102
RTVSPost2010Prop40
 90
        0
102
RTVSPost2010PropOp40
 70
     1
102
RTVSPost2010Prop41ColorIndex
 90
       18
102
RTVSPost2010Prop41ColorRGB
 90
        0
102
RTVSPost2010PropOp41
 70
     1
102
RTVSPost2010Prop42
 90
       50
102
RTVSPost2010PropOp42
 70
     1
102
RTVSPost2010Prop43
 90
        3
102
RTVSPost2010PropOp43
 70
     1
102
RTVSPost2010Prop44ColorIndex
 90
        5
102
RTVSPost2010Prop44ColorRGB
 90
      255
102
RTVSPost2010PropOp44
 70
     1
102
RTVSPost2010Prop45
280
     0
102
RTVSPost2010PropOp45
 70
     1
102
RTVSPost2010Prop46
 90
       50
102
RTVSPost2010PropOp46
 70
     1
102
RTVSPost2010Prop47
 90
       50
102
RTVSPost2010PropOp47
 70
     1
102
RTVSPost2010Prop48
 90
       50
102
RTVSPost2010PropOp48
 70
     1
102
RTVSPost2010Prop49
280
     0
102
RTVSPost2010PropOp49
 70
     1
102
RTVSPost2010Prop50
 90
       50
102
RTVSPost2010PropOp50
 70
     1
102
RTVSPost2010Prop51ColorIndex
 90
      256
102
RTVSPost2010Prop51ColorRGB
 90
-16777216
102
RTVSPost2010PropOp51
 70
     0
102
RTVSPost2010Prop52
140
1.0
102
RTVSPost2010PropOp52
 70
     0
102
RTVSPost2010Prop53
 90
        2
102
RTVSPost2010PropOp53
 70
     1
102
RTVSPost2010Prop54
  1
strokes_ogs.tif
102
RTVSPost2010PropOp54
 70
     1
102
RTVSPost2010Prop55
280
     0
102
RTVSPost2010PropOp55
 70
     1
102
RTVSPost2010Prop56
140
1.0
102
RTVSPost2010PropOp56
 70
     1
102
RTVSPost2010Prop57
140
1.0
102
RTVSPost2010PropOp57
 70
     1
  0
XRECORD
  5
28B
102
{ACAD_REACTORS
330
28A
102
}
330
28A
100
AcDbXrecord
280
     1
102
RTVSPropertyOp0
 70
     0
102
RTVSPropertyOp1
 70
     0
102
RTVSPropertyOp2
 70
     0
102
RTVSPropertyOp3
 70
     0
102
RTVSPropertyOp4
 70
     0
102
RTVSPropertyOp5
 70
     0
102
RTVSPropertyOp6
 70
     0
102
RTVSPropertyOp7
 70
     0
102
RTVSPropertyOp8
 70
     0
102
RTVSPropertyOp9
 70
     0
102
RTVSPropertyOp10
 70
     0
102
RTVSPropertyOp11
 70
     0
102
RTVSPropertyOp12
 70
     0
102
RTVSPropertyOp13
 70
     0
102
RTVSPropertyOp14
 70
     2
102
RTVSPropertyOp15
 70
     0
102
RTVSPropertyOp16
 70
     0
102
RTVSPropertyOp17
 70
     0
102
RTVSPropertyOp18
 70
     0
102
RTVSPropertyOp19
 70
     0
102
RTVSPropertyOp20
 70
     0
102
RTVSPropertyOp21
 70
     0
102
RTVSPropertyOp22
 70
     0
102
RTVSPropertyOp23
 70
     0
102
RTVSPropertyOp24
 70
     0
102
RTVSPropertyOp25
 70
     0
102
RTVSPropertyOp26
 70
     0
102
RTVSPropertyOp27
 70
     0
102
RTVSPropertyOp28
 70
     0
102
RTVSPropertyOp29
 70
     0
102
RTVSPropertyOp30
 70
     0
102
RTVSPropertyOp31
 70
     0
102
RTVSPropertyOp32
 70
     0
102
RTVSPropertyOp33
 70
     0
102
RTVSPropertyOp34
 70
     0
102
RTVSPropertyOp35
 70
     0
102
RTVSPropertyOp36
 70
     0
102
RTVSPropertyOp37
 70
     0
102
RTVSPropertyOp38
 70
     0
102
RTVSPropertyOp39
 70
     0
102
RTVSPropertyOp40
 70
     0
102
RTVSPropertyOp41
 70
     0
102
RTVSPropertyOp42
 70
     0
102
RTVSPropertyOp43
 70
     0
102
RTVSPropertyOp44
 70
     0
102
RTVSPropertyOp45
 70
     0
102
RTVSPropertyOp46
 70
     0
102
RTVSPropertyOp47
 70
     0
102
RTVSPropertyOp48
 70
     0
102
RTVSPropertyOp49
 70
     0
102
RTVSPropertyOp50
 70
     0
102
RTVSPropertyOp51
 70
     0
102
RTVSPropertyOp52
 70
     0
102
RTVSPropertyOp53
 70
     0
102
RTVSPropertyOp54
 70
     0
102
RTVSPropertyOp55
 70
     0
102
RTVSPropertyOp56
 70
     0
102
RTVSPropertyOp57
 70
     0
102
RTVSPost2010Prop28
280
     0
102
RTVSPost2010PropOp28
 70
     0
102
RTVSPost2010Prop29
280
     1
102
RTVSPost2010PropOp29
 70
     0
102
RTVSPost2010Prop30
280
     1
102
RTVSPost2010PropOp30
 70
     0
102
RTVSPost2010Prop31
280
     0
102
RTVSPost2010PropOp31
 70
     0
102
RTVSPost2010Prop32
280
     0
102
RTVSPost2010PropOp32
 70
     0
102
RTVSPost2010Prop33
280
     0
102
RTVSPost2010PropOp33
 70
     0
102
RTVSPost2010Prop34
280
     0
102
RTVSPost2010PropOp34
 70
     0
102
RTVSPost2010Prop35
280
     0
102
RTVSPost2010PropOp35
 70
     0
102
RTVSPost2010Prop36
280
     0
102
RTVSPost2010PropOp36
 70
     0
102
RTVSPost2010Prop37
 90
       50
102
RTVSPost2010PropOp37
 70
     0
102
RTVSPost2010Prop38
140
0.0
102
RTVSPost2010PropOp38
 70
     0
102
RTVSPost2010Prop39
140
1.0
102
RTVSPost2010PropOp39
 70
     0
102
RTVSPost2010Prop40
 90
        0
102
RTVSPost2010PropOp40
 70
     0
102
RTVSPost2010Prop41ColorIndex
 90
       18
102
RTVSPost2010Prop41ColorRGB
 90
        0
102
RTVSPost2010PropOp41
 70
     0
102
RTVSPost2010Prop42
 90
       50
102
RTVSPost2010PropOp42
 70
     0
102
RTVSPost2010Prop43
 90
        3
102
RTVSPost2010PropOp43
 70
     0
102
RTVSPost2010Prop44ColorIndex
 90
        5
102
RTVSPost2010Prop44ColorRGB
 90
      255
102
RTVSPost2010PropOp44
 70
     0
102
RTVSPost2010Prop45
280
     0
102
RTVSPost2010PropOp45
 70
     0
102
RTVSPost2010Prop46
 90
       50
102
RTVSPost2010PropOp46
 70
     0
102
RTVSPost2010Prop47
 90
       50
102
RTVSPost2010PropOp47
 70
     0
102
RTVSPost2010Prop48
 90
       50
102
RTVSPost2010PropOp48
 70
     0
102
RTVSPost2010Prop49
280
     0
102
RTVSPost2010PropOp49
 70
     0
102
RTVSPost2010Prop50
 90
       50
102
RTVSPost2010PropOp50
 70
     0
102
RTVSPost2010Prop51ColorIndex
 90
      256
102
RTVSPost2010Prop51ColorRGB
 90
-16777216
102
RTVSPost2010PropOp51
 70
     0
102
RTVSPost2010Prop52
140
1.0
102
RTVSPost2010PropOp52
 70
     0
102
RTVSPost2010Prop53
 90
        2
102
RTVSPost2010PropOp53
 70
     0
102
RTVSPost2010Prop54
  1
strokes_ogs.tif
102
RTVSPost2010PropOp54
 70
     0
102
RTVSPost2010Prop55
280
     0
102
RTVSPost2010PropOp55
 70
     0
102
RTVSPost2010Prop56
140
1.0
102
RTVSPost2010PropOp56
 70
     0
102
RTVSPost2010Prop57
140
1.0
102
RTVSPost2010PropOp57
 70
     0
  0
XRECORD
  5
285
102
{ACAD_REACTORS
330
284
102
}
330
284
100
AcDbXrecord
280
     1
102
RTVSPropertyOp0
 70
     1
102
RTVSPropertyOp1
 70
     1
102
RTVSPropertyOp2
 70
     1
102
RTVSPropertyOp3
 70
     1
102
RTVSPropertyOp4
 70
     1
102
RTVSPropertyOp5
 70
     1
102
RTVSPropertyOp6
 70
     1
102
RTVSPropertyOp7
 70
     1
102
RTVSPropertyOp8
 70
     1
102
RTVSPropertyOp9
 70
     1
102
RTVSPropertyOp10
 70
     1
102
RTVSPropertyOp11
 70
     1
102
RTVSPropertyOp12
 70
     1
102
RTVSPropertyOp13
 70
     1
102
RTVSPropertyOp14
 70
     1
102
RTVSPropertyOp15
 70
     1
102
RTVSPropertyOp16
 70
     1
102
RTVSPropertyOp17
 70
     1
102
RTVSPropertyOp18
 70
     1
102
RTVSPropertyOp19
 70
     1
102
RTVSPropertyOp20
 70
     1
102
RTVSPropertyOp21
 70
     1
102
RTVSPropertyOp22
 70
     1
102
RTVSPropertyOp23
 70
     1
102
RTVSPropertyOp24
 70
     1
102
RTVSPropertyOp25
 70
     1
102
RTVSPropertyOp26
 70
     1
102
RTVSPropertyOp27
 70
     1
102
RTVSPropertyOp28
 70
     1
102
RTVSPropertyOp29
 70
     1
102
RTVSPropertyOp30
 70
     1
102
RTVSPropertyOp31
 70
     1
102
RTVSPropertyOp32
 70
     1
102
RTVSPropertyOp33
 70
     1
102
RTVSPropertyOp34
 70
     1
102
RTVSPropertyOp35
 70
     1
102
RTVSPropertyOp36
 70
     1
102
RTVSPropertyOp37
 70
     1
102
RTVSPropertyOp38
 70
     1
102
RTVSPropertyOp39
 70
     1
102
RTVSPropertyOp40
 70
     1
102
RTVSPropertyOp41
 70
     1
102
RTVSPropertyOp42
 70
     1
102
RTVSPropertyOp43
 70
     1
102
RTVSPropertyOp44
 70
     1
102
RTVSPropertyOp45
 70
     1
102
RTVSPropertyOp46
 70
     1
102
RTVSPropertyOp47
 70
     1
102
RTVSPropertyOp48
 70
     1
102
RTVSPropertyOp49
 70
     1
102
RTVSPropertyOp50
 70
     1
102
RTVSPropertyOp51
 70
     0
102
RTVSPropertyOp52
 70
     0
102
RTVSPropertyOp53
 70
     1
102
RTVSPropertyOp54
 70
     1
102
RTVSPropertyOp55
 70
     1
102
RTVSPropertyOp56
 70
     1
102
RTVSPropertyOp57
 70
     1
102
RTVSPost2010Prop28
280
     0
102
RTVSPost2010PropOp28
 70
     1
102
RTVSPost2010Prop29
280
     1
102
RTVSPost2010PropOp29
 70
     1
102
RTVSPost2010Prop30
280
     1
102
RTVSPost2010PropOp30
 70
     1
102
RTVSPost2010Prop31
280
     0
102
RTVSPost2010PropOp31
 70
     1
102
RTVSPost2010Prop32
280
     0
102
RTVSPost2010PropOp32
 70
     1
102
RTVSPost2010Prop33
280
     0
102
RTVSPost2010PropOp33
 70
     1
102
RTVSPost2010Prop34
280
     0
102
RTVSPost2010PropOp34
 70
     1
102
RTVSPost2010Prop35
280
     0
102
RTVSPost2010PropOp35
 70
     1
102
RTVSPost2010Prop36
280
     0
102
RTVSPost2010PropOp36
 70
     1
102
RTVSPost2010Prop37
 90
       50
102
RTVSPost2010PropOp37
 70
     1
102
RTVSPost2010Prop38
140
0.0
102
RTVSPost2010PropOp38
 70
     1
102
RTVSPost2010Prop39
140
1.0
102
RTVSPost2010PropOp39
 70
     1
102
RTVSPost2010Prop40
 90
        0
102
RTVSPost2010PropOp40
 70
     1
102
RTVSPost2010Prop41ColorIndex
 90
       18
102
RTVSPost2010Prop41ColorRGB
 90
        0
102
RTVSPost2010PropOp41
 70
     1
102
RTVSPost2010Prop42
 90
       50
102
RTVSPost2010PropOp42
 70
     1
102
RTVSPost2010Prop43
 90
        3
102
RTVSPost2010PropOp43
 70
     1
102
RTVSPost2010Prop44ColorIndex
 90
        5
102
RTVSPost2010Prop44ColorRGB
 90
      255
102
RTVSPost2010PropOp44
 70
     1
102
RTVSPost2010Prop45
280
     0
102
RTVSPost2010PropOp45
 70
     1
102
RTVSPost2010Prop46
 90
       50
102
RTVSPost2010PropOp46
 70
     1
102
RTVSPost2010Prop47
 90
       50
102
RTVSPost2010PropOp47
 70
     1
102
RTVSPost2010Prop48
 90
       50
102
RTVSPost2010PropOp48
 70
     1
102
RTVSPost2010Prop49
280
     0
102
RTVSPost2010PropOp49
 70
     1
102
RTVSPost2010Prop50
 90
       50
102
RTVSPost2010PropOp50
 70
     1
102
RTVSPost2010Prop51ColorIndex
 90
      256
102
RTVSPost2010Prop51ColorRGB
 90
-16777216
102
RTVSPost2010PropOp51
 70
     0
102
RTVSPost2010Prop52
140
1.0
102
RTVSPost2010PropOp52
 70
     0
102
RTVSPost2010Prop53
 90
        2
102
RTVSPost2010PropOp53
 70
     1
102
RTVSPost2010Prop54
  1
strokes_ogs.tif
102
RTVSPost2010PropOp54
 70
     1
102
RTVSPost2010Prop55
280
     0
102
RTVSPost2010PropOp55
 70
     1
102
RTVSPost2010Prop56
140
1.0
102
RTVSPost2010PropOp56
 70
     1
102
RTVSPost2010Prop57
140
1.0
102
RTVSPost2010PropOp57
 70
     1
  0
XRECORD
  5
28D
102
{ACAD_REACTORS
330
28C
102
}
330
28C
100
AcDbXrecord
280
     1
102
RTVSPropertyOp0
 70
     0
102
RTVSPropertyOp1
 70
     0
102
RTVSPropertyOp2
 70
     0
102
RTVSPropertyOp3
 70
     0
102
RTVSPropertyOp4
 70
     0
102
RTVSPropertyOp5
 70
     0
102
RTVSPropertyOp6
 70
     0
102
RTVSPropertyOp7
 70
     0
102
RTVSPropertyOp8
 70
     0
102
RTVSPropertyOp9
 70
     0
102
RTVSPropertyOp10
 70
     0
102
RTVSPropertyOp11
 70
     0
102
RTVSPropertyOp12
 70
     0
102
RTVSPropertyOp13
 70
     0
102
RTVSPropertyOp14
 70
     2
102
RTVSPropertyOp15
 70
     0
102
RTVSPropertyOp16
 70
     0
102
RTVSPropertyOp17
 70
     0
102
RTVSPropertyOp18
 70
     0
102
RTVSPropertyOp19
 70
     0
102
RTVSPropertyOp20
 70
     0
102
RTVSPropertyOp21
 70
     0
102
RTVSPropertyOp22
 70
     0
102
RTVSPropertyOp23
 70
     0
102
RTVSPropertyOp24
 70
     0
102
RTVSPropertyOp25
 70
     0
102
RTVSPropertyOp26
 70
     0
102
RTVSPropertyOp27
 70
     0
102
RTVSPropertyOp28
 70
     0
102
RTVSPropertyOp29
 70
     0
102
RTVSPropertyOp30
 70
     0
102
RTVSPropertyOp31
 70
     0
102
RTVSPropertyOp32
 70
     0
102
RTVSPropertyOp33
 70
     0
102
RTVSPropertyOp34
 70
     0
102
RTVSPropertyOp35
 70
     0
102
RTVSPropertyOp36
 70
     0
102
RTVSPropertyOp37
 70
     0
102
RTVSPropertyOp38
 70
     0
102
RTVSPropertyOp39
 70
     0
102
RTVSPropertyOp40
 70
     0
102
RTVSPropertyOp41
 70
     0
102
RTVSPropertyOp42
 70
     0
102
RTVSPropertyOp43
 70
     0
102
RTVSPropertyOp44
 70
     0
102
RTVSPropertyOp45
 70
     0
102
RTVSPropertyOp46
 70
     0
102
RTVSPropertyOp47
 70
     0
102
RTVSPropertyOp48
 70
     0
102
RTVSPropertyOp49
 70
     0
102
RTVSPropertyOp50
 70
     0
102
RTVSPropertyOp51
 70
     0
102
RTVSPropertyOp52
 70
     0
102
RTVSPropertyOp53
 70
     0
102
RTVSPropertyOp54
 70
     0
102
RTVSPropertyOp55
 70
     0
102
RTVSPropertyOp56
 70
     0
102
RTVSPropertyOp57
 70
     0
102
RTVSPost2010Prop28
280
     0
102
RTVSPost2010PropOp28
 70
     0
102
RTVSPost2010Prop29
280
     1
102
RTVSPost2010PropOp29
 70
     0
102
RTVSPost2010Prop30
280
     1
102
RTVSPost2010PropOp30
 70
     0
102
RTVSPost2010Prop31
280
     0
102
RTVSPost2010PropOp31
 70
     0
102
RTVSPost2010Prop32
280
     0
102
RTVSPost2010PropOp32
 70
     0
102
RTVSPost2010Prop33
280
     0
102
RTVSPost2010PropOp33
 70
     0
102
RTVSPost2010Prop34
280
     0
102
RTVSPost2010PropOp34
 70
     0
102
RTVSPost2010Prop35
280
     0
102
RTVSPost2010PropOp35
 70
     0
102
RTVSPost2010Prop36
280
     0
102
RTVSPost2010PropOp36
 70
     0
102
RTVSPost2010Prop37
 90
       50
102
RTVSPost2010PropOp37
 70
     0
102
RTVSPost2010Prop38
140
0.0
102
RTVSPost2010PropOp38
 70
     0
102
RTVSPost2010Prop39
140
1.0
102
RTVSPost2010PropOp39
 70
     0
102
RTVSPost2010Prop40
 90
        0
102
RTVSPost2010PropOp40
 70
     0
102
RTVSPost2010Prop41ColorIndex
 90
       18
102
RTVSPost2010Prop41ColorRGB
 90
        0
102
RTVSPost2010PropOp41
 70
     0
102
RTVSPost2010Prop42
 90
       50
102
RTVSPost2010PropOp42
 70
     0
102
RTVSPost2010Prop43
 90
        3
102
RTVSPost2010PropOp43
 70
     0
102
RTVSPost2010Prop44ColorIndex
 90
        5
102
RTVSPost2010Prop44ColorRGB
 90
      255
102
RTVSPost2010PropOp44
 70
     0
102
RTVSPost2010Prop45
280
     0
102
RTVSPost2010PropOp45
 70
     0
102
RTVSPost2010Prop46
 90
       50
102
RTVSPost2010PropOp46
 70
     0
102
RTVSPost2010Prop47
 90
       50
102
RTVSPost2010PropOp47
 70
     0
102
RTVSPost2010Prop48
 90
       50
102
RTVSPost2010PropOp48
 70
     0
102
RTVSPost2010Prop49
280
     0
102
RTVSPost2010PropOp49
 70
     0
102
RTVSPost2010Prop50
 90
       50
102
RTVSPost2010PropOp50
 70
     0
102
RTVSPost2010Prop51ColorIndex
 90
      256
102
RTVSPost2010Prop51ColorRGB
 90
-16777216
102
RTVSPost2010PropOp51
 70
     0
102
RTVSPost2010Prop52
140
1.0
102
RTVSPost2010PropOp52
 70
     0
102
RTVSPost2010Prop53
 90
        2
102
RTVSPost2010PropOp53
 70
     0
102
RTVSPost2010Prop54
  1
strokes_ogs.tif
102
RTVSPost2010PropOp54
 70
     0
102
RTVSPost2010Prop55
280
     0
102
RTVSPost2010PropOp55
 70
     0
102
RTVSPost2010Prop56
140
1.0
102
RTVSPost2010PropOp56
 70
     0
102
RTVSPost2010Prop57
140
1.0
102
RTVSPost2010PropOp57
 70
     0
  0
XRECORD
  5
27B
102
{ACAD_REACTORS
330
27A
102
}
330
27A
100
AcDbXrecord
280
     1
102
RTVSPropertyOp0
 70
     1
102
RTVSPropertyOp1
 70
     1
102
RTVSPropertyOp2
 70
     1
102
RTVSPropertyOp3
 70
     1
102
RTVSPropertyOp4
 70
     1
102
RTVSPropertyOp5
 70
     1
102
RTVSPropertyOp6
 70
     1
102
RTVSPropertyOp7
 70
     1
102
RTVSPropertyOp8
 70
     1
102
RTVSPropertyOp9
 70
     1
102
RTVSPropertyOp10
 70
     1
102
RTVSPropertyOp11
 70
     1
102
RTVSPropertyOp12
 70
     1
102
RTVSPropertyOp13
 70
     1
102
RTVSPropertyOp14
 70
     1
102
RTVSPropertyOp15
 70
     1
102
RTVSPropertyOp16
 70
     1
102
RTVSPropertyOp17
 70
     1
102
RTVSPropertyOp18
 70
     1
102
RTVSPropertyOp19
 70
     1
102
RTVSPropertyOp20
 70
     1
102
RTVSPropertyOp21
 70
     1
102
RTVSPropertyOp22
 70
     1
102
RTVSPropertyOp23
 70
     1
102
RTVSPropertyOp24
 70
     1
102
RTVSPropertyOp25
 70
     1
102
RTVSPropertyOp26
 70
     1
102
RTVSPropertyOp27
 70
     1
102
RTVSPropertyOp28
 70
     1
102
RTVSPropertyOp29
 70
     1
102
RTVSPropertyOp30
 70
     1
102
RTVSPropertyOp31
 70
     1
102
RTVSPropertyOp32
 70
     1
102
RTVSPropertyOp33
 70
     1
102
RTVSPropertyOp34
 70
     1
102
RTVSPropertyOp35
 70
     1
102
RTVSPropertyOp36
 70
     1
102
RTVSPropertyOp37
 70
     1
102
RTVSPropertyOp38
 70
     1
102
RTVSPropertyOp39
 70
     1
102
RTVSPropertyOp40
 70
     1
102
RTVSPropertyOp41
 70
     1
102
RTVSPropertyOp42
 70
     1
102
RTVSPropertyOp43
 70
     1
102
RTVSPropertyOp44
 70
     1
102
RTVSPropertyOp45
 70
     1
102
RTVSPropertyOp46
 70
     1
102
RTVSPropertyOp47
 70
     1
102
RTVSPropertyOp48
 70
     1
102
RTVSPropertyOp49
 70
     1
102
RTVSPropertyOp50
 70
     1
102
RTVSPropertyOp51
 70
     0
102
RTVSPropertyOp52
 70
     0
102
RTVSPropertyOp53
 70
     1
102
RTVSPropertyOp54
 70
     1
102
RTVSPropertyOp55
 70
     1
102
RTVSPropertyOp56
 70
     1
102
RTVSPropertyOp57
 70
     1
102
RTVSPost2010Prop28
280
     0
102
RTVSPost2010PropOp28
 70
     1
102
RTVSPost2010Prop29
280
     1
102
RTVSPost2010PropOp29
 70
     1
102
RTVSPost2010Prop30
280
     1
102
RTVSPost2010PropOp30
 70
     1
102
RTVSPost2010Prop31
280
     0
102
RTVSPost2010PropOp31
 70
     1
102
RTVSPost2010Prop32
280
     0
102
RTVSPost2010PropOp32
 70
     1
102
RTVSPost2010Prop33
280
     0
102
RTVSPost2010PropOp33
 70
     1
102
RTVSPost2010Prop34
280
     0
102
RTVSPost2010PropOp34
 70
     1
102
RTVSPost2010Prop35
280
     0
102
RTVSPost2010PropOp35
 70
     1
102
RTVSPost2010Prop36
280
     0
102
RTVSPost2010PropOp36
 70
     1
102
RTVSPost2010Prop37
 90
       50
102
RTVSPost2010PropOp37
 70
     1
102
RTVSPost2010Prop38
140
0.0
102
RTVSPost2010PropOp38
 70
     1
102
RTVSPost2010Prop39
140
1.0
102
RTVSPost2010PropOp39
 70
     1
102
RTVSPost2010Prop40
 90
        0
102
RTVSPost2010PropOp40
 70
     1
102
RTVSPost2010Prop41ColorIndex
 90
       18
102
RTVSPost2010Prop41ColorRGB
 90
        0
102
RTVSPost2010PropOp41
 70
     1
102
RTVSPost2010Prop42
 90
       50
102
RTVSPost2010PropOp42
 70
     1
102
RTVSPost2010Prop43
 90
        3
102
RTVSPost2010PropOp43
 70
     1
102
RTVSPost2010Prop44ColorIndex
 90
        5
102
RTVSPost2010Prop44ColorRGB
 90
      255
102
RTVSPost2010PropOp44
 70
     1
102
RTVSPost2010Prop45
280
     0
102
RTVSPost2010PropOp45
 70
     1
102
RTVSPost2010Prop46
 90
       50
102
RTVSPost2010PropOp46
 70
     1
102
RTVSPost2010Prop47
 90
       50
102
RTVSPost2010PropOp47
 70
     1
102
RTVSPost2010Prop48
 90
       50
102
RTVSPost2010PropOp48
 70
     1
102
RTVSPost2010Prop49
280
     0
102
RTVSPost2010PropOp49
 70
     1
102
RTVSPost2010Prop50
 90
       50
102
RTVSPost2010PropOp50
 70
     1
102
RTVSPost2010Prop51ColorIndex
 90
      256
102
RTVSPost2010Prop51ColorRGB
 90
-16777216
102
RTVSPost2010PropOp51
 70
     0
102
RTVSPost2010Prop52
140
1.0
102
RTVSPost2010PropOp52
 70
     0
102
RTVSPost2010Prop53
 90
        2
102
RTVSPost2010PropOp53
 70
     1
102
RTVSPost2010Prop54
  1
strokes_ogs.tif
102
RTVSPost2010PropOp54
 70
     1
102
RTVSPost2010Prop55
280
     0
102
RTVSPost2010PropOp55
 70
     1
102
RTVSPost2010Prop56
140
1.0
102
RTVSPost2010PropOp56
 70
     1
102
RTVSPost2010Prop57
140
1.0
102
RTVSPost2010PropOp57
 70
     1
  0
XRECORD
  5
299
102
{ACAD_REACTORS
330
298
102
}
330
298
100
AcDbXrecord
280
     1
102
RTVSPropertyOp0
 70
     1
102
RTVSPropertyOp1
 70
     1
102
RTVSPropertyOp2
 70
     1
102
RTVSPropertyOp3
 70
     1
102
RTVSPropertyOp4
 70
     1
102
RTVSPropertyOp5
 70
     1
102
RTVSPropertyOp6
 70
     1
102
RTVSPropertyOp7
 70
     1
102
RTVSPropertyOp8
 70
     1
102
RTVSPropertyOp9
 70
     1
102
RTVSPropertyOp10
 70
     1
102
RTVSPropertyOp11
 70
     1
102
RTVSPropertyOp12
 70
     1
102
RTVSPropertyOp13
 70
     1
102
RTVSPropertyOp14
 70
     1
102
RTVSPropertyOp15
 70
     1
102
RTVSPropertyOp16
 70
     1
102
RTVSPropertyOp17
 70
     1
102
RTVSPropertyOp18
 70
     1
102
RTVSPropertyOp19
 70
     1
102
RTVSPropertyOp20
 70
     1
102
RTVSPropertyOp21
 70
     1
102
RTVSPropertyOp22
 70
     1
102
RTVSPropertyOp23
 70
     1
102
RTVSPropertyOp24
 70
     1
102
RTVSPropertyOp25
 70
     1
102
RTVSPropertyOp26
 70
     1
102
RTVSPropertyOp27
 70
     1
102
RTVSPropertyOp28
 70
     1
102
RTVSPropertyOp29
 70
     1
102
RTVSPropertyOp30
 70
     1
102
RTVSPropertyOp31
 70
     1
102
RTVSPropertyOp32
 70
     1
102
RTVSPropertyOp33
 70
     1
102
RTVSPropertyOp34
 70
     1
102
RTVSPropertyOp35
 70
     1
102
RTVSPropertyOp36
 70
     1
102
RTVSPropertyOp37
 70
     1
102
RTVSPropertyOp38
 70
     1
102
RTVSPropertyOp39
 70
     1
102
RTVSPropertyOp40
 70
     1
102
RTVSPropertyOp41
 70
     1
102
RTVSPropertyOp42
 70
     1
102
RTVSPropertyOp43
 70
     1
102
RTVSPropertyOp44
 70
     1
102
RTVSPropertyOp45
 70
     1
102
RTVSPropertyOp46
 70
     1
102
RTVSPropertyOp47
 70
     1
102
RTVSPropertyOp48
 70
     1
102
RTVSPropertyOp49
 70
     1
102
RTVSPropertyOp50
 70
     1
102
RTVSPropertyOp51
 70
     0
102
RTVSPropertyOp52
 70
     0
102
RTVSPropertyOp53
 70
     1
102
RTVSPropertyOp54
 70
     1
102
RTVSPropertyOp55
 70
     1
102
RTVSPropertyOp56
 70
     1
102
RTVSPropertyOp57
 70
     1
102
RTVSPost2010Prop28
280
     0
102
RTVSPost2010PropOp28
 70
     1
102
RTVSPost2010Prop29
280
     1
102
RTVSPost2010PropOp29
 70
     1
102
RTVSPost2010Prop30
280
     1
102
RTVSPost2010PropOp30
 70
     1
102
RTVSPost2010Prop31
280
     0
102
RTVSPost2010PropOp31
 70
     1
102
RTVSPost2010Prop32
280
     0
102
RTVSPost2010PropOp32
 70
     1
102
RTVSPost2010Prop33
280
     0
102
RTVSPost2010PropOp33
 70
     1
102
RTVSPost2010Prop34
280
     0
102
RTVSPost2010PropOp34
 70
     1
102
RTVSPost2010Prop35
280
     0
102
RTVSPost2010PropOp35
 70
     1
102
RTVSPost2010Prop36
280
     0
102
RTVSPost2010PropOp36
 70
     1
102
RTVSPost2010Prop37
 90
       50
102
RTVSPost2010PropOp37
 70
     1
102
RTVSPost2010Prop38
140
0.0
102
RTVSPost2010PropOp38
 70
     1
102
RTVSPost2010Prop39
140
1.0
102
RTVSPost2010PropOp39
 70
     1
102
RTVSPost2010Prop40
 90
        0
102
RTVSPost2010PropOp40
 70
     1
102
RTVSPost2010Prop41ColorIndex
 90
       18
102
RTVSPost2010Prop41ColorRGB
 90
        0
102
RTVSPost2010PropOp41
 70
     1
102
RTVSPost2010Prop42
 90
       50
102
RTVSPost2010PropOp42
 70
     1
102
RTVSPost2010Prop43
 90
        3
102
RTVSPost2010PropOp43
 70
     1
102
RTVSPost2010Prop44ColorIndex
 90
        5
102
RTVSPost2010Prop44ColorRGB
 90
      255
102
RTVSPost2010PropOp44
 70
     1
102
RTVSPost2010Prop45
280
     0
102
RTVSPost2010PropOp45
 70
     1
102
RTVSPost2010Prop46
 90
       50
102
RTVSPost2010PropOp46
 70
     1
102
RTVSPost2010Prop47
 90
       50
102
RTVSPost2010PropOp47
 70
     1
102
RTVSPost2010Prop48
 90
       50
102
RTVSPost2010PropOp48
 70
     1
102
RTVSPost2010Prop49
280
     0
102
RTVSPost2010PropOp49
 70
     1
102
RTVSPost2010Prop50
 90
       50
102
RTVSPost2010PropOp50
 70
     1
102
RTVSPost2010Prop51ColorIndex
 90
      256
102
RTVSPost2010Prop51ColorRGB
 90
-16777216
102
RTVSPost2010PropOp51
 70
     0
102
RTVSPost2010Prop52
140
1.0
102
RTVSPost2010PropOp52
 70
     0
102
RTVSPost2010Prop53
 90
        2
102
RTVSPost2010PropOp53
 70
     1
102
RTVSPost2010Prop54
  1
strokes_ogs.tif
102
RTVSPost2010PropOp54
 70
     1
102
RTVSPost2010Prop55
280
     0
102
RTVSPost2010PropOp55
 70
     1
102
RTVSPost2010Prop56
140
1.0
102
RTVSPost2010PropOp56
 70
     1
102
RTVSPost2010Prop57
140
1.0
102
RTVSPost2010PropOp57
 70
     1
  0
XRECORD
  5
297
102
{ACAD_REACTORS
330
296
102
}
330
296
100
AcDbXrecord
280
     1
102
RTVSPropertyOp0
 70
     1
102
RTVSPropertyOp1
 70
     1
102
RTVSPropertyOp2
 70
     1
102
RTVSPropertyOp3
 70
     1
102
RTVSPropertyOp4
 70
     1
102
RTVSPropertyOp5
 70
     1
102
RTVSPropertyOp6
 70
     1
102
RTVSPropertyOp7
 70
     1
102
RTVSPropertyOp8
 70
     1
102
RTVSPropertyOp9
 70
     1
102
RTVSPropertyOp10
 70
     1
102
RTVSPropertyOp11
 70
     1
102
RTVSPropertyOp12
 70
     1
102
RTVSPropertyOp13
 70
     1
102
RTVSPropertyOp14
 70
     1
102
RTVSPropertyOp15
 70
     1
102
RTVSPropertyOp16
 70
     1
102
RTVSPropertyOp17
 70
     1
102
RTVSPropertyOp18
 70
     1
102
RTVSPropertyOp19
 70
     1
102
RTVSPropertyOp20
 70
     1
102
RTVSPropertyOp21
 70
     1
102
RTVSPropertyOp22
 70
     1
102
RTVSPropertyOp23
 70
     1
102
RTVSPropertyOp24
 70
     1
102
RTVSPropertyOp25
 70
     1
102
RTVSPropertyOp26
 70
     1
102
RTVSPropertyOp27
 70
     1
102
RTVSPropertyOp28
 70
     1
102
RTVSPropertyOp29
 70
     1
102
RTVSPropertyOp30
 70
     1
102
RTVSPropertyOp31
 70
     1
102
RTVSPropertyOp32
 70
     1
102
RTVSPropertyOp33
 70
     1
102
RTVSPropertyOp34
 70
     1
102
RTVSPropertyOp35
 70
     1
102
RTVSPropertyOp36
 70
     1
102
RTVSPropertyOp37
 70
     1
102
RTVSPropertyOp38
 70
     1
102
RTVSPropertyOp39
 70
     1
102
RTVSPropertyOp40
 70
     1
102
RTVSPropertyOp41
 70
     1
102
RTVSPropertyOp42
 70
     1
102
RTVSPropertyOp43
 70
     1
102
RTVSPropertyOp44
 70
     1
102
RTVSPropertyOp45
 70
     1
102
RTVSPropertyOp46
 70
     1
102
RTVSPropertyOp47
 70
     1
102
RTVSPropertyOp48
 70
     1
102
RTVSPropertyOp49
 70
     1
102
RTVSPropertyOp50
 70
     1
102
RTVSPropertyOp51
 70
     0
102
RTVSPropertyOp52
 70
     0
102
RTVSPropertyOp53
 70
     1
102
RTVSPropertyOp54
 70
     1
102
RTVSPropertyOp55
 70
     1
102
RTVSPropertyOp56
 70
     1
102
RTVSPropertyOp57
 70
     1
102
RTVSPost2010Prop28
280
     0
102
RTVSPost2010PropOp28
 70
     1
102
RTVSPost2010Prop29
280
     1
102
RTVSPost2010PropOp29
 70
     1
102
RTVSPost2010Prop30
280
     1
102
RTVSPost2010PropOp30
 70
     1
102
RTVSPost2010Prop31
280
     0
102
RTVSPost2010PropOp31
 70
     1
102
RTVSPost2010Prop32
280
     0
102
RTVSPost2010PropOp32
 70
     1
102
RTVSPost2010Prop33
280
     0
102
RTVSPost2010PropOp33
 70
     1
102
RTVSPost2010Prop34
280
     0
102
RTVSPost2010PropOp34
 70
     1
102
RTVSPost2010Prop35
280
     0
102
RTVSPost2010PropOp35
 70
     1
102
RTVSPost2010Prop36
280
     0
102
RTVSPost2010PropOp36
 70
     1
102
RTVSPost2010Prop37
 90
       50
102
RTVSPost2010PropOp37
 70
     1
102
RTVSPost2010Prop38
140
0.0
102
RTVSPost2010PropOp38
 70
     1
102
RTVSPost2010Prop39
140
1.0
102
RTVSPost2010PropOp39
 70
     1
102
RTVSPost2010Prop40
 90
        0
102
RTVSPost2010PropOp40
 70
     1
102
RTVSPost2010Prop41ColorIndex
 90
       18
102
RTVSPost2010Prop41ColorRGB
 90
        0
102
RTVSPost2010PropOp41
 70
     1
102
RTVSPost2010Prop42
 90
       50
102
RTVSPost2010PropOp42
 70
     1
102
RTVSPost2010Prop43
 90
        3
102
RTVSPost2010PropOp43
 70
     1
102
RTVSPost2010Prop44ColorIndex
 90
        5
102
RTVSPost2010Prop44ColorRGB
 90
      255
102
RTVSPost2010PropOp44
 70
     1
102
RTVSPost2010Prop45
280
     0
102
RTVSPost2010PropOp45
 70
     1
102
RTVSPost2010Prop46
 90
       50
102
RTVSPost2010PropOp46
 70
     1
102
RTVSPost2010Prop47
 90
       50
102
RTVSPost2010PropOp47
 70
     1
102
RTVSPost2010Prop48
 90
       50
102
RTVSPost2010PropOp48
 70
     1
102
RTVSPost2010Prop49
280
     0
102
RTVSPost2010PropOp49
 70
     1
102
RTVSPost2010Prop50
 90
       50
102
RTVSPost2010PropOp50
 70
     1
102
RTVSPost2010Prop51ColorIndex
 90
      256
102
RTVSPost2010Prop51ColorRGB
 90
-16777216
102
RTVSPost2010PropOp51
 70
     0
102
RTVSPost2010Prop52
140
1.0
102
RTVSPost2010PropOp52
 70
     0
102
RTVSPost2010Prop53
 90
        2
102
RTVSPost2010PropOp53
 70
     1
102
RTVSPost2010Prop54
  1
strokes_ogs.tif
102
RTVSPost2010PropOp54
 70
     1
102
RTVSPost2010Prop55
280
     0
102
RTVSPost2010PropOp55
 70
     1
102
RTVSPost2010Prop56
140
1.0
102
RTVSPost2010PropOp56
 70
     1
102
RTVSPost2010Prop57
140
1.0
102
RTVSPost2010PropOp57
 70
     1
  0
XRECORD
  5
291
102
{ACAD_REACTORS
330
290
102
}
330
290
100
AcDbXrecord
280
     1
102
RTVSPropertyOp0
 70
     1
102
RTVSPropertyOp1
 70
     1
102
RTVSPropertyOp2
 70
     1
102
RTVSPropertyOp3
 70
     1
102
RTVSPropertyOp4
 70
     1
102
RTVSPropertyOp5
 70
     1
102
RTVSPropertyOp6
 70
     1
102
RTVSPropertyOp7
 70
     1
102
RTVSPropertyOp8
 70
     1
102
RTVSPropertyOp9
 70
     1
102
RTVSPropertyOp10
 70
     1
102
RTVSPropertyOp11
 70
     1
102
RTVSPropertyOp12
 70
     1
102
RTVSPropertyOp13
 70
     1
102
RTVSPropertyOp14
 70
     1
102
RTVSPropertyOp15
 70
     1
102
RTVSPropertyOp16
 70
     1
102
RTVSPropertyOp17
 70
     1
102
RTVSPropertyOp18
 70
     1
102
RTVSPropertyOp19
 70
     1
102
RTVSPropertyOp20
 70
     1
102
RTVSPropertyOp21
 70
     1
102
RTVSPropertyOp22
 70
     1
102
RTVSPropertyOp23
 70
     1
102
RTVSPropertyOp24
 70
     1
102
RTVSPropertyOp25
 70
     1
102
RTVSPropertyOp26
 70
     1
102
RTVSPropertyOp27
 70
     1
102
RTVSPropertyOp28
 70
     1
102
RTVSPropertyOp29
 70
     1
102
RTVSPropertyOp30
 70
     1
102
RTVSPropertyOp31
 70
     1
102
RTVSPropertyOp32
 70
     1
102
RTVSPropertyOp33
 70
     1
102
RTVSPropertyOp34
 70
     1
102
RTVSPropertyOp35
 70
     1
102
RTVSPropertyOp36
 70
     1
102
RTVSPropertyOp37
 70
     1
102
RTVSPropertyOp38
 70
     1
102
RTVSPropertyOp39
 70
     1
102
RTVSPropertyOp40
 70
     1
102
RTVSPropertyOp41
 70
     1
102
RTVSPropertyOp42
 70
     1
102
RTVSPropertyOp43
 70
     1
102
RTVSPropertyOp44
 70
     1
102
RTVSPropertyOp45
 70
     1
102
RTVSPropertyOp46
 70
     1
102
RTVSPropertyOp47
 70
     1
102
RTVSPropertyOp48
 70
     1
102
RTVSPropertyOp49
 70
     1
102
RTVSPropertyOp50
 70
     1
102
RTVSPropertyOp51
 70
     0
102
RTVSPropertyOp52
 70
     0
102
RTVSPropertyOp53
 70
     1
102
RTVSPropertyOp54
 70
     1
102
RTVSPropertyOp55
 70
     1
102
RTVSPropertyOp56
 70
     1
102
RTVSPropertyOp57
 70
     1
102
RTVSPost2010Prop28
280
     0
102
RTVSPost2010PropOp28
 70
     1
102
RTVSPost2010Prop29
280
     1
102
RTVSPost2010PropOp29
 70
     1
102
RTVSPost2010Prop30
280
     1
102
RTVSPost2010PropOp30
 70
     1
102
RTVSPost2010Prop31
280
     0
102
RTVSPost2010PropOp31
 70
     1
102
RTVSPost2010Prop32
280
     0
102
RTVSPost2010PropOp32
 70
     1
102
RTVSPost2010Prop33
280
     0
102
RTVSPost2010PropOp33
 70
     1
102
RTVSPost2010Prop34
280
     0
102
RTVSPost2010PropOp34
 70
     1
102
RTVSPost2010Prop35
280
     0
102
RTVSPost2010PropOp35
 70
     1
102
RTVSPost2010Prop36
280
     0
102
RTVSPost2010PropOp36
 70
     1
102
RTVSPost2010Prop37
 90
       50
102
RTVSPost2010PropOp37
 70
     1
102
RTVSPost2010Prop38
140
0.0
102
RTVSPost2010PropOp38
 70
     1
102
RTVSPost2010Prop39
140
1.0
102
RTVSPost2010PropOp39
 70
     1
102
RTVSPost2010Prop40
 90
        0
102
RTVSPost2010PropOp40
 70
     1
102
RTVSPost2010Prop41ColorIndex
 90
       18
102
RTVSPost2010Prop41ColorRGB
 90
        0
102
RTVSPost2010PropOp41
 70
     1
102
RTVSPost2010Prop42
 90
       50
102
RTVSPost2010PropOp42
 70
     1
102
RTVSPost2010Prop43
 90
        3
102
RTVSPost2010PropOp43
 70
     1
102
RTVSPost2010Prop44ColorIndex
 90
        5
102
RTVSPost2010Prop44ColorRGB
 90
      255
102
RTVSPost2010PropOp44
 70
     1
102
RTVSPost2010Prop45
280
     0
102
RTVSPost2010PropOp45
 70
     1
102
RTVSPost2010Prop46
 90
       50
102
RTVSPost2010PropOp46
 70
     1
102
RTVSPost2010Prop47
 90
       50
102
RTVSPost2010PropOp47
 70
     1
102
RTVSPost2010Prop48
 90
       50
102
RTVSPost2010PropOp48
 70
     1
102
RTVSPost2010Prop49
280
     0
102
RTVSPost2010PropOp49
 70
     1
102
RTVSPost2010Prop50
 90
       50
102
RTVSPost2010PropOp50
 70
     1
102
RTVSPost2010Prop51ColorIndex
 90
      256
102
RTVSPost2010Prop51ColorRGB
 90
-16777216
102
RTVSPost2010PropOp51
 70
     0
102
RTVSPost2010Prop52
140
1.0
102
RTVSPost2010PropOp52
 70
     0
102
RTVSPost2010Prop53
 90
        2
102
RTVSPost2010PropOp53
 70
     1
102
RTVSPost2010Prop54
  1
strokes_ogs.tif
102
RTVSPost2010PropOp54
 70
     1
102
RTVSPost2010Prop55
280
     0
102
RTVSPost2010PropOp55
 70
     1
102
RTVSPost2010Prop56
140
1.0
102
RTVSPost2010PropOp56
 70
     1
102
RTVSPost2010Prop57
140
1.0
102
RTVSPost2010PropOp57
 70
     1
  0
XRECORD
  5
293
102
{ACAD_REACTORS
330
292
102
}
330
292
100
AcDbXrecord
280
     1
102
RTVSPropertyOp0
 70
     1
102
RTVSPropertyOp1
 70
     1
102
RTVSPropertyOp2
 70
     1
102
RTVSPropertyOp3
 70
     1
102
RTVSPropertyOp4
 70
     1
102
RTVSPropertyOp5
 70
     1
102
RTVSPropertyOp6
 70
     1
102
RTVSPropertyOp7
 70
     1
102
RTVSPropertyOp8
 70
     1
102
RTVSPropertyOp9
 70
     1
102
RTVSPropertyOp10
 70
     1
102
RTVSPropertyOp11
 70
     1
102
RTVSPropertyOp12
 70
     1
102
RTVSPropertyOp13
 70
     1
102
RTVSPropertyOp14
 70
     1
102
RTVSPropertyOp15
 70
     1
102
RTVSPropertyOp16
 70
     1
102
RTVSPropertyOp17
 70
     1
102
RTVSPropertyOp18
 70
     1
102
RTVSPropertyOp19
 70
     1
102
RTVSPropertyOp20
 70
     1
102
RTVSPropertyOp21
 70
     1
102
RTVSPropertyOp22
 70
     1
102
RTVSPropertyOp23
 70
     1
102
RTVSPropertyOp24
 70
     1
102
RTVSPropertyOp25
 70
     1
102
RTVSPropertyOp26
 70
     1
102
RTVSPropertyOp27
 70
     1
102
RTVSPropertyOp28
 70
     1
102
RTVSPropertyOp29
 70
     1
102
RTVSPropertyOp30
 70
     1
102
RTVSPropertyOp31
 70
     1
102
RTVSPropertyOp32
 70
     1
102
RTVSPropertyOp33
 70
     1
102
RTVSPropertyOp34
 70
     1
102
RTVSPropertyOp35
 70
     1
102
RTVSPropertyOp36
 70
     1
102
RTVSPropertyOp37
 70
     1
102
RTVSPropertyOp38
 70
     1
102
RTVSPropertyOp39
 70
     1
102
RTVSPropertyOp40
 70
     1
102
RTVSPropertyOp41
 70
     1
102
RTVSPropertyOp42
 70
     1
102
RTVSPropertyOp43
 70
     1
102
RTVSPropertyOp44
 70
     1
102
RTVSPropertyOp45
 70
     1
102
RTVSPropertyOp46
 70
     1
102
RTVSPropertyOp47
 70
     1
102
RTVSPropertyOp48
 70
     1
102
RTVSPropertyOp49
 70
     1
102
RTVSPropertyOp50
 70
     1
102
RTVSPropertyOp51
 70
     0
102
RTVSPropertyOp52
 70
     0
102
RTVSPropertyOp53
 70
     1
102
RTVSPropertyOp54
 70
     1
102
RTVSPropertyOp55
 70
     1
102
RTVSPropertyOp56
 70
     1
102
RTVSPropertyOp57
 70
     1
102
RTVSPost2010Prop28
280
     0
102
RTVSPost2010PropOp28
 70
     1
102
RTVSPost2010Prop29
280
     1
102
RTVSPost2010PropOp29
 70
     1
102
RTVSPost2010Prop30
280
     1
102
RTVSPost2010PropOp30
 70
     1
102
RTVSPost2010Prop31
280
     0
102
RTVSPost2010PropOp31
 70
     1
102
RTVSPost2010Prop32
280
     0
102
RTVSPost2010PropOp32
 70
     1
102
RTVSPost2010Prop33
280
     0
102
RTVSPost2010PropOp33
 70
     1
102
RTVSPost2010Prop34
280
     0
102
RTVSPost2010PropOp34
 70
     1
102
RTVSPost2010Prop35
280
     0
102
RTVSPost2010PropOp35
 70
     1
102
RTVSPost2010Prop36
280
     0
102
RTVSPost2010PropOp36
 70
     1
102
RTVSPost2010Prop37
 90
       50
102
RTVSPost2010PropOp37
 70
     1
102
RTVSPost2010Prop38
140
0.0
102
RTVSPost2010PropOp38
 70
     1
102
RTVSPost2010Prop39
140
1.0
102
RTVSPost2010PropOp39
 70
     1
102
RTVSPost2010Prop40
 90
        0
102
RTVSPost2010PropOp40
 70
     1
102
RTVSPost2010Prop41ColorIndex
 90
       18
102
RTVSPost2010Prop41ColorRGB
 90
        0
102
RTVSPost2010PropOp41
 70
     1
102
RTVSPost2010Prop42
 90
       50
102
RTVSPost2010PropOp42
 70
     1
102
RTVSPost2010Prop43
 90
        3
102
RTVSPost2010PropOp43
 70
     1
102
RTVSPost2010Prop44ColorIndex
 90
        5
102
RTVSPost2010Prop44ColorRGB
 90
      255
102
RTVSPost2010PropOp44
 70
     1
102
RTVSPost2010Prop45
280
     0
102
RTVSPost2010PropOp45
 70
     1
102
RTVSPost2010Prop46
 90
       50
102
RTVSPost2010PropOp46
 70
     1
102
RTVSPost2010Prop47
 90
       50
102
RTVSPost2010PropOp47
 70
     1
102
RTVSPost2010Prop48
 90
       50
102
RTVSPost2010PropOp48
 70
     1
102
RTVSPost2010Prop49
280
     0
102
RTVSPost2010PropOp49
 70
     1
102
RTVSPost2010Prop50
 90
       50
102
RTVSPost2010PropOp50
 70
     1
102
RTVSPost2010Prop51ColorIndex
 90
      256
102
RTVSPost2010Prop51ColorRGB
 90
-16777216
102
RTVSPost2010PropOp51
 70
     0
102
RTVSPost2010Prop52
140
1.0
102
RTVSPost2010PropOp52
 70
     0
102
RTVSPost2010Prop53
 90
        2
102
RTVSPost2010PropOp53
 70
     1
102
RTVSPost2010Prop54
  1
strokes_ogs.tif
102
RTVSPost2010PropOp54
 70
     1
102
RTVSPost2010Prop55
280
     0
102
RTVSPost2010PropOp55
 70
     1
102
RTVSPost2010Prop56
140
1.0
102
RTVSPost2010PropOp56
 70
     1
102
RTVSPost2010Prop57
140
1.0
102
RTVSPost2010PropOp57
 70
     1
  0
XRECORD
  5
283
102
{ACAD_REACTORS
330
282
102
}
330
282
100
AcDbXrecord
280
     1
102
RTVSPropertyOp0
 70
     1
102
RTVSPropertyOp1
 70
     1
102
RTVSPropertyOp2
 70
     1
102
RTVSPropertyOp3
 70
     1
102
RTVSPropertyOp4
 70
     1
102
RTVSPropertyOp5
 70
     1
102
RTVSPropertyOp6
 70
     1
102
RTVSPropertyOp7
 70
     1
102
RTVSPropertyOp8
 70
     1
102
RTVSPropertyOp9
 70
     1
102
RTVSPropertyOp10
 70
     1
102
RTVSPropertyOp11
 70
     1
102
RTVSPropertyOp12
 70
     1
102
RTVSPropertyOp13
 70
     1
102
RTVSPropertyOp14
 70
     1
102
RTVSPropertyOp15
 70
     1
102
RTVSPropertyOp16
 70
     1
102
RTVSPropertyOp17
 70
     1
102
RTVSPropertyOp18
 70
     1
102
RTVSPropertyOp19
 70
     1
102
RTVSPropertyOp20
 70
     1
102
RTVSPropertyOp21
 70
     1
102
RTVSPropertyOp22
 70
     1
102
RTVSPropertyOp23
 70
     1
102
RTVSPropertyOp24
 70
     1
102
RTVSPropertyOp25
 70
     1
102
RTVSPropertyOp26
 70
     1
102
RTVSPropertyOp27
 70
     1
102
RTVSPropertyOp28
 70
     1
102
RTVSPropertyOp29
 70
     1
102
RTVSPropertyOp30
 70
     1
102
RTVSPropertyOp31
 70
     1
102
RTVSPropertyOp32
 70
     1
102
RTVSPropertyOp33
 70
     1
102
RTVSPropertyOp34
 70
     1
102
RTVSPropertyOp35
 70
     1
102
RTVSPropertyOp36
 70
     1
102
RTVSPropertyOp37
 70
     1
102
RTVSPropertyOp38
 70
     1
102
RTVSPropertyOp39
 70
     1
102
RTVSPropertyOp40
 70
     1
102
RTVSPropertyOp41
 70
     1
102
RTVSPropertyOp42
 70
     1
102
RTVSPropertyOp43
 70
     1
102
RTVSPropertyOp44
 70
     1
102
RTVSPropertyOp45
 70
     1
102
RTVSPropertyOp46
 70
     1
102
RTVSPropertyOp47
 70
     1
102
RTVSPropertyOp48
 70
     1
102
RTVSPropertyOp49
 70
     1
102
RTVSPropertyOp50
 70
     1
102
RTVSPropertyOp51
 70
     0
102
RTVSPropertyOp52
 70
     0
102
RTVSPropertyOp53
 70
     1
102
RTVSPropertyOp54
 70
     1
102
RTVSPropertyOp55
 70
     1
102
RTVSPropertyOp56
 70
     1
102
RTVSPropertyOp57
 70
     1
102
RTVSPost2010Prop28
280
     0
102
RTVSPost2010PropOp28
 70
     1
102
RTVSPost2010Prop29
280
     1
102
RTVSPost2010PropOp29
 70
     1
102
RTVSPost2010Prop30
280
     1
102
RTVSPost2010PropOp30
 70
     1
102
RTVSPost2010Prop31
280
     0
102
RTVSPost2010PropOp31
 70
     1
102
RTVSPost2010Prop32
280
     0
102
RTVSPost2010PropOp32
 70
     1
102
RTVSPost2010Prop33
280
     0
102
RTVSPost2010PropOp33
 70
     1
102
RTVSPost2010Prop34
280
     0
102
RTVSPost2010PropOp34
 70
     1
102
RTVSPost2010Prop35
280
     0
102
RTVSPost2010PropOp35
 70
     1
102
RTVSPost2010Prop36
280
     0
102
RTVSPost2010PropOp36
 70
     1
102
RTVSPost2010Prop37
 90
       50
102
RTVSPost2010PropOp37
 70
     1
102
RTVSPost2010Prop38
140
0.0
102
RTVSPost2010PropOp38
 70
     1
102
RTVSPost2010Prop39
140
1.0
102
RTVSPost2010PropOp39
 70
     1
102
RTVSPost2010Prop40
 90
        0
102
RTVSPost2010PropOp40
 70
     1
102
RTVSPost2010Prop41ColorIndex
 90
       18
102
RTVSPost2010Prop41ColorRGB
 90
        0
102
RTVSPost2010PropOp41
 70
     1
102
RTVSPost2010Prop42
 90
       50
102
RTVSPost2010PropOp42
 70
     1
102
RTVSPost2010Prop43
 90
        3
102
RTVSPost2010PropOp43
 70
     1
102
RTVSPost2010Prop44ColorIndex
 90
        5
102
RTVSPost2010Prop44ColorRGB
 90
      255
102
RTVSPost2010PropOp44
 70
     1
102
RTVSPost2010Prop45
280
     0
102
RTVSPost2010PropOp45
 70
     1
102
RTVSPost2010Prop46
 90
       50
102
RTVSPost2010PropOp46
 70
     1
102
RTVSPost2010Prop47
 90
       50
102
RTVSPost2010PropOp47
 70
     1
102
RTVSPost2010Prop48
 90
       50
102
RTVSPost2010PropOp48
 70
     1
102
RTVSPost2010Prop49
280
     0
102
RTVSPost2010PropOp49
 70
     1
102
RTVSPost2010Prop50
 90
       50
102
RTVSPost2010PropOp50
 70
     1
102
RTVSPost2010Prop51ColorIndex
 90
      256
102
RTVSPost2010Prop51ColorRGB
 90
-16777216
102
RTVSPost2010PropOp51
 70
     0
102
RTVSPost2010Prop52
140
1.0
102
RTVSPost2010PropOp52
 70
     0
102
RTVSPost2010Prop53
 90
        2
102
RTVSPost2010PropOp53
 70
     1
102
RTVSPost2010Prop54
  1
strokes_ogs.tif
102
RTVSPost2010PropOp54
 70
     1
102
RTVSPost2010Prop55
280
     0
102
RTVSPost2010PropOp55
 70
     1
102
RTVSPost2010Prop56
140
1.0
102
RTVSPost2010PropOp56
 70
     1
102
RTVSPost2010Prop57
140
1.0
102
RTVSPost2010PropOp57
 70
     1
  0
XRECORD
  5
275
102
{ACAD_REACTORS
330
274
102
}
330
274
100
AcDbXrecord
280
     1
102
RTVSPropertyOp0
 70
     1
102
RTVSPropertyOp1
 70
     1
102
RTVSPropertyOp2
 70
     1
102
RTVSPropertyOp3
 70
     1
102
RTVSPropertyOp4
 70
     1
102
RTVSPropertyOp5
 70
     1
102
RTVSPropertyOp6
 70
     1
102
RTVSPropertyOp7
 70
     1
102
RTVSPropertyOp8
 70
     1
102
RTVSPropertyOp9
 70
     1
102
RTVSPropertyOp10
 70
     1
102
RTVSPropertyOp11
 70
     1
102
RTVSPropertyOp12
 70
     1
102
RTVSPropertyOp13
 70
     1
102
RTVSPropertyOp14
 70
     1
102
RTVSPropertyOp15
 70
     1
102
RTVSPropertyOp16
 70
     1
102
RTVSPropertyOp17
 70
     1
102
RTVSPropertyOp18
 70
     1
102
RTVSPropertyOp19
 70
     1
102
RTVSPropertyOp20
 70
     1
102
RTVSPropertyOp21
 70
     1
102
RTVSPropertyOp22
 70
     1
102
RTVSPropertyOp23
 70
     1
102
RTVSPropertyOp24
 70
     1
102
RTVSPropertyOp25
 70
     1
102
RTVSPropertyOp26
 70
     1
102
RTVSPropertyOp27
 70
     1
102
RTVSPropertyOp28
 70
     1
102
RTVSPropertyOp29
 70
     1
102
RTVSPropertyOp30
 70
     1
102
RTVSPropertyOp31
 70
     1
102
RTVSPropertyOp32
 70
     1
102
RTVSPropertyOp33
 70
     1
102
RTVSPropertyOp34
 70
     1
102
RTVSPropertyOp35
 70
     1
102
RTVSPropertyOp36
 70
     1
102
RTVSPropertyOp37
 70
     1
102
RTVSPropertyOp38
 70
     1
102
RTVSPropertyOp39
 70
     1
102
RTVSPropertyOp40
 70
     1
102
RTVSPropertyOp41
 70
     1
102
RTVSPropertyOp42
 70
     1
102
RTVSPropertyOp43
 70
     1
102
RTVSPropertyOp44
 70
     1
102
RTVSPropertyOp45
 70
     1
102
RTVSPropertyOp46
 70
     1
102
RTVSPropertyOp47
 70
     1
102
RTVSPropertyOp48
 70
     1
102
RTVSPropertyOp49
 70
     1
102
RTVSPropertyOp50
 70
     1
102
RTVSPropertyOp51
 70
     0
102
RTVSPropertyOp52
 70
     0
102
RTVSPropertyOp53
 70
     1
102
RTVSPropertyOp54
 70
     1
102
RTVSPropertyOp55
 70
     1
102
RTVSPropertyOp56
 70
     1
102
RTVSPropertyOp57
 70
     1
102
RTVSPost2010Prop28
280
     0
102
RTVSPost2010PropOp28
 70
     1
102
RTVSPost2010Prop29
280
     1
102
RTVSPost2010PropOp29
 70
     1
102
RTVSPost2010Prop30
280
     1
102
RTVSPost2010PropOp30
 70
     1
102
RTVSPost2010Prop31
280
     0
102
RTVSPost2010PropOp31
 70
     1
102
RTVSPost2010Prop32
280
     0
102
RTVSPost2010PropOp32
 70
     1
102
RTVSPost2010Prop33
280
     0
102
RTVSPost2010PropOp33
 70
     1
102
RTVSPost2010Prop34
280
     0
102
RTVSPost2010PropOp34
 70
     1
102
RTVSPost2010Prop35
280
     0
102
RTVSPost2010PropOp35
 70
     1
102
RTVSPost2010Prop36
280
     0
102
RTVSPost2010PropOp36
 70
     1
102
RTVSPost2010Prop37
 90
       50
102
RTVSPost2010PropOp37
 70
     1
102
RTVSPost2010Prop38
140
0.0
102
RTVSPost2010PropOp38
 70
     1
102
RTVSPost2010Prop39
140
1.0
102
RTVSPost2010PropOp39
 70
     1
102
RTVSPost2010Prop40
 90
        0
102
RTVSPost2010PropOp40
 70
     1
102
RTVSPost2010Prop41ColorIndex
 90
       18
102
RTVSPost2010Prop41ColorRGB
 90
        0
102
RTVSPost2010PropOp41
 70
     1
102
RTVSPost2010Prop42
 90
       50
102
RTVSPost2010PropOp42
 70
     1
102
RTVSPost2010Prop43
 90
        3
102
RTVSPost2010PropOp43
 70
     1
102
RTVSPost2010Prop44ColorIndex
 90
        5
102
RTVSPost2010Prop44ColorRGB
 90
      255
102
RTVSPost2010PropOp44
 70
     1
102
RTVSPost2010Prop45
280
     0
102
RTVSPost2010PropOp45
 70
     1
102
RTVSPost2010Prop46
 90
       50
102
RTVSPost2010PropOp46
 70
     1
102
RTVSPost2010Prop47
 90
       50
102
RTVSPost2010PropOp47
 70
     1
102
RTVSPost2010Prop48
 90
       50
102
RTVSPost2010PropOp48
 70
     1
102
RTVSPost2010Prop49
280
     0
102
RTVSPost2010PropOp49
 70
     1
102
RTVSPost2010Prop50
 90
       50
102
RTVSPost2010PropOp50
 70
     1
102
RTVSPost2010Prop51ColorIndex
 90
      256
102
RTVSPost2010Prop51ColorRGB
 90
-16777216
102
RTVSPost2010PropOp51
 70
     0
102
RTVSPost2010Prop52
140
1.0
102
RTVSPost2010PropOp52
 70
     0
102
RTVSPost2010Prop53
 90
        2
102
RTVSPost2010PropOp53
 70
     1
102
RTVSPost2010Prop54
  1
strokes_ogs.tif
102
RTVSPost2010PropOp54
 70
     1
102
RTVSPost2010Prop55
280
     0
102
RTVSPost2010PropOp55
 70
     1
102
RTVSPost2010Prop56
140
1.0
102
RTVSPost2010PropOp56
 70
     1
102
RTVSPost2010Prop57
140
1.0
102
RTVSPost2010PropOp57
 70
     1
  0
XRECORD
  5
295
102
{ACAD_REACTORS
330
294
102
}
330
294
100
AcDbXrecord
280
     1
102
RTVSPropertyOp0
 70
     1
102
RTVSPropertyOp1
 70
     1
102
RTVSPropertyOp2
 70
     1
102
RTVSPropertyOp3
 70
     1
102
RTVSPropertyOp4
 70
     1
102
RTVSPropertyOp5
 70
     1
102
RTVSPropertyOp6
 70
     1
102
RTVSPropertyOp7
 70
     1
102
RTVSPropertyOp8
 70
     1
102
RTVSPropertyOp9
 70
     1
102
RTVSPropertyOp10
 70
     1
102
RTVSPropertyOp11
 70
     1
102
RTVSPropertyOp12
 70
     1
102
RTVSPropertyOp13
 70
     1
102
RTVSPropertyOp14
 70
     1
102
RTVSPropertyOp15
 70
     1
102
RTVSPropertyOp16
 70
     1
102
RTVSPropertyOp17
 70
     1
102
RTVSPropertyOp18
 70
     1
102
RTVSPropertyOp19
 70
     1
102
RTVSPropertyOp20
 70
     1
102
RTVSPropertyOp21
 70
     1
102
RTVSPropertyOp22
 70
     1
102
RTVSPropertyOp23
 70
     1
102
RTVSPropertyOp24
 70
     1
102
RTVSPropertyOp25
 70
     1
102
RTVSPropertyOp26
 70
     1
102
RTVSPropertyOp27
 70
     1
102
RTVSPropertyOp28
 70
     1
102
RTVSPropertyOp29
 70
     1
102
RTVSPropertyOp30
 70
     1
102
RTVSPropertyOp31
 70
     1
102
RTVSPropertyOp32
 70
     1
102
RTVSPropertyOp33
 70
     1
102
RTVSPropertyOp34
 70
     1
102
RTVSPropertyOp35
 70
     1
102
RTVSPropertyOp36
 70
     1
102
RTVSPropertyOp37
 70
     1
102
RTVSPropertyOp38
 70
     1
102
RTVSPropertyOp39
 70
     1
102
RTVSPropertyOp40
 70
     1
102
RTVSPropertyOp41
 70
     1
102
RTVSPropertyOp42
 70
     1
102
RTVSPropertyOp43
 70
     1
102
RTVSPropertyOp44
 70
     1
102
RTVSPropertyOp45
 70
     1
102
RTVSPropertyOp46
 70
     1
102
RTVSPropertyOp47
 70
     1
102
RTVSPropertyOp48
 70
     1
102
RTVSPropertyOp49
 70
     1
102
RTVSPropertyOp50
 70
     1
102
RTVSPropertyOp51
 70
     0
102
RTVSPropertyOp52
 70
     0
102
RTVSPropertyOp53
 70
     1
102
RTVSPropertyOp54
 70
     1
102
RTVSPropertyOp55
 70
     1
102
RTVSPropertyOp56
 70
     1
102
RTVSPropertyOp57
 70
     1
102
RTVSPost2010Prop28
280
     0
102
RTVSPost2010PropOp28
 70
     1
102
RTVSPost2010Prop29
280
     1
102
RTVSPost2010PropOp29
 70
     1
102
RTVSPost2010Prop30
280
     1
102
RTVSPost2010PropOp30
 70
     1
102
RTVSPost2010Prop31
280
     0
102
RTVSPost2010PropOp31
 70
     1
102
RTVSPost2010Prop32
280
     0
102
RTVSPost2010PropOp32
 70
     1
102
RTVSPost2010Prop33
280
     0
102
RTVSPost2010PropOp33
 70
     1
102
RTVSPost2010Prop34
280
     0
102
RTVSPost2010PropOp34
 70
     1
102
RTVSPost2010Prop35
280
     0
102
RTVSPost2010PropOp35
 70
     1
102
RTVSPost2010Prop36
280
     0
102
RTVSPost2010PropOp36
 70
     1
102
RTVSPost2010Prop37
 90
       50
102
RTVSPost2010PropOp37
 70
     1
102
RTVSPost2010Prop38
140
0.0
102
RTVSPost2010PropOp38
 70
     1
102
RTVSPost2010Prop39
140
1.0
102
RTVSPost2010PropOp39
 70
     1
102
RTVSPost2010Prop40
 90
        0
102
RTVSPost2010PropOp40
 70
     1
102
RTVSPost2010Prop41ColorIndex
 90
       18
102
RTVSPost2010Prop41ColorRGB
 90
        0
102
RTVSPost2010PropOp41
 70
     1
102
RTVSPost2010Prop42
 90
       50
102
RTVSPost2010PropOp42
 70
     1
102
RTVSPost2010Prop43
 90
        3
102
RTVSPost2010PropOp43
 70
     1
102
RTVSPost2010Prop44ColorIndex
 90
        5
102
RTVSPost2010Prop44ColorRGB
 90
      255
102
RTVSPost2010PropOp44
 70
     1
102
RTVSPost2010Prop45
280
     0
102
RTVSPost2010PropOp45
 70
     1
102
RTVSPost2010Prop46
 90
       50
102
RTVSPost2010PropOp46
 70
     1
102
RTVSPost2010Prop47
 90
       50
102
RTVSPost2010PropOp47
 70
     1
102
RTVSPost2010Prop48
 90
       50
102
RTVSPost2010PropOp48
 70
     1
102
RTVSPost2010Prop49
280
     0
102
RTVSPost2010PropOp49
 70
     1
102
RTVSPost2010Prop50
 90
       50
102
RTVSPost2010PropOp50
 70
     1
102
RTVSPost2010Prop51ColorIndex
 90
      256
102
RTVSPost2010Prop51ColorRGB
 90
-16777216
102
RTVSPost2010PropOp51
 70
     0
102
RTVSPost2010Prop52
140
1.0
102
RTVSPost2010PropOp52
 70
     0
102
RTVSPost2010Prop53
 90
        2
102
RTVSPost2010PropOp53
 70
     1
102
RTVSPost2010Prop54
  1
strokes_ogs.tif
102
RTVSPost2010PropOp54
 70
     1
102
RTVSPost2010Prop55
280
     0
102
RTVSPost2010PropOp55
 70
     1
102
RTVSPost2010Prop56
140
1.0
102
RTVSPost2010PropOp56
 70
     1
102
RTVSPost2010Prop57
140
1.0
102
RTVSPost2010PropOp57
 70
     1
  0
ENDSEC
  0
EOF
