  0
SECTION
  2
HEADER
  9
$ACADVER
  1
AC1021
  9
$ACADMAINTVER
 70
    25
  9
$DWGCODEPAGE
  3
ANSI_1252
  9
$LASTSAVEDBY
  1
noseda_d
  9
$INSBASE
 10
0.0
 20
0.0
 30
0.0
  9
$EXTMIN
 10
306.076967
 20
2181.081758
 30
-0.0000000000000021
  9
$EXTMAX
 10
2425.064308
 20
2552.499253
 30
0.0000000000000021
  9
$LIMMIN
 10
0.0
 20
0.0
  9
$LIMMAX
 10
12.0
 20
9.0
  9
$ORTHOMODE
 70
     0
  9
$REGENMODE
 70
     1
  9
$FILLMODE
 70
     1
  9
$QTEXTMODE
 70
     0
  9
$MIRRTEXT
 70
     1
  9
$LTSCALE
 40
1.0
  9
$ATTMODE
 70
     1
  9
$TEXTSIZE
 40
0.2
  9
$TRACEWID
 40
0.05
  9
$TEXTSTYLE
  7
Standard
  9
$CLAYER
  8
1
  9
$CELTYPE
  6
ByLayer
  9
$CECOLOR
 62
   256
  9
$CELTSCALE
 40
1.0
  9
$DISPSILH
 70
     0
  9
$DIMSCALE
 40
1.0
  9
$DIMASZ
 40
0.18
  9
$DIMEXO
 40
0.0625
  9
$DIMDLI
 40
0.38
  9
$DIMRND
 40
0.0
  9
$DIMDLE
 40
0.0
  9
$DIMEXE
 40
0.18
  9
$DIMTP
 40
0.0
  9
$DIMTM
 40
0.0
  9
$DIMTXT
 40
0.18
  9
$DIMCEN
 40
0.09
  9
$DIMTSZ
 40
0.0
  9
$DIMTOL
 70
     0
  9
$DIMLIM
 70
     0
  9
$DIMTIH
 70
     1
  9
$DIMTOH
 70
     1
  9
$DIMSE1
 70
     0
  9
$DIMSE2
 70
     0
  9
$DIMTAD
 70
     0
  9
$DIMZIN
 70
     0
  9
$DIMBLK
  1

  9
$DIMASO
 70
     1
  9
$DIMSHO
 70
     1
  9
$DIMPOST
  1

  9
$DIMAPOST
  1

  9
$DIMALT
 70
     0
  9
$DIMALTD
 70
     2
  9
$DIMALTF
 40
25.4
  9
$DIMLFAC
 40
1.0
  9
$DIMTOFL
 70
     0
  9
$DIMTVP
 40
0.0
  9
$DIMTIX
 70
     0
  9
$DIMSOXD
 70
     0
  9
$DIMSAH
 70
     0
  9
$DIMBLK1
  1

  9
$DIMBLK2
  1

  9
$DIMSTYLE
  2
STANDARD_ACAD
  9
$DIMCLRD
 70
     0
  9
$DIMCLRE
 70
     0
  9
$DIMCLRT
 70
     0
  9
$DIMTFAC
 40
1.0
  9
$DIMGAP
 40
0.09
  9
$DIMJUST
 70
     0
  9
$DIMSD1
 70
     0
  9
$DIMSD2
 70
     0
  9
$DIMTOLJ
 70
     1
  9
$DIMTZIN
 70
     0
  9
$DIMALTZ
 70
     0
  9
$DIMALTTZ
 70
     0
  9
$DIMUPT
 70
     0
  9
$DIMDEC
 70
     4
  9
$DIMTDEC
 70
     4
  9
$DIMALTU
 70
     2
  9
$DIMALTTD
 70
     2
  9
$DIMTXSTY
  7
Standard
  9
$DIMAUNIT
 70
     0
  9
$DIMADEC
 70
     0
  9
$DIMALTRND
 40
0.0
  9
$DIMAZIN
 70
     0
  9
$DIMDSEP
 70
    46
  9
$DIMATFIT
 70
     3
  9
$DIMFRAC
 70
     0
  9
$DIMLDRBLK
  1

  9
$DIMLUNIT
 70
     2
  9
$DIMLWD
 70
    -2
  9
$DIMLWE
 70
    -2
  9
$DIMTMOVE
 70
     2
  9
$DIMFXL
 40
1.0
  9
$DIMFXLON
 70
     0
  9
$DIMJOGANG
 40
0.7853981633974483
  9
$DIMTFILL
 70
     0
  9
$DIMTFILLCLR
 70
     0
  9
$DIMARCSYM
 70
     0
  9
$DIMLTYPE
  6

  9
$DIMLTEX1
  6

  9
$DIMLTEX2
  6

  9
$LUNITS
 70
     2
  9
$LUPREC
 70
     3
  9
$SKETCHINC
 40
0.1
  9
$FILLETRAD
 40
0.0
  9
$AUNITS
 70
     0
  9
$AUPREC
 70
     0
  9
$MENU
  1
.
  9
$ELEVATION
 40
0.0
  9
$PELEVATION
 40
0.0
  9
$THICKNESS
 40
0.0
  9
$LIMCHECK
 70
     0
  9
$CHAMFERA
 40
0.0
  9
$CHAMFERB
 40
0.0
  9
$CHAMFERC
 40
0.0
  9
$CHAMFERD
 40
0.0
  9
$SKPOLY
 70
     0
  9
$TDCREATE
 40
2460640.734935752
  9
$TDUCREATE
 40
2460640.693269086
  9
$TDUPDATE
 40
2460640.734949294
  9
$TDUUPDATE
 40
2460640.693282628
  9
$TDINDWG
 40
0.0000000116
  9
$TDUSRTIMER
 40
0.0000000116
  9
$USRTIMER
 70
     1
  9
$ANGBASE
 50
0.0
  9
$ANGDIR
 70
     0
  9
$PDMODE
 70
     0
  9
$PDSIZE
 40
0.0
  9
$PLINEWID
 40
0.0
  9
$SPLFRAME
 70
     0
  9
$SPLINETYPE
 70
     6
  9
$SPLINESEGS
 70
     8
  9
$HANDSEED
  5
2A4
  9
$SURFTAB1
 70
     6
  9
$SURFTAB2
 70
     6
  9
$SURFTYPE
 70
     6
  9
$SURFU
 70
     6
  9
$SURFV
 70
     6
  9
$UCSBASE
  2

  9
$UCSNAME
  2

  9
$UCSORG
 10
0.0
 20
0.0
 30
0.0
  9
$UCSXDIR
 10
1.0
 20
0.0
 30
0.0
  9
$UCSYDIR
 10
0.0
 20
1.0
 30
0.0
  9
$UCSORTHOREF
  2

  9
$UCSORTHOVIEW
 70
     0
  9
$UCSORGTOP
 10
0.0
 20
0.0
 30
0.0
  9
$UCSORGBOTTOM
 10
0.0
 20
0.0
 30
0.0
  9
$UCSORGLEFT
 10
0.0
 20
0.0
 30
0.0
  9
$UCSORGRIGHT
 10
0.0
 20
0.0
 30
0.0
  9
$UCSORGFRONT
 10
0.0
 20
0.0
 30
0.0
  9
$UCSORGBACK
 10
0.0
 20
0.0
 30
0.0
  9
$PUCSBASE
  2

  9
$PUCSNAME
  2

  9
$PUCSORG
 10
0.0
 20
0.0
 30
0.0
  9
$PUCSXDIR
 10
1.0
 20
0.0
 30
0.0
  9
$PUCSYDIR
 10
0.0
 20
1.0
 30
0.0
  9
$PUCSORTHOREF
  2

  9
$PUCSORTHOVIEW
 70
     0
  9
$PUCSORGTOP
 10
0.0
 20
0.0
 30
0.0
  9
$PUCSORGBOTTOM
 10
0.0
 20
0.0
 30
0.0
  9
$PUCSORGLEFT
 10
0.0
 20
0.0
 30
0.0
  9
$PUCSORGRIGHT
 10
0.0
 20
0.0
 30
0.0
  9
$PUCSORGFRONT
 10
0.0
 20
0.0
 30
0.0
  9
$PUCSORGBACK
 10
0.0
 20
0.0
 30
0.0
  9
$USERI1
 70
     0
  9
$USERI2
 70
     0
  9
$USERI3
 70
     0
  9
$USERI4
 70
     0
  9
$USERI5
 70
     0
  9
$USERR1
 40
0.0
  9
$USERR2
 40
0.0
  9
$USERR3
 40
0.0
  9
$USERR4
 40
0.0
  9
$USERR5
 40
0.0
  9
$WORLDVIEW
 70
     1
  9
$SHADEDGE
 70
     3
  9
$SHADEDIF
 70
    70
  9
$TILEMODE
 70
     1
  9
$MAXACTVP
 70
    64
  9
$PINSBASE
 10
0.0
 20
0.0
 30
0.0
  9
$PLIMCHECK
 70
     0
  9
$PEXTMIN
 10
1.000000000000000E+20
 20
1.000000000000000E+20
 30
1.000000000000000E+20
  9
$PEXTMAX
 10
-1.000000000000000E+20
 20
-1.000000000000000E+20
 30
-1.000000000000000E+20
  9
$PLIMMIN
 10
0.0
 20
0.0
  9
$PLIMMAX
 10
12.0
 20
9.0
  9
$UNITMODE
 70
     0
  9
$VISRETAIN
 70
     1
  9
$PLINEGEN
 70
     0
  9
$PSLTSCALE
 70
     1
  9
$TREEDEPTH
 70
  3020
  9
$CMLSTYLE
  2
Standard
  9
$CMLJUST
 70
     0
  9
$CMLSCALE
 40
1.0
  9
$PROXYGRAPHICS
 70
     1
  9
$MEASUREMENT
 70
     1
  9
$CELWEIGHT
370
    -1
  9
$ENDCAPS
280
     0
  9
$JOINSTYLE
280
     0
  9
$LWDISPLAY
290
     0
  9
$INSUNITS
 70
     4
  9
$HYPERLINKBASE
  1

  9
$STYLESHEET
  1

  9
$XEDIT
290
     1
  9
$CEPSNTYPE
380
     0
  9
$PSTYLEMODE
290
     1
  9
$FINGERPRINTGUID
  2
{57646ca3-efda-6249-9348-641dc3f87d06}
  9
$VERSIONGUID
  2
{FAEB1C32-E019-11D5-929B-00C0DF256EC4}
  9
$EXTNAMES
290
     1
  9
$PSVPSCALE
 40
0.0
  9
$OLESTARTUP
290
     0
  9
$SORTENTS
280
   127
  9
$INDEXCTL
280
     0
  9
$HIDETEXT
280
     1
  9
$XCLIPFRAME
290
     0
  9
$HALOGAP
280
     0
  9
$OBSCOLOR
 70
   257
  9
$OBSLTYPE
280
     0
  9
$INTERSECTIONDISPLAY
280
     0
  9
$INTERSECTIONCOLOR
 70
   257
  9
$DIMASSOC
280
     2
  9
$PROJECTNAME
  1

  9
$CAMERADISPLAY
290
     0
  9
$LENSLENGTH
 40
50.0
  9
$CAMERAHEIGHT
 40
0.0
  9
$STEPSPERSEC
 40
2.0
  9
$STEPSIZE
 40
6.0
  9
$3DDWFPREC
 40
2.0
  9
$PSOLWIDTH
 40
0.25
  9
$PSOLHEIGHT
 40
4.0
  9
$LOFTANG1
 40
1.570796326794897
  9
$LOFTANG2
 40
1.570796326794897
  9
$LOFTMAG1
 40
0.0
  9
$LOFTMAG2
 40
0.0
  9
$LOFTPARAM
 70
     7
  9
$LOFTNORMALS
280
     1
  9
$LATITUDE
 40
37.795
  9
$LONGITUDE
 40
-122.394
  9
$NORTHDIRECTION
 40
0.0
  9
$TIMEZONE
 70
 -8000
  9
$LIGHTGLYPHDISPLAY
280
     1
  9
$TILEMODELIGHTSYNCH
280
     1
  9
$CMATERIAL
347
44
  9
$SOLIDHIST
280
     0
  9
$SHOWHIST
280
     1
  9
$DWFFRAME
280
     2
  9
$DGNFRAME
280
     2
  9
$REALWORLDSCALE
290
     1
  9
$INTERFERECOLOR
 62
   256
  9
$CSHADOW
280
     0
  9
$SHADOWPLANELOCATION
 40
0.0
  0
ENDSEC
  0
SECTION
  2
CLASSES
  0
CLASS
  1
ACDBDICTIONARYWDFLT
  2
AcDbDictionaryWithDefault
  3
ObjectDBX Classes
 90
        0
 91
        3
280
     0
281
     0
  0
CLASS
  1
VISUALSTYLE
  2
AcDbVisualStyle
  3
ObjectDBX Classes
 90
     4095
 91
        3
280
     0
281
     0
  0
CLASS
  1
MATERIAL
  2
AcDbMaterial
  3
ObjectDBX Classes
 90
     1153
 91
        3
280
     0
281
     0
  0
CLASS
  1
SCALE
  2
AcDbScale
  3
ObjectDBX Classes
 90
     1153
 91
        3
280
     0
281
     0
  0
CLASS
  1
TABLESTYLE
  2
AcDbTableStyle
  3
ObjectDBX Classes
 90
     4095
 91
        3
280
     0
281
     0
  0
CLASS
  1
MLEADERSTYLE
  2
AcDbMLeaderStyle
  3
ACDB_MLEADERSTYLE_CLASS
 90
     4095
 91
        3
280
     0
281
     0
  0
CLASS
  1
SUN
  2
AcDbSun
  3
SCENEOE
 90
     1153
 91
        3
280
     0
281
     0
  0
CLASS
  1
DICTIONARYVAR
  2
AcDbDictionaryVar
  3
ObjectDBX Classes
 90
        0
 91
        3
280
     0
281
     0
  0
CLASS
  1
CELLSTYLEMAP
  2
AcDbCellStyleMap
  3
ObjectDBX Classes
 90
     1152
 91
        3
280
     0
281
     0
  0
ENDSEC
  0
SECTION
  2
TABLES
  0
TABLE
  2
VPORT
  5
8
330
0
100
AcDbSymbolTable
 70
     1
  0
VPORT
  5
29
330
8
100
AcDbSymbolTableRecord
100
AcDbViewportTableRecord
  2
*Active
 70
     0
 10
0.0
 20
0.0
 11
1.0
 21
1.0
 12
10.42990654205607
 22
4.5
 13
0.0
 23
0.0
 14
0.5
 24
0.5
 15
0.5
 25
0.5
 16
0.0
 26
0.0
 36
1.0
 17
0.0
 27
0.0
 37
0.0
 40
9.0
 41
1.972972972850329
 42
50.0
 43
0.0
 44
0.0
 50
0.0
 51
0.0
 71
     0
 72
   100
 73
     1
 74
     3
 75
     0
 76
     0
 77
     0
 78
     0
281
     0
 65
     1
110
0.0
120
0.0
130
0.0
111
1.0
121
0.0
131
0.0
112
0.0
122
1.0
132
0.0
 79
     0
146
0.0
348
2F
 60
     3
 61
     5
292
     1
282
     1
141
0.0
142
0.0
 63
   250
361
5D
  0
ENDTAB
  0
TABLE
  2
LTYPE
  5
5
330
0
100
AcDbSymbolTable
 70
     1
  0
LTYPE
  5
14
330
5
100
AcDbSymbolTableRecord
100
AcDbLinetypeTableRecord
  2
ByBlock
 70
     0
  3

 72
    65
 73
     0
 40
0.0
  0
LTYPE
  5
15
330
5
100
AcDbSymbolTableRecord
100
AcDbLinetypeTableRecord
  2
ByLayer
 70
     0
  3

 72
    65
 73
     0
 40
0.0
  0
LTYPE
  5
16
330
5
100
AcDbSymbolTableRecord
100
AcDbLinetypeTableRecord
  2
Continuous
 70
     0
  3
Solid line
 72
    65
 73
     0
 40
0.0
  0
ENDTAB
  0
TABLE
  2
LAYER
  5
2
330
0
100
AcDbSymbolTable
 70
     2
  0
LAYER
  5
10
330
2
100
AcDbSymbolTableRecord
100
AcDbLayerTableRecord
  2
0
 70
     0
 62
     7
  6
Continuous
370
    -3
390
F
347
46
  0
LAYER
  5
5F
330
2
100
AcDbSymbolTableRecord
100
AcDbLayerTableRecord
  2
1
 70
     0
 62
     7
420
 16777215
  6
Continuous
370
    -3
390
F
347
46
  0
ENDTAB
  0
TABLE
  2
STYLE
  5
3
330
0
100
AcDbSymbolTable
 70
     1
  0
STYLE
  5
11
330
3
100
AcDbSymbolTableRecord
100
AcDbTextStyleTableRecord
  2
Standard
 70
     0
 40
0.0
 41
1.0
 50
0.0
 71
     0
 42
0.2
  3
txt
  4

  0
ENDTAB
  0
TABLE
  2
VIEW
  5
6
330
0
100
AcDbSymbolTable
 70
     0
  0
ENDTAB
  0
TABLE
  2
UCS
  5
7
330
0
100
AcDbSymbolTable
 70
     0
  0
ENDTAB
  0
TABLE
  2
APPID
  5
9
330
0
100
AcDbSymbolTable
 70
     3
  0
APPID
  5
12
330
9
100
AcDbSymbolTableRecord
100
AcDbRegAppTableRecord
  2
ACAD
 70
     0
  0
APPID
  5
5E
330
9
100
AcDbSymbolTableRecord
100
AcDbRegAppTableRecord
  2
Rhino
 70
     0
  0
APPID
  5
29C
330
9
100
AcDbSymbolTableRecord
100
AcDbRegAppTableRecord
  2
ACAD_MLEADERVER
 70
     0
  0
ENDTAB
  0
TABLE
  2
DIMSTYLE
  5
A
330
0
100
AcDbSymbolTable
 70
     1
100
AcDbDimStyleTable
  0
DIMSTYLE
105
27
330
A
100
AcDbSymbolTableRecord
100
AcDbDimStyleTableRecord
  2
STANDARD_ACAD
 70
     0
178
     0
340
11
  0
ENDTAB
  0
TABLE
  2
BLOCK_RECORD
  5
1
330
0
100
AcDbSymbolTable
 70
     1
  0
BLOCK_RECORD
  5
1F
330
1
100
AcDbSymbolTableRecord
100
AcDbBlockTableRecord
  2
*Model_Space
340
22
 70
     0
280
     1
281
     0
  0
BLOCK_RECORD
  5
1B
330
1
100
AcDbSymbolTableRecord
100
AcDbBlockTableRecord
  2
*Paper_Space
340
1E
 70
     0
280
     1
281
     0
  0
BLOCK_RECORD
  5
23
330
1
100
AcDbSymbolTableRecord
100
AcDbBlockTableRecord
  2
*Paper_Space0
340
26
 70
     0
280
     1
281
     0
  0
ENDTAB
  0
ENDSEC
  0
SECTION
  2
BLOCKS
  0
BLOCK
  5
20
330
1F
100
AcDbEntity
  8
0
100
AcDbBlockBegin
  2
*Model_Space
 70
     0
 10
0.0
 20
0.0
 30
0.0
  3
*Model_Space
  1

  0
ENDBLK
  5
21
330
1F
100
AcDbEntity
  8
0
100
AcDbBlockEnd
  0
BLOCK
  5
1C
330
1B
100
AcDbEntity
 67
     1
  8
0
100
AcDbBlockBegin
  2
*Paper_Space
 70
     0
 10
0.0
 20
0.0
 30
0.0
  3
*Paper_Space
  1

  0
ENDBLK
  5
1D
330
1B
100
AcDbEntity
 67
     1
  8
0
100
AcDbBlockEnd
  0
BLOCK
  5
24
330
23
100
AcDbEntity
  8
0
100
AcDbBlockBegin
  2
*Paper_Space0
 70
     0
 10
0.0
 20
0.0
 30
0.0
  3
*Paper_Space0
  1

  0
ENDBLK
  5
25
330
23
100
AcDbEntity
  8
0
100
AcDbBlockEnd
  0
ENDSEC
  0
SECTION
  2
ENTITIES
  0
SPLINE
  5
60
330
1F
100
AcDbEntity
  8
1
  6
Continuous
 62
   155
420
  5010073
370
    18
100
AcDbSpline
210
0.0
220
0.0
230
1.0
 70
     8
 71
     3
 72
    38
 73
    34
 74
     0
 42
0.0000000001
 43
0.0000000001
 40
0.0
 40
0.0
 40
0.0
 40
0.0
 40
0.1250000000000018
 40
0.1250000000000018
 40
0.1875000000000027
 40
0.1875000000000027
 40
0.2187500000000016
 40
0.2187500000000016
 40
0.2500000000000006
 40
0.2500000000000006
 40
0.3750000000000123
 40
0.3750000000000123
 40
0.4062500000000146
 40
0.4062500000000146
 40
0.4375000000000169
 40
0.4375000000000169
 40
0.5000000000000137
 40
0.5000000000000137
 40
0.6250000000000072
 40
0.6250000000000072
 40
0.6562500000000051
 40
0.6562500000000051
 40
0.6875000000000031
 40
0.6875000000000031
 40
0.7499999999999993
 40
0.7499999999999993
 40
0.8124999999999956
 40
0.8124999999999956
 40
0.8437499999999937
 40
0.8437499999999937
 40
0.8749999999999918
 40
0.8749999999999918
 40
1.0
 40
1.0
 40
1.0
 40
1.0
 10
2200.26430769231
 20
2343.673076923077
 30
-0.0000000000000013
 10
2200.291934590881
 20
2343.673076923077
 30
-0.0000000000000013
 10
2200.319171541046
 20
2343.686024020606
 30
-0.0000000000000013
 10
2200.360204451432
 20
2343.724285482284
 30
-0.0000000000000013
 10
2200.373911418048
 20
2343.740201048145
 30
-0.0000000000000013
 10
2200.394614865752
 20
2343.768942032907
 30
-0.0000000000000013
 10
2200.40150925198
 20
2343.779294874036
 30
-0.0000000000000013
 10
2200.415235947386
 20
2343.801422434822
 30
-0.0000000000000013
 10
2200.422078433756
 20
2343.813211183359
 30
-0.0000000000000013
 10
2200.456225767236
 20
2343.875723863153
 30
-0.0000000000000013
 10
2200.483340463695
 20
2343.937058239096
 30
-0.0000000000000013
 10
2200.51760225247
 20
2344.027964521477
 30
-0.0000000000000013
 10
2200.524473319281
 20
2344.046863700291
 30
-0.0000000000000013
 10
2200.538269992373
 20
2344.086124922799
 30
-0.0000000000000013
 10
2200.545168479725
 20
2344.106412318175
 30
-0.0000000000000013
 10
2200.565761866553
 20
2344.168840714876
 30
-0.0000000000000013
 10
2200.579407323999
 20
2344.212691616122
 30
-0.0000000000000013
 10
2200.620279969548
 20
2344.35076270027
 30
-0.0000000000000013
 10
2200.647444015628
 20
2344.451441353947
 30
-0.0000000000000013
 10
2200.681926678984
 20
2344.588382837887
 30
-0.0000000000000013
 10
2200.688828343694
 20
2344.616246126833
 30
-0.0000000000000013
 10
2200.702559379275
 20
2344.672509140841
 30
-0.0000000000000013
 10
2200.709403607401
 20
2344.700967679682
 30
-0.0000000000000013
 10
2200.729896998444
 20
2344.787305257852
 30
-0.0000000000000013
 10
2200.743507175881
 20
2344.846144079062
 30
-0.0000000000000013
 10
2200.770744923861
 20
2344.966335391732
 30
-0.0000000000000013
 10
2200.784373953984
 20
2345.027687551593
 30
-0.0000000000000013
 10
2200.804925256952
 20
2345.121616455411
 30
-0.0000000000000013
 10
2200.811793741364
 20
2345.153243388437
 30
-0.0000000000000013
 10
2200.825583706118
 20
2345.217141080426
 30
-0.0000000000000013
 10
2200.832491181807
 20
2345.249347638845
 30
-0.0000000000000013
 10
2200.86689569666
 20
2345.410554542484
 30
-0.0000000000000013
 10
2200.894216149326
 20
2345.541080337406
 30
-0.0000000000000013
 10
2200.921843034706
 20
2345.673076923076
 30
-0.0000000000000013
  0
SPLINE
  5
61
330
1F
100
AcDbEntity
  8
1
  6
Continuous
 62
   155
420
  5010073
370
    18
100
AcDbSpline
210
0.0
220
0.0
230
1.0
 70
     8
 71
     3
 72
    38
 73
    34
 74
     0
 42
0.0000000001
 43
0.0000000001
 40
0.0
 40
0.0
 40
0.0
 40
0.0
 40
0.125000000000018
 40
0.125000000000018
 40
0.1875000000000246
 40
0.1875000000000246
 40
0.2187500000000275
 40
0.2187500000000275
 40
0.2500000000000304
 40
0.2500000000000304
 40
0.3750000000000369
 40
0.3750000000000369
 40
0.4062500000000359
 40
0.4062500000000359
 40
0.4375000000000349
 40
0.4375000000000349
 40
0.5000000000000296
 40
0.5000000000000296
 40
0.6250000000000269
 40
0.6250000000000269
 40
0.6562500000000235
 40
0.6562500000000235
 40
0.6875000000000201
 40
0.6875000000000201
 40
0.7500000000000105
 40
0.7500000000000105
 40
0.8125000000000011
 40
0.8125000000000011
 40
0.843749999999999
 40
0.843749999999999
 40
0.874999999999997
 40
0.874999999999997
 40
1.0
 40
1.0
 40
1.0
 40
1.0
 10
1761.206772349913
 20
2345.673076923077
 30
0.0000000000000017
 10
1761.234399234773
 20
2345.541080339897
 30
0.0000000000000017
 10
1761.261636185065
 20
2345.410961246167
 30
0.0000000000000017
 10
1761.30266910056
 20
2345.218673041274
 30
0.0000000000000018
 10
1761.316376069729
 20
2345.155061930849
 30
0.0000000000000018
 10
1761.337079520627
 20
2345.060412667253
 30
0.0000000000000018
 10
1761.343973907809
 20
2345.029132220636
 30
0.0000000000000018
 10
1761.357700604578
 20
2344.967396609249
 30
0.0000000000000018
 10
1761.364543091352
 20
2344.936894781083
 30
0.0000000000000018
 10
1761.398690424838
 20
2344.786196190269
 30
0.0000000000000018
 10
1761.425805121303
 20
2344.671382991541
 30
0.0000000000000018
 10
1761.460066910091
 20
2344.535238111348
 30
0.0000000000000018
 10
1761.466937976904
 20
2344.508380857441
 30
0.0000000000000018
 10
1761.480734650002
 20
2344.455427663176
 30
-0.0000000000000018
 10
1761.487633137348
 20
2344.429438046753
 30
-0.0000000000000018
 10
1761.508226524169
 20
2344.353389086818
 30
-0.0000000000000018
 10
1761.521871981611
 20
2344.305044758441
 30
-0.0000000000000018
 10
1761.562744627152
 20
2344.166944761266
 30
-0.0000000000000018
 10
1761.589908673232
 20
2344.084058359888
 30
-0.0000000000000018
 10
1761.624391336594
 20
2343.992444725739
 30
-0.0000000000000018
 10
1761.631293001301
 20
2343.974788158689
 30
-0.0000000000000018
 10
1761.645024036881
 20
2343.941043386374
 30
-0.0000000000000018
 10
1761.651868265005
 20
2343.924915363649
 30
-0.0000000000000018
 10
1761.672361656045
 20
2343.878733189877
 30
-0.0000000000000018
 10
1761.685971833479
 20
2343.850876059716
 30
-0.0000000000000018
 10
1761.713209581456
 20
2343.800979083005
 30
-0.0000000000000017
 10
1761.726838609958
 20
2343.778939243101
 30
-0.0000000000000017
 10
1761.747389909764
 20
2343.750328213178
 30
-0.0000000000000017
 10
1761.754258393008
 20
2343.741533910108
 30
-0.0000000000000017
 10
1761.768048355516
 20
2343.725460990105
 30
-0.0000000000000017
 10
1761.774955830127
 20
2343.718202395584
 30
-0.0000000000000017
 10
1761.809360340668
 20
2343.686024641815
 30
-0.0000000000000017
 10
1761.836680793214
 20
2343.673076923077
 30
-0.0000000000000017
 10
1761.86430769231
 20
2343.673076923077
 30
-0.0000000000000017
  0
SPLINE
  5
62
330
1F
100
AcDbEntity
  8
1
  6
Continuous
 62
   155
420
  5010073
370
    18
100
AcDbSpline
210
0.0
220
0.0
230
1.0
 70
     8
 71
     3
 72
    20
 73
    16
 74
     0
 42
0.0000000001
 43
0.0000000001
 40
0.0
 40
0.0
 40
0.0
 40
0.0
 40
0.0842754300745966
 40
0.0842754300745966
 40
0.2621820891257073
 40
0.2621820891257073
 40
0.446636566844281
 40
0.446636566844281
 40
0.624560009132067
 40
0.624560009132067
 40
0.8024547340421561
 40
0.8024547340421561
 40
0.9803520897285376
 40
0.9803520897285376
 40
1.0
 40
1.0
 40
1.0
 40
1.0
 10
2200.827069405831
 20
2345.104483960823
 30
-0.0000000000000013
 10
2200.839696792758
 20
2345.116981770458
 30
-0.0000000000000013
 10
2200.851908190169
 20
2345.129899879016
 30
-0.0000000000000013
 10
2200.888516413821
 20
2345.171309932807
 30
-0.0000000000000013
 10
2200.911377926568
 20
2345.201158760179
 30
-0.0000000000000013
 10
2200.953451499682
 20
2345.264918986777
 30
-0.0000000000000012
 10
2200.97249767752
 20
2345.298939203713
 30
-0.0000000000000012
 10
2201.004861561219
 20
2345.368139432452
 30
-0.0000000000000012
 10
2201.018358293432
 20
2345.403235123325
 30
-0.0000000000000012
 10
2201.040296615616
 20
2345.474966744817
 30
-0.0000000000000012
 10
2201.04873887957
 20
2345.511601958213
 30
-0.0000000000000012
 10
2201.060404990924
 20
2345.585695091089
 30
-0.0000000000000012
 10
2201.063628685034
 20
2345.623152540121
 30
-0.0000000000000012
 10
2201.064275523021
 20
2345.664792815657
 30
-0.0000000000000012
 10
2201.06430769231
 20
2345.668934869365
 30
-0.0000000000000012
 10
2201.06430769231
 20
2345.673076923076
 30
-0.0000000000000012
  0
SPLINE
  5
63
330
1F
100
AcDbEntity
  8
1
  6
Continuous
 62
   155
420
  5010073
370
    18
100
AcDbSpline
210
0.0
220
0.0
230
1.0
 70
     8
 71
     3
 72
    38
 73
    34
 74
     0
 42
0.0000000001
 43
0.0000000001
 40
0.0
 40
0.0
 40
0.0
 40
0.0
 40
0.1249999999999491
 40
0.1249999999999491
 40
0.1874999999999236
 40
0.1874999999999236
 40
0.2187499999999109
 40
0.2187499999999109
 40
0.2499999999998981
 40
0.2499999999998981
 40
0.374999999999872
 40
0.374999999999872
 40
0.4062499999998709
 40
0.4062499999998709
 40
0.4374999999998699
 40
0.4374999999998699
 40
0.499999999999888
 40
0.499999999999888
 40
0.6249999999999234
 40
0.6249999999999234
 40
0.6562499999999291
 40
0.6562499999999291
 40
0.6874999999999345
 40
0.6874999999999345
 40
0.7499999999999458
 40
0.7499999999999458
 40
0.8124999999999573
 40
0.8124999999999573
 40
0.8437499999999627
 40
0.8437499999999627
 40
0.8749999999999682
 40
0.8749999999999682
 40
1.0
 40
1.0
 40
1.0
 40
1.0
 10
2200.26430769231
 20
2343.673076923077
 30
-0.0000000000000013
 10
2200.396304272582
 20
2343.673076923077
 30
-0.0000000000000013
 10
2200.526423366417
 20
2343.686024020606
 30
-0.0000000000000013
 10
2200.718711572426
 20
2343.724285482288
 30
-0.0000000000000013
 10
2200.782322683393
 20
2343.740201048151
 30
-0.0000000000000013
 10
2200.876971947663
 20
2343.768942032916
 30
-0.0000000000000013
 10
2200.908252394464
 20
2343.779294874043
 30
-0.0000000000000013
 10
2200.969988006114
 20
2343.801422434828
 30
-0.0000000000000012
 10
2201.000489834351
 20
2343.813211183364
 30
-0.0000000000000012
 10
2201.15118842513
 20
2343.875723863156
 30
-0.0000000000000012
 10
2201.266001623829
 20
2343.937058239097
 30
-0.0000000000000012
 10
2201.402146503987
 20
2344.027964521487
 30
-0.0000000000000012
 10
2201.429003757886
 20
2344.046863700303
 30
-0.0000000000000012
 10
2201.481956952139
 20
2344.086124922816
 30
-0.0000000000000012
 10
2201.507946568579
 20
2344.106412318187
 30
-0.0000000000000012
 10
2201.583995528535
 20
2344.168840714883
 30
-0.0000000000000012
 10
2201.632339856922
 20
2344.212691616127
 30
-0.0000000000000012
 10
2201.770439854119
 20
2344.350762700272
 30
-0.0000000000000011
 10
2201.8533262555
 20
2344.451441353952
 30
-0.0000000000000011
 10
2201.944939889645
 20
2344.588382837907
 30
-0.0000000000000011
 10
2201.962596456697
 20
2344.616246126848
 30
-0.0000000000000011
 10
2201.996341229015
 20
2344.672509140851
 30
-0.0000000000000011
 10
2202.012469251742
 20
2344.70096767969
 30
-0.0000000000000011
 10
2202.058651425518
 20
2344.787305257856
 30
-0.0000000000000011
 10
2202.086508555682
 20
2344.846144079063
 30
-0.0000000000000011
 10
2202.136405532396
 20
2344.966335391734
 30
-0.0000000000000011
 10
2202.158445372177
 20
2345.027687551598
 30
-0.0000000000000011
 10
2202.187056401942
 20
2345.121616455422
 30
-0.0000000000000011
 10
2202.195850704963
 20
2345.153243388451
 30
-0.0000000000000011
 10
2202.211923624894
 20
2345.217141080447
 30
-0.0000000000000011
 10
2202.219182219394
 20
2345.249347638862
 30
-0.0000000000000011
 10
2202.251359973153
 20
2345.410554542489
 30
-0.0000000000000011
 10
2202.26430769231
 20
2345.541080337407
 30
-0.0000000000000011
 10
2202.26430769231
 20
2345.673076923077
 30
-0.0000000000000011
  0
SPLINE
  5
64
330
1F
100
AcDbEntity
  8
1
  6
Continuous
 62
   155
420
  5010073
370
    18
100
AcDbSpline
210
0.0
220
0.0
230
1.0
 70
     8
 71
     3
 72
    18
 73
    14
 74
     0
 42
0.0000000001
 43
0.0000000001
 40
0.0
 40
0.0
 40
0.0
 40
0.0
 40
0.1770720026583404
 40
0.1770720026583404
 40
0.3541367049157677
 40
0.3541367049157677
 40
0.531194791905402
 40
0.531194791905402
 40
0.7119913147460056
 40
0.7119913147460056
 40
0.8890905604354252
 40
0.8890905604354252
 40
1.0
 40
1.0
 40
1.0
 40
1.0
 10
1761.06430769231
 20
2345.673076923077
 30
0.0000000000000017
 10
1761.06430769231
 20
2345.635570356685
 30
0.0000000000000017
 10
1761.066949674166
 20
2345.598064034693
 30
0.0000000000000017
 10
1761.077465274917
 20
2345.523793177407
 30
0.0000000000000017
 10
1761.08533860925
 20
2345.487029095447
 30
0.0000000000000017
 10
1761.106160894399
 20
2345.414968507398
 30
0.0000000000000017
 10
1761.119109519621
 20
2345.379672415873
 30
0.0000000000000017
 10
1761.150151053108
 20
2345.310520943628
 30
0.0000000000000017
 10
1761.168346766429
 20
2345.27671227632
 30
0.0000000000000017
 10
1761.208970040975
 20
2345.212707790574
 30
0.0000000000000017
 10
1761.231303026872
 20
2345.182452556629
 30
0.0000000000000017
 10
1761.270892359914
 20
2345.136038626114
 30
0.0000000000000018
 10
1761.286926370199
 20
2345.118837769801
 30
0.0000000000000018
 10
1761.303685054854
 20
2345.102374622944
 30
0.0000000000000018
  0
SPLINE
  5
65
330
1F
100
AcDbEntity
  8
1
  6
Continuous
 62
   155
420
  5010073
370
    18
100
AcDbSpline
210
0.0
220
0.0
230
1.0
 70
     8
 71
     3
 72
    38
 73
    34
 74
     0
 42
0.0000000001
 43
0.0000000001
 40
0.0
 40
0.0
 40
0.0
 40
0.0
 40
0.1250000000000434
 40
0.1250000000000434
 40
0.1875000000000626
 40
0.1875000000000626
 40
0.2187500000000688
 40
0.2187500000000688
 40
0.2500000000000751
 40
0.2500000000000751
 40
0.3750000000000914
 40
0.3750000000000914
 40
0.406250000000099
 40
0.406250000000099
 40
0.4375000000001065
 40
0.4375000000001065
 40
0.5000000000001215
 40
0.5000000000001215
 40
0.6250000000001688
 40
0.6250000000001688
 40
0.6562500000001698
 40
0.6562500000001698
 40
0.6875000000001709
 40
0.6875000000001709
 40
0.7500000000001511
 40
0.7500000000001511
 40
0.8125000000001315
 40
0.8125000000001315
 40
0.8437500000001098
 40
0.8437500000001098
 40
0.875000000000088
 40
0.875000000000088
 40
1.0
 40
1.0
 40
1.0
 40
1.0
 10
1759.86430769231
 20
2345.673076923077
 30
0.0000000000000016
 10
1759.86430769231
 20
2345.541080339897
 30
0.0000000000000016
 10
1759.877254790257
 20
2345.410961246163
 30
0.0000000000000016
 10
1759.91551625193
 20
2345.218673041259
 30
0.0000000000000016
 10
1759.931431817711
 20
2345.155061930829
 30
0.0000000000000016
 10
1759.960172802314
 20
2345.060412667224
 30
0.0000000000000016
 10
1759.970525643383
 20
2345.029132220616
 30
0.0000000000000016
 10
1759.992653204078
 20
2344.967396609234
 30
0.0000000000000016
 10
1760.004441952584
 20
2344.93689478107
 30
0.0000000000000016
 10
1760.066954632383
 20
2344.786196190265
 30
0.0000000000000016
 10
1760.12828900834
 20
2344.671382991536
 30
0.0000000000000016
 10
1760.219195290766
 20
2344.535238111333
 30
0.0000000000000016
 10
1760.23809446959
 20
2344.508380857425
 30
0.0000000000000016
 10
1760.277355692121
 20
2344.455427663154
 30
0.0000000000000016
 10
1760.297643087476
 20
2344.429438046738
 30
0.0000000000000016
 10
1760.360071484154
 20
2344.353389086809
 30
0.0000000000000016
 10
1760.403922385387
 20
2344.305044758436
 30
0.0000000000000016
 10
1760.541993469511
 20
2344.166944761264
 30
0.0000000000000017
 10
1760.642672123187
 20
2344.084058359883
 30
0.0000000000000017
 10
1760.779613607166
 20
2343.992444725725
 30
0.0000000000000017
 10
1760.807476896096
 20
2343.97478815868
 30
0.0000000000000017
 10
1760.863739910089
 20
2343.941043386368
 30
0.0000000000000017
 10
1760.892198448924
 20
2343.924915363644
 30
0.0000000000000017
 10
1760.978536027075
 20
2343.878733189875
 30
0.0000000000000017
 10
1761.037374848274
 20
2343.850876059715
 30
0.0000000000000017
 10
1761.157566160931
 20
2343.800979083004
 30
0.0000000000000017
 10
1761.218918321108
 20
2343.7789392431
 30
0.0000000000000017
 10
1761.312847225583
 20
2343.750328213175
 30
0.0000000000000018
 10
1761.344474158858
 20
2343.741533910103
 30
0.0000000000000018
 10
1761.408371851339
 20
2343.7254609901
 30
0.0000000000000018
 10
1761.440578409978
 20
2343.718202395581
 30
0.0000000000000018
 10
1761.601785314524
 20
2343.686024641815
 30
-0.0000000000000018
 10
1761.732311109529
 20
2343.673076923077
 30
-0.0000000000000017
 10
1761.86430769231
 20
2343.673076923077
 30
-0.0000000000000017
  0
SPLINE
  5
66
330
1F
100
AcDbEntity
  8
1
  6
Continuous
 62
   155
420
  5010073
370
    18
100
AcDbSpline
210
0.0
220
0.0
230
1.0
 70
     8
 71
     3
 72
    38
 73
    34
 74
     0
 42
0.0000000001
 43
0.0000000001
 40
0.0
 40
0.0
 40
0.0
 40
0.0
 40
0.125
 40
0.125
 40
0.1875000000000022
 40
0.1875000000000022
 40
0.2187499999999997
 40
0.2187499999999997
 40
0.2499999999999972
 40
0.2499999999999972
 40
0.3750000000000046
 40
0.3750000000000046
 40
0.4062500000000101
 40
0.4062500000000101
 40
0.4375000000000157
 40
0.4375000000000157
 40
0.5000000000000273
 40
0.5000000000000273
 40
0.6250000000000514
 40
0.6250000000000514
 40
0.6562500000000626
 40
0.6562500000000626
 40
0.6875000000000738
 40
0.6875000000000738
 40
0.7500000000000733
 40
0.7500000000000733
 40
0.8125000000000727
 40
0.8125000000000727
 40
0.8437500000000603
 40
0.8437500000000603
 40
0.8750000000000479
 40
0.8750000000000479
 40
1.0
 40
1.0
 40
1.0
 40
1.0
 10
1437.904876001739
 20
2345.673076923077
 30
0.000000000000002
 10
1437.877249116879
 20
2345.541080339897
 30
0.000000000000002
 10
1437.850012166586
 20
2345.410961246163
 30
0.000000000000002
 10
1437.808979251089
 20
2345.218673041259
 30
0.000000000000002
 10
1437.795272281919
 20
2345.155061930829
 30
0.000000000000002
 10
1437.774568831019
 20
2345.060412667224
 30
0.000000000000002
 10
1437.767674443838
 20
2345.029132220616
 30
0.000000000000002
 10
1437.753947747071
 20
2344.967396609234
 30
0.000000000000002
 10
1437.747105260297
 20
2344.93689478107
 30
0.000000000000002
 10
1437.712957926813
 20
2344.786196190265
 30
0.000000000000002
 10
1437.685843230347
 20
2344.671382991536
 30
0.000000000000002
 10
1437.651581441558
 20
2344.535238111333
 30
0.000000000000002
 10
1437.644710374744
 20
2344.508380857425
 30
0.000000000000002
 10
1437.630913701644
 20
2344.455427663154
 30
0.000000000000002
 10
1437.624015214301
 20
2344.429438046737
 30
0.0000000000000019
 10
1437.603421827481
 20
2344.353389086809
 30
0.0000000000000019
 10
1437.58977637004
 20
2344.305044758436
 30
0.0000000000000019
 10
1437.548903724499
 20
2344.166944761264
 30
0.0000000000000019
 10
1437.521739678418
 20
2344.084058359883
 30
0.0000000000000019
 10
1437.487257015053
 20
2343.992444725725
 30
0.0000000000000019
 10
1437.480355350348
 20
2343.97478815868
 30
0.0000000000000019
 10
1437.466624314769
 20
2343.941043386368
 30
0.0000000000000019
 10
1437.459780086645
 20
2343.924915363644
 30
0.0000000000000019
 10
1437.439286695607
 20
2343.878733189875
 30
0.0000000000000019
 10
1437.425676518172
 20
2343.850876059715
 30
0.0000000000000019
 10
1437.398438770195
 20
2343.800979083004
 30
0.0000000000000019
 10
1437.384809741693
 20
2343.7789392431
 30
0.0000000000000019
 10
1437.364258441885
 20
2343.750328213174
 30
0.0000000000000019
 10
1437.35738995864
 20
2343.741533910103
 30
0.0000000000000019
 10
1437.343599996131
 20
2343.7254609901
 30
0.0000000000000019
 10
1437.336692521521
 20
2343.718202395581
 30
0.0000000000000019
 10
1437.302288010983
 20
2343.686024641815
 30
0.0000000000000019
 10
1437.274967558438
 20
2343.673076923077
 30
0.0000000000000019
 10
1437.247340659342
 20
2343.673076923077
 30
0.0000000000000019
  0
SPLINE
  5
67
330
1F
100
AcDbEntity
  8
1
  6
Continuous
 62
   155
420
  5010073
370
    18
100
AcDbSpline
210
0.0
220
0.0
230
1.0
 70
     8
 71
     3
 72
    38
 73
    34
 74
     0
 42
0.0000000001
 43
0.0000000001
 40
0.0
 40
0.0
 40
0.0
 40
0.0
 40
0.1249999999999491
 40
0.1249999999999491
 40
0.1874999999999236
 40
0.1874999999999236
 40
0.2187499999999109
 40
0.2187499999999109
 40
0.2499999999998981
 40
0.2499999999998981
 40
0.374999999999872
 40
0.374999999999872
 40
0.4062499999998709
 40
0.4062499999998709
 40
0.4374999999998699
 40
0.4374999999998699
 40
0.499999999999888
 40
0.499999999999888
 40
0.6249999999999234
 40
0.6249999999999234
 40
0.6562499999999291
 40
0.6562499999999291
 40
0.6874999999999345
 40
0.6874999999999345
 40
0.7499999999999458
 40
0.7499999999999458
 40
0.8124999999999573
 40
0.8124999999999573
 40
0.8437499999999627
 40
0.8437499999999627
 40
0.8749999999999682
 40
0.8749999999999682
 40
1.0
 40
1.0
 40
1.0
 40
1.0
 10
1402.847340659342
 20
2343.673076923077
 30
-0.0000000000000002
 10
1402.819713760771
 20
2343.673076923077
 30
-0.0000000000000002
 10
1402.792476810605
 20
2343.686024020606
 30
-0.0000000000000002
 10
1402.751443900217
 20
2343.724285482288
 30
-0.0000000000000002
 10
1402.737736933599
 20
2343.740201048151
 30
-0.0000000000000002
 10
1402.717033485894
 20
2343.768942032916
 30
-0.0000000000000002
 10
1402.710139099667
 20
2343.779294874043
 30
-0.0000000000000002
 10
1402.696412404263
 20
2343.801422434828
 30
-0.0000000000000002
 10
1402.689569917893
 20
2343.813211183364
 30
-0.0000000000000002
 10
1402.655422584415
 20
2343.875723863156
 30
-0.0000000000000002
 10
1402.628307887956
 20
2343.937058239097
 30
-0.0000000000000002
 10
1402.594046099178
 20
2344.027964521487
 30
-0.0000000000000002
 10
1402.587175032367
 20
2344.046863700303
 30
-0.0000000000000002
 10
1402.573378359273
 20
2344.086124922816
 30
-0.0000000000000002
 10
1402.566479871923
 20
2344.106412318187
 30
-0.0000000000000002
 10
1402.545886485097
 20
2344.168840714883
 30
-0.0000000000000002
 10
1402.532241027652
 20
2344.212691616127
 30
-0.0000000000000002
 10
1402.491368382104
 20
2344.350762700272
 30
-0.0000000000000002
 10
1402.464204336023
 20
2344.451441353952
 30
-0.0000000000000002
 10
1402.429721672663
 20
2344.588382837907
 30
-0.0000000000000002
 10
1402.422820007955
 20
2344.616246126848
 30
-0.0000000000000002
 10
1402.409088972374
 20
2344.672509140851
 30
-0.0000000000000002
 10
1402.402244744249
 20
2344.70096767969
 30
-0.0000000000000002
 10
1402.381751353207
 20
2344.787305257856
 30
-0.0000000000000002
 10
1402.368141175771
 20
2344.846144079063
 30
-0.0000000000000002
 10
1402.340903427791
 20
2344.966335391734
 30
-0.0000000000000002
 10
1402.327274397667
 20
2345.027687551598
 30
-0.0000000000000002
 10
1402.306723094697
 20
2345.121616455422
 30
-0.0000000000000002
 10
1402.299854610285
 20
2345.153243388451
 30
-0.0000000000000002
 10
1402.286064645529
 20
2345.217141080447
 30
-0.0000000000000002
 10
1402.279157169841
 20
2345.249347638862
 30
-0.0000000000000002
 10
1402.244752654991
 20
2345.410554542489
 30
-0.0000000000000002
 10
1402.217432202327
 20
2345.541080337407
 30
-0.0000000000000002
 10
1402.189805316946
 20
2345.673076923077
 30
-0.0000000000000001
  0
SPLINE
  5
68
330
1F
100
AcDbEntity
  8
1
  6
Continuous
 62
   155
420
  5010073
370
    18
100
AcDbSpline
210
0.0
220
0.0
230
1.0
 70
     8
 71
     3
 72
    38
 73
    34
 74
     0
 42
0.0000000001
 43
0.0000000001
 40
0.0
 40
0.0
 40
0.0
 40
0.0
 40
0.1249999999999993
 40
0.1249999999999993
 40
0.1874999999999966
 40
0.1874999999999966
 40
0.2187499999999952
 40
0.2187499999999952
 40
0.2499999999999938
 40
0.2499999999999938
 40
0.3749999999999823
 40
0.3749999999999823
 40
0.4062499999999808
 40
0.4062499999999808
 40
0.4374999999999793
 40
0.4374999999999793
 40
0.4999999999999741
 40
0.4999999999999741
 40
0.6249999999999638
 40
0.6249999999999638
 40
0.6562499999999639
 40
0.6562499999999639
 40
0.6874999999999639
 40
0.6874999999999639
 40
0.7499999999999694
 40
0.7499999999999694
 40
0.8124999999999747
 40
0.8124999999999747
 40
0.8437499999999785
 40
0.8437499999999785
 40
0.8749999999999823
 40
0.8749999999999823
 40
1.0
 40
1.0
 40
1.0
 40
1.0
 10
1439.247340659342
 20
2345.673076923077
 30
0.0000000000000021
 10
1439.247340659342
 20
2345.541080339897
 30
0.0000000000000021
 10
1439.234393561396
 20
2345.410961246167
 30
0.0000000000000021
 10
1439.196132099726
 20
2345.218673041274
 30
0.0000000000000021
 10
1439.180216533946
 20
2345.155061930849
 30
0.0000000000000021
 10
1439.151475549348
 20
2345.060412667253
 30
0.0000000000000021
 10
1439.141122708276
 20
2345.029132220636
 30
0.0000000000000021
 10
1439.11899514758
 20
2344.967396609249
 30
0.0000000000000021
 10
1439.107206399073
 20
2344.936894781083
 30
0.0000000000000021
 10
1439.044693719271
 20
2344.786196190269
 30
0.0000000000000021
 10
1438.983359343314
 20
2344.671382991541
 30
0.000000000000002
 10
1438.892453060896
 20
2344.535238111348
 30
0.000000000000002
 10
1438.873553882074
 20
2344.508380857441
 30
0.000000000000002
 10
1438.834292659548
 20
2344.455427663175
 30
0.000000000000002
 10
1438.814005264188
 20
2344.429438046753
 30
0.000000000000002
 10
1438.751576867505
 20
2344.353389086817
 30
0.000000000000002
 10
1438.707725966269
 20
2344.305044758441
 30
0.000000000000002
 10
1438.569654882143
 20
2344.166944761265
 30
0.000000000000002
 10
1438.46897622847
 20
2344.084058359888
 30
0.000000000000002
 10
1438.332034744507
 20
2343.992444725739
 30
0.000000000000002
 10
1438.30417145557
 20
2343.974788158689
 30
0.000000000000002
 10
1438.247908441573
 20
2343.941043386374
 30
0.000000000000002
 10
1438.219449902736
 20
2343.924915363648
 30
0.000000000000002
 10
1438.13311232458
 20
2343.878733189877
 30
0.0000000000000019
 10
1438.074273503379
 20
2343.850876059716
 30
0.0000000000000019
 10
1437.954082190723
 20
2343.800979083005
 30
0.0000000000000019
 10
1437.892730030549
 20
2343.778939243101
 30
0.0000000000000019
 10
1437.79880112608
 20
2343.750328213178
 30
0.0000000000000019
 10
1437.767174192808
 20
2343.741533910108
 30
0.0000000000000019
 10
1437.703276500334
 20
2343.725460990105
 30
0.0000000000000019
 10
1437.67106994169
 20
2343.718202395584
 30
0.0000000000000019
 10
1437.509863037133
 20
2343.686024641815
 30
0.0000000000000019
 10
1437.379337242123
 20
2343.673076923077
 30
0.0000000000000019
 10
1437.247340659342
 20
2343.673076923077
 30
0.0000000000000019
  0
SPLINE
  5
69
330
1F
100
AcDbEntity
  8
1
  6
Continuous
 62
   155
420
  5010073
370
    18
100
AcDbSpline
210
0.0
220
0.0
230
1.0
 70
     8
 71
     3
 72
    20
 73
    16
 74
     0
 42
0.0000000001
 43
0.0000000001
 40
0.0
 40
0.0
 40
0.0
 40
0.0
 40
0.1769957862481312
 40
0.1769957862481312
 40
0.3540301038138826
 40
0.3540301038138826
 40
0.4914910610063585
 40
0.4914910610063585
 40
0.6675170678064432
 40
0.6675170678064432
 40
0.8435705684309407
 40
0.8435705684309407
 40
0.982982122012717
 40
0.982982122012717
 40
1.0
 40
1.0
 40
1.0
 40
1.0
 10
1438.047340659342
 20
2345.673076923077
 30
0.0000000000000021
 10
1438.047340659342
 20
2345.635359942036
 30
0.000000000000002
 10
1438.044669001063
 20
2345.597647044955
 30
0.000000000000002
 10
1438.034036544573
 20
2345.522969113666
 30
0.000000000000002
 10
1438.026074663456
 20
2345.486004714477
 30
0.000000000000002
 10
1438.007372611674
 20
2345.421662622636
 30
0.000000000000002
 10
1437.997652380101
 20
2345.393988911537
 30
0.000000000000002
 10
1437.972091728793
 20
2345.332280040488
 30
0.000000000000002
 10
1437.955298583381
 20
2345.298641070553
 30
0.000000000000002
 10
1437.917159337607
 20
2345.234043886102
 30
0.000000000000002
 10
1437.895812774045
 20
2345.20308651304
 30
0.000000000000002
 10
1437.853862508422
 20
2345.150569926468
 30
0.000000000000002
 10
1437.834029819689
 20
2345.128395233525
 30
0.000000000000002
 10
1437.810462171925
 20
2345.104827585761
 30
0.000000000000002
 10
1437.80788080134
 20
2345.102281134564
 30
0.000000000000002
 10
1437.805282225501
 20
2345.099752364216
 30
0.000000000000002
  0
SPLINE
  5
6A
330
1F
100
AcDbEntity
  8
1
  6
Continuous
 62
   155
420
  5010073
370
    18
100
AcDbSpline
210
0.0
220
0.0
230
1.0
 70
     8
 71
     3
 72
    20
 73
    16
 74
     0
 42
0.0000000001
 43
0.0000000001
 40
0.0
 40
0.0
 40
0.0
 40
0.0
 40
0.0079057510466252
 40
0.0079057510466252
 40
0.1855634979169802
 40
0.1855634979169802
 40
0.3632489934762068
 40
0.3632489934762068
 40
0.5039528755233127
 40
0.5039528755233127
 40
0.6826027283543672
 40
0.6826027283543672
 40
0.8612685225912956
 40
0.8612685225912956
 40
1.0
 40
1.0
 40
1.0
 40
1.0
 10
1402.285206720669
 20
2345.103862190377
 30
-0.0000000000000002
 10
1402.284019211439
 20
2345.105034914779
 30
-0.0000000000000002
 10
1402.282835374562
 20
2345.106211357958
 30
-0.0000000000000002
 10
1402.255135167907
 20
2345.133911564613
 30
-0.0000000000000002
 10
1402.230483270617
 20
2345.162299484422
 30
-0.0000000000000002
 10
1402.185398511526
 20
2345.222255825244
 30
-0.0000000000000002
 10
1402.164966604387
 20
2345.253824352189
 30
-0.0000000000000002
 10
1402.132501276572
 20
2345.312678571586
 30
-0.0000000000000002
 10
1402.119604173019
 20
2345.339487474389
 30
-0.0000000000000002
 10
1402.09380432684
 20
2345.401773812941
 30
-0.0000000000000002
 10
1402.081840407368
 20
2345.437637726235
 30
-0.0000000000000002
 10
1402.063085892609
 20
2345.510697842304
 30
-0.0000000000000002
 10
1402.056295878248
 20
2345.547893703638
 30
-0.0000000000000002
 10
1402.048950974447
 20
2345.61449628988
 30
-0.0000000000000002
 10
1402.047340659342
 20
2345.643785417518
 30
-0.0000000000000002
 10
1402.047340659342
 20
2345.673076923077
 30
-0.0000000000000002
  0
SPLINE
  5
6B
330
1F
100
AcDbEntity
  8
1
  6
Continuous
 62
   155
420
  5010073
370
    18
100
AcDbSpline
210
0.0
220
0.0
230
1.0
 70
     8
 71
     3
 72
    38
 73
    34
 74
     0
 42
0.0000000001
 43
0.0000000001
 40
0.0
 40
0.0
 40
0.0
 40
0.0
 40
0.1250000000000018
 40
0.1250000000000018
 40
0.1875000000000027
 40
0.1875000000000027
 40
0.2187500000000016
 40
0.2187500000000016
 40
0.2500000000000006
 40
0.2500000000000006
 40
0.3750000000000123
 40
0.3750000000000123
 40
0.4062500000000146
 40
0.4062500000000146
 40
0.4375000000000169
 40
0.4375000000000169
 40
0.5000000000000137
 40
0.5000000000000137
 40
0.6250000000000072
 40
0.6250000000000072
 40
0.6562500000000051
 40
0.6562500000000051
 40
0.6875000000000031
 40
0.6875000000000031
 40
0.7499999999999993
 40
0.7499999999999993
 40
0.8124999999999956
 40
0.8124999999999956
 40
0.8437499999999937
 40
0.8437499999999937
 40
0.8749999999999918
 40
0.8749999999999918
 40
1.0
 40
1.0
 40
1.0
 40
1.0
 10
1402.847340659342
 20
2343.673076923077
 30
-0.0000000000000002
 10
1402.71534407907
 20
2343.673076923077
 30
-0.0000000000000002
 10
1402.585224985239
 20
2343.686024020606
 30
-0.0000000000000002
 10
1402.392936779241
 20
2343.724285482284
 30
-0.0000000000000003
 10
1402.329325668279
 20
2343.740201048145
 30
-0.0000000000000003
 10
1402.234676404017
 20
2343.768942032907
 30
-0.0000000000000003
 10
1402.203395957208
 20
2343.779294874036
 30
-0.0000000000000003
 10
1402.141660345553
 20
2343.801422434822
 30
-0.0000000000000003
 10
1402.111158517313
 20
2343.813211183359
 30
-0.0000000000000003
 10
1401.960459926525
 20
2343.875723863153
 30
-0.0000000000000003
 10
1401.845646727828
 20
2343.937058239096
 30
-0.0000000000000003
 10
1401.709501847679
 20
2344.027964521477
 30
-0.0000000000000003
 10
1401.682644593782
 20
2344.046863700291
 30
-0.0000000000000003
 10
1401.629691399535
 20
2344.086124922799
 30
-0.0000000000000003
 10
1401.603701783089
 20
2344.106412318175
 30
-0.0000000000000003
 10
1401.527652823125
 20
2344.168840714876
 30
-0.0000000000000003
 10
1401.479308494736
 20
2344.212691616122
 30
-0.0000000000000003
 10
1401.341208497534
 20
2344.35076270027
 30
-0.0000000000000003
 10
1401.258322096157
 20
2344.451441353947
 30
-0.0000000000000003
 10
1401.166708462021
 20
2344.588382837887
 30
-0.0000000000000003
 10
1401.149051894964
 20
2344.616246126833
 30
-0.0000000000000003
 10
1401.115307122642
 20
2344.672509140841
 30
-0.0000000000000003
 10
1401.099179099914
 20
2344.700967679682
 30
-0.0000000000000003
 10
1401.052996926135
 20
2344.787305257852
 30
-0.0000000000000003
 10
1401.025139795971
 20
2344.846144079062
 30
-0.0000000000000003
 10
1400.975242819256
 20
2344.966335391732
 30
-0.0000000000000003
 10
1400.953202979477
 20
2345.027687551593
 30
-0.0000000000000003
 10
1400.924591949713
 20
2345.121616455411
 30
-0.0000000000000003
 10
1400.915797646693
 20
2345.153243388437
 30
-0.0000000000000003
 10
1400.899724726763
 20
2345.217141080426
 30
-0.0000000000000003
 10
1400.892466132261
 20
2345.249347638845
 30
-0.0000000000000002
 10
1400.860288378499
 20
2345.410554542484
 30
-0.0000000000000002
 10
1400.847340659342
 20
2345.541080337406
 30
-0.0000000000000002
 10
1400.847340659342
 20
2345.673076923076
 30
-0.0000000000000002
  0
SPLINE
  5
6C
330
1F
100
AcDbEntity
  8
1
  6
Continuous
 62
   155
420
  5010073
370
    18
100
AcDbSpline
210
0.0
220
0.0
230
1.0
 70
     8
 71
     3
 72
    30
 73
    26
 74
     0
 42
0.0000000001
 43
0.0000000001
 40
0.0
 40
0.0
 40
0.0
 40
0.0
 40
0.0900294639690103
 40
0.0900294639690103
 40
0.180078520488498
 40
0.180078520488498
 40
0.25
 40
0.25
 40
0.33953672851837
 40
0.33953672851837
 40
0.429087441942361
 40
0.429087441942361
 40
0.5
 40
0.5
 40
0.589536728520816
 40
0.589536728520816
 40
0.6790874419472329
 40
0.6790874419472329
 40
0.75
 40
0.75
 40
0.840036734423224
 40
0.840036734423224
 40
0.9300815030659481
 40
0.9300815030659481
 40
1.0
 40
1.0
 40
1.0
 40
1.0
 10
1117.606593406594
 20
2190.881758241755
 30
0.0000000000000001
 10
1117.626328703767
 20
2190.84404149652
 30
0.0000000000000001
 10
1117.646061999381
 20
2190.806328830959
 30
0.0000000000000001
 10
1117.685531044114
 20
2190.731651347801
 30
0.0000000000000002
 10
1117.705266792833
 20
2190.694687165182
 30
0.0000000000000002
 10
1117.740327283203
 20
2190.630344816821
 30
0.0000000000000002
 10
1117.755651960869
 20
2190.602670657651
 30
0.0000000000000002
 10
1117.790601763341
 20
2190.540961359167
 30
0.0000000000000002
 10
1117.810226284488
 20
2190.507322389233
 30
0.0000000000000002
 10
1117.849478391974
 20
2190.442725204785
 30
0.0000000000000002
 10
1117.869105978312
 20
2190.411767831723
 30
0.0000000000000002
 10
1117.904276069031
 20
2190.35925124515
 30
0.0000000000000002
 10
1117.919818573411
 20
2190.337076552205
 30
0.0000000000000002
 10
1117.95498559894
 20
2190.289552750319
 30
0.0000000000000002
 10
1117.974610120089
 20
2190.264900853029
 30
0.0000000000000002
 10
1118.013862227575
 20
2190.219816093938
 30
-0.0000000000000016
 10
1118.033489813914
 20
2190.199384186798
 30
-0.0000000000000016
 10
1118.068659904632
 20
2190.166918858984
 30
-0.0000000000000016
 10
1118.084202409012
 20
2190.154021755431
 30
-0.0000000000000016
 10
1118.119479025057
 20
2190.128221909253
 30
-0.0000000000000016
 10
1118.139212138365
 20
2190.11625798978
 30
-0.0000000000000016
 10
1118.178680286445
 20
2190.097503475021
 30
-0.0000000000000016
 10
1118.19841532123
 20
2190.09071346066
 30
-0.0000000000000016
 10
1118.233476392518
 20
2190.083368556859
 30
-0.0000000000000015
 10
1118.248801968707
 20
2190.081758241754
 30
-0.0000000000000015
 10
1118.26412874899
 20
2190.081758241754
 30
-0.0000000000000015
  0
SPLINE
  5
6D
330
1F
100
AcDbEntity
  8
1
  6
Continuous
 62
   155
420
  5010073
370
    18
100
AcDbSpline
210
0.0
220
0.0
230
1.0
 70
     8
 71
     3
 72
    30
 73
    26
 74
     0
 42
0.0000000001
 43
0.0000000001
 40
0.0
 40
0.0
 40
0.0
 40
0.0
 40
0.0900300128987704
 40
0.0900300128987704
 40
0.180079624993069
 40
0.180079624993069
 40
0.25
 40
0.25
 40
0.3395367285214
 40
0.3395367285214
 40
0.429087441948424
 40
0.429087441948424
 40
0.5
 40
0.5
 40
0.589536728521247
 40
0.589536728521247
 40
0.679087441948123
 40
0.679087441948123
 40
0.75
 40
0.75
 40
0.840036177639391
 40
0.840036177639391
 40
0.93008039640241
 40
0.93008039640241
 40
1.0
 40
1.0
 40
1.0
 40
1.0
 10
678.5490580641977
 20
2190.081758241754
 30
0.0
 10
678.5687934745266
 20
2190.081758241754
 30
0.0
 10
678.5885268884397
 20
2190.084429900034
 30
0.0
 10
678.6279961759697
 20
2190.095062356524
 30
0.0
 10
678.6477320491887
 20
2190.103024237641
 30
0.0
 10
678.6827924233957
 20
2190.121726289423
 30
0.0
 10
678.6981168605556
 20
2190.131446520996
 30
0.0
 10
678.7330664209446
 20
2190.157007172303
 30
0.0
 10
678.7526909420936
 20
2190.173800317716
 30
0.0
 10
678.7919430495797
 20
2190.21193956349
 30
0.0
 10
678.8115706359187
 20
2190.233286127052
 30
0.0
 10
678.8467407266367
 20
2190.275236392674
 30
0.0
 10
678.8622832310157
 20
2190.295069081408
 30
0.0
 10
678.8974502565436
 20
2190.342592883291
 30
0.0
 10
678.9170747776926
 20
2190.3709808031
 30
0.0
 10
678.9563268851787
 20
2190.430937143923
 30
0.0
 10
678.9759544715176
 20
2190.462505670868
 30
0.0
 10
679.0111245622356
 20
2190.521359890265
 30
0.0
 10
679.0266670666147
 20
2190.548168793068
 30
0.0
 10
679.0619435606257
 20
2190.610454916148
 30
0.0
 10
679.0816765493266
 20
2190.646318603325
 30
-0.0000000000000001
 10
679.1211444501066
 20
2190.71937825785
 30
-0.0000000000000001
 10
679.1408793621986
 20
2190.756573883843
 30
-0.0000000000000001
 10
679.1759405569517
 20
2190.823176687913
 30
-0.0000000000000001
 10
679.1912663781477
 20
2190.852466277107
 30
-0.0000000000000001
 10
679.2065934065936
 20
2190.881758241755
 30
-0.0000000000000001
  0
SPLINE
  5
6E
330
1F
100
AcDbEntity
  8
1
  6
Continuous
 62
   155
420
  5010073
370
    18
100
AcDbSpline
210
0.0
220
0.0
230
1.0
 70
     8
 71
     3
 72
    30
 73
    26
 74
     0
 42
0.0000000001
 43
0.0000000001
 40
0.0
 40
0.0
 40
0.0
 40
0.0
 40
0.0895403315943018
 40
0.0895403315943018
 40
0.179076971581175
 40
0.179076971581175
 40
0.268610266413183
 40
0.268610266413183
 40
0.360033983111536
 40
0.360033983111536
 40
0.449588090740445
 40
0.449588090740445
 40
0.539132993791985
 40
0.539132993791985
 40
0.628670079542595
 40
0.628670079542595
 40
0.7215025596569461
 40
0.7215025596569461
 40
0.811048092095912
 40
0.811048092095912
 40
0.900579171617083
 40
0.900579171617083
 40
0.990111575158676
 40
0.990111575158676
 40
1.0
 40
1.0
 40
1.0
 40
1.0
 10
678.4065934065936
 20
2190.224222899358
 30
-0.0000000000000001
 10
678.4065934065936
 20
2190.243848210222
 30
-0.0000000000000001
 10
678.4092353884496
 20
2190.263473521087
 30
-0.0000000000000001
 10
678.4197509892006
 20
2190.302723333695
 30
-0.0000000000000001
 10
678.4276243235336
 20
2190.322347835438
 30
-0.0000000000000001
 10
678.4484466086826
 20
2190.36159610574
 30
-0.0000000000000001
 10
678.4613952339046
 20
2190.381219874298
 30
-0.0000000000000001
 10
678.4924367673907
 20
2190.420881751143
 30
-0.0000000000000001
 10
678.5106324807126
 20
2190.44091985943
 30
-0.0000000000000001
 10
678.5512557552586
 20
2190.480586297992
 30
-0.0000000000000001
 10
678.5735887411556
 20
2190.500214628266
 30
-0.0000000000000001
 10
678.6222739445006
 20
2190.53946927137
 30
-0.0000000000000001
 10
678.6486254305886
 20
2190.559095584199
 30
-0.0000000000000001
 10
678.7048264163236
 20
2190.598346496474
 30
-0.0000000000000001
 10
678.7346752436956
 20
2190.617971095919
 30
-0.0000000000000001
 10
678.7984354702946
 20
2190.65794257423
 30
-0.0000000000000001
 10
678.8324556872296
 20
2190.678289453096
 30
-0.0000000000000001
 10
678.9016559159686
 20
2190.718262782739
 30
-0.0000000000000001
 10
678.9367516068427
 20
2190.737889233517
 30
-0.0000000000000001
 10
679.0084832283336
 20
2190.777138967304
 30
-0.0000000000000001
 10
679.0451184417296
 20
2190.796762250313
 30
-0.0000000000000001
 10
679.1192115746067
 20
2190.836009106528
 30
-0.0000000000000001
 10
679.1566690236376
 20
2190.855632679735
 30
-0.0000000000000001
 10
679.1983092991746
 20
2190.877423582545
 30
-0.0000000000000001
 10
679.2024513528817
 20
2190.87959091215
 30
-0.0000000000000001
 10
679.2065934065936
 20
2190.881758241755
 30
-0.0000000000000001
  0
SPLINE
  5
6F
330
1F
100
AcDbEntity
  8
1
  6
Continuous
 62
   155
420
  5010073
370
    18
100
AcDbSpline
210
0.0
220
0.0
230
1.0
 70
     8
 71
     3
 72
    30
 73
    26
 74
     0
 42
0.0000000001
 43
0.0000000001
 40
0.0
 40
0.0
 40
0.0
 40
0.0
 40
0.0895403315943165
 40
0.0895403315943165
 40
0.179076971581185
 40
0.179076971581185
 40
0.268610266413184
 40
0.268610266413184
 40
0.360033983111536
 40
0.360033983111536
 40
0.44958809074045
 40
0.44958809074045
 40
0.539132993791972
 40
0.539132993791972
 40
0.628670079542589
 40
0.628670079542589
 40
0.721502559656942
 40
0.721502559656942
 40
0.811048092095892
 40
0.811048092095892
 40
0.900579171617098
 40
0.900579171617098
 40
0.990111575158685
 40
0.990111575158685
 40
1.0
 40
1.0
 40
1.0
 40
1.0
 10
679.2065934065936
 20
2225.281758241755
 30
0.0000000000000014
 10
679.1690868402027
 20
2225.301383552619
 30
0.0000000000000014
 10
679.1315805182106
 20
2225.321008863483
 30
0.0000000000000014
 10
679.0573096609246
 20
2225.360258676091
 30
0.0000000000000014
 10
679.0205455789646
 20
2225.379883177835
 30
0.0000000000000014
 10
678.9484849909156
 20
2225.419131448136
 30
0.0000000000000014
 10
678.9131888993896
 20
2225.438755216694
 30
0.0000000000000014
 10
678.8440374271456
 20
2225.478417093539
 30
0.0000000000000014
 10
678.8102287598376
 20
2225.498455201827
 30
0.0000000000000014
 10
678.7462242740907
 20
2225.538121640388
 30
0.0000000000000013
 10
678.7159690401456
 20
2225.557749970663
 30
0.0000000000000013
 10
678.6588912499546
 20
2225.597004613766
 30
0.0000000000000013
 10
678.6320687126766
 20
2225.616630926595
 30
0.0000000000000013
 10
678.5823846850826
 20
2225.65588183887
 30
0.0000000000000013
 10
678.5595231723356
 20
2225.675506438316
 30
0.0000000000000013
 10
678.5174495992217
 20
2225.715477916627
 30
0.0000000000000013
 10
678.4984034213836
 20
2225.735824795493
 30
0.0000000000000013
 10
678.4660395376847
 20
2225.775798125136
 30
0.0000000000000013
 10
678.4525428054716
 20
2225.795424575913
 30
0.0000000000000013
 10
678.4306044832877
 20
2225.8346743097
 30
0.0000000000000013
 10
678.4221622193336
 20
2225.854297592709
 30
0.0000000000000013
 10
678.4104961079796
 20
2225.893544448925
 30
0.0000000000000013
 10
678.4072724138696
 20
2225.913168022131
 30
0.0000000000000013
 10
678.4066255758826
 20
2225.934958924942
 30
0.0000000000000013
 10
678.4065934065936
 20
2225.937126254546
 30
0.0000000000000013
 10
678.4065934065936
 20
2225.939293584151
 30
0.0000000000000013
  0
SPLINE
  5
70
330
1F
100
AcDbEntity
  8
1
  6
Continuous
 62
   155
420
  5010073
370
    18
100
AcDbSpline
210
0.0
220
0.0
230
1.0
 70
     8
 71
     3
 72
    30
 73
    26
 74
     0
 42
0.0000000001
 43
0.0000000001
 40
0.0
 40
0.0
 40
0.0
 40
0.0
 40
0.0900294639702628
 40
0.0900294639702628
 40
0.180078520491027
 40
0.180078520491027
 40
0.25
 40
0.25
 40
0.339536728520696
 40
0.339536728520696
 40
0.429087441947013
 40
0.429087441947013
 40
0.5
 40
0.5
 40
0.589536728520389
 40
0.589536728520389
 40
0.6790874419463959
 40
0.6790874419463959
 40
0.75
 40
0.75
 40
0.840036734422926
 40
0.840036734422926
 40
0.930081503065328
 40
0.930081503065328
 40
1.0
 40
1.0
 40
1.0
 40
1.0
 10
679.2065934065936
 20
2225.281758241755
 30
0.0000000000000014
 10
679.1868581094196
 20
2225.319474986989
 30
0.0000000000000014
 10
679.1671248138066
 20
2225.357187652552
 30
0.0000000000000014
 10
679.1276557690726
 20
2225.43186513571
 30
0.0000000000000014
 10
679.1079200203526
 20
2225.46882931833
 30
0.0000000000000014
 10
679.0728595299836
 20
2225.53317166669
 30
0.0000000000000014
 10
679.0575348523176
 20
2225.560845825859
 30
0.0000000000000014
 10
679.0225850498466
 20
2225.622555124343
 30
0.0000000000000014
 10
679.0029605286976
 20
2225.656194094277
 30
0.0000000000000014
 10
678.9637084212117
 20
2225.720791278728
 30
0.0000000000000013
 10
678.9440808348727
 20
2225.75174865179
 30
0.0000000000000013
 10
678.9089107441546
 20
2225.804265238362
 30
0.0000000000000013
 10
678.8933682397756
 20
2225.826439931306
 30
0.0000000000000013
 10
678.8582012142476
 20
2225.87396373319
 30
0.0000000000000013
 10
678.8385766930986
 20
2225.89861563048
 30
0.0000000000000013
 10
678.7993245856126
 20
2225.94370038957
 30
0.0000000000000013
 10
678.7796969992746
 20
2225.96413229671
 30
0.0000000000000013
 10
678.7445269085566
 20
2225.996597624525
 30
0.0000000000000013
 10
678.7289844041766
 20
2226.009494728078
 30
0.0000000000000013
 10
678.6937077881306
 20
2226.035294574257
 30
0.0000000000000013
 10
678.6739746748226
 20
2226.047258493729
 30
0.0000000000000013
 10
678.6345065267436
 20
2226.066013008488
 30
0.0000000000000013
 10
678.6147714919576
 20
2226.072803022849
 30
0.0000000000000013
 10
678.5797104206696
 20
2226.08014792665
 30
0.0000000000000013
 10
678.5643848444806
 20
2226.081758241754
 30
0.0000000000000013
 10
678.5490580641977
 20
2226.081758241754
 30
0.0000000000000013
  0
SPLINE
  5
71
330
1F
100
AcDbEntity
  8
1
  6
Continuous
 62
   155
420
  5010073
370
    18
100
AcDbSpline
210
0.0
220
0.0
230
1.0
 70
     8
 71
     3
 72
    30
 73
    26
 74
     0
 42
0.0000000001
 43
0.0000000001
 40
0.0
 40
0.0
 40
0.0
 40
0.0
 40
0.0895403315943063
 40
0.0895403315943063
 40
0.1790769715811946
 40
0.1790769715811946
 40
0.2686102664132144
 40
0.2686102664132144
 40
0.3600339831115624
 40
0.3600339831115624
 40
0.4495880907404752
 40
0.4495880907404752
 40
0.5391329937920241
 40
0.5391329937920241
 40
0.628670079542649
 40
0.628670079542649
 40
0.7215025596569871
 40
0.7215025596569871
 40
0.8110480920959378
 40
0.8110480920959378
 40
0.9005791716171526
 40
0.9005791716171526
 40
0.9901115751587124
 40
0.9901115751587124
 40
1.0
 40
1.0
 40
1.0
 40
1.0
 10
1118.406593406594
 20
2225.939293584151
 30
-0.0000000000000002
 10
1118.406593406594
 20
2225.919668273286
 30
-0.0000000000000002
 10
1118.403951424738
 20
2225.900042962422
 30
-0.0000000000000002
 10
1118.393435823987
 20
2225.860793149814
 30
-0.0000000000000002
 10
1118.385562489654
 20
2225.84116864807
 30
-0.0000000000000002
 10
1118.364740204505
 20
2225.801920377769
 30
-0.0000000000000002
 10
1118.351791579283
 20
2225.782296609211
 30
-0.0000000000000002
 10
1118.320750045796
 20
2225.742634732366
 30
-0.0000000000000002
 10
1118.302554332475
 20
2225.722596624079
 30
-0.0000000000000002
 10
1118.261931057929
 20
2225.682930185517
 30
-0.0000000000000002
 10
1118.239598072032
 20
2225.663301855243
 30
-0.0000000000000002
 10
1118.190912868687
 20
2225.624047212139
 30
-0.0000000000000002
 10
1118.164561382599
 20
2225.60442089931
 30
-0.0000000000000002
 10
1118.108360396864
 20
2225.565169987035
 30
-0.0000000000000002
 10
1118.078511569492
 20
2225.54554538759
 30
-0.0000000000000002
 10
1118.014751342893
 20
2225.505573909279
 30
-0.0000000000000002
 10
1117.980731125958
 20
2225.485227030413
 30
0.0000000000000016
 10
1117.911530897219
 20
2225.44525370077
 30
0.0000000000000016
 10
1117.876435206345
 20
2225.425627249992
 30
0.0000000000000016
 10
1117.804703584854
 20
2225.386377516205
 30
0.0000000000000016
 10
1117.768068371458
 20
2225.366754233196
 30
0.0000000000000016
 10
1117.693975238581
 20
2225.327507376981
 30
0.0000000000000016
 10
1117.65651778955
 20
2225.307883803775
 30
0.0000000000000016
 10
1117.614877514013
 20
2225.286092900964
 30
0.0000000000000016
 10
1117.610735460306
 20
2225.283925571359
 30
0.0000000000000016
 10
1117.606593406594
 20
2225.281758241755
 30
0.0000000000000016
  0
SPLINE
  5
72
330
1F
100
AcDbEntity
  8
1
  6
Continuous
 62
   155
420
  5010073
370
    18
100
AcDbSpline
210
0.0
220
0.0
230
1.0
 70
     8
 71
     3
 72
    30
 73
    26
 74
     0
 42
0.0000000001
 43
0.0000000001
 40
0.0
 40
0.0
 40
0.0
 40
0.0
 40
0.0900300128983881
 40
0.0900300128983881
 40
0.1800796249923057
 40
0.1800796249923057
 40
0.2500000000000065
 40
0.2500000000000065
 40
0.3395367285203809
 40
0.3395367285203809
 40
0.4290874419464072
 40
0.4290874419464072
 40
0.500000000000013
 40
0.500000000000013
 40
0.5895367285207004
 40
0.5895367285207004
 40
0.6790874419470057
 40
0.6790874419470057
 40
0.7500000000000195
 40
0.7500000000000195
 40
0.8400361776365709
 40
0.8400361776365709
 40
0.9300803963967602
 40
0.9300803963967602
 40
1.0
 40
1.0
 40
1.0
 40
1.0
 10
1118.26412874899
 20
2226.081758241754
 30
-0.0000000000000002
 10
1118.244393338661
 20
2226.081758241754
 30
-0.0000000000000002
 10
1118.224659924748
 20
2226.079086583475
 30
-0.0000000000000002
 10
1118.185190637218
 20
2226.068454126986
 30
-0.0000000000000002
 10
1118.165454764
 20
2226.060492245869
 30
-0.0000000000000002
 10
1118.130394389793
 20
2226.041790194086
 30
-0.0000000000000002
 10
1118.115069952632
 20
2226.032069962513
 30
-0.0000000000000002
 10
1118.080120392243
 20
2226.006509311206
 30
-0.0000000000000002
 10
1118.060495871095
 20
2225.989716165794
 30
-0.0000000000000002
 10
1118.021243763608
 20
2225.95157692002
 30
-0.0000000000000002
 10
1118.00161617727
 20
2225.930230356458
 30
-0.0000000000000002
 10
1117.966446086552
 20
2225.888280090836
 30
0.0000000000000016
 10
1117.950903582172
 20
2225.868447402102
 30
0.0000000000000016
 10
1117.915736556644
 20
2225.820923600218
 30
0.0000000000000016
 10
1117.896112035496
 20
2225.792535680409
 30
0.0000000000000016
 10
1117.856859928009
 20
2225.732579339587
 30
0.0000000000000016
 10
1117.837232341671
 20
2225.701010812642
 30
0.0000000000000016
 10
1117.802062250953
 20
2225.642156593245
 30
0.0000000000000016
 10
1117.786519746573
 20
2225.615347690441
 30
0.0000000000000016
 10
1117.751243252563
 20
2225.553061567362
 30
0.0000000000000016
 10
1117.731510263862
 20
2225.517197880187
 30
0.0000000000000016
 10
1117.692042363084
 20
2225.444138225664
 30
0.0000000000000016
 10
1117.672307450992
 20
2225.406942599672
 30
0.0000000000000016
 10
1117.637246256239
 20
2225.3403397956
 30
0.0000000000000016
 10
1117.621920435041
 20
2225.311050206404
 30
0.0000000000000016
 10
1117.606593406594
 20
2225.281758241755
 30
0.0000000000000016
  0
SPLINE
  5
73
330
1F
100
AcDbEntity
  8
1
  6
Continuous
 62
   155
420
  5010073
370
    18
100
AcDbSpline
210
0.0
220
0.0
230
1.0
 70
     8
 71
     3
 72
    30
 73
    26
 74
     0
 42
0.0000000001
 43
0.0000000001
 40
0.0
 40
0.0
 40
0.0
 40
0.0
 40
0.0895403315943106
 40
0.0895403315943106
 40
0.179076971581175
 40
0.179076971581175
 40
0.268610266413157
 40
0.268610266413157
 40
0.360033983111512
 40
0.360033983111512
 40
0.449588090740425
 40
0.449588090740425
 40
0.539132993791959
 40
0.539132993791959
 40
0.628670079542554
 40
0.628670079542554
 40
0.721502559656916
 40
0.721502559656916
 40
0.811048092095874
 40
0.811048092095874
 40
0.9005791716170429
 40
0.9005791716170429
 40
0.990111575158614
 40
0.990111575158614
 40
1.0
 40
1.0
 40
1.0
 40
1.0
 10
1117.606593406594
 20
2190.881758241755
 30
0.0000000000000001
 10
1117.644099972986
 20
2190.86213293089
 30
0.0000000000000001
 10
1117.681606294977
 20
2190.842507620026
 30
0.0000000000000001
 10
1117.755877152263
 20
2190.803257807418
 30
0.0000000000000002
 10
1117.792641234223
 20
2190.783633305674
 30
0.0000000000000002
 10
1117.864701822272
 20
2190.744385035373
 30
0.0000000000000002
 10
1117.899997913798
 20
2190.724761266815
 30
0.0000000000000002
 10
1117.969149386043
 20
2190.68509938997
 30
0.0000000000000002
 10
1118.00295805335
 20
2190.665061281682
 30
-0.0000000000000016
 10
1118.066962539097
 20
2190.625394843121
 30
-0.0000000000000016
 10
1118.097217773042
 20
2190.605766512846
 30
-0.0000000000000016
 10
1118.154295563233
 20
2190.566511869743
 30
-0.0000000000000016
 10
1118.181118100511
 20
2190.546885556914
 30
-0.0000000000000016
 10
1118.230802128106
 20
2190.507634644639
 30
-0.0000000000000016
 10
1118.253663640852
 20
2190.488010045194
 30
-0.0000000000000016
 10
1118.295737213966
 20
2190.448038566882
 30
-0.0000000000000016
 10
1118.314783391804
 20
2190.427691688016
 30
-0.0000000000000016
 10
1118.347147275504
 20
2190.387718358373
 30
-0.0000000000000016
 10
1118.360644007716
 20
2190.368091907595
 30
-0.0000000000000016
 10
1118.3825823299
 20
2190.328842173809
 30
-0.0000000000000016
 10
1118.391024593854
 20
2190.309218890799
 30
-0.0000000000000016
 10
1118.402690705209
 20
2190.269972034584
 30
-0.0000000000000015
 10
1118.405914399318
 20
2190.250348461378
 30
-0.0000000000000015
 10
1118.406561237306
 20
2190.228557558567
 30
-0.0000000000000015
 10
1118.406593406594
 20
2190.226390228963
 30
-0.0000000000000015
 10
1118.406593406594
 20
2190.224222899358
 30
-0.0000000000000015
  0
SPLINE
  5
74
330
1F
100
AcDbEntity
  8
1
  6
Continuous
 62
   155
420
  5010073
370
    18
100
AcDbSpline
210
0.0
220
0.0
230
1.0
 70
     8
 71
     3
 72
    38
 73
    34
 74
     0
 42
0.0000000001
 43
0.0000000001
 40
0.0
 40
0.0
 40
0.0
 40
0.0
 40
0.1250000000000434
 40
0.1250000000000434
 40
0.1875000000000626
 40
0.1875000000000626
 40
0.2187500000000688
 40
0.2187500000000688
 40
0.2500000000000751
 40
0.2500000000000751
 40
0.3750000000000914
 40
0.3750000000000914
 40
0.406250000000099
 40
0.406250000000099
 40
0.4375000000001065
 40
0.4375000000001065
 40
0.5000000000001215
 40
0.5000000000001215
 40
0.6250000000001688
 40
0.6250000000001688
 40
0.6562500000001698
 40
0.6562500000001698
 40
0.6875000000001709
 40
0.6875000000001709
 40
0.7500000000001511
 40
0.7500000000001511
 40
0.8125000000001315
 40
0.8125000000001315
 40
0.8437500000001098
 40
0.8437500000001098
 40
0.875000000000088
 40
0.875000000000088
 40
1.0
 40
1.0
 40
1.0
 40
1.0
 10
350.9345023753659
 20
2345.673076923077
 30
-0.000000000000002
 10
350.9068754905065
 20
2345.541080339897
 30
-0.000000000000002
 10
350.8796385402136
 20
2345.410961246163
 30
-0.000000000000002
 10
350.838605624716
 20
2345.218673041259
 30
-0.000000000000002
 10
350.8248986555462
 20
2345.155061930829
 30
-0.000000000000002
 10
350.804195204646
 20
2345.060412667224
 30
-0.000000000000002
 10
350.7973008174657
 20
2345.029132220616
 30
-0.000000000000002
 10
350.7835741206979
 20
2344.967396609234
 30
-0.000000000000002
 10
350.7767316339247
 20
2344.93689478107
 30
-0.000000000000002
 10
350.7425843004406
 20
2344.786196190265
 30
-0.000000000000002
 10
350.7154696039747
 20
2344.671382991536
 30
-0.000000000000002
 10
350.6812078151851
 20
2344.535238111333
 30
-0.000000000000002
 10
350.6743367483714
 20
2344.508380857425
 30
-0.000000000000002
 10
350.6605400752717
 20
2344.455427663154
 30
-0.000000000000002
 10
350.653641587928
 20
2344.429438046738
 30
-0.0000000000000019
 10
350.6330482011086
 20
2344.353389086809
 30
-0.0000000000000019
 10
350.6194027436672
 20
2344.305044758436
 30
-0.0000000000000019
 10
350.5785300981266
 20
2344.166944761264
 30
-0.0000000000000019
 10
350.5513660520456
 20
2344.084058359883
 30
-0.0000000000000019
 10
350.5168833886805
 20
2343.992444725725
 30
-0.0000000000000019
 10
350.5099817239749
 20
2343.97478815868
 30
-0.0000000000000019
 10
350.4962506883966
 20
2343.941043386368
 30
-0.0000000000000019
 10
350.4894064602726
 20
2343.924915363644
 30
-0.0000000000000019
 10
350.4689130692338
 20
2343.878733189875
 30
-0.0000000000000019
 10
350.4553028917995
 20
2343.850876059715
 30
-0.0000000000000019
 10
350.4280651438222
 20
2343.800979083004
 30
-0.0000000000000019
 10
350.4144361153204
 20
2343.7789392431
 30
-0.0000000000000019
 10
350.393884815512
 20
2343.750328213175
 30
-0.0000000000000019
 10
350.3870163322675
 20
2343.741533910103
 30
-0.0000000000000019
 10
350.3732263697584
 20
2343.7254609901
 30
-0.0000000000000019
 10
350.3663188951484
 20
2343.718202395581
 30
-0.0000000000000019
 10
350.3319143846105
 20
2343.686024641815
 30
-0.0000000000000019
 10
350.3045939320656
 20
2343.673076923077
 30
-0.0000000000000019
 10
350.2769670329695
 20
2343.673076923077
 30
-0.0000000000000019
  0
SPLINE
  5
75
330
1F
100
AcDbEntity
  8
1
  6
Continuous
 62
   155
420
  5010073
370
    18
100
AcDbSpline
210
0.0
220
0.0
230
1.0
 70
     8
 71
     3
 72
    38
 73
    34
 74
     0
 42
0.0000000001
 43
0.0000000001
 40
0.0
 40
0.0
 40
0.0
 40
0.0
 40
0.1250000000000126
 40
0.1250000000000126
 40
0.1875000000000189
 40
0.1875000000000189
 40
0.2187500000000221
 40
0.2187500000000221
 40
0.2500000000000253
 40
0.2500000000000253
 40
0.3749999999999908
 40
0.3749999999999908
 40
0.4062499999999871
 40
0.4062499999999871
 40
0.4374999999999835
 40
0.4374999999999835
 40
0.4999999999999957
 40
0.4999999999999957
 40
0.625000000000021
 40
0.625000000000021
 40
0.6562500000000199
 40
0.6562500000000199
 40
0.6875000000000189
 40
0.6875000000000189
 40
0.7500000000000175
 40
0.7500000000000175
 40
0.8125000000000163
 40
0.8125000000000163
 40
0.8437500000000153
 40
0.8437500000000153
 40
0.8750000000000142
 40
0.8750000000000142
 40
1.0
 40
1.0
 40
1.0
 40
1.0
 10
315.8769670329696
 20
2343.673076923077
 30
0.0000000000000002
 10
315.8493401343985
 20
2343.673076923077
 30
0.0000000000000002
 10
315.8221031842326
 20
2343.686024020606
 30
0.0000000000000002
 10
315.7810702738439
 20
2343.724285482288
 30
0.0000000000000002
 10
315.7673633072262
 20
2343.740201048151
 30
0.0000000000000002
 10
315.7466598595208
 20
2343.768942032916
 30
0.0000000000000002
 10
315.7397654732941
 20
2343.779294874043
 30
0.0000000000000002
 10
315.7260387778902
 20
2343.801422434828
 30
0.0000000000000002
 10
315.7191962915203
 20
2343.813211183364
 30
0.0000000000000002
 10
315.6850489580419
 20
2343.875723863156
 30
0.0000000000000002
 10
315.6579342615831
 20
2343.937058239097
 30
0.0000000000000002
 10
315.6236724728054
 20
2344.027964521487
 30
0.0000000000000002
 10
315.6168014059943
 20
2344.046863700303
 30
0.0000000000000002
 10
315.6030047328999
 20
2344.086124922816
 30
0.0000000000000002
 10
315.5961062455503
 20
2344.106412318187
 30
0.0000000000000002
 10
315.5755128587239
 20
2344.168840714883
 30
0.0000000000000002
 10
315.561867401279
 20
2344.212691616127
 30
0.0000000000000002
 10
315.5209947557312
 20
2344.350762700272
 30
0.0000000000000002
 10
315.4938307096499
 20
2344.451441353952
 30
0.0000000000000002
 10
315.4593480462903
 20
2344.588382837907
 30
0.0000000000000002
 10
315.4524463815823
 20
2344.616246126848
 30
0.0000000000000002
 10
315.4387153460014
 20
2344.672509140851
 30
0.0000000000000002
 10
315.4318711178762
 20
2344.70096767969
 30
0.0000000000000002
 10
315.4113777268341
 20
2344.787305257856
 30
0.0000000000000002
 10
315.3977675493981
 20
2344.846144079063
 30
0.0000000000000002
 10
315.3705298014178
 20
2344.966335391734
 30
0.0000000000000002
 10
315.356900771294
 20
2345.027687551598
 30
0.0000000000000002
 10
315.3363494683246
 20
2345.121616455422
 30
0.0000000000000002
 10
315.3294809839122
 20
2345.153243388451
 30
0.0000000000000002
 10
315.3156910191564
 20
2345.217141080447
 30
0.0000000000000002
 10
315.3087835434682
 20
2345.249347638862
 30
0.0000000000000002
 10
315.2743790286179
 20
2345.410554542489
 30
0.0000000000000002
 10
315.2470585759538
 20
2345.541080337407
 30
0.0000000000000002
 10
315.2194316905731
 20
2345.673076923077
 30
0.0000000000000001
  0
SPLINE
  5
76
330
1F
100
AcDbEntity
  8
1
  6
Continuous
 62
   155
420
  5010073
370
    18
100
AcDbSpline
210
0.0
220
0.0
230
1.0
 70
     8
 71
     3
 72
    38
 73
    34
 74
     0
 42
0.0000000001
 43
0.0000000001
 40
0.0
 40
0.0
 40
0.0
 40
0.0
 40
0.1249999999999955
 40
0.1249999999999955
 40
0.1874999999999944
 40
0.1874999999999944
 40
0.2187499999999912
 40
0.2187499999999912
 40
0.249999999999988
 40
0.249999999999988
 40
0.3749999999999676
 40
0.3749999999999676
 40
0.4062499999999671
 40
0.4062499999999671
 40
0.4374999999999666
 40
0.4374999999999666
 40
0.4999999999999681
 40
0.4999999999999681
 40
0.6249999999999765
 40
0.6249999999999765
 40
0.6562499999999799
 40
0.6562499999999799
 40
0.6874999999999833
 40
0.6874999999999833
 40
0.7499999999999901
 40
0.7499999999999901
 40
0.812499999999997
 40
0.812499999999997
 40
0.8437499999999977
 40
0.8437499999999977
 40
0.8749999999999983
 40
0.8749999999999983
 40
1.0
 40
1.0
 40
1.0
 40
1.0
 10
315.8769670329696
 20
2343.673076923077
 30
0.0000000000000002
 10
315.7449704526973
 20
2343.673076923077
 30
0.0000000000000002
 10
315.614851358866
 20
2343.686024020606
 30
0.0000000000000002
 10
315.4225631528685
 20
2343.724285482284
 30
0.0000000000000003
 10
315.3589520419063
 20
2343.740201048145
 30
0.0000000000000003
 10
315.2643027776447
 20
2343.768942032907
 30
0.0000000000000003
 10
315.2330223308359
 20
2343.779294874036
 30
0.0000000000000003
 10
315.1712867191804
 20
2343.801422434822
 30
0.0000000000000003
 10
315.1407848909404
 20
2343.813211183359
 30
0.0000000000000003
 10
314.9900863001528
 20
2343.875723863154
 30
0.0000000000000003
 10
314.8752731014555
 20
2343.937058239096
 30
0.0000000000000003
 10
314.7391282213067
 20
2344.027964521477
 30
0.0000000000000003
 10
314.7122709674096
 20
2344.046863700291
 30
0.0000000000000003
 10
314.6593177731623
 20
2344.086124922799
 30
0.0000000000000003
 10
314.6333281567161
 20
2344.106412318175
 30
0.0000000000000003
 10
314.5572791967521
 20
2344.168840714876
 30
0.0000000000000003
 10
314.5089348683627
 20
2344.212691616122
 30
0.0000000000000003
 10
314.370834871161
 20
2344.35076270027
 30
0.0000000000000003
 10
314.2879484697844
 20
2344.451441353947
 30
0.0000000000000003
 10
314.196334835648
 20
2344.588382837887
 30
0.0000000000000003
 10
314.1786782685917
 20
2344.616246126833
 30
0.0000000000000003
 10
314.1449334962697
 20
2344.672509140841
 30
0.0000000000000003
 10
314.1288054735417
 20
2344.700967679683
 30
0.0000000000000003
 10
314.0826232997625
 20
2344.787305257852
 30
0.0000000000000003
 10
314.0547661695982
 20
2344.846144079062
 30
0.0000000000000003
 10
314.0048691928837
 20
2344.966335391732
 30
0.0000000000000003
 10
313.9828293531041
 20
2345.027687551593
 30
0.0000000000000003
 10
313.9542183233408
 20
2345.121616455411
 30
0.0000000000000003
 10
313.9454240203206
 20
2345.153243388437
 30
0.0000000000000003
 10
313.9293511003905
 20
2345.217141080426
 30
0.0000000000000003
 10
313.9220925058887
 20
2345.249347638845
 30
0.0000000000000002
 10
313.8899147521266
 20
2345.410554542484
 30
0.0000000000000002
 10
313.8769670329696
 20
2345.541080337406
 30
0.0000000000000002
 10
313.8769670329696
 20
2345.673076923076
 30
0.0000000000000002
  0
SPLINE
  5
77
330
1F
100
AcDbEntity
  8
1
  6
Continuous
 62
   155
420
  5010073
370
    18
100
AcDbSpline
210
0.0
220
0.0
230
1.0
 70
     8
 71
     3
 72
    20
 73
    16
 74
     0
 42
0.0000000001
 43
0.0000000001
 40
0.0
 40
0.0
 40
0.0
 40
0.0
 40
0.0079057510463238
 40
0.0079057510463238
 40
0.18556349791758
 40
0.18556349791758
 40
0.363248993477674
 40
0.363248993477674
 40
0.5039528755231618
 40
0.5039528755231618
 40
0.6826027283548619
 40
0.6826027283548619
 40
0.8612685225924835
 40
0.8612685225924835
 40
1.0
 40
1.0
 40
1.0
 40
1.0
 10
315.3148330942961
 20
2345.103862190378
 30
0.0000000000000002
 10
315.3136455850668
 20
2345.10503491478
 30
0.0000000000000002
 10
315.312461748189
 20
2345.106211357959
 30
0.0000000000000002
 10
315.2847615415345
 20
2345.133911564613
 30
0.0000000000000002
 10
315.2601096442439
 20
2345.162299484422
 30
0.0000000000000002
 10
315.2150248851531
 20
2345.222255825244
 30
0.0000000000000002
 10
315.1945929780134
 20
2345.253824352189
 30
0.0000000000000002
 10
315.1621276501991
 20
2345.312678571587
 30
0.0000000000000002
 10
315.1492305466463
 20
2345.339487474389
 30
0.0000000000000002
 10
315.1234307004676
 20
2345.401773812941
 30
0.0000000000000002
 10
315.1114667809953
 20
2345.437637726235
 30
0.0000000000000002
 10
315.0927122662366
 20
2345.510697842305
 30
0.0000000000000002
 10
315.0859222518746
 20
2345.547893703638
 30
0.0000000000000002
 10
315.0785773480738
 20
2345.614496289881
 30
0.0000000000000002
 10
315.0769670329695
 20
2345.643785417518
 30
0.0000000000000002
 10
315.0769670329695
 20
2345.673076923077
 30
0.0000000000000002
  0
SPLINE
  5
78
330
1F
100
AcDbEntity
  8
1
  6
Continuous
 62
   155
420
  5010073
370
    18
100
AcDbSpline
210
0.0
220
0.0
230
1.0
 70
     8
 71
     3
 72
    38
 73
    34
 74
     0
 42
0.0000000001
 43
0.0000000001
 40
0.0
 40
0.0
 40
0.0
 40
0.0
 40
0.125000000000018
 40
0.125000000000018
 40
0.1875000000000246
 40
0.1875000000000246
 40
0.2187500000000275
 40
0.2187500000000275
 40
0.2500000000000304
 40
0.2500000000000304
 40
0.3750000000000369
 40
0.3750000000000369
 40
0.4062500000000359
 40
0.4062500000000359
 40
0.4375000000000349
 40
0.4375000000000349
 40
0.5000000000000296
 40
0.5000000000000296
 40
0.6250000000000269
 40
0.6250000000000269
 40
0.6562500000000235
 40
0.6562500000000235
 40
0.6875000000000201
 40
0.6875000000000201
 40
0.7500000000000105
 40
0.7500000000000105
 40
0.8125000000000011
 40
0.8125000000000011
 40
0.843749999999999
 40
0.843749999999999
 40
0.874999999999997
 40
0.874999999999997
 40
1.0
 40
1.0
 40
1.0
 40
1.0
 10
352.2769670329695
 20
2345.673076923077
 30
-0.0000000000000021
 10
352.2769670329695
 20
2345.541080339897
 30
-0.0000000000000021
 10
352.2640199350228
 20
2345.410961246167
 30
-0.0000000000000021
 10
352.2257584733532
 20
2345.218673041274
 30
-0.0000000000000021
 10
352.2098429075733
 20
2345.155061930849
 30
-0.0000000000000021
 10
352.1811019229748
 20
2345.060412667253
 30
-0.0000000000000021
 10
352.1707490819031
 20
2345.029132220636
 30
-0.0000000000000021
 10
352.148621521207
 20
2344.967396609249
 30
-0.0000000000000021
 10
352.1368327727006
 20
2344.936894781083
 30
-0.0000000000000021
 10
352.0743200928986
 20
2344.786196190269
 30
-0.0000000000000021
 10
352.0129857169413
 20
2344.671382991541
 30
-0.000000000000002
 10
351.9220794345235
 20
2344.535238111348
 30
-0.000000000000002
 10
351.9031802557015
 20
2344.508380857441
 30
-0.000000000000002
 10
351.8639190331751
 20
2344.455427663176
 30
-0.000000000000002
 10
351.8436316378151
 20
2344.429438046753
 30
-0.000000000000002
 10
351.7812032411327
 20
2344.353389086818
 30
-0.000000000000002
 10
351.7373523398967
 20
2344.305044758441
 30
-0.000000000000002
 10
351.5992812557704
 20
2344.166944761266
 30
-0.000000000000002
 10
351.4986026020969
 20
2344.084058359888
 30
-0.000000000000002
 10
351.3616611181342
 20
2343.992444725739
 30
-0.000000000000002
 10
351.3337978291977
 20
2343.974788158689
 30
-0.000000000000002
 10
351.2775348151999
 20
2343.941043386374
 30
-0.000000000000002
 10
351.249076276363
 20
2343.924915363649
 30
-0.000000000000002
 10
351.1627386982071
 20
2343.878733189877
 30
-0.0000000000000019
 10
351.1038998770064
 20
2343.850876059716
 30
-0.0000000000000019
 10
350.9837085643503
 20
2343.800979083005
 30
-0.0000000000000019
 10
350.9223564041758
 20
2343.778939243101
 30
-0.0000000000000019
 10
350.8284274997069
 20
2343.750328213178
 30
-0.0000000000000019
 10
350.796800566435
 20
2343.741533910108
 30
-0.0000000000000019
 10
350.7329028739608
 20
2343.725460990105
 30
-0.0000000000000019
 10
350.7006963153172
 20
2343.718202395584
 30
-0.0000000000000019
 10
350.5394894107601
 20
2343.686024641815
 30
-0.0000000000000019
 10
350.4089636157506
 20
2343.673076923077
 30
-0.0000000000000019
 10
350.2769670329695
 20
2343.673076923077
 30
-0.0000000000000019
  0
SPLINE
  5
79
330
1F
100
AcDbEntity
  8
1
  6
Continuous
 62
   155
420
  5010073
370
    18
100
AcDbSpline
210
0.0
220
0.0
230
1.0
 70
     8
 71
     3
 72
    20
 73
    16
 74
     0
 42
0.0000000001
 43
0.0000000001
 40
0.0
 40
0.0
 40
0.0
 40
0.0
 40
0.1769957862473579
 40
0.1769957862473579
 40
0.3540301038123387
 40
0.3540301038123387
 40
0.4914910610063112
 40
0.4914910610063112
 40
0.6675170678043579
 40
0.6675170678043579
 40
0.8435705684268726
 40
0.8435705684268726
 40
0.9829821220126224
 40
0.9829821220126224
 40
1.0
 40
1.0
 40
1.0
 40
1.0
 10
351.0769670329695
 20
2345.673076923077
 30
-0.0000000000000021
 10
351.0769670329695
 20
2345.635359942036
 30
-0.000000000000002
 10
351.0742953746901
 20
2345.597647044955
 30
-0.000000000000002
 10
351.0636629182006
 20
2345.522969113666
 30
-0.000000000000002
 10
351.0557010370837
 20
2345.486004714478
 30
-0.000000000000002
 10
351.0369989853012
 20
2345.421662622637
 30
-0.000000000000002
 10
351.0272787537282
 20
2345.393988911538
 30
-0.000000000000002
 10
351.0017181024209
 20
2345.332280040488
 30
-0.000000000000002
 10
350.9849249570086
 20
2345.298641070554
 30
-0.000000000000002
 10
350.9467857112348
 20
2345.234043886104
 30
-0.000000000000002
 10
350.925439147673
 20
2345.203086513041
 30
-0.000000000000002
 10
350.8834888820508
 20
2345.150569926469
 30
-0.000000000000002
 10
350.8636561933168
 20
2345.128395233525
 30
-0.000000000000002
 10
350.8400885455521
 20
2345.104827585761
 30
-0.000000000000002
 10
350.8375071749678
 20
2345.102281134565
 30
-0.000000000000002
 10
350.8349085991283
 20
2345.099752364216
 30
-0.000000000000002
  0
SPLINE
  5
7A
330
1F
100
AcDbEntity
  8
1
  6
Continuous
 62
   155
420
  5010073
370
    18
100
AcDbSpline
210
0.0
220
0.0
230
1.0
 70
     8
 71
     3
 72
    38
 73
    34
 74
     0
 42
0.0000000001
 43
0.0000000001
 40
0.0
 40
0.0
 40
0.0
 40
0.0
 40
0.1249999999999955
 40
0.1249999999999955
 40
0.1874999999999944
 40
0.1874999999999944
 40
0.2187499999999912
 40
0.2187499999999912
 40
0.249999999999988
 40
0.249999999999988
 40
0.3749999999999676
 40
0.3749999999999676
 40
0.4062499999999671
 40
0.4062499999999671
 40
0.4374999999999666
 40
0.4374999999999666
 40
0.4999999999999681
 40
0.4999999999999681
 40
0.6249999999999765
 40
0.6249999999999765
 40
0.6562499999999799
 40
0.6562499999999799
 40
0.6874999999999833
 40
0.6874999999999833
 40
0.7499999999999901
 40
0.7499999999999901
 40
0.812499999999997
 40
0.812499999999997
 40
0.8437499999999977
 40
0.8437499999999977
 40
0.8749999999999983
 40
0.8749999999999983
 40
1.0
 40
1.0
 40
1.0
 40
1.0
 10
1117.606593406594
 20
2343.673076923077
 30
0.0
 10
1117.634220305165
 20
2343.673076923077
 30
0.0
 10
1117.66145725533
 20
2343.686024020606
 30
0.0
 10
1117.702490165716
 20
2343.724285482284
 30
0.0
 10
1117.716197132333
 20
2343.740201048145
 30
0.0
 10
1117.736900580036
 20
2343.768942032907
 30
0.0
 10
1117.743794966265
 20
2343.779294874036
 30
0.0
 10
1117.75752166167
 20
2343.801422434822
 30
0.0
 10
1117.76436414804
 20
2343.813211183359
 30
0.0
 10
1117.79851148152
 20
2343.875723863154
 30
0.0
 10
1117.825626177979
 20
2343.937058239096
 30
0.0
 10
1117.859887966754
 20
2344.027964521477
 30
0.0
 10
1117.866759033564
 20
2344.046863700291
 30
0.0
 10
1117.880555706657
 20
2344.086124922799
 30
0.0
 10
1117.887454194009
 20
2344.106412318175
 30
0.0
 10
1117.908047580837
 20
2344.168840714876
 30
0.0
 10
1117.921693038283
 20
2344.212691616122
 30
0.0
 10
1117.962565683831
 20
2344.35076270027
 30
0.0
 10
1117.989729729911
 20
2344.451441353947
 30
0.0
 10
1118.024212393268
 20
2344.588382837887
 30
0.0
 10
1118.031114057977
 20
2344.616246126833
 30
0.0
 10
1118.044845093559
 20
2344.672509140841
 30
0.0
 10
1118.051689321685
 20
2344.700967679683
 30
0.0
 10
1118.072182712728
 20
2344.787305257852
 30
0.0
 10
1118.085792890165
 20
2344.846144079062
 30
0.0
 10
1118.113030638145
 20
2344.966335391732
 30
0.0
 10
1118.126659668268
 20
2345.027687551593
 30
0.0
 10
1118.147210971236
 20
2345.121616455411
 30
0.0
 10
1118.154079455648
 20
2345.153243388437
 30
0.0
 10
1118.167869420402
 20
2345.217141080426
 30
0.0
 10
1118.174776896091
 20
2345.249347638845
 30
0.0
 10
1118.209181410944
 20
2345.410554542484
 30
0.0
 10
1118.236501863609
 20
2345.541080337406
 30
0.0
 10
1118.26412874899
 20
2345.673076923076
 30
0.0
  0
SPLINE
  5
7B
330
1F
100
AcDbEntity
  8
1
  6
Continuous
 62
   155
420
  5010073
370
    18
100
AcDbSpline
210
0.0
220
0.0
230
1.0
 70
     8
 71
     3
 72
    38
 73
    34
 74
     0
 42
0.0000000001
 43
0.0000000001
 40
0.0
 40
0.0
 40
0.0
 40
0.0
 40
0.1249999999999993
 40
0.1249999999999993
 40
0.1874999999999966
 40
0.1874999999999966
 40
0.2187499999999952
 40
0.2187499999999952
 40
0.2499999999999938
 40
0.2499999999999938
 40
0.3749999999999823
 40
0.3749999999999823
 40
0.4062499999999808
 40
0.4062499999999808
 40
0.4374999999999793
 40
0.4374999999999793
 40
0.4999999999999741
 40
0.4999999999999741
 40
0.6249999999999638
 40
0.6249999999999638
 40
0.6562499999999639
 40
0.6562499999999639
 40
0.6874999999999639
 40
0.6874999999999639
 40
0.7499999999999694
 40
0.7499999999999694
 40
0.8124999999999747
 40
0.8124999999999747
 40
0.8437499999999785
 40
0.8437499999999785
 40
0.8749999999999823
 40
0.8749999999999823
 40
1.0
 40
1.0
 40
1.0
 40
1.0
 10
678.5490580641972
 20
2345.673076923077
 30
0.0
 10
678.5766849490569
 20
2345.541080339897
 30
0.0
 10
678.603921899349
 20
2345.410961246167
 30
0.0
 10
678.644954814844
 20
2345.218673041274
 30
0.0
 10
678.6586617840127
 20
2345.155061930849
 30
0.0
 10
678.6793652349108
 20
2345.060412667253
 30
0.0
 10
678.6862596220928
 20
2345.029132220636
 30
0.0
 10
678.6999863188618
 20
2344.967396609249
 30
0.0
 10
678.7068288056357
 20
2344.936894781083
 30
0.0
 10
678.7409761391216
 20
2344.786196190269
 30
0.0
 10
678.7680908355873
 20
2344.671382991541
 30
0.0
 10
678.8023526243742
 20
2344.535238111348
 30
0.0
 10
678.8092236911873
 20
2344.508380857441
 30
0.0
 10
678.8230203642854
 20
2344.455427663175
 30
0.0
 10
678.8299188516309
 20
2344.429438046753
 30
0.0
 10
678.8505122384521
 20
2344.353389086817
 30
0.0
 10
678.8641576958942
 20
2344.305044758441
 30
0.0
 10
678.9050303414359
 20
2344.166944761265
 30
0.0
 10
678.9321943875161
 20
2344.084058359888
 30
0.0
 10
678.9666770508777
 20
2343.992444725739
 30
0.0
 10
678.9735787155848
 20
2343.974788158689
 30
0.0
 10
678.9873097511645
 20
2343.941043386374
 30
0.0
 10
678.994153979289
 20
2343.924915363648
 30
0.0
 10
679.0146473703289
 20
2343.878733189877
 30
0.0
 10
679.0282575477636
 20
2343.850876059716
 30
0.0
 10
679.0554952957407
 20
2343.800979083005
 30
0.0
 10
679.069124324242
 20
2343.778939243101
 30
0.0
 10
679.0896756240489
 20
2343.750328213178
 30
0.0
 10
679.0965441072929
 20
2343.741533910108
 30
0.0
 10
679.1103340698005
 20
2343.725460990105
 30
0.0
 10
679.1172415444114
 20
2343.718202395584
 30
0.0
 10
679.1516460549519
 20
2343.686024641815
 30
0.0
 10
679.1789665074974
 20
2343.673076923077
 30
0.0
 10
679.2065934065936
 20
2343.673076923077
 30
0.0
  0
SPLINE
  5
7C
330
1F
100
AcDbEntity
  8
1
  6
Continuous
 62
   155
420
  5010073
370
    18
100
AcDbSpline
210
0.0
220
0.0
230
1.0
 70
     8
 71
     3
 72
    38
 73
    34
 74
     0
 42
0.0000000001
 43
0.0000000001
 40
0.0
 40
0.0
 40
0.0
 40
0.0
 40
0.125
 40
0.125
 40
0.1875000000000022
 40
0.1875000000000022
 40
0.2187499999999997
 40
0.2187499999999997
 40
0.2499999999999972
 40
0.2499999999999972
 40
0.3750000000000046
 40
0.3750000000000046
 40
0.4062500000000101
 40
0.4062500000000101
 40
0.4375000000000157
 40
0.4375000000000157
 40
0.5000000000000273
 40
0.5000000000000273
 40
0.6250000000000514
 40
0.6250000000000514
 40
0.6562500000000626
 40
0.6562500000000626
 40
0.6875000000000738
 40
0.6875000000000738
 40
0.7500000000000733
 40
0.7500000000000733
 40
0.8125000000000727
 40
0.8125000000000727
 40
0.8437500000000603
 40
0.8437500000000603
 40
0.8750000000000479
 40
0.8750000000000479
 40
1.0
 40
1.0
 40
1.0
 40
1.0
 10
677.2065934065936
 20
2345.673076923077
 30
0.0
 10
677.2065934065936
 20
2345.541080339897
 30
0.0
 10
677.2195405045404
 20
2345.410961246163
 30
0.0
 10
677.2578019662133
 20
2345.218673041259
 30
0.0
 10
677.273717531995
 20
2345.155061930829
 30
0.0
 10
677.3024585165974
 20
2345.060412667224
 30
0.0
 10
677.312811357667
 20
2345.029132220616
 30
0.0
 10
677.3349389183618
 20
2344.967396609234
 30
0.0
 10
677.3467276668675
 20
2344.93689478107
 30
0.0
 10
677.4092403466668
 20
2344.786196190265
 30
0.0
 10
677.4705747226238
 20
2344.671382991536
 30
0.0
 10
677.5614810050495
 20
2344.535238111333
 30
0.0
 10
677.5803801838733
 20
2344.508380857425
 30
0.0
 10
677.6196414064048
 20
2344.455427663154
 30
0.0
 10
677.6399288017602
 20
2344.429438046737
 30
0.0
 10
677.7023571984375
 20
2344.353389086809
 30
0.0
 10
677.7462080996712
 20
2344.305044758436
 30
0.0
 10
677.8842791837943
 20
2344.166944761264
 30
0.0
 10
677.9849578374713
 20
2344.084058359883
 30
0.0
 10
678.1218993214494
 20
2343.992444725725
 30
0.0
 10
678.1497626103801
 20
2343.97478815868
 30
0.0
 10
678.206025624373
 20
2343.941043386368
 30
0.0
 10
678.2344841632078
 20
2343.924915363644
 30
0.0
 10
678.3208217413588
 20
2343.878733189875
 30
0.0
 10
678.3796605625579
 20
2343.850876059715
 30
0.0
 10
678.4998518752147
 20
2343.800979083004
 30
0.0
 10
678.5612040353916
 20
2343.7789392431
 30
0.0
 10
678.6551329398673
 20
2343.750328213174
 30
0.0
 10
678.6867598731421
 20
2343.741533910103
 30
0.0
 10
678.7506575656233
 20
2343.7254609901
 30
0.0
 10
678.7828641242621
 20
2343.718202395581
 30
0.0
 10
678.9440710288084
 20
2343.686024641815
 30
0.0
 10
679.0745968238132
 20
2343.673076923077
 30
0.0
 10
679.2065934065936
 20
2343.673076923077
 30
0.0
  0
SPLINE
  5
7D
330
1F
100
AcDbEntity
  8
1
  6
Continuous
 62
   155
420
  5010073
370
    18
100
AcDbSpline
210
0.0
220
0.0
230
1.0
 70
     8
 71
     3
 72
    18
 73
    14
 74
     0
 42
0.0000000001
 43
0.0000000001
 40
0.0
 40
0.0
 40
0.0
 40
0.0
 40
0.1770720026583613
 40
0.1770720026583613
 40
0.3541367049157885
 40
0.3541367049157885
 40
0.5311947919054293
 40
0.5311947919054293
 40
0.7119913147460735
 40
0.7119913147460735
 40
0.8890905604355153
 40
0.8890905604355153
 40
1.0
 40
1.0
 40
1.0
 40
1.0
 10
678.4065934065936
 20
2345.673076923076
 30
0.0
 10
678.4065934065936
 20
2345.635570356685
 30
0.0
 10
678.4092353884496
 20
2345.598064034693
 30
0.0
 10
678.4197509892006
 20
2345.523793177407
 30
0.0
 10
678.4276243235336
 20
2345.487029095447
 30
0.0
 10
678.4484466086826
 20
2345.414968507398
 30
0.0
 10
678.4613952339046
 20
2345.379672415873
 30
0.0
 10
678.4924367673907
 20
2345.310520943628
 30
0.0
 10
678.5106324807126
 20
2345.27671227632
 30
0.0
 10
678.5512557552586
 20
2345.212707790574
 30
0.0
 10
678.5735887411556
 20
2345.182452556629
 30
0.0
 10
678.6131780741977
 20
2345.136038626114
 30
0.0
 10
678.6292120844829
 20
2345.118837769802
 30
0.0
 10
678.6459707691378
 20
2345.102374622944
 30
0.0
  0
SPLINE
  5
7E
330
1F
100
AcDbEntity
  8
1
  6
Continuous
 62
   155
420
  5010073
370
    18
100
AcDbSpline
210
0.0
220
0.0
230
1.0
 70
     8
 71
     3
 72
    20
 73
    16
 74
     0
 42
0.0000000001
 43
0.0000000001
 40
0.0
 40
0.0
 40
0.0
 40
0.0
 40
0.0842754300745492
 40
0.0842754300745492
 40
0.2621820891256204
 40
0.2621820891256204
 40
0.4466365668442162
 40
0.4466365668442162
 40
0.6245600091320223
 40
0.6245600091320223
 40
0.8024547340420417
 40
0.8024547340420417
 40
0.9803520897283959
 40
0.9803520897283959
 40
1.0
 40
1.0
 40
1.0
 40
1.0
 10
1118.169355120115
 20
2345.104483960823
 30
0.0
 10
1118.181982507042
 20
2345.116981770458
 30
0.0
 10
1118.194193904453
 20
2345.129899879015
 30
0.0
 10
1118.230802128106
 20
2345.171309932807
 30
0.0
 10
1118.253663640852
 20
2345.201158760179
 30
0.0
 10
1118.295737213966
 20
2345.264918986777
 30
0.0
 10
1118.314783391804
 20
2345.298939203713
 30
0.0
 10
1118.347147275504
 20
2345.368139432452
 30
0.0
 10
1118.360644007716
 20
2345.403235123325
 30
0.0
 10
1118.3825823299
 20
2345.474966744817
 30
0.0
 10
1118.391024593854
 20
2345.511601958213
 30
0.0
 10
1118.402690705209
 20
2345.585695091089
 30
0.0
 10
1118.405914399318
 20
2345.623152540121
 30
0.0
 10
1118.406561237306
 20
2345.664792815657
 30
0.0
 10
1118.406593406594
 20
2345.668934869365
 30
0.0
 10
1118.406593406594
 20
2345.673076923077
 30
0.0
  0
SPLINE
  5
7F
330
1F
100
AcDbEntity
  8
1
  6
Continuous
 62
   155
420
  5010073
370
    18
100
AcDbSpline
210
0.0
220
0.0
230
1.0
 70
     8
 71
     3
 72
    38
 73
    34
 74
     0
 42
0.0000000001
 43
0.0000000001
 40
0.0
 40
0.0
 40
0.0
 40
0.0
 40
0.1250000000000126
 40
0.1250000000000126
 40
0.1875000000000189
 40
0.1875000000000189
 40
0.2187500000000221
 40
0.2187500000000221
 40
0.2500000000000253
 40
0.2500000000000253
 40
0.3749999999999908
 40
0.3749999999999908
 40
0.4062499999999871
 40
0.4062499999999871
 40
0.4374999999999835
 40
0.4374999999999835
 40
0.4999999999999957
 40
0.4999999999999957
 40
0.625000000000021
 40
0.625000000000021
 40
0.6562500000000199
 40
0.6562500000000199
 40
0.6875000000000189
 40
0.6875000000000189
 40
0.7500000000000175
 40
0.7500000000000175
 40
0.8125000000000163
 40
0.8125000000000163
 40
0.8437500000000153
 40
0.8437500000000153
 40
0.8750000000000142
 40
0.8750000000000142
 40
1.0
 40
1.0
 40
1.0
 40
1.0
 10
1117.606593406594
 20
2343.673076923077
 30
0.0
 10
1117.738589986865
 20
2343.673076923077
 30
0.0
 10
1117.868709080701
 20
2343.686024020606
 30
0.0
 10
1118.06099728671
 20
2343.724285482288
 30
0.0
 10
1118.124608397677
 20
2343.740201048151
 30
0.0
 10
1118.219257661947
 20
2343.768942032916
 30
0.0
 10
1118.250538108748
 20
2343.779294874043
 30
0.0
 10
1118.312273720398
 20
2343.801422434828
 30
0.0
 10
1118.342775548635
 20
2343.813211183364
 30
0.0
 10
1118.493474139414
 20
2343.875723863156
 30
0.0
 10
1118.608287338112
 20
2343.937058239097
 30
0.0
 10
1118.744432218271
 20
2344.027964521487
 30
0.0
 10
1118.77128947217
 20
2344.046863700303
 30
0.0
 10
1118.824242666423
 20
2344.086124922816
 30
0.0
 10
1118.850232282862
 20
2344.106412318187
 30
0.0
 10
1118.926281242819
 20
2344.168840714883
 30
0.0
 10
1118.974625571205
 20
2344.212691616127
 30
0.0
 10
1119.112725568403
 20
2344.350762700272
 30
0.0
 10
1119.195611969784
 20
2344.451441353952
 30
0.0
 10
1119.287225603929
 20
2344.588382837907
 30
0.0
 10
1119.304882170981
 20
2344.616246126848
 30
0.0
 10
1119.338626943299
 20
2344.672509140851
 30
0.0
 10
1119.354754966026
 20
2344.70096767969
 30
0.0
 10
1119.400937139802
 20
2344.787305257856
 30
0.0
 10
1119.428794269966
 20
2344.846144079063
 30
0.0
 10
1119.47869124668
 20
2344.966335391734
 30
0.0
 10
1119.500731086461
 20
2345.027687551598
 30
0.0
 10
1119.529342116226
 20
2345.121616455422
 30
0.0
 10
1119.538136419246
 20
2345.153243388451
 30
0.0
 10
1119.554209339178
 20
2345.217141080447
 30
0.0
 10
1119.561467933678
 20
2345.249347638862
 30
0.0
 10
1119.593645687437
 20
2345.410554542489
 30
0.0
 10
1119.606593406594
 20
2345.541080337407
 30
0.0
 10
1119.606593406594
 20
2345.673076923077
 30
0.0
  0
SPLINE
  5
80
330
1F
100
AcDbEntity
  8
1
  6
Continuous
 62
   155
420
  5010073
370
    18
100
AcDbSpline
210
0.0
220
0.0
230
1.0
 70
    12
 71
     2
 72
     6
 73
     3
 74
     0
 42
0.0000000001
 43
0.0000000001
 40
3.141592653589793
 40
3.141592653589793
 40
3.141592653589793
 40
4.71238898038469
 40
4.71238898038469
 40
4.71238898038469
 10
694.906593
 20
2194.278457
 30
0.0
 41
1.0
 10
694.906593
 20
2193.2177965
 30
0.0
 41
0.7071067811865476
 10
696.406593
 20
2193.2177965
 30
0.0
 41
1.0
  0
SPLINE
  5
81
330
1F
100
AcDbEntity
  8
1
  6
Continuous
 62
   155
420
  5010073
370
    18
100
AcDbSpline
210
0.0
220
0.0
230
1.0
 70
    12
 71
     2
 72
     6
 73
     3
 74
     0
 42
0.0000000001
 43
0.0000000001
 40
4.71238898038469
 40
4.71238898038469
 40
4.71238898038469
 40
6.283185307179586
 40
6.283185307179586
 40
6.283185307179586
 10
701.906593
 20
2193.2177965
 30
0.0
 41
1.0
 10
703.406593
 20
2193.2177965
 30
0.0
 41
0.7071067811865476
 10
703.406593
 20
2194.278457
 30
0.0
 41
1.0
  0
SPLINE
  5
82
330
1F
100
AcDbEntity
  8
1
  6
Continuous
 62
   155
420
  5010073
370
    18
100
AcDbSpline
210
0.0
220
0.0
230
1.0
 70
    12
 71
     2
 72
     6
 73
     3
 74
     0
 42
0.0000000001
 43
0.0000000001
 40
3.141592653589793
 40
3.141592653589793
 40
3.141592653589793
 40
4.71238898038469
 40
4.71238898038469
 40
4.71238898038469
 10
1093.406593
 20
2194.278457
 30
0.0
 41
1.0
 10
1093.406593
 20
2193.2177965
 30
0.0
 41
0.7071067811865476
 10
1094.906593
 20
2193.2177965
 30
0.0
 41
1.0
  0
SPLINE
  5
83
330
1F
100
AcDbEntity
  8
1
  6
Continuous
 62
   155
420
  5010073
370
    18
100
AcDbSpline
210
0.0
220
0.0
230
1.0
 70
    12
 71
     2
 72
     6
 73
     3
 74
     0
 42
0.0000000001
 43
0.0000000001
 40
4.71238898038469
 40
4.71238898038469
 40
4.71238898038469
 40
6.283185307179586
 40
6.283185307179586
 40
6.283185307179586
 10
1100.406593
 20
2193.2177965
 30
0.0
 41
1.0
 10
1101.906593
 20
2193.2177965
 30
0.0
 41
0.7071067811865476
 10
1101.906593
 20
2194.278457
 30
0.0
 41
1.0
  0
ARC
  5
84
330
1F
100
AcDbEntity
  8
1
  6
Continuous
 62
   155
420
  5010073
370
    18
100
AcDbCircle
 10
1446.547341
 20
2343.173077
 30
0.0
 40
0.5
100
AcDbArc
 50
0.0
 51
90.0
  0
ARC
  5
85
330
1F
100
AcDbEntity
  8
1
  6
Continuous
 62
   155
420
  5010073
370
    18
100
AcDbCircle
 10
1446.547341
 20
2317.173077
 30
0.0
 40
0.5
100
AcDbArc
 50
270.0
 51
0.0
  0
ARC
  5
86
330
1F
100
AcDbEntity
  8
1
  6
Continuous
 62
   155
420
  5010073
370
    18
100
AcDbCircle
 10
1393.547341
 20
2343.173077
 30
0.0
 40
0.5
100
AcDbArc
 50
90.0
 51
180.0
  0
ARC
  5
87
330
1F
100
AcDbEntity
  8
1
  6
Continuous
 62
   155
420
  5010073
370
    18
100
AcDbCircle
 10
1393.547341
 20
2317.173077
 30
0.0
 40
0.5
100
AcDbArc
 50
180.0
 51
270.0
  0
ARC
  5
88
330
1F
100
AcDbEntity
  8
1
  6
Continuous
 62
   155
420
  5010073
370
    18
100
AcDbCircle
 10
1100.406593
 20
2208.081758
 30
0.0
 40
1.8
100
AcDbArc
 50
15.13124999999782
 51
50.83312499999437
  0
CIRCLE
  5
89
330
1F
100
AcDbEntity
  8
1
  6
Continuous
 62
   155
420
  5010073
370
    18
100
AcDbCircle
 10
1049.406593
 20
2208.081758
 30
0.0
 40
1.8
  0
CIRCLE
  5
8A
330
1F
100
AcDbEntity
  8
1
  6
Continuous
 62
   155
420
  5010073
370
    18
100
AcDbCircle
 10
779.406593
 20
2208.081758
 30
0.0
 40
1.8
  0
ARC
  5
8B
330
1F
100
AcDbEntity
  8
1
  6
Continuous
 62
   155
420
  5010073
370
    18
100
AcDbCircle
 10
1100.406593
 20
2208.081758
 30
0.0
 40
2.1
100
AcDbArc
 50
6.823124999999596
 51
60.54750000000003
  0
ARC
  5
8C
330
1F
100
AcDbEntity
  8
1
  6
Continuous
 62
   155
420
  5010073
370
    18
100
AcDbCircle
 10
767.406593
 20
2202.081758
 30
0.0
 40
5.0
100
AcDbArc
 50
306.8704689999997
 51
0.0
  0
ARC
  5
8D
330
1F
100
AcDbEntity
  8
1
  6
Continuous
 62
   155
420
  5010073
370
    18
100
AcDbCircle
 10
767.406593
 20
2214.081758
 30
0.0
 40
5.0
100
AcDbArc
 50
0.0
 51
53.12953100000026
  0
CIRCLE
  5
8E
330
1F
100
AcDbEntity
  8
1
  6
Continuous
 62
   155
420
  5010073
370
    18
100
AcDbCircle
 10
1049.406593
 20
2208.081758
 30
0.0
 40
2.1
  0
ARC
  5
8F
330
1F
100
AcDbEntity
  8
1
  6
Continuous
 62
   155
420
  5010073
370
    18
100
AcDbCircle
 10
791.406593
 20
2202.081758
 30
0.0
 40
5.0
100
AcDbArc
 50
180.0
 51
233.1295310000003
  0
ARC
  5
90
330
1F
100
AcDbEntity
  8
1
  6
Continuous
 62
   155
420
  5010073
370
    18
100
AcDbCircle
 10
1032.406593
 20
2202.081758
 30
0.0
 40
5.0
100
AcDbArc
 50
306.8704690000008
 51
0.0
  0
ARC
  5
91
330
1F
100
AcDbEntity
  8
1
  6
Continuous
 62
   155
420
  5010073
370
    18
100
AcDbCircle
 10
1032.406593
 20
2214.081758
 30
0.0
 40
5.0
100
AcDbArc
 50
0.0
 51
53.12953099999922
  0
ARC
  5
92
330
1F
100
AcDbEntity
  8
1
  6
Continuous
 62
   155
420
  5010073
370
    18
100
AcDbCircle
 10
791.406593
 20
2214.081758
 30
0.0
 40
5.0
100
AcDbArc
 50
126.8704689999997
 51
180.0
  0
CIRCLE
  5
93
330
1F
100
AcDbEntity
  8
1
  6
Continuous
 62
   155
420
  5010073
370
    18
100
AcDbCircle
 10
779.406593
 20
2208.081758
 30
0.0
 40
2.1
  0
ARC
  5
94
330
1F
100
AcDbEntity
  8
1
  6
Continuous
 62
   155
420
  5010073
370
    18
100
AcDbCircle
 10
1107.606593
 20
2218.581758
 30
0.0
 40
0.5
100
AcDbArc
 50
90.0
 51
270.0
  0
ARC
  5
95
330
1F
100
AcDbEntity
  8
1
  6
Continuous
 62
   155
420
  5010073
370
    18
100
AcDbCircle
 10
1107.606593
 20
2197.581758
 30
0.0
 40
0.5
100
AcDbArc
 50
90.0
 51
270.0
  0
ARC
  5
96
330
1F
100
AcDbEntity
  8
1
  6
Continuous
 62
   155
420
  5010073
370
    18
100
AcDbCircle
 10
1104.906593
 20
2192.581758
 30
0.0
 40
2.0
100
AcDbArc
 50
180.0
 51
270.0
  0
ARC
  5
97
330
1F
100
AcDbEntity
  8
1
  6
Continuous
 62
   155
420
  5010073
370
    18
100
AcDbCircle
 10
1102.406593
 20
2202.034449
 30
0.0
 40
0.5
100
AcDbArc
 50
0.0
 51
180.0
  0
ARC
  5
98
330
1F
100
AcDbEntity
  8
1
  6
Continuous
 62
   155
420
  5010073
370
    18
100
AcDbCircle
 10
1092.906593
 20
2202.034449
 30
0.0
 40
0.5
100
AcDbArc
 50
0.0
 51
90.0
  0
ARC
  5
99
330
1F
100
AcDbEntity
  8
1
  6
Continuous
 62
   155
420
  5010073
370
    18
100
AcDbCircle
 10
1090.906593
 20
2202.034449
 30
0.0
 40
0.5
100
AcDbArc
 50
90.0
 51
180.0
  0
ARC
  5
9A
330
1F
100
AcDbEntity
  8
1
  6
Continuous
 62
   155
420
  5010073
370
    18
100
AcDbCircle
 10
705.906593
 20
2202.034449
 30
0.0
 40
0.5
100
AcDbArc
 50
0.0
 51
90.0
  0
ARC
  5
9B
330
1F
100
AcDbEntity
  8
1
  6
Continuous
 62
   155
420
  5010073
370
    18
100
AcDbCircle
 10
703.906593
 20
2202.034449
 30
0.0
 40
0.5
100
AcDbArc
 50
90.0
 51
180.0
  0
ARC
  5
9C
330
1F
100
AcDbEntity
  8
1
  6
Continuous
 62
   155
420
  5010073
370
    18
100
AcDbCircle
 10
694.406593
 20
2202.034449
 30
0.0
 40
0.5
100
AcDbArc
 50
0.0
 51
180.0
  0
ARC
  5
9D
330
1F
100
AcDbEntity
  8
1
  6
Continuous
 62
   155
420
  5010073
370
    18
100
AcDbCircle
 10
691.906593
 20
2192.581758
 30
0.0
 40
2.0
100
AcDbArc
 50
270.0
 51
0.0
  0
ARC
  5
9E
330
1F
100
AcDbEntity
  8
1
  6
Continuous
 62
   155
420
  5010073
370
    18
100
AcDbCircle
 10
689.206593
 20
2197.581758
 30
0.0
 40
0.5
100
AcDbArc
 50
270.0
 51
90.0
  0
ARC
  5
9F
330
1F
100
AcDbEntity
  8
1
  6
Continuous
 62
   155
420
  5010073
370
    18
100
AcDbCircle
 10
689.206593
 20
2218.581758
 30
0.0
 40
0.5
100
AcDbArc
 50
270.0
 51
90.0
  0
ARC
  5
A0
330
1F
100
AcDbEntity
  8
1
  6
Continuous
 62
   155
420
  5010073
370
    18
100
AcDbCircle
 10
695.906593
 20
2223.081758
 30
0.0
 40
2.5
100
AcDbArc
 50
0.0
 51
90.0
  0
ARC
  5
A1
330
1F
100
AcDbEntity
  8
1
  6
Continuous
 62
   155
420
  5010073
370
    18
100
AcDbCircle
 10
698.906593
 20
2222.281758
 30
0.0
 40
0.5
100
AcDbArc
 50
180.0
 51
0.0
  0
ARC
  5
A2
330
1F
100
AcDbEntity
  8
1
  6
Continuous
 62
   155
420
  5010073
370
    18
100
AcDbCircle
 10
1097.906593
 20
2222.281758
 30
0.0
 40
0.5
100
AcDbArc
 50
180.0
 51
0.0
  0
ARC
  5
A3
330
1F
100
AcDbEntity
  8
1
  6
Continuous
 62
   155
420
  5010073
370
    18
100
AcDbCircle
 10
1100.906593
 20
2223.081758
 30
0.0
 40
2.5
100
AcDbArc
 50
90.0
 51
180.0
  0
ARC
  5
A4
330
1F
100
AcDbEntity
  8
1
  6
Continuous
 62
   155
420
  5010073
370
    18
100
AcDbCircle
 10
1066.406593
 20
2208.081758
 30
0.0
 40
2.25
100
AcDbArc
 50
90.0
 51
270.0
  0
ARC
  5
A5
330
1F
100
AcDbEntity
  8
1
  6
Continuous
 62
   155
420
  5010073
370
    18
100
AcDbCircle
 10
1070.406593
 20
2208.081758
 30
0.0
 40
2.25
100
AcDbArc
 50
270.0
 51
90.0
  0
ARC
  5
A6
330
1F
100
AcDbEntity
  8
1
  6
Continuous
 62
   155
420
  5010073
370
    18
100
AcDbCircle
 10
713.406593
 20
2206.081758
 30
0.0
 40
2.25
100
AcDbArc
 50
180.0
 51
0.0
  0
ARC
  5
A7
330
1F
100
AcDbEntity
  8
1
  6
Continuous
 62
   155
420
  5010073
370
    18
100
AcDbCircle
 10
713.406593
 20
2210.081758
 30
0.0
 40
2.25
100
AcDbArc
 50
0.0
 51
180.0
  0
ARC
  5
A8
330
1F
100
AcDbEntity
  8
1
  6
Continuous
 62
   155
420
  5010073
370
    18
100
AcDbCircle
 10
1047.406593
 20
2204.081758
 30
0.0
 40
6.0
100
AcDbArc
 50
270.0
 51
0.0
  0
ARC
  5
A9
330
1F
100
AcDbEntity
  8
1
  6
Continuous
 62
   155
420
  5010073
370
    18
100
AcDbCircle
 10
1047.406593
 20
2212.081758
 30
0.0
 40
6.0
100
AcDbArc
 50
0.0
 51
90.0
  0
ARC
  5
AA
330
1F
100
AcDbEntity
  8
1
  6
Continuous
 62
   155
420
  5010073
370
    18
100
AcDbCircle
 10
924.406593
 20
2212.081758
 30
0.0
 40
6.0
100
AcDbArc
 50
90.0
 51
180.0
  0
ARC
  5
AB
330
1F
100
AcDbEntity
  8
1
  6
Continuous
 62
   155
420
  5010073
370
    18
100
AcDbCircle
 10
924.406593
 20
2204.081758
 30
0.0
 40
6.0
100
AcDbArc
 50
180.0
 51
270.0
  0
CIRCLE
  5
AC
330
1F
100
AcDbEntity
  8
1
  6
Continuous
 62
   155
420
  5010073
370
    18
100
AcDbCircle
 10
1103.406593
 20
2210.081758
 30
0.0
 40
1.975
  0
ARC
  5
AD
330
1F
100
AcDbEntity
  8
1
  6
Continuous
 62
   155
420
  5010073
370
    18
100
AcDbCircle
 10
872.406593
 20
2204.081758
 30
0.0
 40
6.0
100
AcDbArc
 50
270.0
 51
0.0
  0
ARC
  5
AE
330
1F
100
AcDbEntity
  8
1
  6
Continuous
 62
   155
420
  5010073
370
    18
100
AcDbCircle
 10
872.406593
 20
2212.081758
 30
0.0
 40
6.0
100
AcDbArc
 50
0.0
 51
90.0
  0
ARC
  5
AF
330
1F
100
AcDbEntity
  8
1
  6
Continuous
 62
   155
420
  5010073
370
    18
100
AcDbCircle
 10
734.406593
 20
2212.081758
 30
0.0
 40
6.0
100
AcDbArc
 50
90.0
 51
180.0
  0
ARC
  5
B0
330
1F
100
AcDbEntity
  8
1
  6
Continuous
 62
   155
420
  5010073
370
    18
100
AcDbCircle
 10
734.406593
 20
2204.081758
 30
0.0
 40
6.0
100
AcDbArc
 50
180.0
 51
270.0
  0
CIRCLE
  5
B1
330
1F
100
AcDbEntity
  8
1
  6
Continuous
 62
   155
420
  5010073
370
    18
100
AcDbCircle
 10
898.406593
 20
2208.081758
 30
0.0
 40
10.0
  0
ARC
  5
B2
330
1F
100
AcDbEntity
  8
1
  6
Continuous
 62
   155
420
  5010073
370
    18
100
AcDbCircle
 10
359.576967
 20
2343.173077
 30
0.0
 40
0.5
100
AcDbArc
 50
0.0
 51
90.0
  0
ARC
  5
B3
330
1F
100
AcDbEntity
  8
1
  6
Continuous
 62
   155
420
  5010073
370
    18
100
AcDbCircle
 10
359.576967
 20
2317.173077
 30
0.0
 40
0.5
100
AcDbArc
 50
270.0
 51
0.0
  0
ARC
  5
B4
330
1F
100
AcDbEntity
  8
1
  6
Continuous
 62
   155
420
  5010073
370
    18
100
AcDbCircle
 10
306.576967
 20
2317.173077
 30
0.0
 40
0.5
100
AcDbArc
 50
180.0
 51
270.0
  0
ARC
  5
B5
330
1F
100
AcDbEntity
  8
1
  6
Continuous
 62
   155
420
  5010073
370
    18
100
AcDbCircle
 10
306.576967
 20
2343.173077
 30
0.0
 40
0.5
100
AcDbArc
 50
90.0
 51
180.0
  0
CIRCLE
  5
B6
330
1F
100
AcDbEntity
  8
1
  6
Continuous
 62
   155
420
  5010073
370
    18
100
AcDbCircle
 10
1097.656593
 20
2371.173077
 30
0.0
 40
2.11
  0
CIRCLE
  5
B7
330
1F
100
AcDbEntity
  8
1
  6
Continuous
 62
   155
420
  5010073
370
    18
100
AcDbCircle
 10
699.156593
 20
2371.173077
 30
0.0
 40
2.11
  0
LINE
  5
B8
330
1F
100
AcDbEntity
  8
1
  6
Continuous
 62
   155
420
  5010073
370
    18
100
AcDbLine
 10
1539.564308
 20
2341.173077
 30
0.0
 11
2422.564308
 21
2341.173077
 31
0.0
  0
LINE
  5
B9
330
1F
100
AcDbEntity
  8
1
  6
Continuous
 62
   155
420
  5010073
370
    13
100
AcDbLine
 10
1539.564308
 20
2317.173077
 30
0.0
 11
2422.564308
 21
2317.173077
 31
0.0
  0
LINE
  5
BA
330
1F
100
AcDbEntity
  8
1
  6
Continuous
 62
   155
420
  5010073
370
    18
100
AcDbLine
 10
2422.564308
 20
2316.673077
 30
0.0
 11
2422.564308
 21
2317.173077
 31
0.0
  0
LINE
  5
BB
330
1F
100
AcDbEntity
  8
1
  6
Continuous
 62
   155
420
  5010073
370
    13
100
AcDbLine
 10
1539.564308
 20
2341.473077
 30
0.0
 11
2422.564308
 21
2341.473077
 31
0.0
  0
LINE
  5
BC
330
1F
100
AcDbEntity
  8
1
  6
Continuous
 62
   155
420
  5010073
370
    18
100
AcDbLine
 10
1539.564308
 20
2341.473077
 30
0.0
 11
1539.564308
 21
2343.173077
 31
0.0
  0
LINE
  5
BD
330
1F
100
AcDbEntity
  8
1
  6
Continuous
 62
   155
420
  5010073
370
    18
100
AcDbLine
 10
2422.564308
 20
2341.473077
 30
0.0
 11
2422.564308
 21
2343.173077
 31
0.0
  0
LINE
  5
BE
330
1F
100
AcDbEntity
  8
1
  6
Continuous
 62
   155
420
  5010073
370
    18
100
AcDbLine
 10
1539.564308
 20
2317.173077
 30
0.0
 11
1539.564308
 21
2318.873077
 31
0.0
  0
LINE
  5
BF
330
1F
100
AcDbEntity
  8
1
  6
Continuous
 62
   155
420
  5010073
370
    18
100
AcDbLine
 10
2422.564308
 20
2317.173077
 30
0.0
 11
2422.564308
 21
2318.873077
 31
0.0
  0
LINE
  5
C0
330
1F
100
AcDbEntity
  8
1
  6
Continuous
 62
   155
420
  5010073
370
    13
100
AcDbLine
 10
2422.412542
 20
2340.873077
 30
0.0
 11
2422.564308
 21
2340.873077
 31
0.0
  0
LINE
  5
C1
330
1F
100
AcDbEntity
  8
1
  6
Continuous
 62
   155
420
  5010073
370
    13
100
AcDbLine
 10
1539.564308
 20
2340.873077
 30
0.0
 11
1539.716073
 21
2340.873077
 31
0.0
  0
LINE
  5
C2
330
1F
100
AcDbEntity
  8
1
  6
Continuous
 62
   155
420
  5010073
370
    13
100
AcDbLine
 10
2422.412542
 20
2319.473077
 30
0.0
 11
2422.564308
 21
2319.473077
 31
0.0
  0
LINE
  5
C3
330
1F
100
AcDbEntity
  8
1
  6
Continuous
 62
   155
420
  5010073
370
    13
100
AcDbLine
 10
1539.564308
 20
2319.473077
 30
0.0
 11
1539.716073
 21
2319.473077
 31
0.0
  0
LINE
  5
C4
330
1F
100
AcDbEntity
  8
1
  6
Continuous
 62
   155
420
  5010073
370
    18
100
AcDbLine
 10
2422.412542
 20
2340.573077
 30
0.0
 11
2422.564308
 21
2340.573077
 31
0.0
  0
LINE
  5
C5
330
1F
100
AcDbEntity
  8
1
  6
Continuous
 62
   155
420
  5010073
370
    18
100
AcDbLine
 10
1539.564308
 20
2340.573077
 30
0.0
 11
1539.716073
 21
2340.573077
 31
0.0
  0
LINE
  5
C6
330
1F
100
AcDbEntity
  8
1
  6
Continuous
 62
   155
420
  5010073
370
    18
100
AcDbLine
 10
2422.412542
 20
2319.773077
 30
0.0
 11
2422.564308
 21
2319.773077
 31
0.0
  0
LINE
  5
C7
330
1F
100
AcDbEntity
  8
1
  6
Continuous
 62
   155
420
  5010073
370
    18
100
AcDbLine
 10
1539.564308
 20
2319.773077
 30
0.0
 11
1539.716073
 21
2319.773077
 31
0.0
  0
LINE
  5
C8
330
1F
100
AcDbEntity
  8
1
  6
Continuous
 62
   155
420
  5010073
370
    18
100
AcDbLine
 10
1539.716073
 20
2319.837564
 30
0.0
 11
1539.564308
 21
2319.837564
 31
0.0
  0
LINE
  5
C9
330
1F
100
AcDbEntity
  8
1
  6
Continuous
 62
   155
420
  5010073
370
    18
100
AcDbLine
 10
2422.564308
 20
2319.837564
 30
0.0
 11
2422.412542
 21
2319.837564
 31
0.0
  0
LINE
  5
CA
330
1F
100
AcDbEntity
  8
1
  6
Continuous
 62
   155
420
  5010073
370
    18
100
AcDbLine
 10
2422.412542
 20
2340.50859
 30
0.0
 11
2422.564308
 21
2340.50859
 31
0.0
  0
LINE
  5
CB
330
1F
100
AcDbEntity
  8
1
  6
Continuous
 62
   155
420
  5010073
370
    18
100
AcDbLine
 10
1539.564308
 20
2340.50859
 30
0.0
 11
1539.716073
 21
2340.50859
 31
0.0
  0
LINE
  5
CC
330
1F
100
AcDbEntity
  8
1
  6
Continuous
 62
   155
420
  5010073
370
    18
100
AcDbLine
 10
1539.564308
 20
2320.673077
 30
0.0
 11
1539.714316
 21
2320.673077
 31
0.0
  0
LINE
  5
CD
330
1F
100
AcDbEntity
  8
1
  6
Continuous
 62
   155
420
  5010073
370
    18
100
AcDbLine
 10
1539.714316
 20
2339.673077
 30
0.0
 11
1539.564308
 21
2339.673077
 31
0.0
  0
LINE
  5
CE
330
1F
100
AcDbEntity
  8
1
  6
Continuous
 62
   155
420
  5010073
370
    18
100
AcDbLine
 10
2422.4143
 20
2320.673077
 30
0.0
 11
2422.564308
 21
2320.673077
 31
0.0
  0
LINE
  5
CF
330
1F
100
AcDbEntity
  8
1
  6
Continuous
 62
   155
420
  5010073
370
    18
100
AcDbLine
 10
2422.564308
 20
2339.673077
 30
0.0
 11
2422.4143
 21
2339.673077
 31
0.0
  0
LINE
  5
D0
330
1F
100
AcDbEntity
  8
1
  6
Continuous
 62
   155
420
  5010073
370
    13
100
AcDbLine
 10
2422.412384
 20
2321.673077
 30
0.0
 11
2422.564308
 21
2321.673077
 31
0.0
  0
LINE
  5
D1
330
1F
100
AcDbEntity
  8
1
  6
Continuous
 62
   155
420
  5010073
370
    13
100
AcDbLine
 10
1539.564308
 20
2321.673077
 30
0.0
 11
1539.723755
 21
2321.673077
 31
0.0
  0
LINE
  5
D2
330
1F
100
AcDbEntity
  8
1
  6
Continuous
 62
   155
420
  5010073
370
    18
100
AcDbLine
 10
2422.412549
 20
2321.973077
 30
0.0
 11
2422.564308
 21
2321.973077
 31
0.0
  0
LINE
  5
D3
330
1F
100
AcDbEntity
  8
1
  6
Continuous
 62
   155
420
  5010073
370
    13
100
AcDbLine
 10
1539.564308
 20
2338.673077
 30
0.0
 11
1539.723755
 21
2338.673077
 31
0.0
  0
LINE
  5
D4
330
1F
100
AcDbEntity
  8
1
  6
Continuous
 62
   155
420
  5010073
370
    13
100
AcDbLine
 10
2422.412384
 20
2338.673077
 30
0.0
 11
2422.564308
 21
2338.673077
 31
0.0
  0
LINE
  5
D5
330
1F
100
AcDbEntity
  8
1
  6
Continuous
 62
   155
420
  5010073
370
    18
100
AcDbLine
 10
2422.412549
 20
2338.373077
 30
0.0
 11
2422.564308
 21
2338.373077
 31
0.0
  0
LINE
  5
D6
330
1F
100
AcDbEntity
  8
1
  6
Continuous
 62
   155
420
  5010073
370
    18
100
AcDbLine
 10
1539.564308
 20
2321.973077
 30
0.0
 11
1539.723722
 21
2321.973077
 31
0.0
  0
LINE
  5
D7
330
1F
100
AcDbEntity
  8
1
  6
Continuous
 62
   155
420
  5010073
370
    18
100
AcDbLine
 10
1539.564308
 20
2338.373077
 30
0.0
 11
1539.723722
 21
2338.373077
 31
0.0
  0
LINE
  5
D8
330
1F
100
AcDbEntity
  8
1
  6
Continuous
 62
   155
420
  5010073
370
    13
100
AcDbLine
 10
2422.412777
 20
2323.673077
 30
0.0
 11
2422.564308
 21
2323.673077
 31
0.0
  0
LINE
  5
D9
330
1F
100
AcDbEntity
  8
1
  6
Continuous
 62
   155
420
  5010073
370
    13
100
AcDbLine
 10
2422.412777
 20
2336.673077
 30
0.0
 11
2422.564308
 21
2336.673077
 31
0.0
  0
LINE
  5
DA
330
1F
100
AcDbEntity
  8
1
  6
Continuous
 62
   155
420
  5010073
370
    18
100
AcDbLine
 10
2422.412704
 20
2336.373077
 30
0.0
 11
2422.564308
 21
2336.373077
 31
0.0
  0
LINE
  5
DB
330
1F
100
AcDbEntity
  8
1
  6
Continuous
 62
   155
420
  5010073
370
    18
100
AcDbLine
 10
2422.412704
 20
2323.973077
 30
0.0
 11
2422.564308
 21
2323.973077
 31
0.0
  0
LINE
  5
DC
330
1F
100
AcDbEntity
  8
1
  6
Continuous
 62
   155
420
  5010073
370
    13
100
AcDbLine
 10
1539.564308
 20
2323.673077
 30
0.0
 11
1539.723676
 21
2323.673077
 31
0.0
  0
LINE
  5
DD
330
1F
100
AcDbEntity
  8
1
  6
Continuous
 62
   155
420
  5010073
370
    18
100
AcDbLine
 10
1539.564308
 20
2323.973077
 30
0.0
 11
1539.723691
 21
2323.973077
 31
0.0
  0
LINE
  5
DE
330
1F
100
AcDbEntity
  8
1
  6
Continuous
 62
   155
420
  5010073
370
    18
100
AcDbLine
 10
1539.564308
 20
2336.373077
 30
0.0
 11
1539.715778
 21
2336.373077
 31
0.0
  0
LINE
  5
DF
330
1F
100
AcDbEntity
  8
1
  6
Continuous
 62
   155
420
  5010073
370
    13
100
AcDbLine
 10
1539.564308
 20
2336.673077
 30
0.0
 11
1539.715744
 21
2336.673077
 31
0.0
  0
LINE
  5
E0
330
1F
100
AcDbEntity
  8
1
  6
Continuous
 62
   155
420
  5010073
370
    13
100
AcDbLine
 10
1761.206772
 20
2345.673077
 30
0.0
 11
2200.921843
 21
2345.673077
 31
0.0
  0
LINE
  5
E1
330
1F
100
AcDbEntity
  8
1
  6
Continuous
 62
   155
420
  5010073
370
    18
100
AcDbLine
 10
2200.964308
 20
2345.794405
 30
0.0
 11
2202.264308
 21
2345.794405
 31
0.0
  0
LINE
  5
E2
330
1F
100
AcDbEntity
  8
1
  6
Continuous
 62
   155
420
  5010073
370
    18
100
AcDbLine
 10
1761.164308
 20
2345.794405
 30
0.0
 11
1761.206772
 21
2345.673077
 31
0.0
  0
LINE
  5
E3
330
1F
100
AcDbEntity
  8
1
  6
Continuous
 62
   155
420
  5010073
370
    18
100
AcDbLine
 10
1759.864308
 20
2345.794405
 30
0.0
 11
1761.164308
 21
2345.794405
 31
0.0
  0
LINE
  5
E4
330
1F
100
AcDbEntity
  8
1
  6
Continuous
 62
   155
420
  5010073
370
    18
100
AcDbLine
 10
1759.864308
 20
2377.173077
 30
0.0
 11
1759.864308
 21
2345.794405
 31
0.0
  0
LINE
  5
E5
330
1F
100
AcDbEntity
  8
1
  6
Continuous
 62
   155
420
  5010073
370
    18
100
AcDbLine
 10
2202.264308
 20
2345.794405
 30
0.0
 11
2202.264308
 21
2377.173077
 31
0.0
  0
LINE
  5
E6
330
1F
100
AcDbEntity
  8
1
  6
Continuous
 62
   155
420
  5010073
370
    18
100
AcDbLine
 10
1759.864308
 20
2377.173077
 30
0.0
 11
2202.264308
 21
2377.173077
 31
0.0
  0
LINE
  5
E7
330
1F
100
AcDbEntity
  8
1
  6
Continuous
 62
   155
420
  5010073
370
    18
100
AcDbLine
 10
2200.921843
 20
2345.673077
 30
0.0
 11
2200.964308
 21
2345.794405
 31
0.0
  0
LINE
  5
E8
330
1F
100
AcDbEntity
  8
1
  6
Continuous
 62
   155
420
  5010073
370
    18
100
AcDbLine
 10
2201.064308
 20
2345.673077
 30
0.0
 11
2202.264308
 21
2345.673077
 31
0.0
  0
LINE
  5
E9
330
1F
100
AcDbEntity
  8
1
  6
Continuous
 62
   155
420
  5010073
370
    18
100
AcDbLine
 10
2202.264308
 20
2345.673077
 30
0.0
 11
2202.264308
 21
2345.794405
 31
0.0
  0
LINE
  5
EA
330
1F
100
AcDbEntity
  8
1
  6
Continuous
 62
   155
420
  5010073
370
    18
100
AcDbLine
 10
2201.064308
 20
2345.673077
 30
0.0
 11
2201.064308
 21
2345.794405
 31
0.0
  0
LINE
  5
EB
330
1F
100
AcDbEntity
  8
1
  6
Continuous
 62
   155
420
  5010073
370
    18
100
AcDbLine
 10
1761.064308
 20
2345.673077
 30
0.0
 11
1759.864308
 21
2345.673077
 31
0.0
  0
LINE
  5
EC
330
1F
100
AcDbEntity
  8
1
  6
Continuous
 62
   155
420
  5010073
370
    18
100
AcDbLine
 10
1759.864308
 20
2345.794405
 30
0.0
 11
1759.864308
 21
2345.673077
 31
0.0
  0
LINE
  5
ED
330
1F
100
AcDbEntity
  8
1
  6
Continuous
 62
   155
420
  5010073
370
    18
100
AcDbLine
 10
1761.064308
 20
2345.794405
 30
0.0
 11
1761.064308
 21
2345.673077
 31
0.0
  0
LINE
  5
EE
330
1F
100
AcDbEntity
  8
1
  6
Continuous
 62
   155
420
  5010073
370
    18
100
AcDbLine
 10
2422.414308
 20
2340.963077
 30
0.0
 11
2422.414308
 21
2340.663077
 31
0.0
  0
LINE
  5
EF
330
1F
100
AcDbEntity
  8
1
  6
Continuous
 62
   155
420
  5010073
370
    13
100
AcDbLine
 10
1539.714308
 20
2340.663077
 30
0.0
 11
2422.414308
 21
2340.663077
 31
0.0
  0
LINE
  5
F0
330
1F
100
AcDbEntity
  8
1
  6
Continuous
 62
   155
420
  5010073
370
    18
100
AcDbLine
 10
1539.714308
 20
2340.963077
 30
0.0
 11
1539.714308
 21
2340.663077
 31
0.0
  0
LINE
  5
F1
330
1F
100
AcDbEntity
  8
1
  6
Continuous
 62
   155
420
  5010073
370
    18
100
AcDbLine
 10
1539.714308
 20
2340.963077
 30
0.0
 11
2422.414308
 21
2340.963077
 31
0.0
  0
LINE
  5
F2
330
1F
100
AcDbEntity
  8
1
  6
Continuous
 62
   155
420
  5010073
370
    18
100
AcDbLine
 10
2422.414308
 20
2319.383077
 30
0.0
 11
2422.414308
 21
2319.683077
 31
0.0
  0
LINE
  5
F3
330
1F
100
AcDbEntity
  8
1
  6
Continuous
 62
   155
420
  5010073
370
    18
100
AcDbLine
 10
1539.714308
 20
2319.383077
 30
0.0
 11
2422.414308
 21
2319.383077
 31
0.0
  0
LINE
  5
F4
330
1F
100
AcDbEntity
  8
1
  6
Continuous
 62
   155
420
  5010073
370
    18
100
AcDbLine
 10
1539.714308
 20
2319.383077
 30
0.0
 11
1539.714308
 21
2319.683077
 31
0.0
  0
LINE
  5
F5
330
1F
100
AcDbEntity
  8
1
  6
Continuous
 62
   155
420
  5010073
370
    13
100
AcDbLine
 10
1539.714308
 20
2319.683077
 30
0.0
 11
2422.414308
 21
2319.683077
 31
0.0
  0
LINE
  5
F6
330
1F
100
AcDbEntity
  8
1
  6
Continuous
 62
   155
420
  5010073
370
    18
100
AcDbLine
 10
2422.414308
 20
2340.663077
 30
0.0
 11
2422.414308
 21
2319.683077
 31
0.0
  0
LINE
  5
F7
330
1F
100
AcDbEntity
  8
1
  6
Continuous
 62
   155
420
  5010073
370
    18
100
AcDbLine
 10
1539.714308
 20
2340.663077
 30
0.0
 11
1539.714308
 21
2319.683077
 31
0.0
  0
LINE
  5
F8
330
1F
100
AcDbEntity
  8
1
  6
Continuous
 62
   155
420
  5010073
370
    18
100
AcDbLine
 10
1549.714308
 20
2340.963077
 30
0.0
 11
1549.714308
 21
2341.173072
 31
0.0
  0
LINE
  5
F9
330
1F
100
AcDbEntity
  8
1
  6
Continuous
 62
   155
420
  5010073
370
    18
100
AcDbLine
 10
1539.714308
 20
2341.173072
 30
0.0
 11
1539.714308
 21
2340.963077
 31
0.0
  0
LINE
  5
FA
330
1F
100
AcDbEntity
  8
1
  6
Continuous
 62
   155
420
  5010073
370
    18
100
AcDbLine
 10
1549.714308
 20
2319.383077
 30
0.0
 11
1549.714308
 21
2319.173082
 31
0.0
  0
LINE
  5
FB
330
1F
100
AcDbEntity
  8
1
  6
Continuous
 62
   155
420
  5010073
370
    18
100
AcDbLine
 10
1539.714308
 20
2319.383077
 30
0.0
 11
1539.714308
 21
2319.173082
 31
0.0
  0
LINE
  5
FC
330
1F
100
AcDbEntity
  8
1
  6
Continuous
 62
   155
420
  5010073
370
    18
100
AcDbLine
 10
2412.414308
 20
2340.963077
 30
0.0
 11
2412.414308
 21
2341.173072
 31
0.0
  0
LINE
  5
FD
330
1F
100
AcDbEntity
  8
1
  6
Continuous
 62
   155
420
  5010073
370
    18
100
AcDbLine
 10
2422.414308
 20
2341.173072
 30
0.0
 11
2422.414308
 21
2340.963077
 31
0.0
  0
LINE
  5
FE
330
1F
100
AcDbEntity
  8
1
  6
Continuous
 62
   155
420
  5010073
370
    18
100
AcDbLine
 10
2412.414308
 20
2319.383077
 30
0.0
 11
2412.414308
 21
2319.173082
 31
0.0
  0
LINE
  5
FF
330
1F
100
AcDbEntity
  8
1
  6
Continuous
 62
   155
420
  5010073
370
    18
100
AcDbLine
 10
2422.414308
 20
2319.383077
 30
0.0
 11
2422.414308
 21
2319.173082
 31
0.0
  0
LINE
  5
100
330
1F
100
AcDbEntity
  8
1
  6
Continuous
 62
   155
420
  5010073
370
    18
100
AcDbLine
 10
1569.714308
 20
2340.963077
 30
0.0
 11
1569.714308
 21
2341.173072
 31
0.0
  0
LINE
  5
101
330
1F
100
AcDbEntity
  8
1
  6
Continuous
 62
   155
420
  5010073
370
    18
100
AcDbLine
 10
2392.414308
 20
2340.963077
 30
0.0
 11
2392.414308
 21
2341.173072
 31
0.0
  0
LINE
  5
102
330
1F
100
AcDbEntity
  8
1
  6
Continuous
 62
   155
420
  5010073
370
    18
100
AcDbLine
 10
1569.714308
 20
2319.383077
 30
0.0
 11
1569.714308
 21
2319.173082
 31
0.0
  0
LINE
  5
103
330
1F
100
AcDbEntity
  8
1
  6
Continuous
 62
   155
420
  5010073
370
    18
100
AcDbLine
 10
2392.414308
 20
2319.383077
 30
0.0
 11
2392.414308
 21
2319.173082
 31
0.0
  0
LINE
  5
104
330
1F
100
AcDbEntity
  8
1
  6
Continuous
 62
   155
420
  5010073
370
    18
100
AcDbLine
 10
1539.564308
 20
2343.173077
 30
0.0
 11
1539.564308
 21
2317.173077
 31
0.0
  0
LINE
  5
105
330
1F
100
AcDbEntity
  8
1
  6
Continuous
 62
   155
420
  5010073
370
    18
100
AcDbLine
 10
1537.064308
 20
2343.173077
 30
0.0
 11
1537.064308
 21
2317.173077
 31
0.0
  0
LINE
  5
106
330
1F
100
AcDbEntity
  8
1
  6
Continuous
 62
   155
420
  5010073
370
    13
100
AcDbLine
 10
1539.564308
 20
2343.173077
 30
0.0
 11
1537.064308
 21
2343.173077
 31
0.0
  0
LINE
  5
107
330
1F
100
AcDbEntity
  8
1
  6
Continuous
 62
   155
420
  5010073
370
    18
100
AcDbLine
 10
1537.064308
 20
2343.673077
 30
0.0
 11
1539.564308
 21
2343.673077
 31
0.0
  0
LINE
  5
108
330
1F
100
AcDbEntity
  8
1
  6
Continuous
 62
   155
420
  5010073
370
    18
100
AcDbLine
 10
1539.564308
 20
2343.673077
 30
0.0
 11
1539.564308
 21
2343.173077
 31
0.0
  0
LINE
  5
109
330
1F
100
AcDbEntity
  8
1
  6
Continuous
 62
   155
420
  5010073
370
    18
100
AcDbLine
 10
1537.064308
 20
2343.173077
 30
0.0
 11
1537.064308
 21
2343.673077
 31
0.0
  0
LINE
  5
10A
330
1F
100
AcDbEntity
  8
1
  6
Continuous
 62
   155
420
  5010073
370
    18
100
AcDbLine
 10
1539.564308
 20
2316.673077
 30
0.0
 11
1537.064308
 21
2316.673077
 31
0.0
  0
LINE
  5
10B
330
1F
100
AcDbEntity
  8
1
  6
Continuous
 62
   155
420
  5010073
370
    13
100
AcDbLine
 10
1537.064308
 20
2317.173077
 30
0.0
 11
1539.564308
 21
2317.173077
 31
0.0
  0
LINE
  5
10C
330
1F
100
AcDbEntity
  8
1
  6
Continuous
 62
   155
420
  5010073
370
    18
100
AcDbLine
 10
1539.564308
 20
2316.673077
 30
0.0
 11
1539.564308
 21
2317.173077
 31
0.0
  0
LINE
  5
10D
330
1F
100
AcDbEntity
  8
1
  6
Continuous
 62
   155
420
  5010073
370
    18
100
AcDbLine
 10
1537.064308
 20
2316.673077
 30
0.0
 11
1537.064308
 21
2317.173077
 31
0.0
  0
LINE
  5
10E
330
1F
100
AcDbEntity
  8
1
  6
Continuous
 62
   155
420
  5010073
370
    13
100
AcDbLine
 10
2425.064308
 20
2343.173077
 30
0.0
 11
2422.564308
 21
2343.173077
 31
0.0
  0
LINE
  5
10F
330
1F
100
AcDbEntity
  8
1
  6
Continuous
 62
   155
420
  5010073
370
    18
100
AcDbLine
 10
2422.564308
 20
2343.673077
 30
0.0
 11
2425.064308
 21
2343.673077
 31
0.0
  0
LINE
  5
110
330
1F
100
AcDbEntity
  8
1
  6
Continuous
 62
   155
420
  5010073
370
    18
100
AcDbLine
 10
2425.064308
 20
2343.673077
 30
0.0
 11
2425.064308
 21
2343.173077
 31
0.0
  0
LINE
  5
111
330
1F
100
AcDbEntity
  8
1
  6
Continuous
 62
   155
420
  5010073
370
    18
100
AcDbLine
 10
2422.564308
 20
2343.173077
 30
0.0
 11
2422.564308
 21
2343.673077
 31
0.0
  0
LINE
  5
112
330
1F
100
AcDbEntity
  8
1
  6
Continuous
 62
   155
420
  5010073
370
    18
100
AcDbLine
 10
2425.064308
 20
2316.673077
 30
0.0
 11
2422.564308
 21
2316.673077
 31
0.0
  0
LINE
  5
113
330
1F
100
AcDbEntity
  8
1
  6
Continuous
 62
   155
420
  5010073
370
    13
100
AcDbLine
 10
2422.564308
 20
2317.173077
 30
0.0
 11
2425.064308
 21
2317.173077
 31
0.0
  0
LINE
  5
114
330
1F
100
AcDbEntity
  8
1
  6
Continuous
 62
   155
420
  5010073
370
    18
100
AcDbLine
 10
2425.064308
 20
2316.673077
 30
0.0
 11
2425.064308
 21
2317.173077
 31
0.0
  0
LINE
  5
115
330
1F
100
AcDbEntity
  8
1
  6
Continuous
 62
   155
420
  5010073
370
    18
100
AcDbLine
 10
2422.564308
 20
2316.673077
 30
0.0
 11
2422.564308
 21
2317.173077
 31
0.0
  0
LINE
  5
116
330
1F
100
AcDbEntity
  8
1
  6
Continuous
 62
   155
420
  5010073
370
    18
100
AcDbLine
 10
2425.064308
 20
2343.173077
 30
0.0
 11
2425.064308
 21
2317.173077
 31
0.0
  0
LINE
  5
117
330
1F
100
AcDbEntity
  8
1
  6
Continuous
 62
   155
420
  5010073
370
    18
100
AcDbLine
 10
2422.564308
 20
2343.173077
 30
0.0
 11
2422.564308
 21
2317.173077
 31
0.0
  0
LINE
  5
118
330
1F
100
AcDbEntity
  8
1
  6
Continuous
 62
   155
420
  5010073
370
    13
100
AcDbLine
 10
1539.564308
 20
2343.173077
 30
0.0
 11
2422.564308
 21
2343.173077
 31
0.0
  0
LINE
  5
119
330
1F
100
AcDbEntity
  8
1
  6
Continuous
 62
   155
420
  5010073
370
    18
100
AcDbLine
 10
1539.564308
 20
2343.173077
 30
0.0
 11
1539.564308
 21
2343.673077
 31
0.0
  0
LINE
  5
11A
330
1F
100
AcDbEntity
  8
1
  6
Continuous
 62
   155
420
  5010073
370
    18
100
AcDbLine
 10
1539.564308
 20
2343.673077
 30
0.0
 11
2422.564308
 21
2343.673077
 31
0.0
  0
LINE
  5
11B
330
1F
100
AcDbEntity
  8
1
  6
Continuous
 62
   155
420
  5010073
370
    18
100
AcDbLine
 10
2422.564308
 20
2343.173077
 30
0.0
 11
2422.564308
 21
2343.673077
 31
0.0
  0
LINE
  5
11C
330
1F
100
AcDbEntity
  8
1
  6
Continuous
 62
   155
420
  5010073
370
    13
100
AcDbLine
 10
1539.564308
 20
2318.873077
 30
0.0
 11
2422.564308
 21
2318.873077
 31
0.0
  0
LINE
  5
11D
330
1F
100
AcDbEntity
  8
1
  6
Continuous
 62
   155
420
  5010073
370
    18
100
AcDbLine
 10
1539.564308
 20
2319.173077
 30
0.0
 11
2422.564308
 21
2319.173077
 31
0.0
  0
LINE
  5
11E
330
1F
100
AcDbEntity
  8
1
  6
Continuous
 62
   155
420
  5010073
370
    18
100
AcDbLine
 10
1539.564308
 20
2316.673077
 30
0.0
 11
2422.564308
 21
2316.673077
 31
0.0
  0
LINE
  5
11F
330
1F
100
AcDbEntity
  8
1
  6
Continuous
 62
   155
420
  5010073
370
    18
100
AcDbLine
 10
1539.564308
 20
2316.673077
 30
0.0
 11
1539.564308
 21
2317.173077
 31
0.0
  0
LINE
  5
120
330
1F
100
AcDbEntity
  8
1
  6
Continuous
 62
   155
420
  5010073
370
    18
100
AcDbLine
 10
1393.547341
 20
2316.673077
 30
0.0
 11
1446.547341
 21
2316.673077
 31
0.0
  0
LINE
  5
121
330
1F
100
AcDbEntity
  8
1
  6
Continuous
 62
   155
420
  5010073
370
    18
100
AcDbLine
 10
1393.047341
 20
2343.173077
 30
0.0
 11
1393.047341
 21
2317.173077
 31
0.0
  0
LINE
  5
122
330
1F
100
AcDbEntity
  8
1
  6
Continuous
 62
   155
420
  5010073
370
    18
100
AcDbLine
 10
1447.047341
 20
2317.173077
 30
0.0
 11
1447.047341
 21
2343.173077
 31
0.0
  0
LINE
  5
123
330
1F
100
AcDbEntity
  8
1
  6
Continuous
 62
   155
420
  5010073
370
    18
100
AcDbLine
 10
1446.547341
 20
2343.673077
 30
0.0
 11
1393.547341
 21
2343.673077
 31
0.0
  0
LINE
  5
124
330
1F
100
AcDbEntity
  8
1
  6
Continuous
 62
   155
420
  5010073
370
    18
100
AcDbLine
 10
1437.947341
 20
2345.794405
 30
0.0
 11
1437.904876
 21
2345.673077
 31
0.0
  0
LINE
  5
125
330
1F
100
AcDbEntity
  8
1
  6
Continuous
 62
   155
420
  5010073
370
    13
100
AcDbLine
 10
1402.189805
 20
2345.673077
 30
0.0
 11
1437.904876
 21
2345.673077
 31
0.0
  0
LINE
  5
126
330
1F
100
AcDbEntity
  8
1
  6
Continuous
 62
   155
420
  5010073
370
    18
100
AcDbLine
 10
1402.147341
 20
2345.794405
 30
0.0
 11
1402.147341
 21
2377.173077
 31
0.0
  0
LINE
  5
127
330
1F
100
AcDbEntity
  8
1
  6
Continuous
 62
   155
420
  5010073
370
    18
100
AcDbLine
 10
1402.147341
 20
2377.173077
 30
0.0
 11
1437.947341
 21
2377.173077
 31
0.0
  0
LINE
  5
128
330
1F
100
AcDbEntity
  8
1
  6
Continuous
 62
   155
420
  5010073
370
    18
100
AcDbLine
 10
1437.947341
 20
2377.173077
 30
0.0
 11
1437.947341
 21
2345.794405
 31
0.0
  0
LINE
  5
129
330
1F
100
AcDbEntity
  8
1
  6
Continuous
 62
   155
420
  5010073
370
    18
100
AcDbLine
 10
1402.189805
 20
2345.673077
 30
0.0
 11
1402.147341
 21
2345.794405
 31
0.0
  0
LINE
  5
12A
330
1F
100
AcDbEntity
  8
1
  6
Continuous
 62
   155
420
  5010073
370
    18
100
AcDbLine
 10
1438.047341
 20
2377.173077
 30
0.0
 11
1439.247341
 21
2377.173077
 31
0.0
  0
LINE
  5
12B
330
1F
100
AcDbEntity
  8
1
  6
Continuous
 62
   155
420
  5010073
370
    18
100
AcDbLine
 10
1438.047341
 20
2345.794405
 30
0.0
 11
1438.047341
 21
2377.173077
 31
0.0
  0
LINE
  5
12C
330
1F
100
AcDbEntity
  8
1
  6
Continuous
 62
   155
420
  5010073
370
    18
100
AcDbLine
 10
1439.247341
 20
2377.173077
 30
0.0
 11
1439.247341
 21
2345.794405
 31
0.0
  0
LINE
  5
12D
330
1F
100
AcDbEntity
  8
1
  6
Continuous
 62
   155
420
  5010073
370
    18
100
AcDbLine
 10
1400.847341
 20
2345.794405
 30
0.0
 11
1400.847341
 21
2377.173077
 31
0.0
  0
LINE
  5
12E
330
1F
100
AcDbEntity
  8
1
  6
Continuous
 62
   155
420
  5010073
370
    18
100
AcDbLine
 10
1402.047341
 20
2345.794405
 30
0.0
 11
1400.847341
 21
2345.794405
 31
0.0
  0
LINE
  5
12F
330
1F
100
AcDbEntity
  8
1
  6
Continuous
 62
   155
420
  5010073
370
    18
100
AcDbLine
 10
1400.847341
 20
2377.173077
 30
0.0
 11
1402.047341
 21
2377.173077
 31
0.0
  0
LINE
  5
130
330
1F
100
AcDbEntity
  8
1
  6
Continuous
 62
   155
420
  5010073
370
    18
100
AcDbLine
 10
1402.047341
 20
2377.173077
 30
0.0
 11
1402.047341
 21
2345.794405
 31
0.0
  0
LINE
  5
131
330
1F
100
AcDbEntity
  8
1
  6
Continuous
 62
   155
420
  5010073
370
    18
100
AcDbLine
 10
1438.047341
 20
2345.673077
 30
0.0
 11
1439.247341
 21
2345.673077
 31
0.0
  0
LINE
  5
132
330
1F
100
AcDbEntity
  8
1
  6
Continuous
 62
   155
420
  5010073
370
    18
100
AcDbLine
 10
1438.047341
 20
2345.794405
 30
0.0
 11
1438.047341
 21
2345.673077
 31
0.0
  0
LINE
  5
133
330
1F
100
AcDbEntity
  8
1
  6
Continuous
 62
   155
420
  5010073
370
    18
100
AcDbLine
 10
1439.247341
 20
2345.794405
 30
0.0
 11
1439.247341
 21
2345.673077
 31
0.0
  0
LINE
  5
134
330
1F
100
AcDbEntity
  8
1
  6
Continuous
 62
   155
420
  5010073
370
    18
100
AcDbLine
 10
1402.047341
 20
2345.673077
 30
0.0
 11
1400.847341
 21
2345.673077
 31
0.0
  0
LINE
  5
135
330
1F
100
AcDbEntity
  8
1
  6
Continuous
 62
   155
420
  5010073
370
    18
100
AcDbLine
 10
1400.847341
 20
2345.673077
 30
0.0
 11
1400.847341
 21
2345.794405
 31
0.0
  0
LINE
  5
136
330
1F
100
AcDbEntity
  8
1
  6
Continuous
 62
   155
420
  5010073
370
    18
100
AcDbLine
 10
1402.047341
 20
2345.673077
 30
0.0
 11
1402.047341
 21
2345.794405
 31
0.0
  0
LINE
  5
137
330
1F
100
AcDbEntity
  8
1
  6
Continuous
 62
   155
420
  5010073
370
    18
100
AcDbLine
 10
1439.247341
 20
2345.794405
 30
0.0
 11
1438.047341
 21
2345.794405
 31
0.0
  0
LINE
  5
138
330
1F
100
AcDbEntity
  8
1
  6
Continuous
 62
   155
420
  5010073
370
    13
100
AcDbLine
 10
454.406593
 20
2181.581758
 30
0.0
 11
456.906593
 21
2181.581758
 31
0.0
  0
LINE
  5
139
330
1F
100
AcDbEntity
  8
1
  6
Continuous
 62
   155
420
  5010073
370
    18
100
AcDbLine
 10
456.906593
 20
2181.581758
 30
0.0
 11
456.906593
 21
2181.081758
 31
0.0
  0
LINE
  5
13A
330
1F
100
AcDbEntity
  8
1
  6
Continuous
 62
   155
420
  5010073
370
    18
100
AcDbLine
 10
456.906593
 20
2181.081758
 30
0.0
 11
454.406593
 21
2181.081758
 31
0.0
  0
LINE
  5
13B
330
1F
100
AcDbEntity
  8
1
  6
Continuous
 62
   155
420
  5010073
370
    18
100
AcDbLine
 10
454.406593
 20
2181.081758
 30
0.0
 11
454.406593
 21
2181.581758
 31
0.0
  0
LINE
  5
13C
330
1F
100
AcDbEntity
  8
1
  6
Continuous
 62
   155
420
  5010073
370
    13
100
AcDbLine
 10
456.906593
 20
2234.581758
 30
0.0
 11
454.406593
 21
2234.581758
 31
0.0
  0
LINE
  5
13D
330
1F
100
AcDbEntity
  8
1
  6
Continuous
 62
   155
420
  5010073
370
    18
100
AcDbLine
 10
454.406593
 20
2181.581758
 30
0.0
 11
454.406593
 21
2234.581758
 31
0.0
  0
LINE
  5
13E
330
1F
100
AcDbEntity
  8
1
  6
Continuous
 62
   155
420
  5010073
370
    18
100
AcDbLine
 10
456.906593
 20
2181.581758
 30
0.0
 11
456.906593
 21
2234.581758
 31
0.0
  0
LINE
  5
13F
330
1F
100
AcDbEntity
  8
1
  6
Continuous
 62
   155
420
  5010073
370
    18
100
AcDbLine
 10
454.406593
 20
2235.081758
 30
0.0
 11
456.906593
 21
2235.081758
 31
0.0
  0
LINE
  5
140
330
1F
100
AcDbEntity
  8
1
  6
Continuous
 62
   155
420
  5010073
370
    18
100
AcDbLine
 10
454.406593
 20
2234.581758
 30
0.0
 11
454.406593
 21
2235.081758
 31
0.0
  0
LINE
  5
141
330
1F
100
AcDbEntity
  8
1
  6
Continuous
 62
   155
420
  5010073
370
    18
100
AcDbLine
 10
456.906593
 20
2235.081758
 30
0.0
 11
456.906593
 21
2234.581758
 31
0.0
  0
LINE
  5
142
330
1F
100
AcDbEntity
  8
1
  6
Continuous
 62
   155
420
  5010073
370
    13
100
AcDbLine
 10
1339.906593
 20
2181.581758
 30
0.0
 11
456.906593
 21
2181.581758
 31
0.0
  0
LINE
  5
143
330
1F
100
AcDbEntity
  8
1
  6
Continuous
 62
   155
420
  5010073
370
    18
100
AcDbLine
 10
1339.906593
 20
2181.581758
 30
0.0
 11
1339.906593
 21
2181.081758
 31
0.0
  0
LINE
  5
144
330
1F
100
AcDbEntity
  8
1
  6
Continuous
 62
   155
420
  5010073
370
    18
100
AcDbLine
 10
1339.906593
 20
2181.081758
 30
0.0
 11
456.906593
 21
2181.081758
 31
0.0
  0
LINE
  5
145
330
1F
100
AcDbEntity
  8
1
  6
Continuous
 62
   155
420
  5010073
370
    18
100
AcDbLine
 10
456.906593
 20
2181.581758
 30
0.0
 11
456.906593
 21
2181.081758
 31
0.0
  0
LINE
  5
146
330
1F
100
AcDbEntity
  8
1
  6
Continuous
 62
   155
420
  5010073
370
    13
100
AcDbLine
 10
1339.906593
 20
2234.581758
 30
0.0
 11
456.906593
 21
2234.581758
 31
0.0
  0
LINE
  5
147
330
1F
100
AcDbEntity
  8
1
  6
Continuous
 62
   155
420
  5010073
370
    18
100
AcDbLine
 10
1339.906593
 20
2234.581758
 30
0.0
 11
1339.906593
 21
2181.581758
 31
0.0
  0
LINE
  5
148
330
1F
100
AcDbEntity
  8
1
  6
Continuous
 62
   155
420
  5010073
370
    18
100
AcDbLine
 10
456.906593
 20
2234.581758
 30
0.0
 11
456.906593
 21
2181.581758
 31
0.0
  0
LINE
  5
149
330
1F
100
AcDbEntity
  8
1
  6
Continuous
 62
   155
420
  5010073
370
    18
100
AcDbLine
 10
1339.906593
 20
2235.081758
 30
0.0
 11
456.906593
 21
2235.081758
 31
0.0
  0
LINE
  5
14A
330
1F
100
AcDbEntity
  8
1
  6
Continuous
 62
   155
420
  5010073
370
    18
100
AcDbLine
 10
456.906593
 20
2235.081758
 30
0.0
 11
456.906593
 21
2234.581758
 31
0.0
  0
LINE
  5
14B
330
1F
100
AcDbEntity
  8
1
  6
Continuous
 62
   155
420
  5010073
370
    18
100
AcDbLine
 10
1339.906593
 20
2235.081758
 30
0.0
 11
1339.906593
 21
2234.581758
 31
0.0
  0
LINE
  5
14C
330
1F
100
AcDbEntity
  8
1
  6
Continuous
 62
   155
420
  5010073
370
    18
100
AcDbLine
 10
777.750322
 20
2207.382848
 30
0.0
 11
777.746727
 21
2207.382848
 31
0.0
  0
LINE
  5
14D
330
1F
100
AcDbEntity
  8
1
  6
Continuous
 62
   155
420
  5010073
370
    18
100
AcDbLine
 10
1051.065496
 20
2207.382848
 30
0.0
 11
1051.064006
 21
2207.382848
 31
0.0
  0
LINE
  5
14E
330
1F
100
AcDbEntity
  8
1
  6
Continuous
 62
   155
420
  5010073
370
    13
100
AcDbLine
 10
780.742871
 20
2206.868874
 30
0.0
 11
778.087891
 21
2206.868874
 31
0.0
  0
LINE
  5
14F
330
1F
100
AcDbEntity
  8
1
  6
Continuous
 62
   155
420
  5010073
370
    13
100
AcDbLine
 10
1050.730343
 20
2206.868874
 30
0.0
 11
1048.075364
 21
2206.868874
 31
0.0
  0
LINE
  5
150
330
1F
100
AcDbEntity
  8
1
  6
Continuous
 62
   155
420
  5010073
370
    18
100
AcDbLine
 10
781.071204
 20
2207.382848
 30
0.0
 11
777.752609
 21
2207.382848
 31
0.0
  0
LINE
  5
151
330
1F
100
AcDbEntity
  8
1
  6
Continuous
 62
   155
420
  5010073
370
    18
100
AcDbLine
 10
1051.063405
 20
2207.382848
 30
0.0
 11
1047.744811
 21
2207.382848
 31
0.0
  0
LINE
  5
152
330
1F
100
AcDbEntity
  8
1
  6
Continuous
 62
   155
420
  5010073
370
    18
100
AcDbLine
 10
780.843422
 20
2209.181075
 30
0.0
 11
777.987468
 21
2209.181075
 31
0.0
  0
LINE
  5
153
330
1F
100
AcDbEntity
  8
1
  6
Continuous
 62
   155
420
  5010073
370
    18
100
AcDbLine
 10
1050.820672
 20
2209.181075
 30
0.0
 11
1047.978515
 21
2209.181075
 31
0.0
  0
LINE
  5
154
330
1F
100
AcDbEntity
  8
1
  6
Continuous
 62
   155
420
  5010073
370
    18
100
AcDbLine
 10
1101.827718
 20
2209.181075
 30
0.0
 11
1101.648359
 21
2209.181075
 31
0.0
  0
LINE
  5
155
330
1F
100
AcDbEntity
  8
1
  6
Continuous
 62
   155
420
  5010073
370
    13
100
AcDbLine
 10
781.146953
 20
2208.551665
 30
0.0
 11
777.67014
 21
2208.551665
 31
0.0
  0
LINE
  5
156
330
1F
100
AcDbEntity
  8
1
  6
Continuous
 62
   155
420
  5010073
370
    13
100
AcDbLine
 10
1051.138
 20
2208.551665
 30
0.0
 11
1047.661187
 21
2208.551665
 31
0.0
  0
LINE
  5
157
330
1F
100
AcDbEntity
  8
1
  6
Continuous
 62
   155
420
  5010073
370
    13
100
AcDbLine
 10
781.20214
 20
2208.252642
 30
0.0
 11
777.614953
 21
2208.252642
 31
0.0
  0
LINE
  5
158
330
1F
100
AcDbEntity
  8
1
  6
Continuous
 62
   155
420
  5010073
370
    13
100
AcDbLine
 10
1051.193187
 20
2208.252642
 30
0.0
 11
1047.606
 21
2208.252642
 31
0.0
  0
LINE
  5
159
330
1F
100
AcDbEntity
  8
1
  6
Continuous
 62
   155
420
  5010073
370
    18
100
AcDbLine
 10
1047.606
 20
2208.030288
 30
0.0
 11
1051.193187
 21
2208.030288
 31
0.0
  0
LINE
  5
15A
330
1F
100
AcDbEntity
  8
1
  6
Continuous
 62
   155
420
  5010073
370
    18
100
AcDbLine
 10
777.614953
 20
2208.030288
 30
0.0
 11
781.215937
 21
2208.030288
 31
0.0
  0
LINE
  5
15B
330
1F
100
AcDbEntity
  8
1
  6
Continuous
 62
   155
420
  5010073
370
    13
100
AcDbLine
 10
780.553687
 20
2209.477343
 30
0.0
 11
778.277203
 21
2209.477343
 31
0.0
  0
LINE
  5
15C
330
1F
100
AcDbEntity
  8
1
  6
Continuous
 62
   155
420
  5010073
370
    13
100
AcDbLine
 10
1050.530937
 20
2209.477343
 30
0.0
 11
1048.26825
 21
2209.477343
 31
0.0
  0
LINE
  5
15D
330
1F
100
AcDbEntity
  8
1
  6
Continuous
 62
   155
420
  5010073
370
    13
100
AcDbLine
 10
1101.537984
 20
2209.477343
 30
0.0
 11
1101.524187
 21
2209.477343
 31
0.0
  0
LINE
  5
15E
330
1F
100
AcDbEntity
  8
1
  6
Continuous
 62
   155
420
  5010073
370
    18
100
AcDbLine
 10
677.206593
 20
2190.181758
 30
0.0
 11
678.406593
 21
2190.181758
 31
0.0
  0
LINE
  5
15F
330
1F
100
AcDbEntity
  8
1
  6
Continuous
 62
   155
420
  5010073
370
    18
100
AcDbLine
 10
677.206593
 20
2225.981758
 30
0.0
 11
677.206593
 21
2190.181758
 31
0.0
  0
LINE
  5
160
330
1F
100
AcDbEntity
  8
1
  6
Continuous
 62
   155
420
  5010073
370
    18
100
AcDbLine
 10
678.406593
 20
2225.981758
 30
0.0
 11
677.206593
 21
2225.981758
 31
0.0
  0
LINE
  5
161
330
1F
100
AcDbEntity
  8
1
  6
Continuous
 62
   155
420
  5010073
370
    18
100
AcDbLine
 10
678.406593
 20
2225.981758
 30
0.0
 11
678.406593
 21
2190.181758
 31
0.0
  0
LINE
  5
162
330
1F
100
AcDbEntity
  8
1
  6
Continuous
 62
   155
420
  5010073
370
    18
100
AcDbLine
 10
1119.606593
 20
2226.081758
 30
0.0
 11
1119.606593
 21
2227.281758
 31
0.0
  0
LINE
  5
163
330
1F
100
AcDbEntity
  8
1
  6
Continuous
 62
   155
420
  5010073
370
    18
100
AcDbLine
 10
1119.606593
 20
2226.081758
 30
0.0
 11
677.206593
 21
2226.081758
 31
0.0
  0
LINE
  5
164
330
1F
100
AcDbEntity
  8
1
  6
Continuous
 62
   155
420
  5010073
370
    18
100
AcDbLine
 10
677.206593
 20
2227.281758
 30
0.0
 11
677.206593
 21
2226.081758
 31
0.0
  0
LINE
  5
165
330
1F
100
AcDbEntity
  8
1
  6
Continuous
 62
   155
420
  5010073
370
    18
100
AcDbLine
 10
1119.606593
 20
2227.281758
 30
0.0
 11
677.206593
 21
2227.281758
 31
0.0
  0
LINE
  5
166
330
1F
100
AcDbEntity
  8
1
  6
Continuous
 62
   155
420
  5010073
370
    18
100
AcDbLine
 10
1118.406593
 20
2190.181758
 30
0.0
 11
1118.406593
 21
2225.981758
 31
0.0
  0
LINE
  5
167
330
1F
100
AcDbEntity
  8
1
  6
Continuous
 62
   155
420
  5010073
370
    13
100
AcDbLine
 10
1101.906593
 20
2200.408104
 30
0.0
 11
1093.406593
 21
2200.408104
 31
0.0
  0
LINE
  5
168
330
1F
100
AcDbEntity
  8
1
  6
Continuous
 62
   155
420
  5010073
370
    18
100
AcDbLine
 10
1093.406593
 20
2200.408104
 30
0.0
 11
1093.406593
 21
2202.034449
 31
0.0
  0
LINE
  5
169
330
1F
100
AcDbEntity
  8
1
  6
Continuous
 62
   155
420
  5010073
370
    18
100
AcDbLine
 10
1101.906593
 20
2200.408104
 30
0.0
 11
1101.906593
 21
2202.034449
 31
0.0
  0
LINE
  5
16A
330
1F
100
AcDbEntity
  8
1
  6
Continuous
 62
   155
420
  5010073
370
    18
100
AcDbLine
 10
686.906593
 20
2190.581758
 30
0.0
 11
686.906593
 21
2197.081758
 31
0.0
  0
LINE
  5
16B
330
1F
100
AcDbEntity
  8
1
  6
Continuous
 62
   155
420
  5010073
370
    18
100
AcDbLine
 10
689.206593
 20
2197.081758
 30
0.0
 11
686.906593
 21
2197.081758
 31
0.0
  0
LINE
  5
16C
330
1F
100
AcDbEntity
  8
1
  6
Continuous
 62
   155
420
  5010073
370
    18
100
AcDbLine
 10
686.906593
 20
2190.581758
 30
0.0
 11
689.206593
 21
2190.581758
 31
0.0
  0
LINE
  5
16D
330
1F
100
AcDbEntity
  8
1
  6
Continuous
 62
   155
420
  5010073
370
    18
100
AcDbLine
 10
701.906593
 20
2193.217797
 30
0.0
 11
696.406593
 21
2193.217797
 31
0.0
  0
LINE
  5
16E
330
1F
100
AcDbEntity
  8
1
  6
Continuous
 62
   155
420
  5010073
370
    18
100
AcDbLine
 10
694.906593
 20
2200.408104
 30
0.0
 11
694.906593
 21
2194.278457
 31
0.0
  0
LINE
  5
16F
330
1F
100
AcDbEntity
  8
1
  6
Continuous
 62
   155
420
  5010073
370
    18
100
AcDbLine
 10
703.406593
 20
2200.408104
 30
0.0
 11
703.406593
 21
2194.278457
 31
0.0
  0
LINE
  5
170
330
1F
100
AcDbEntity
  8
1
  6
Continuous
 62
   155
420
  5010073
370
    18
100
AcDbLine
 10
1100.406593
 20
2193.217797
 30
0.0
 11
1094.906593
 21
2193.217797
 31
0.0
  0
LINE
  5
171
330
1F
100
AcDbEntity
  8
1
  6
Continuous
 62
   155
420
  5010073
370
    18
100
AcDbLine
 10
1093.406593
 20
2194.278457
 30
0.0
 11
1093.406593
 21
2200.408104
 31
0.0
  0
LINE
  5
172
330
1F
100
AcDbEntity
  8
1
  6
Continuous
 62
   155
420
  5010073
370
    18
100
AcDbLine
 10
1101.906593
 20
2194.278457
 30
0.0
 11
1101.906593
 21
2200.408104
 31
0.0
  0
LINE
  5
173
330
1F
100
AcDbEntity
  8
1
  6
Continuous
 62
   155
420
  5010073
370
    18
100
AcDbLine
 10
1119.606593
 20
2190.181758
 30
0.0
 11
1119.606593
 21
2225.981758
 31
0.0
  0
LINE
  5
174
330
1F
100
AcDbEntity
  8
1
  6
Continuous
 62
   155
420
  5010073
370
    18
100
AcDbLine
 10
1118.406593
 20
2190.181758
 30
0.0
 11
1119.606593
 21
2190.181758
 31
0.0
  0
LINE
  5
175
330
1F
100
AcDbEntity
  8
1
  6
Continuous
 62
   155
420
  5010073
370
    18
100
AcDbLine
 10
1119.606593
 20
2225.981758
 30
0.0
 11
1118.406593
 21
2225.981758
 31
0.0
  0
LINE
  5
176
330
1F
100
AcDbEntity
  8
1
  6
Continuous
 62
   155
420
  5010073
370
    18
100
AcDbLine
 10
677.206593
 20
2190.081758
 30
0.0
 11
677.206593
 21
2188.881758
 31
0.0
  0
LINE
  5
177
330
1F
100
AcDbEntity
  8
1
  6
Continuous
 62
   155
420
  5010073
370
    18
100
AcDbLine
 10
677.206593
 20
2190.081758
 30
0.0
 11
1119.606593
 21
2190.081758
 31
0.0
  0
LINE
  5
178
330
1F
100
AcDbEntity
  8
1
  6
Continuous
 62
   155
420
  5010073
370
    18
100
AcDbLine
 10
1119.606593
 20
2188.881758
 30
0.0
 11
1119.606593
 21
2190.081758
 31
0.0
  0
LINE
  5
179
330
1F
100
AcDbEntity
  8
1
  6
Continuous
 62
   155
420
  5010073
370
    18
100
AcDbLine
 10
677.206593
 20
2188.881758
 30
0.0
 11
1119.606593
 21
2188.881758
 31
0.0
  0
LINE
  5
17A
330
1F
100
AcDbEntity
  8
1
  6
Continuous
 62
   155
420
  5010073
370
    13
100
AcDbLine
 10
1109.900343
 20
2190.881758
 30
0.0
 11
1117.606593
 21
2190.881758
 31
0.0
  0
LINE
  5
17B
330
1F
100
AcDbEntity
  8
1
  6
Continuous
 62
   155
420
  5010073
370
    13
100
AcDbLine
 10
1090.405243
 20
2190.881758
 30
0.0
 11
1103.851793
 21
2190.881758
 31
0.0
  0
LINE
  5
17C
330
1F
100
AcDbEntity
  8
1
  6
Continuous
 62
   155
420
  5010073
370
    13
100
AcDbLine
 10
692.961393
 20
2190.881758
 30
0.0
 11
706.407943
 21
2190.881758
 31
0.0
  0
LINE
  5
17D
330
1F
100
AcDbEntity
  8
1
  6
Continuous
 62
   155
420
  5010073
370
    13
100
AcDbLine
 10
679.206593
 20
2190.881758
 30
0.0
 11
686.912843
 21
2190.881758
 31
0.0
  0
LINE
  5
17E
330
1F
100
AcDbEntity
  8
1
  6
Continuous
 62
   155
420
  5010073
370
    13
100
AcDbLine
 10
679.206593
 20
2198.082108
 30
0.0
 11
679.206593
 21
2190.881758
 31
0.0
  0
LINE
  5
17F
330
1F
100
AcDbEntity
  8
1
  6
Continuous
 62
   155
420
  5010073
370
    13
100
AcDbLine
 10
679.206593
 20
2225.281758
 30
0.0
 11
679.206593
 21
2218.081408
 31
0.0
  0
LINE
  5
180
330
1F
100
AcDbEntity
  8
1
  6
Continuous
 62
   155
420
  5010073
370
    13
100
AcDbLine
 10
686.912843
 20
2225.281758
 30
0.0
 11
679.206593
 21
2225.281758
 31
0.0
  0
LINE
  5
181
330
1F
100
AcDbEntity
  8
1
  6
Continuous
 62
   155
420
  5010073
370
    13
100
AcDbLine
 10
1099.714393
 20
2225.281758
 30
0.0
 11
697.098793
 21
2225.281758
 31
0.0
  0
LINE
  5
182
330
1F
100
AcDbEntity
  8
1
  6
Continuous
 62
   155
420
  5010073
370
    13
100
AcDbLine
 10
1117.606593
 20
2225.281758
 30
0.0
 11
1109.900343
 21
2225.281758
 31
0.0
  0
LINE
  5
183
330
1F
100
AcDbEntity
  8
1
  6
Continuous
 62
   155
420
  5010073
370
    13
100
AcDbLine
 10
1117.606593
 20
2218.081408
 30
0.0
 11
1117.606593
 21
2225.281758
 31
0.0
  0
LINE
  5
184
330
1F
100
AcDbEntity
  8
1
  6
Continuous
 62
   155
420
  5010073
370
    13
100
AcDbLine
 10
1117.606593
 20
2190.881758
 30
0.0
 11
1117.606593
 21
2198.082108
 31
0.0
  0
LINE
  5
185
330
1F
100
AcDbEntity
  8
1
  6
Continuous
 62
   155
420
  5010073
370
    18
100
AcDbLine
 10
772.406593
 20
2202.081758
 30
0.0
 11
772.406593
 21
2214.081758
 31
0.0
  0
LINE
  5
186
330
1F
100
AcDbEntity
  8
1
  6
Continuous
 62
   155
420
  5010073
370
    18
100
AcDbLine
 10
714.406593
 20
2212.097258
 30
0.0
 11
714.406593
 21
2204.066258
 31
0.0
  0
LINE
  5
187
330
1F
100
AcDbEntity
  8
1
  6
Continuous
 62
   155
420
  5010073
370
    18
100
AcDbLine
 10
1037.406593
 20
2202.081758
 30
0.0
 11
1037.406593
 21
2214.081758
 31
0.0
  0
LINE
  5
188
330
1F
100
AcDbEntity
  8
1
  6
Continuous
 62
   155
420
  5010073
370
    18
100
AcDbLine
 10
786.406593
 20
2214.081758
 30
0.0
 11
786.406593
 21
2202.081758
 31
0.0
  0
LINE
  5
189
330
1F
100
AcDbEntity
  8
1
  6
Continuous
 62
   155
420
  5010073
370
    13
100
AcDbLine
 10
1339.906593
 20
2181.581758
 30
0.0
 11
1342.406593
 21
2181.581758
 31
0.0
  0
LINE
  5
18A
330
1F
100
AcDbEntity
  8
1
  6
Continuous
 62
   155
420
  5010073
370
    18
100
AcDbLine
 10
1342.406593
 20
2181.581758
 30
0.0
 11
1342.406593
 21
2181.081758
 31
0.0
  0
LINE
  5
18B
330
1F
100
AcDbEntity
  8
1
  6
Continuous
 62
   155
420
  5010073
370
    18
100
AcDbLine
 10
1342.406593
 20
2181.081758
 30
0.0
 11
1339.906593
 21
2181.081758
 31
0.0
  0
LINE
  5
18C
330
1F
100
AcDbEntity
  8
1
  6
Continuous
 62
   155
420
  5010073
370
    18
100
AcDbLine
 10
1339.906593
 20
2181.081758
 30
0.0
 11
1339.906593
 21
2181.581758
 31
0.0
  0
LINE
  5
18D
330
1F
100
AcDbEntity
  8
1
  6
Continuous
 62
   155
420
  5010073
370
    13
100
AcDbLine
 10
1342.406593
 20
2234.581758
 30
0.0
 11
1339.906593
 21
2234.581758
 31
0.0
  0
LINE
  5
18E
330
1F
100
AcDbEntity
  8
1
  6
Continuous
 62
   155
420
  5010073
370
    18
100
AcDbLine
 10
1339.906593
 20
2181.581758
 30
0.0
 11
1339.906593
 21
2234.581758
 31
0.0
  0
LINE
  5
18F
330
1F
100
AcDbEntity
  8
1
  6
Continuous
 62
   155
420
  5010073
370
    18
100
AcDbLine
 10
1342.406593
 20
2181.581758
 30
0.0
 11
1342.406593
 21
2234.581758
 31
0.0
  0
LINE
  5
190
330
1F
100
AcDbEntity
  8
1
  6
Continuous
 62
   155
420
  5010073
370
    18
100
AcDbLine
 10
1339.906593
 20
2235.081758
 30
0.0
 11
1342.406593
 21
2235.081758
 31
0.0
  0
LINE
  5
191
330
1F
100
AcDbEntity
  8
1
  6
Continuous
 62
   155
420
  5010073
370
    18
100
AcDbLine
 10
1339.906593
 20
2234.581758
 30
0.0
 11
1339.906593
 21
2235.081758
 31
0.0
  0
LINE
  5
192
330
1F
100
AcDbEntity
  8
1
  6
Continuous
 62
   155
420
  5010073
370
    18
100
AcDbLine
 10
1342.406593
 20
2235.081758
 30
0.0
 11
1342.406593
 21
2234.581758
 31
0.0
  0
LINE
  5
193
330
1F
100
AcDbEntity
  8
1
  6
Continuous
 62
   155
420
  5010073
370
    13
100
AcDbLine
 10
1107.606593
 20
2225.581758
 30
0.0
 11
1107.606593
 21
2219.081758
 31
0.0
  0
LINE
  5
194
330
1F
100
AcDbEntity
  8
1
  6
Continuous
 62
   155
420
  5010073
370
    18
100
AcDbLine
 10
1107.606593
 20
2218.081758
 30
0.0
 11
1115.606593
 21
2218.081758
 31
0.0
  0
LINE
  5
195
330
1F
100
AcDbEntity
  8
1
  6
Continuous
 62
   155
420
  5010073
370
    13
100
AcDbLine
 10
1115.606593
 20
2218.081758
 30
0.0
 11
1115.606593
 21
2198.081758
 31
0.0
  0
LINE
  5
196
330
1F
100
AcDbEntity
  8
1
  6
Continuous
 62
   155
420
  5010073
370
    18
100
AcDbLine
 10
1107.606593
 20
2198.081758
 30
0.0
 11
1115.606593
 21
2198.081758
 31
0.0
  0
LINE
  5
197
330
1F
100
AcDbEntity
  8
1
  6
Continuous
 62
   155
420
  5010073
370
    13
100
AcDbLine
 10
1107.606593
 20
2197.081758
 30
0.0
 11
1107.606593
 21
2190.581758
 31
0.0
  0
LINE
  5
198
330
1F
100
AcDbEntity
  8
1
  6
Continuous
 62
   155
420
  5010073
370
    18
100
AcDbLine
 10
1107.606593
 20
2190.581758
 30
0.0
 11
1104.906593
 21
2190.581758
 31
0.0
  0
LINE
  5
199
330
1F
100
AcDbEntity
  8
1
  6
Continuous
 62
   155
420
  5010073
370
    18
100
AcDbLine
 10
1102.906593
 20
2202.034449
 30
0.0
 11
1102.906593
 21
2192.581758
 31
0.0
  0
LINE
  5
19A
330
1F
100
AcDbEntity
  8
1
  6
Continuous
 62
   155
420
  5010073
370
    13
100
AcDbLine
 10
1093.406593
 20
2202.034449
 30
0.0
 11
1101.906593
 21
2202.034449
 31
0.0
  0
LINE
  5
19B
330
1F
100
AcDbEntity
  8
1
  6
Continuous
 62
   155
420
  5010073
370
    18
100
AcDbLine
 10
1092.906593
 20
2202.534449
 30
0.0
 11
1090.906593
 21
2202.534449
 31
0.0
  0
LINE
  5
19C
330
1F
100
AcDbEntity
  8
1
  6
Continuous
 62
   155
420
  5010073
370
    18
100
AcDbLine
 10
1090.406593
 20
2192.881758
 30
0.0
 11
1090.406593
 21
2202.034449
 31
0.0
  0
LINE
  5
19D
330
1F
100
AcDbEntity
  8
1
  6
Continuous
 62
   155
420
  5010073
370
    13
100
AcDbLine
 10
1090.406593
 20
2192.881758
 30
0.0
 11
706.406593
 21
2192.881758
 31
0.0
  0
LINE
  5
19E
330
1F
100
AcDbEntity
  8
1
  6
Continuous
 62
   155
420
  5010073
370
    18
100
AcDbLine
 10
706.406593
 20
2202.034449
 30
0.0
 11
706.406593
 21
2192.881758
 31
0.0
  0
LINE
  5
19F
330
1F
100
AcDbEntity
  8
1
  6
Continuous
 62
   155
420
  5010073
370
    18
100
AcDbLine
 10
705.906593
 20
2202.534449
 30
0.0
 11
703.906593
 21
2202.534449
 31
0.0
  0
LINE
  5
1A0
330
1F
100
AcDbEntity
  8
1
  6
Continuous
 62
   155
420
  5010073
370
    13
100
AcDbLine
 10
694.906593
 20
2202.034449
 30
0.0
 11
703.406593
 21
2202.034449
 31
0.0
  0
LINE
  5
1A1
330
1F
100
AcDbEntity
  8
1
  6
Continuous
 62
   155
420
  5010073
370
    18
100
AcDbLine
 10
693.906593
 20
2192.581758
 30
0.0
 11
693.906593
 21
2202.034449
 31
0.0
  0
LINE
  5
1A2
330
1F
100
AcDbEntity
  8
1
  6
Continuous
 62
   155
420
  5010073
370
    18
100
AcDbLine
 10
691.906593
 20
2190.581758
 30
0.0
 11
689.206593
 21
2190.581758
 31
0.0
  0
LINE
  5
1A3
330
1F
100
AcDbEntity
  8
1
  6
Continuous
 62
   155
420
  5010073
370
    13
100
AcDbLine
 10
689.206593
 20
2190.581758
 30
0.0
 11
689.206593
 21
2197.081758
 31
0.0
  0
LINE
  5
1A4
330
1F
100
AcDbEntity
  8
1
  6
Continuous
 62
   155
420
  5010073
370
    18
100
AcDbLine
 10
681.206593
 20
2198.081758
 30
0.0
 11
689.206593
 21
2198.081758
 31
0.0
  0
LINE
  5
1A5
330
1F
100
AcDbEntity
  8
1
  6
Continuous
 62
   155
420
  5010073
370
    13
100
AcDbLine
 10
681.206593
 20
2198.081758
 30
0.0
 11
681.206593
 21
2218.081758
 31
0.0
  0
LINE
  5
1A6
330
1F
100
AcDbEntity
  8
1
  6
Continuous
 62
   155
420
  5010073
370
    18
100
AcDbLine
 10
681.206593
 20
2218.081758
 30
0.0
 11
689.206593
 21
2218.081758
 31
0.0
  0
LINE
  5
1A7
330
1F
100
AcDbEntity
  8
1
  6
Continuous
 62
   155
420
  5010073
370
    13
100
AcDbLine
 10
689.206593
 20
2219.081758
 30
0.0
 11
689.206593
 21
2225.581758
 31
0.0
  0
LINE
  5
1A8
330
1F
100
AcDbEntity
  8
1
  6
Continuous
 62
   155
420
  5010073
370
    18
100
AcDbLine
 10
689.206593
 20
2225.581758
 30
0.0
 11
695.906593
 21
2225.581758
 31
0.0
  0
LINE
  5
1A9
330
1F
100
AcDbEntity
  8
1
  6
Continuous
 62
   155
420
  5010073
370
    18
100
AcDbLine
 10
698.406593
 20
2223.081758
 30
0.0
 11
698.406593
 21
2222.281758
 31
0.0
  0
LINE
  5
1AA
330
1F
100
AcDbEntity
  8
1
  6
Continuous
 62
   155
420
  5010073
370
    18
100
AcDbLine
 10
699.406593
 20
2222.281758
 30
0.0
 11
699.406593
 21
2222.781758
 31
0.0
  0
LINE
  5
1AB
330
1F
100
AcDbEntity
  8
1
  6
Continuous
 62
   155
420
  5010073
370
    13
100
AcDbLine
 10
699.406593
 20
2222.781758
 30
0.0
 11
1097.406593
 21
2222.781758
 31
0.0
  0
LINE
  5
1AC
330
1F
100
AcDbEntity
  8
1
  6
Continuous
 62
   155
420
  5010073
370
    18
100
AcDbLine
 10
1097.406593
 20
2222.281758
 30
0.0
 11
1097.406593
 21
2222.781758
 31
0.0
  0
LINE
  5
1AD
330
1F
100
AcDbEntity
  8
1
  6
Continuous
 62
   155
420
  5010073
370
    18
100
AcDbLine
 10
1098.406593
 20
2223.081758
 30
0.0
 11
1098.406593
 21
2222.281758
 31
0.0
  0
LINE
  5
1AE
330
1F
100
AcDbEntity
  8
1
  6
Continuous
 62
   155
420
  5010073
370
    18
100
AcDbLine
 10
1100.906593
 20
2225.581758
 30
0.0
 11
1107.606593
 21
2225.581758
 31
0.0
  0
LINE
  5
1AF
330
1F
100
AcDbEntity
  8
1
  6
Continuous
 62
   155
420
  5010073
370
    18
100
AcDbLine
 10
1070.406593
 20
2210.331758
 30
0.0
 11
1066.406593
 21
2210.331758
 31
0.0
  0
LINE
  5
1B0
330
1F
100
AcDbEntity
  8
1
  6
Continuous
 62
   155
420
  5010073
370
    18
100
AcDbLine
 10
1066.406593
 20
2205.831758
 30
0.0
 11
1070.406593
 21
2205.831758
 31
0.0
  0
LINE
  5
1B1
330
1F
100
AcDbEntity
  8
1
  6
Continuous
 62
   155
420
  5010073
370
    18
100
AcDbLine
 10
711.156593
 20
2206.081758
 30
0.0
 11
711.156593
 21
2210.081758
 31
0.0
  0
LINE
  5
1B2
330
1F
100
AcDbEntity
  8
1
  6
Continuous
 62
   155
420
  5010073
370
    18
100
AcDbLine
 10
715.656593
 20
2210.081758
 30
0.0
 11
715.656593
 21
2206.081758
 31
0.0
  0
LINE
  5
1B3
330
1F
100
AcDbEntity
  8
1
  6
Continuous
 62
   155
420
  5010073
370
    18
100
AcDbLine
 10
1053.406593
 20
2204.081758
 30
0.0
 11
1053.406593
 21
2212.081758
 31
0.0
  0
LINE
  5
1B4
330
1F
100
AcDbEntity
  8
1
  6
Continuous
 62
   155
420
  5010073
370
    18
100
AcDbLine
 10
1047.406593
 20
2218.081758
 30
0.0
 11
924.406593
 21
2218.081758
 31
0.0
  0
LINE
  5
1B5
330
1F
100
AcDbEntity
  8
1
  6
Continuous
 62
   155
420
  5010073
370
    18
100
AcDbLine
 10
918.406593
 20
2212.081758
 30
0.0
 11
918.406593
 21
2204.081758
 31
0.0
  0
LINE
  5
1B6
330
1F
100
AcDbEntity
  8
1
  6
Continuous
 62
   155
420
  5010073
370
    18
100
AcDbLine
 10
924.406593
 20
2198.081758
 30
0.0
 11
1047.406593
 21
2198.081758
 31
0.0
  0
LINE
  5
1B7
330
1F
100
AcDbEntity
  8
1
  6
Continuous
 62
   155
420
  5010073
370
    18
100
AcDbLine
 10
878.406593
 20
2204.081758
 30
0.0
 11
878.406593
 21
2212.081758
 31
0.0
  0
LINE
  5
1B8
330
1F
100
AcDbEntity
  8
1
  6
Continuous
 62
   155
420
  5010073
370
    18
100
AcDbLine
 10
872.406593
 20
2218.081758
 30
0.0
 11
734.406593
 21
2218.081758
 31
0.0
  0
LINE
  5
1B9
330
1F
100
AcDbEntity
  8
1
  6
Continuous
 62
   155
420
  5010073
370
    18
100
AcDbLine
 10
728.406593
 20
2212.081758
 30
0.0
 11
728.406593
 21
2204.081758
 31
0.0
  0
LINE
  5
1BA
330
1F
100
AcDbEntity
  8
1
  6
Continuous
 62
   155
420
  5010073
370
    18
100
AcDbLine
 10
734.406593
 20
2198.081758
 30
0.0
 11
872.406593
 21
2198.081758
 31
0.0
  0
LINE
  5
1BB
330
1F
100
AcDbEntity
  8
1
  6
Continuous
 62
   155
420
  5010073
370
    18
100
AcDbLine
 10
1109.906593
 20
2225.581758
 30
0.0
 11
1109.906593
 21
2219.081758
 31
0.0
  0
LINE
  5
1BC
330
1F
100
AcDbEntity
  8
1
  6
Continuous
 62
   155
420
  5010073
370
    18
100
AcDbLine
 10
1109.906593
 20
2219.081758
 30
0.0
 11
1107.606593
 21
2219.081758
 31
0.0
  0
LINE
  5
1BD
330
1F
100
AcDbEntity
  8
1
  6
Continuous
 62
   155
420
  5010073
370
    18
100
AcDbLine
 10
1109.906593
 20
2225.581758
 30
0.0
 11
1107.606593
 21
2225.581758
 31
0.0
  0
LINE
  5
1BE
330
1F
100
AcDbEntity
  8
1
  6
Continuous
 62
   155
420
  5010073
370
    18
100
AcDbLine
 10
1090.406593
 20
2190.581758
 30
0.0
 11
1090.406593
 21
2192.881758
 31
0.0
  0
LINE
  5
1BF
330
1F
100
AcDbEntity
  8
1
  6
Continuous
 62
   155
420
  5010073
370
    18
100
AcDbLine
 10
1090.406593
 20
2190.581758
 30
0.0
 11
706.406593
 21
2190.581758
 31
0.0
  0
LINE
  5
1C0
330
1F
100
AcDbEntity
  8
1
  6
Continuous
 62
   155
420
  5010073
370
    18
100
AcDbLine
 10
706.406593
 20
2190.581758
 30
0.0
 11
706.406593
 21
2192.881758
 31
0.0
  0
LINE
  5
1C1
330
1F
100
AcDbEntity
  8
1
  6
Continuous
 62
   155
420
  5010073
370
    18
100
AcDbLine
 10
699.406593
 20
2225.081758
 30
0.0
 11
699.406593
 21
2222.781758
 31
0.0
  0
LINE
  5
1C2
330
1F
100
AcDbEntity
  8
1
  6
Continuous
 62
   155
420
  5010073
370
    18
100
AcDbLine
 10
699.406593
 20
2225.081758
 30
0.0
 11
1097.406593
 21
2225.081758
 31
0.0
  0
LINE
  5
1C3
330
1F
100
AcDbEntity
  8
1
  6
Continuous
 62
   155
420
  5010073
370
    18
100
AcDbLine
 10
1097.406593
 20
2225.081758
 30
0.0
 11
1097.406593
 21
2222.781758
 31
0.0
  0
LINE
  5
1C4
330
1F
100
AcDbEntity
  8
1
  6
Continuous
 62
   155
420
  5010073
370
    18
100
AcDbLine
 10
703.406593
 20
2202.034449
 30
0.0
 11
703.406593
 21
2200.408104
 31
0.0
  0
LINE
  5
1C5
330
1F
100
AcDbEntity
  8
1
  6
Continuous
 62
   155
420
  5010073
370
    13
100
AcDbLine
 10
703.406593
 20
2200.408104
 30
0.0
 11
694.906593
 21
2200.408104
 31
0.0
  0
LINE
  5
1C6
330
1F
100
AcDbEntity
  8
1
  6
Continuous
 62
   155
420
  5010073
370
    18
100
AcDbLine
 10
694.906593
 20
2202.034449
 30
0.0
 11
694.906593
 21
2200.408104
 31
0.0
  0
LINE
  5
1C7
330
1F
100
AcDbEntity
  8
1
  6
Continuous
 62
   155
420
  5010073
370
    18
100
AcDbLine
 10
681.206593
 20
2198.081758
 30
0.0
 11
678.906593
 21
2198.081758
 31
0.0
  0
LINE
  5
1C8
330
1F
100
AcDbEntity
  8
1
  6
Continuous
 62
   155
420
  5010073
370
    18
100
AcDbLine
 10
678.906593
 20
2198.081758
 30
0.0
 11
678.906593
 21
2218.081758
 31
0.0
  0
LINE
  5
1C9
330
1F
100
AcDbEntity
  8
1
  6
Continuous
 62
   155
420
  5010073
370
    18
100
AcDbLine
 10
681.206593
 20
2218.081758
 30
0.0
 11
678.906593
 21
2218.081758
 31
0.0
  0
LINE
  5
1CA
330
1F
100
AcDbEntity
  8
1
  6
Continuous
 62
   155
420
  5010073
370
    18
100
AcDbLine
 10
689.206593
 20
2219.081758
 30
0.0
 11
686.906593
 21
2219.081758
 31
0.0
  0
LINE
  5
1CB
330
1F
100
AcDbEntity
  8
1
  6
Continuous
 62
   155
420
  5010073
370
    18
100
AcDbLine
 10
686.906593
 20
2219.081758
 30
0.0
 11
686.906593
 21
2225.581758
 31
0.0
  0
LINE
  5
1CC
330
1F
100
AcDbEntity
  8
1
  6
Continuous
 62
   155
420
  5010073
370
    18
100
AcDbLine
 10
689.206593
 20
2225.581758
 30
0.0
 11
686.906593
 21
2225.581758
 31
0.0
  0
LINE
  5
1CD
330
1F
100
AcDbEntity
  8
1
  6
Continuous
 62
   155
420
  5010073
370
    18
100
AcDbLine
 10
1117.906593
 20
2218.081758
 30
0.0
 11
1117.906593
 21
2198.081758
 31
0.0
  0
LINE
  5
1CE
330
1F
100
AcDbEntity
  8
1
  6
Continuous
 62
   155
420
  5010073
370
    18
100
AcDbLine
 10
1117.906593
 20
2198.081758
 30
0.0
 11
1115.606593
 21
2198.081758
 31
0.0
  0
LINE
  5
1CF
330
1F
100
AcDbEntity
  8
1
  6
Continuous
 62
   155
420
  5010073
370
    18
100
AcDbLine
 10
1117.906593
 20
2218.081758
 30
0.0
 11
1115.606593
 21
2218.081758
 31
0.0
  0
LINE
  5
1D0
330
1F
100
AcDbEntity
  8
1
  6
Continuous
 62
   155
420
  5010073
370
    18
100
AcDbLine
 10
1109.906593
 20
2197.081758
 30
0.0
 11
1109.906593
 21
2190.581758
 31
0.0
  0
LINE
  5
1D1
330
1F
100
AcDbEntity
  8
1
  6
Continuous
 62
   155
420
  5010073
370
    18
100
AcDbLine
 10
1109.906593
 20
2190.581758
 30
0.0
 11
1107.606593
 21
2190.581758
 31
0.0
  0
LINE
  5
1D2
330
1F
100
AcDbEntity
  8
1
  6
Continuous
 62
   155
420
  5010073
370
    18
100
AcDbLine
 10
1109.906593
 20
2197.081758
 30
0.0
 11
1107.606593
 21
2197.081758
 31
0.0
  0
LINE
  5
1D3
330
1F
100
AcDbEntity
  8
1
  6
Continuous
 62
   155
420
  5010073
370
    18
100
AcDbLine
 10
454.406593
 20
2498.499253
 30
0.0
 11
454.406593
 21
2498.999253
 31
0.0
  0
LINE
  5
1D4
330
1F
100
AcDbEntity
  8
1
  6
Continuous
 62
   155
420
  5010073
370
    18
100
AcDbLine
 10
456.906593
 20
2498.499253
 30
0.0
 11
454.406593
 21
2498.499253
 31
0.0
  0
LINE
  5
1D5
330
1F
100
AcDbEntity
  8
1
  6
Continuous
 62
   155
420
  5010073
370
    13
100
AcDbLine
 10
454.406593
 20
2498.999253
 30
0.0
 11
456.906593
 21
2498.999253
 31
0.0
  0
LINE
  5
1D6
330
1F
100
AcDbEntity
  8
1
  6
Continuous
 62
   155
420
  5010073
370
    18
100
AcDbLine
 10
456.906593
 20
2498.999253
 30
0.0
 11
456.906593
 21
2498.499253
 31
0.0
  0
LINE
  5
1D7
330
1F
100
AcDbEntity
  8
1
  6
Continuous
 62
   155
420
  5010073
370
    18
100
AcDbLine
 10
454.406593
 20
2552.499253
 30
0.0
 11
456.906593
 21
2552.499253
 31
0.0
  0
LINE
  5
1D8
330
1F
100
AcDbEntity
  8
1
  6
Continuous
 62
   155
420
  5010073
370
    18
100
AcDbLine
 10
456.906593
 20
2552.499253
 30
0.0
 11
456.906593
 21
2551.999253
 31
0.0
  0
LINE
  5
1D9
330
1F
100
AcDbEntity
  8
1
  6
Continuous
 62
   155
420
  5010073
370
    13
100
AcDbLine
 10
456.906593
 20
2551.999253
 30
0.0
 11
454.406593
 21
2551.999253
 31
0.0
  0
LINE
  5
1DA
330
1F
100
AcDbEntity
  8
1
  6
Continuous
 62
   155
420
  5010073
370
    18
100
AcDbLine
 10
454.406593
 20
2551.999253
 30
0.0
 11
454.406593
 21
2552.499253
 31
0.0
  0
LINE
  5
1DB
330
1F
100
AcDbEntity
  8
1
  6
Continuous
 62
   155
420
  5010073
370
    18
100
AcDbLine
 10
454.406593
 20
2498.999253
 30
0.0
 11
454.406593
 21
2551.999253
 31
0.0
  0
LINE
  5
1DC
330
1F
100
AcDbEntity
  8
1
  6
Continuous
 62
   155
420
  5010073
370
    18
100
AcDbLine
 10
456.906593
 20
2498.999253
 30
0.0
 11
456.906593
 21
2551.999253
 31
0.0
  0
LINE
  5
1DD
330
1F
100
AcDbEntity
  8
1
  6
Continuous
 62
   155
420
  5010073
370
    13
100
AcDbLine
 10
1339.906593
 20
2551.999253
 30
0.0
 11
456.906593
 21
2551.999253
 31
0.0
  0
LINE
  5
1DE
330
1F
100
AcDbEntity
  8
1
  6
Continuous
 62
   155
420
  5010073
370
    18
100
AcDbLine
 10
1339.906593
 20
2551.999253
 30
0.0
 11
1339.906593
 21
2498.999253
 31
0.0
  0
LINE
  5
1DF
330
1F
100
AcDbEntity
  8
1
  6
Continuous
 62
   155
420
  5010073
370
    13
100
AcDbLine
 10
1339.906593
 20
2498.999253
 30
0.0
 11
456.906593
 21
2498.999253
 31
0.0
  0
LINE
  5
1E0
330
1F
100
AcDbEntity
  8
1
  6
Continuous
 62
   155
420
  5010073
370
    18
100
AcDbLine
 10
456.906593
 20
2551.999253
 30
0.0
 11
456.906593
 21
2498.999253
 31
0.0
  0
LINE
  5
1E1
330
1F
100
AcDbEntity
  8
1
  6
Continuous
 62
   155
420
  5010073
370
    18
100
AcDbLine
 10
1339.906593
 20
2498.999253
 30
0.0
 11
1339.906593
 21
2498.499253
 31
0.0
  0
LINE
  5
1E2
330
1F
100
AcDbEntity
  8
1
  6
Continuous
 62
   155
420
  5010073
370
    18
100
AcDbLine
 10
1339.906593
 20
2498.499253
 30
0.0
 11
456.906593
 21
2498.499253
 31
0.0
  0
LINE
  5
1E3
330
1F
100
AcDbEntity
  8
1
  6
Continuous
 62
   155
420
  5010073
370
    18
100
AcDbLine
 10
456.906593
 20
2498.999253
 30
0.0
 11
456.906593
 21
2498.499253
 31
0.0
  0
LINE
  5
1E4
330
1F
100
AcDbEntity
  8
1
  6
Continuous
 62
   155
420
  5010073
370
    18
100
AcDbLine
 10
1339.906593
 20
2552.499253
 30
0.0
 11
456.906593
 21
2552.499253
 31
0.0
  0
LINE
  5
1E5
330
1F
100
AcDbEntity
  8
1
  6
Continuous
 62
   155
420
  5010073
370
    18
100
AcDbLine
 10
1339.906593
 20
2552.499253
 30
0.0
 11
1339.906593
 21
2551.999253
 31
0.0
  0
LINE
  5
1E6
330
1F
100
AcDbEntity
  8
1
  6
Continuous
 62
   155
420
  5010073
370
    18
100
AcDbLine
 10
456.906593
 20
2552.499253
 30
0.0
 11
456.906593
 21
2551.999253
 31
0.0
  0
LINE
  5
1E7
330
1F
100
AcDbEntity
  8
1
  6
Continuous
 62
   155
420
  5010073
370
    18
100
AcDbLine
 10
1339.906593
 20
2498.999253
 30
0.0
 11
1339.906593
 21
2551.999253
 31
0.0
  0
LINE
  5
1E8
330
1F
100
AcDbEntity
  8
1
  6
Continuous
 62
   155
420
  5010073
370
    18
100
AcDbLine
 10
1342.406593
 20
2498.999253
 30
0.0
 11
1342.406593
 21
2551.999253
 31
0.0
  0
LINE
  5
1E9
330
1F
100
AcDbEntity
  8
1
  6
Continuous
 62
   155
420
  5010073
370
    13
100
AcDbLine
 10
1339.906593
 20
2498.999253
 30
0.0
 11
1342.406593
 21
2498.999253
 31
0.0
  0
LINE
  5
1EA
330
1F
100
AcDbEntity
  8
1
  6
Continuous
 62
   155
420
  5010073
370
    18
100
AcDbLine
 10
1342.406593
 20
2498.999253
 30
0.0
 11
1342.406593
 21
2498.499253
 31
0.0
  0
LINE
  5
1EB
330
1F
100
AcDbEntity
  8
1
  6
Continuous
 62
   155
420
  5010073
370
    18
100
AcDbLine
 10
1342.406593
 20
2498.499253
 30
0.0
 11
1339.906593
 21
2498.499253
 31
0.0
  0
LINE
  5
1EC
330
1F
100
AcDbEntity
  8
1
  6
Continuous
 62
   155
420
  5010073
370
    18
100
AcDbLine
 10
1339.906593
 20
2498.499253
 30
0.0
 11
1339.906593
 21
2498.999253
 31
0.0
  0
LINE
  5
1ED
330
1F
100
AcDbEntity
  8
1
  6
Continuous
 62
   155
420
  5010073
370
    18
100
AcDbLine
 10
1339.906593
 20
2552.499253
 30
0.0
 11
1342.406593
 21
2552.499253
 31
0.0
  0
LINE
  5
1EE
330
1F
100
AcDbEntity
  8
1
  6
Continuous
 62
   155
420
  5010073
370
    18
100
AcDbLine
 10
1342.406593
 20
2552.499253
 30
0.0
 11
1342.406593
 21
2551.999253
 31
0.0
  0
LINE
  5
1EF
330
1F
100
AcDbEntity
  8
1
  6
Continuous
 62
   155
420
  5010073
370
    13
100
AcDbLine
 10
1342.406593
 20
2551.999253
 30
0.0
 11
1339.906593
 21
2551.999253
 31
0.0
  0
LINE
  5
1F0
330
1F
100
AcDbEntity
  8
1
  6
Continuous
 62
   155
420
  5010073
370
    18
100
AcDbLine
 10
1339.906593
 20
2551.999253
 30
0.0
 11
1339.906593
 21
2552.499253
 31
0.0
  0
LINE
  5
1F1
330
1F
100
AcDbEntity
  8
1
  6
Continuous
 62
   155
420
  5010073
370
    18
100
AcDbLine
 10
352.276967
 20
2377.173077
 30
0.0
 11
352.276967
 21
2345.794405
 31
0.0
  0
LINE
  5
1F2
330
1F
100
AcDbEntity
  8
1
  6
Continuous
 62
   155
420
  5010073
370
    18
100
AcDbLine
 10
352.276967
 20
2345.794405
 30
0.0
 11
351.076967
 21
2345.794405
 31
0.0
  0
LINE
  5
1F3
330
1F
100
AcDbEntity
  8
1
  6
Continuous
 62
   155
420
  5010073
370
    18
100
AcDbLine
 10
351.076967
 20
2377.173077
 30
0.0
 11
352.276967
 21
2377.173077
 31
0.0
  0
LINE
  5
1F4
330
1F
100
AcDbEntity
  8
1
  6
Continuous
 62
   155
420
  5010073
370
    18
100
AcDbLine
 10
351.076967
 20
2345.794405
 30
0.0
 11
351.076967
 21
2377.173077
 31
0.0
  0
LINE
  5
1F5
330
1F
100
AcDbEntity
  8
1
  6
Continuous
 62
   155
420
  5010073
370
    18
100
AcDbLine
 10
315.076967
 20
2345.673077
 30
0.0
 11
313.876967
 21
2345.673077
 31
0.0
  0
LINE
  5
1F6
330
1F
100
AcDbEntity
  8
1
  6
Continuous
 62
   155
420
  5010073
370
    18
100
AcDbLine
 10
315.076967
 20
2345.673077
 30
0.0
 11
315.076967
 21
2345.794405
 31
0.0
  0
LINE
  5
1F7
330
1F
100
AcDbEntity
  8
1
  6
Continuous
 62
   155
420
  5010073
370
    18
100
AcDbLine
 10
313.876967
 20
2345.673077
 30
0.0
 11
313.876967
 21
2345.794405
 31
0.0
  0
LINE
  5
1F8
330
1F
100
AcDbEntity
  8
1
  6
Continuous
 62
   155
420
  5010073
370
    18
100
AcDbLine
 10
351.076967
 20
2345.673077
 30
0.0
 11
352.276967
 21
2345.673077
 31
0.0
  0
LINE
  5
1F9
330
1F
100
AcDbEntity
  8
1
  6
Continuous
 62
   155
420
  5010073
370
    18
100
AcDbLine
 10
352.276967
 20
2345.794405
 30
0.0
 11
352.276967
 21
2345.673077
 31
0.0
  0
LINE
  5
1FA
330
1F
100
AcDbEntity
  8
1
  6
Continuous
 62
   155
420
  5010073
370
    18
100
AcDbLine
 10
351.076967
 20
2345.794405
 30
0.0
 11
351.076967
 21
2345.673077
 31
0.0
  0
LINE
  5
1FB
330
1F
100
AcDbEntity
  8
1
  6
Continuous
 62
   155
420
  5010073
370
    18
100
AcDbLine
 10
360.076967
 20
2343.173077
 30
0.0
 11
360.076967
 21
2317.173077
 31
0.0
  0
LINE
  5
1FC
330
1F
100
AcDbEntity
  8
1
  6
Continuous
 62
   155
420
  5010073
370
    18
100
AcDbLine
 10
359.576967
 20
2316.673077
 30
0.0
 11
306.576967
 21
2316.673077
 31
0.0
  0
LINE
  5
1FD
330
1F
100
AcDbEntity
  8
1
  6
Continuous
 62
   155
420
  5010073
370
    18
100
AcDbLine
 10
306.076967
 20
2317.173077
 30
0.0
 11
306.076967
 21
2343.173077
 31
0.0
  0
LINE
  5
1FE
330
1F
100
AcDbEntity
  8
1
  6
Continuous
 62
   155
420
  5010073
370
    18
100
AcDbLine
 10
306.576967
 20
2343.673077
 30
0.0
 11
359.576967
 21
2343.673077
 31
0.0
  0
LINE
  5
1FF
330
1F
100
AcDbEntity
  8
1
  6
Continuous
 62
   155
420
  5010073
370
    18
100
AcDbLine
 10
313.876967
 20
2377.173077
 30
0.0
 11
315.076967
 21
2377.173077
 31
0.0
  0
LINE
  5
200
330
1F
100
AcDbEntity
  8
1
  6
Continuous
 62
   155
420
  5010073
370
    18
100
AcDbLine
 10
315.076967
 20
2377.173077
 30
0.0
 11
315.076967
 21
2345.794405
 31
0.0
  0
LINE
  5
201
330
1F
100
AcDbEntity
  8
1
  6
Continuous
 62
   155
420
  5010073
370
    18
100
AcDbLine
 10
315.076967
 20
2345.794405
 30
0.0
 11
313.876967
 21
2345.794405
 31
0.0
  0
LINE
  5
202
330
1F
100
AcDbEntity
  8
1
  6
Continuous
 62
   155
420
  5010073
370
    18
100
AcDbLine
 10
313.876967
 20
2345.794405
 30
0.0
 11
313.876967
 21
2377.173077
 31
0.0
  0
LINE
  5
203
330
1F
100
AcDbEntity
  8
1
  6
Continuous
 62
   155
420
  5010073
370
    18
100
AcDbLine
 10
315.219432
 20
2345.673077
 30
0.0
 11
315.176967
 21
2345.794405
 31
0.0
  0
LINE
  5
204
330
1F
100
AcDbEntity
  8
1
  6
Continuous
 62
   155
420
  5010073
370
    18
100
AcDbLine
 10
315.176967
 20
2345.794405
 30
0.0
 11
315.176967
 21
2377.173077
 31
0.0
  0
LINE
  5
205
330
1F
100
AcDbEntity
  8
1
  6
Continuous
 62
   155
420
  5010073
370
    18
100
AcDbLine
 10
315.176967
 20
2377.173077
 30
0.0
 11
350.976967
 21
2377.173077
 31
0.0
  0
LINE
  5
206
330
1F
100
AcDbEntity
  8
1
  6
Continuous
 62
   155
420
  5010073
370
    18
100
AcDbLine
 10
350.976967
 20
2377.173077
 30
0.0
 11
350.976967
 21
2345.794405
 31
0.0
  0
LINE
  5
207
330
1F
100
AcDbEntity
  8
1
  6
Continuous
 62
   155
420
  5010073
370
    18
100
AcDbLine
 10
350.976967
 20
2345.794405
 30
0.0
 11
350.934502
 21
2345.673077
 31
0.0
  0
LINE
  5
208
330
1F
100
AcDbEntity
  8
1
  6
Continuous
 62
   155
420
  5010073
370
    13
100
AcDbLine
 10
315.219432
 20
2345.673077
 30
0.0
 11
350.934502
 21
2345.673077
 31
0.0
  0
LINE
  5
209
330
1F
100
AcDbEntity
  8
1
  6
Continuous
 62
   155
420
  5010073
370
    13
100
AcDbLine
 10
454.406593
 20
2317.173077
 30
0.0
 11
456.906593
 21
2317.173077
 31
0.0
  0
LINE
  5
20A
330
1F
100
AcDbEntity
  8
1
  6
Continuous
 62
   155
420
  5010073
370
    13
100
AcDbLine
 10
456.906593
 20
2343.173077
 30
0.0
 11
454.406593
 21
2343.173077
 31
0.0
  0
LINE
  5
20B
330
1F
100
AcDbEntity
  8
1
  6
Continuous
 62
   155
420
  5010073
370
    18
100
AcDbLine
 10
456.906593
 20
2317.173077
 30
0.0
 11
456.906593
 21
2343.173077
 31
0.0
  0
LINE
  5
20C
330
1F
100
AcDbEntity
  8
1
  6
Continuous
 62
   155
420
  5010073
370
    18
100
AcDbLine
 10
454.406593
 20
2317.173077
 30
0.0
 11
454.406593
 21
2343.173077
 31
0.0
  0
LINE
  5
20D
330
1F
100
AcDbEntity
  8
1
  6
Continuous
 62
   155
420
  5010073
370
    18
100
AcDbLine
 10
456.906593
 20
2316.673077
 30
0.0
 11
456.906593
 21
2317.173077
 31
0.0
  0
LINE
  5
20E
330
1F
100
AcDbEntity
  8
1
  6
Continuous
 62
   155
420
  5010073
370
    18
100
AcDbLine
 10
456.906593
 20
2316.673077
 30
0.0
 11
454.406593
 21
2316.673077
 31
0.0
  0
LINE
  5
20F
330
1F
100
AcDbEntity
  8
1
  6
Continuous
 62
   155
420
  5010073
370
    18
100
AcDbLine
 10
454.406593
 20
2316.673077
 30
0.0
 11
454.406593
 21
2317.173077
 31
0.0
  0
LINE
  5
210
330
1F
100
AcDbEntity
  8
1
  6
Continuous
 62
   155
420
  5010073
370
    18
100
AcDbLine
 10
454.406593
 20
2343.673077
 30
0.0
 11
456.906593
 21
2343.673077
 31
0.0
  0
LINE
  5
211
330
1F
100
AcDbEntity
  8
1
  6
Continuous
 62
   155
420
  5010073
370
    18
100
AcDbLine
 10
456.906593
 20
2343.673077
 30
0.0
 11
456.906593
 21
2343.173077
 31
0.0
  0
LINE
  5
212
330
1F
100
AcDbEntity
  8
1
  6
Continuous
 62
   155
420
  5010073
370
    18
100
AcDbLine
 10
454.406593
 20
2343.173077
 30
0.0
 11
454.406593
 21
2343.673077
 31
0.0
  0
LINE
  5
213
330
1F
100
AcDbEntity
  8
1
  6
Continuous
 62
   155
420
  5010073
370
    13
100
AcDbLine
 10
1339.906593
 20
2341.473077
 30
0.0
 11
456.906593
 21
2341.473077
 31
0.0
  0
LINE
  5
214
330
1F
100
AcDbEntity
  8
1
  6
Continuous
 62
   155
420
  5010073
370
    18
100
AcDbLine
 10
457.056593
 20
2319.173082
 30
0.0
 11
457.056593
 21
2319.383077
 31
0.0
  0
LINE
  5
215
330
1F
100
AcDbEntity
  8
1
  6
Continuous
 62
   155
420
  5010073
370
    18
100
AcDbLine
 10
467.056593
 20
2340.963077
 30
0.0
 11
467.056593
 21
2341.173072
 31
0.0
  0
LINE
  5
216
330
1F
100
AcDbEntity
  8
1
  6
Continuous
 62
   155
420
  5010073
370
    18
100
AcDbLine
 10
457.056593
 20
2340.963077
 30
0.0
 11
457.056593
 21
2341.173072
 31
0.0
  0
LINE
  5
217
330
1F
100
AcDbEntity
  8
1
  6
Continuous
 62
   155
420
  5010073
370
    18
100
AcDbLine
 10
487.056593
 20
2319.383077
 30
0.0
 11
487.056593
 21
2319.173082
 31
0.0
  0
LINE
  5
218
330
1F
100
AcDbEntity
  8
1
  6
Continuous
 62
   155
420
  5010073
370
    18
100
AcDbLine
 10
1309.756593
 20
2319.383077
 30
0.0
 11
1309.756593
 21
2319.173082
 31
0.0
  0
LINE
  5
219
330
1F
100
AcDbEntity
  8
1
  6
Continuous
 62
   155
420
  5010073
370
    18
100
AcDbLine
 10
700.14539
 20
2369.309116
 30
0.0
 11
698.167797
 21
2369.309116
 31
0.0
  0
LINE
  5
21A
330
1F
100
AcDbEntity
  8
1
  6
Continuous
 62
   155
420
  5010073
370
    18
100
AcDbLine
 10
1098.64539
 20
2369.309116
 30
0.0
 11
1096.667797
 21
2369.309116
 31
0.0
  0
LINE
  5
21B
330
1F
100
AcDbEntity
  8
1
  6
Continuous
 62
   155
420
  5010073
370
    13
100
AcDbLine
 10
457.057747
 20
2339.877174
 30
0.0
 11
456.906593
 21
2339.877174
 31
0.0
  0
LINE
  5
21C
330
1F
100
AcDbEntity
  8
1
  6
Continuous
 62
   155
420
  5010073
370
    13
100
AcDbLine
 10
1339.906593
 20
2320.46898
 30
0.0
 11
1339.746862
 21
2320.46898
 31
0.0
  0
LINE
  5
21D
330
1F
100
AcDbEntity
  8
1
  6
Continuous
 62
   155
420
  5010073
370
    13
100
AcDbLine
 10
457.057747
 20
2320.46898
 30
0.0
 11
456.906593
 21
2320.46898
 31
0.0
  0
LINE
  5
21E
330
1F
100
AcDbEntity
  8
1
  6
Continuous
 62
   155
420
  5010073
370
    18
100
AcDbLine
 10
1339.906593
 20
2320.625446
 30
0.0
 11
1339.746924
 21
2320.625446
 31
0.0
  0
LINE
  5
21F
330
1F
100
AcDbEntity
  8
1
  6
Continuous
 62
   155
420
  5010073
370
    18
100
AcDbLine
 10
456.906593
 20
2339.720708
 30
0.0
 11
457.057444
 21
2339.720708
 31
0.0
  0
LINE
  5
220
330
1F
100
AcDbEntity
  8
1
  6
Continuous
 62
   155
420
  5010073
370
    18
100
AcDbLine
 10
457.057444
 20
2320.625446
 30
0.0
 11
456.906593
 21
2320.625446
 31
0.0
  0
LINE
  5
221
330
1F
100
AcDbEntity
  8
1
  6
Continuous
 62
   155
420
  5010073
370
    18
100
AcDbLine
 10
1339.746924
 20
2339.720708
 30
0.0
 11
1339.906593
 21
2339.720708
 31
0.0
  0
LINE
  5
222
330
1F
100
AcDbEntity
  8
1
  6
Continuous
 62
   155
420
  5010073
370
    18
100
AcDbLine
 10
1339.756586
 20
2320.673077
 30
0.0
 11
1339.906593
 21
2320.673077
 31
0.0
  0
LINE
  5
223
330
1F
100
AcDbEntity
  8
1
  6
Continuous
 62
   155
420
  5010073
370
    18
100
AcDbLine
 10
456.906593
 20
2320.673077
 30
0.0
 11
457.056601
 21
2320.673077
 31
0.0
  0
LINE
  5
224
330
1F
100
AcDbEntity
  8
1
  6
Continuous
 62
   155
420
  5010073
370
    18
100
AcDbLine
 10
457.056601
 20
2339.673077
 30
0.0
 11
456.906593
 21
2339.673077
 31
0.0
  0
LINE
  5
225
330
1F
100
AcDbEntity
  8
1
  6
Continuous
 62
   155
420
  5010073
370
    18
100
AcDbLine
 10
1339.906593
 20
2339.673077
 30
0.0
 11
1339.756586
 21
2339.673077
 31
0.0
  0
LINE
  5
226
330
1F
100
AcDbEntity
  8
1
  6
Continuous
 62
   155
420
  5010073
370
    13
100
AcDbLine
 10
1339.906593
 20
2336.673077
 30
0.0
 11
1339.75488
 21
2336.673077
 31
0.0
  0
LINE
  5
227
330
1F
100
AcDbEntity
  8
1
  6
Continuous
 62
   155
420
  5010073
370
    13
100
AcDbLine
 10
457.058124
 20
2336.673077
 30
0.0
 11
456.906593
 21
2336.673077
 31
0.0
  0
LINE
  5
228
330
1F
100
AcDbEntity
  8
1
  6
Continuous
 62
   155
420
  5010073
370
    18
100
AcDbLine
 10
1339.906593
 20
2336.373077
 30
0.0
 11
1339.75494
 21
2336.373077
 31
0.0
  0
LINE
  5
229
330
1F
100
AcDbEntity
  8
1
  6
Continuous
 62
   155
420
  5010073
370
    13
100
AcDbLine
 10
1339.906593
 20
2323.673077
 30
0.0
 11
1339.747225
 21
2323.673077
 31
0.0
  0
LINE
  5
22A
330
1F
100
AcDbEntity
  8
1
  6
Continuous
 62
   155
420
  5010073
370
    18
100
AcDbLine
 10
1339.906593
 20
2323.973077
 30
0.0
 11
1339.74721
 21
2323.973077
 31
0.0
  0
LINE
  5
22B
330
1F
100
AcDbEntity
  8
1
  6
Continuous
 62
   155
420
  5010073
370
    18
100
AcDbLine
 10
457.058197
 20
2323.973077
 30
0.0
 11
456.906593
 21
2323.973077
 31
0.0
  0
LINE
  5
22C
330
1F
100
AcDbEntity
  8
1
  6
Continuous
 62
   155
420
  5010073
370
    13
100
AcDbLine
 10
457.058124
 20
2323.673077
 30
0.0
 11
456.906593
 21
2323.673077
 31
0.0
  0
LINE
  5
22D
330
1F
100
AcDbEntity
  8
1
  6
Continuous
 62
   155
420
  5010073
370
    18
100
AcDbLine
 10
457.058197
 20
2336.373077
 30
0.0
 11
456.906593
 21
2336.373077
 31
0.0
  0
LINE
  5
22E
330
1F
100
AcDbEntity
  8
1
  6
Continuous
 62
   155
420
  5010073
370
    18
100
AcDbLine
 10
677.206593
 20
2377.173077
 30
0.0
 11
677.206593
 21
2345.794405
 31
0.0
  0
LINE
  5
22F
330
1F
100
AcDbEntity
  8
1
  6
Continuous
 62
   155
420
  5010073
370
    18
100
AcDbLine
 10
677.206593
 20
2377.173077
 30
0.0
 11
1119.606593
 21
2377.173077
 31
0.0
  0
LINE
  5
230
330
1F
100
AcDbEntity
  8
1
  6
Continuous
 62
   155
420
  5010073
370
    18
100
AcDbLine
 10
1119.606593
 20
2345.794405
 30
0.0
 11
1119.606593
 21
2377.173077
 31
0.0
  0
LINE
  5
231
330
1F
100
AcDbEntity
  8
1
  6
Continuous
 62
   155
420
  5010073
370
    18
100
AcDbLine
 10
1118.306593
 20
2345.794405
 30
0.0
 11
1119.606593
 21
2345.794405
 31
0.0
  0
LINE
  5
232
330
1F
100
AcDbEntity
  8
1
  6
Continuous
 62
   155
420
  5010073
370
    18
100
AcDbLine
 10
1118.264129
 20
2345.673077
 30
0.0
 11
1118.306593
 21
2345.794405
 31
0.0
  0
LINE
  5
233
330
1F
100
AcDbEntity
  8
1
  6
Continuous
 62
   155
420
  5010073
370
    13
100
AcDbLine
 10
678.549058
 20
2345.673077
 30
0.0
 11
1118.264129
 21
2345.673077
 31
0.0
  0
LINE
  5
234
330
1F
100
AcDbEntity
  8
1
  6
Continuous
 62
   155
420
  5010073
370
    18
100
AcDbLine
 10
678.506593
 20
2345.794405
 30
0.0
 11
678.549058
 21
2345.673077
 31
0.0
  0
LINE
  5
235
330
1F
100
AcDbEntity
  8
1
  6
Continuous
 62
   155
420
  5010073
370
    18
100
AcDbLine
 10
677.206593
 20
2345.794405
 30
0.0
 11
678.506593
 21
2345.794405
 31
0.0
  0
LINE
  5
236
330
1F
100
AcDbEntity
  8
1
  6
Continuous
 62
   155
420
  5010073
370
    18
100
AcDbLine
 10
678.406593
 20
2345.673077
 30
0.0
 11
677.206593
 21
2345.673077
 31
0.0
  0
LINE
  5
237
330
1F
100
AcDbEntity
  8
1
  6
Continuous
 62
   155
420
  5010073
370
    18
100
AcDbLine
 10
678.406593
 20
2345.794405
 30
0.0
 11
678.406593
 21
2345.673077
 31
0.0
  0
LINE
  5
238
330
1F
100
AcDbEntity
  8
1
  6
Continuous
 62
   155
420
  5010073
370
    18
100
AcDbLine
 10
677.206593
 20
2345.794405
 30
0.0
 11
677.206593
 21
2345.673077
 31
0.0
  0
LINE
  5
239
330
1F
100
AcDbEntity
  8
1
  6
Continuous
 62
   155
420
  5010073
370
    18
100
AcDbLine
 10
1118.406593
 20
2345.673077
 30
0.0
 11
1119.606593
 21
2345.673077
 31
0.0
  0
LINE
  5
23A
330
1F
100
AcDbEntity
  8
1
  6
Continuous
 62
   155
420
  5010073
370
    18
100
AcDbLine
 10
1119.606593
 20
2345.673077
 30
0.0
 11
1119.606593
 21
2345.794405
 31
0.0
  0
LINE
  5
23B
330
1F
100
AcDbEntity
  8
1
  6
Continuous
 62
   155
420
  5010073
370
    18
100
AcDbLine
 10
1118.406593
 20
2345.673077
 30
0.0
 11
1118.406593
 21
2345.794405
 31
0.0
  0
LINE
  5
23C
330
1F
100
AcDbEntity
  8
1
  6
Continuous
 62
   155
420
  5010073
370
    18
100
AcDbLine
 10
1339.906593
 20
2343.673077
 30
0.0
 11
1342.406593
 21
2343.673077
 31
0.0
  0
LINE
  5
23D
330
1F
100
AcDbEntity
  8
1
  6
Continuous
 62
   155
420
  5010073
370
    18
100
AcDbLine
 10
1342.406593
 20
2343.673077
 30
0.0
 11
1342.406593
 21
2343.173077
 31
0.0
  0
LINE
  5
23E
330
1F
100
AcDbEntity
  8
1
  6
Continuous
 62
   155
420
  5010073
370
    18
100
AcDbLine
 10
1339.906593
 20
2343.173077
 30
0.0
 11
1339.906593
 21
2343.673077
 31
0.0
  0
LINE
  5
23F
330
1F
100
AcDbEntity
  8
1
  6
Continuous
 62
   155
420
  5010073
370
    13
100
AcDbLine
 10
1339.906593
 20
2317.173077
 30
0.0
 11
1342.406593
 21
2317.173077
 31
0.0
  0
LINE
  5
240
330
1F
100
AcDbEntity
  8
1
  6
Continuous
 62
   155
420
  5010073
370
    13
100
AcDbLine
 10
1342.406593
 20
2343.173077
 30
0.0
 11
1339.906593
 21
2343.173077
 31
0.0
  0
LINE
  5
241
330
1F
100
AcDbEntity
  8
1
  6
Continuous
 62
   155
420
  5010073
370
    18
100
AcDbLine
 10
1342.406593
 20
2317.173077
 30
0.0
 11
1342.406593
 21
2343.173077
 31
0.0
  0
LINE
  5
242
330
1F
100
AcDbEntity
  8
1
  6
Continuous
 62
   155
420
  5010073
370
    18
100
AcDbLine
 10
1339.906593
 20
2317.173077
 30
0.0
 11
1339.906593
 21
2343.173077
 31
0.0
  0
LINE
  5
243
330
1F
100
AcDbEntity
  8
1
  6
Continuous
 62
   155
420
  5010073
370
    18
100
AcDbLine
 10
1342.406593
 20
2316.673077
 30
0.0
 11
1342.406593
 21
2317.173077
 31
0.0
  0
LINE
  5
244
330
1F
100
AcDbEntity
  8
1
  6
Continuous
 62
   155
420
  5010073
370
    18
100
AcDbLine
 10
1342.406593
 20
2316.673077
 30
0.0
 11
1339.906593
 21
2316.673077
 31
0.0
  0
LINE
  5
245
330
1F
100
AcDbEntity
  8
1
  6
Continuous
 62
   155
420
  5010073
370
    18
100
AcDbLine
 10
1339.906593
 20
2316.673077
 30
0.0
 11
1339.906593
 21
2317.173077
 31
0.0
  0
LINE
  5
246
330
1F
100
AcDbEntity
  8
1
  6
Continuous
 62
   155
420
  5010073
370
    18
100
AcDbLine
 10
457.056593
 20
2340.963077
 30
0.0
 11
457.056593
 21
2340.663077
 31
0.0
  0
LINE
  5
247
330
1F
100
AcDbEntity
  8
1
  6
Continuous
 62
   155
420
  5010073
370
    18
100
AcDbLine
 10
1339.756593
 20
2340.963077
 30
0.0
 11
457.056593
 21
2340.963077
 31
0.0
  0
LINE
  5
248
330
1F
100
AcDbEntity
  8
1
  6
Continuous
 62
   155
420
  5010073
370
    18
100
AcDbLine
 10
1339.756593
 20
2340.963077
 30
0.0
 11
1339.756593
 21
2340.663077
 31
0.0
  0
LINE
  5
249
330
1F
100
AcDbEntity
  8
1
  6
Continuous
 62
   155
420
  5010073
370
    13
100
AcDbLine
 10
1339.756593
 20
2340.663077
 30
0.0
 11
457.056593
 21
2340.663077
 31
0.0
  0
LINE
  5
24A
330
1F
100
AcDbEntity
  8
1
  6
Continuous
 62
   155
420
  5010073
370
    18
100
AcDbLine
 10
457.056593
 20
2319.683077
 30
0.0
 11
457.056593
 21
2340.663077
 31
0.0
  0
LINE
  5
24B
330
1F
100
AcDbEntity
  8
1
  6
Continuous
 62
   155
420
  5010073
370
    18
100
AcDbLine
 10
1339.756593
 20
2319.683077
 30
0.0
 11
1339.756593
 21
2340.663077
 31
0.0
  0
LINE
  5
24C
330
1F
100
AcDbEntity
  8
1
  6
Continuous
 62
   155
420
  5010073
370
    13
100
AcDbLine
 10
1339.756593
 20
2319.683077
 30
0.0
 11
457.056593
 21
2319.683077
 31
0.0
  0
LINE
  5
24D
330
1F
100
AcDbEntity
  8
1
  6
Continuous
 62
   155
420
  5010073
370
    18
100
AcDbLine
 10
457.056593
 20
2319.383077
 30
0.0
 11
457.056593
 21
2319.683077
 31
0.0
  0
LINE
  5
24E
330
1F
100
AcDbEntity
  8
1
  6
Continuous
 62
   155
420
  5010073
370
    18
100
AcDbLine
 10
1339.756593
 20
2319.383077
 30
0.0
 11
1339.756593
 21
2319.683077
 31
0.0
  0
LINE
  5
24F
330
1F
100
AcDbEntity
  8
1
  6
Continuous
 62
   155
420
  5010073
370
    18
100
AcDbLine
 10
1339.756593
 20
2319.383077
 30
0.0
 11
457.056593
 21
2319.383077
 31
0.0
  0
LINE
  5
250
330
1F
100
AcDbEntity
  8
1
  6
Continuous
 62
   155
420
  5010073
370
    18
100
AcDbLine
 10
1329.756593
 20
2340.963077
 30
0.0
 11
1329.756593
 21
2341.173072
 31
0.0
  0
LINE
  5
251
330
1F
100
AcDbEntity
  8
1
  6
Continuous
 62
   155
420
  5010073
370
    18
100
AcDbLine
 10
1339.756593
 20
2340.963077
 30
0.0
 11
1339.756593
 21
2341.173072
 31
0.0
  0
LINE
  5
252
330
1F
100
AcDbEntity
  8
1
  6
Continuous
 62
   155
420
  5010073
370
    18
100
AcDbLine
 10
1329.756593
 20
2319.383077
 30
0.0
 11
1329.756593
 21
2319.173082
 31
0.0
  0
LINE
  5
253
330
1F
100
AcDbEntity
  8
1
  6
Continuous
 62
   155
420
  5010073
370
    18
100
AcDbLine
 10
1339.756593
 20
2319.173082
 30
0.0
 11
1339.756593
 21
2319.383077
 31
0.0
  0
LINE
  5
254
330
1F
100
AcDbEntity
  8
1
  6
Continuous
 62
   155
420
  5010073
370
    18
100
AcDbLine
 10
487.056593
 20
2340.963077
 30
0.0
 11
487.056593
 21
2341.173072
 31
0.0
  0
LINE
  5
255
330
1F
100
AcDbEntity
  8
1
  6
Continuous
 62
   155
420
  5010073
370
    18
100
AcDbLine
 10
1309.756593
 20
2340.963077
 30
0.0
 11
1309.756593
 21
2341.173072
 31
0.0
  0
LINE
  5
256
330
1F
100
AcDbEntity
  8
1
  6
Continuous
 62
   155
420
  5010073
370
    18
100
AcDbLine
 10
467.056593
 20
2319.383077
 30
0.0
 11
467.056593
 21
2319.173082
 31
0.0
  0
LINE
  5
257
330
1F
100
AcDbEntity
  8
1
  6
Continuous
 62
   155
420
  5010073
370
    18
100
AcDbLine
 10
1339.906593
 20
2341.173077
 30
0.0
 11
456.906593
 21
2341.173077
 31
0.0
  0
LINE
  5
258
330
1F
100
AcDbEntity
  8
1
  6
Continuous
 62
   155
420
  5010073
370
    13
100
AcDbLine
 10
1339.906593
 20
2343.173077
 30
0.0
 11
456.906593
 21
2343.173077
 31
0.0
  0
LINE
  5
259
330
1F
100
AcDbEntity
  8
1
  6
Continuous
 62
   155
420
  5010073
370
    18
100
AcDbLine
 10
1339.906593
 20
2343.173077
 30
0.0
 11
1339.906593
 21
2341.473077
 31
0.0
  0
LINE
  5
25A
330
1F
100
AcDbEntity
  8
1
  6
Continuous
 62
   155
420
  5010073
370
    18
100
AcDbLine
 10
456.906593
 20
2343.173077
 30
0.0
 11
456.906593
 21
2341.473077
 31
0.0
  0
LINE
  5
25B
330
1F
100
AcDbEntity
  8
1
  6
Continuous
 62
   155
420
  5010073
370
    13
100
AcDbLine
 10
1339.906593
 20
2318.873077
 30
0.0
 11
456.906593
 21
2318.873077
 31
0.0
  0
LINE
  5
25C
330
1F
100
AcDbEntity
  8
1
  6
Continuous
 62
   155
420
  5010073
370
    18
100
AcDbLine
 10
1339.906593
 20
2318.873077
 30
0.0
 11
1339.906593
 21
2317.173077
 31
0.0
  0
LINE
  5
25D
330
1F
100
AcDbEntity
  8
1
  6
Continuous
 62
   155
420
  5010073
370
    13
100
AcDbLine
 10
1339.906593
 20
2317.173077
 30
0.0
 11
456.906593
 21
2317.173077
 31
0.0
  0
LINE
  5
25E
330
1F
100
AcDbEntity
  8
1
  6
Continuous
 62
   155
420
  5010073
370
    18
100
AcDbLine
 10
456.906593
 20
2318.873077
 30
0.0
 11
456.906593
 21
2317.173077
 31
0.0
  0
LINE
  5
25F
330
1F
100
AcDbEntity
  8
1
  6
Continuous
 62
   155
420
  5010073
370
    18
100
AcDbLine
 10
1339.906593
 20
2343.673077
 30
0.0
 11
456.906593
 21
2343.673077
 31
0.0
  0
LINE
  5
260
330
1F
100
AcDbEntity
  8
1
  6
Continuous
 62
   155
420
  5010073
370
    18
100
AcDbLine
 10
1339.906593
 20
2343.673077
 30
0.0
 11
1339.906593
 21
2343.173077
 31
0.0
  0
LINE
  5
261
330
1F
100
AcDbEntity
  8
1
  6
Continuous
 62
   155
420
  5010073
370
    18
100
AcDbLine
 10
456.906593
 20
2343.673077
 30
0.0
 11
456.906593
 21
2343.173077
 31
0.0
  0
LINE
  5
262
330
1F
100
AcDbEntity
  8
1
  6
Continuous
 62
   155
420
  5010073
370
    18
100
AcDbLine
 10
1339.906593
 20
2319.173077
 30
0.0
 11
456.906593
 21
2319.173077
 31
0.0
  0
LINE
  5
263
330
1F
100
AcDbEntity
  8
1
  6
Continuous
 62
   155
420
  5010073
370
    18
100
AcDbLine
 10
1339.906593
 20
2317.173077
 30
0.0
 11
1339.906593
 21
2316.673077
 31
0.0
  0
LINE
  5
264
330
1F
100
AcDbEntity
  8
1
  6
Continuous
 62
   155
420
  5010073
370
    18
100
AcDbLine
 10
1339.906593
 20
2316.673077
 30
0.0
 11
456.906593
 21
2316.673077
 31
0.0
  0
LINE
  5
265
330
1F
100
AcDbEntity
  8
1
  6
Continuous
 62
   155
420
  5010073
370
    18
100
AcDbLine
 10
456.906593
 20
2317.173077
 30
0.0
 11
456.906593
 21
2316.673077
 31
0.0
  0
LINE
  5
266
330
1F
100
AcDbEntity
  8
1
  6
Continuous
 62
   155
420
  5010073
370
    13
100
AcDbLine
 10
1339.906593
 20
2339.877174
 30
0.0
 11
1339.746862
 21
2339.877174
 31
0.0
  0
ENDSEC
  0
SECTION
  2
OBJECTS
  0
DICTIONARY
  5
C
330
0
100
AcDbDictionary
281
     1
  3
ACAD_DETAILVIEWSTYLE
350
2A2
  3
ACAD_GROUP
350
D
  3
ACAD_LAYOUT
350
1A
  3
ACAD_MATERIAL
350
43
  3
ACAD_MLEADERSTYLE
350
5B
  3
ACAD_MLINESTYLE
350
17
  3
ACAD_PLOTSETTINGS
350
19
  3
ACAD_PLOTSTYLENAME
350
E
  3
ACAD_SCALELIST
350
47
  3
ACAD_SECTIONVIEWSTYLE
350
2A3
  3
ACAD_TABLESTYLE
350
59
  3
ACAD_VISUALSTYLE
350
2A
  3
AcDbVariableDictionary
350
267
  3
ACDB_RECOMPOSE_DATA
350
29F
  0
SUN
  5
5D
330
29
100
AcDbSun
 90
        1
290
     0
 63
     7
421
 16777215
 40
1.0
291
     1
 91
  2455826
 92
 54000000
292
     0
 70
     2
 71
   256
280
     1
  0
DICTIONARY
  5
2A2
102
{ACAD_REACTORS
330
C
102
}
330
C
100
AcDbDictionary
281
     1
  0
DICTIONARY
  5
D
102
{ACAD_REACTORS
330
C
102
}
330
C
100
AcDbDictionary
281
     1
  0
DICTIONARY
  5
1A
102
{ACAD_REACTORS
330
C
102
}
330
C
100
AcDbDictionary
281
     1
  3
Layout1
350
1E
  3
Layout2
350
26
  3
Model
350
22
  0
DICTIONARY
  5
43
102
{ACAD_REACTORS
330
C
102
}
330
C
100
AcDbDictionary
281
     1
  3
ByBlock
350
45
  3
ByLayer
350
44
  3
Global
350
46
  0
DICTIONARY
  5
5B
102
{ACAD_REACTORS
330
C
102
}
330
C
100
AcDbDictionary
281
     1
  3
Standard
350
5C
  0
DICTIONARY
  5
17
102
{ACAD_REACTORS
330
C
102
}
330
C
100
AcDbDictionary
281
     1
  3
Standard
350
18
  0
DICTIONARY
  5
19
102
{ACAD_REACTORS
330
C
102
}
330
C
100
AcDbDictionary
281
     1
  0
ACDBDICTIONARYWDFLT
  5
E
102
{ACAD_REACTORS
330
C
102
}
330
C
100
AcDbDictionary
281
     1
  3
Normal
350
F
100
AcDbDictionaryWithDefault
340
F
  0
DICTIONARY
  5
47
102
{ACAD_REACTORS
330
C
102
}
330
C
100
AcDbDictionary
281
     1
  3
A0
350
48
  3
A1
350
49
  3
A2
350
4A
  3
A3
350
4B
  3
A4
350
4C
  3
A5
350
4D
  3
A6
350
4E
  3
A7
350
4F
  3
A8
350
50
  3
A9
350
51
  3
B1
350
52
  3
B2
350
53
  3
B3
350
54
  3
B4
350
55
  3
B5
350
56
  3
B6
350
57
  3
B7
350
58
  0
DICTIONARY
  5
2A3
102
{ACAD_REACTORS
330
C
102
}
330
C
100
AcDbDictionary
281
     1
  0
DICTIONARY
  5
59
102
{ACAD_REACTORS
330
C
102
}
330
C
100
AcDbDictionary
281
     1
  3
Standard
350
5A
  0
DICTIONARY
  5
2A
102
{ACAD_REACTORS
330
C
102
}
330
C
100
AcDbDictionary
281
     1
  3
2dWireframe
350
2F
  3
Basic
350
32
  3
Brighten
350
36
  3
ColorChange
350
3A
  3
Conceptual
350
34
  3
Dim
350
35
  3
EdgeColorOff
350
3D
  3
Facepattern
350
39
  3
Flat
350
2B
  3
FlatWithEdges
350
2C
  3
Gouraud
350
2D
  3
GouraudWithEdges
350
2E
  3
Hidden
350
31
  3
JitterOff
350
3B
  3
Linepattern
350
38
  3
OverhangOff
350
3C
  3
Realistic
350
33
  3
Shaded
350
42
  3
Shaded with edges
350
41
  3
Shades of Gray
350
3E
  3
Sketchy
350
3F
  3
Thicken
350
37
  3
Wireframe
350
30
  3
X-Ray
350
40
  0
DICTIONARY
  5
267
102
{ACAD_REACTORS
330
C
102
}
330
C
100
AcDbDictionary
281
     1
  3
CANNOSCALE
350
268
  3
CMLEADERSTYLE
350
2A1
  3
CTABLESTYLE
350
2A0
  3
XCLIPFRAME
350
269
  0
XRECORD
  5
29F
102
{ACAD_REACTORS
330
C
102
}
330
C
100
AcDbXrecord
280
     1
 90
        1
330
5A
  0
LAYOUT
  5
1E
102
{ACAD_REACTORS
330
1A
102
}
330
1A
100
AcDbPlotSettings
  1

  2
none_device
  4

  6

 40
0.0
 41
0.0
 42
0.0
 43
0.0
 44
0.0
 45
0.0
 46
0.0
 47
0.0
 48
0.0
 49
0.0
140
0.0
141
0.0
142
1.0
143
1.0
 70
   688
 72
     0
 73
     0
 74
     5
  7

 75
    16
 76
     0
 77
     2
 78
   300
147
1.0
148
0.0
149
0.0
100
AcDbLayout
  1
Layout1
 70
     1
 71
     1
 10
0.0
 20
0.0
 11
12.0
 21
9.0
 12
0.0
 22
0.0
 32
0.0
 14
1.000000000000000E+20
 24
1.000000000000000E+20
 34
1.000000000000000E+20
 15
-1.000000000000000E+20
 25
-1.000000000000000E+20
 35
-1.000000000000000E+20
146
0.0
 13
0.0
 23
0.0
 33
0.0
 16
1.0
 26
0.0
 36
0.0
 17
0.0
 27
1.0
 37
0.0
 76
     0
330
1B
  0
LAYOUT
  5
26
102
{ACAD_REACTORS
330
1A
102
}
330
1A
100
AcDbPlotSettings
  1

  2
none_device
  4

  6

 40
0.0
 41
0.0
 42
0.0
 43
0.0
 44
0.0
 45
0.0
 46
0.0
 47
0.0
 48
0.0
 49
0.0
140
0.0
141
0.0
142
1.0
143
1.0
 70
   688
 72
     0
 73
     0
 74
     5
  7

 75
    16
 76
     0
 77
     2
 78
   300
147
1.0
148
0.0
149
0.0
100
AcDbLayout
  1
Layout2
 70
     1
 71
     2
 10
0.0
 20
0.0
 11
0.0
 21
0.0
 12
0.0
 22
0.0
 32
0.0
 14
0.0
 24
0.0
 34
0.0
 15
0.0
 25
0.0
 35
0.0
146
0.0
 13
0.0
 23
0.0
 33
0.0
 16
1.0
 26
0.0
 36
0.0
 17
0.0
 27
1.0
 37
0.0
 76
     0
330
23
  0
LAYOUT
  5
22
102
{ACAD_REACTORS
330
1A
102
}
330
1A
100
AcDbPlotSettings
  1

  2
none_device
  4
Letter_(8.50_x_11.00_Inches)
  6

 40
6.35
 41
6.35
 42
6.35000508
 43
6.35000508
 44
215.9
 45
279.4
 46
0.0
 47
0.0
 48
0.0
 49
0.0
140
0.0
141
0.0
142
1.0
143
1.0
 70
  1712
 72
     0
 73
     0
 74
     0
  7

 75
     0
 76
     0
 77
     2
 78
   300
147
1.0
148
0.0
149
0.0
100
AcDbLayout
  1
Model
 70
     1
 71
     0
 10
0.0
 20
0.0
 11
12.0
 21
9.0
 12
0.0
 22
0.0
 32
0.0
 14
306.076967
 24
2181.081758
 34
-0.0000000000000021
 15
2425.064308
 25
2552.499253
 35
0.0000000000000021
146
0.0
 13
0.0
 23
0.0
 33
0.0
 16
1.0
 26
0.0
 36
0.0
 17
0.0
 27
1.0
 37
0.0
 76
     0
330
1F
331
29
  0
MATERIAL
  5
45
102
{ACAD_REACTORS
330
43
102
}
330
43
100
AcDbMaterial
  1
ByBlock
 72
     1
 94
      127
  0
MATERIAL
  5
44
102
{ACAD_REACTORS
330
43
102
}
330
43
100
AcDbMaterial
  1
ByLayer
 72
     1
 94
      127
  0
MATERIAL
  5
46
102
{ACAD_REACTORS
330
43
102
}
330
43
100
AcDbMaterial
  1
Global
 72
     1
 94
      127
  0
MLEADERSTYLE
  5
5C
102
{ACAD_REACTORS
330
5B
102
}
102
{ACAD_XDICTIONARY
360
29D
102
}
330
5B
100
AcDbMLeaderStyle
170
     2
171
     1
172
     0
 90
        2
 40
0.0
 41
0.0
173
     1
 91
-1056964608
340
14
 92
       -2
290
     1
 42
0.09
291
     1
 43
0.36
  3
Standard
341
0
 44
0.18
300

342
11
174
     1
178
     6
175
     1
176
     0
 93
-1056964608
 45
0.18
292
     0
297
     0
 46
0.18
343
0
 94
-1056964608
 47
1.0
 49
1.0
140
1.0
293
     1
141
0.0
294
     1
177
     0
142
1.0
295
     0
296
     0
143
0.125
1001
ACAD_MLEADERVER
1070
     2
  0
MLINESTYLE
  5
18
102
{ACAD_REACTORS
330
17
102
}
330
17
100
AcDbMlineStyle
  2
Standard
 70
     0
  3

 62
   256
 51
90.0
 52
90.0
 71
     2
 49
0.5
 62
   256
  6
BYLAYER
 49
-0.5
 62
   256
  6
BYLAYER
  0
ACDBPLACEHOLDER
  5
F
102
{ACAD_REACTORS
330
E
102
}
330
E
  0
SCALE
  5
48
102
{ACAD_REACTORS
330
47
102
}
330
47
100
AcDbScale
 70
     0
300
1:1
140
1.0
141
1.0
290
     1
  0
SCALE
  5
49
102
{ACAD_REACTORS
330
47
102
}
330
47
100
AcDbScale
 70
     0
300
1/128" = 1'-0"
140
0.0078125
141
12.0
290
     0
  0
SCALE
  5
4A
102
{ACAD_REACTORS
330
47
102
}
330
47
100
AcDbScale
 70
     0
300
1/64" = 1'-0"
140
0.015625
141
12.0
290
     0
  0
SCALE
  5
4B
102
{ACAD_REACTORS
330
47
102
}
330
47
100
AcDbScale
 70
     0
300
1/32" = 1'-0"
140
0.03125
141
12.0
290
     0
  0
SCALE
  5
4C
102
{ACAD_REACTORS
330
47
102
}
330
47
100
AcDbScale
 70
     0
300
1/16" = 1'-0"
140
0.0625
141
12.0
290
     0
  0
SCALE
  5
4D
102
{ACAD_REACTORS
330
47
102
}
330
47
100
AcDbScale
 70
     0
300
3/32" = 1'-0"
140
0.09375
141
12.0
290
     0
  0
SCALE
  5
4E
102
{ACAD_REACTORS
330
47
102
}
330
47
100
AcDbScale
 70
     0
300
1/8" = 1'-0"
140
0.125
141
12.0
290
     0
  0
SCALE
  5
4F
102
{ACAD_REACTORS
330
47
102
}
330
47
100
AcDbScale
 70
     0
300
3/16" = 1'-0"
140
0.1875
141
12.0
290
     0
  0
SCALE
  5
50
102
{ACAD_REACTORS
330
47
102
}
330
47
100
AcDbScale
 70
     0
300
1/4" = 1'-0"
140
0.25
141
12.0
290
     0
  0
SCALE
  5
51
102
{ACAD_REACTORS
330
47
102
}
330
47
100
AcDbScale
 70
     0
300
3/8" = 1'-0"
140
0.375
141
12.0
290
     0
  0
SCALE
  5
52
102
{ACAD_REACTORS
330
47
102
}
330
47
100
AcDbScale
 70
     0
300
1/2" = 1'-0"
140
0.5
141
12.0
290
     0
  0
SCALE
  5
53
102
{ACAD_REACTORS
330
47
102
}
330
47
100
AcDbScale
 70
     0
300
3/4" = 1'-0"
140
0.75
141
12.0
290
     0
  0
SCALE
  5
54
102
{ACAD_REACTORS
330
47
102
}
330
47
100
AcDbScale
 70
     0
300
1" = 1'-0"
140
1.0
141
12.0
290
     0
  0
SCALE
  5
55
102
{ACAD_REACTORS
330
47
102
}
330
47
100
AcDbScale
 70
     0
300
1-1/2" = 1'-0"
140
1.5
141
12.0
290
     0
  0
SCALE
  5
56
102
{ACAD_REACTORS
330
47
102
}
330
47
100
AcDbScale
 70
     0
300
3" = 1'-0"
140
3.0
141
12.0
290
     0
  0
SCALE
  5
57
102
{ACAD_REACTORS
330
47
102
}
330
47
100
AcDbScale
 70
     0
300
6" = 1'-0"
140
6.0
141
12.0
290
     0
  0
SCALE
  5
58
102
{ACAD_REACTORS
330
47
102
}
330
47
100
AcDbScale
 70
     0
300
1'-0" = 1'-0"
140
12.0
141
12.0
290
     0
  0
TABLESTYLE
  5
5A
102
{ACAD_REACTORS
330
59
102
}
102
{ACAD_XDICTIONARY
360
29A
102
}
330
59
100
AcDbTableStyle
  3
Standard
 70
     0
 71
     0
 40
0.06
 41
0.06
280
     0
281
     0
  7
Standard
140
0.18
170
     2
 62
     0
 63
   257
283
     0
 90
        4
 91
        0
  1

274
    -2
284
     1
 64
     0
275
    -2
285
     1
 65
     0
276
    -2
286
     1
 66
     0
277
    -2
287
     1
 67
     0
278
    -2
288
     1
 68
     0
279
    -2
289
     1
 69
     0
  7
Standard
140
0.25
170
     5
 62
     0
 63
   257
283
     0
 90
        4
 91
        0
  1

274
    -2
284
     1
 64
     0
275
    -2
285
     1
 65
     0
276
    -2
286
     1
 66
     0
277
    -2
287
     1
 67
     0
278
    -2
288
     1
 68
     0
279
    -2
289
     1
 69
     0
  7
Standard
140
0.18
170
     5
 62
     0
 63
   257
283
     0
 90
        4
 91
        0
  1

274
    -2
284
     1
 64
     0
275
    -2
285
     1
 65
     0
276
    -2
286
     1
 66
     0
277
    -2
287
     1
 67
     0
278
    -2
288
     1
 68
     0
279
    -2
289
     1
 69
     0
  0
VISUALSTYLE
  5
2F
102
{ACAD_REACTORS
330
2A
102
}
102
{ACAD_XDICTIONARY
360
272
102
}
330
2A
100
AcDbVisualStyle
  2
2dWireframe
 70
     4
 71
     0
 72
     2
 73
     0
 90
        0
 40
0.6
 41
30.0
 62
     5
 63
     7
421
 16777215
 74
     1
 91
        4
 64
     7
 65
   257
 75
     1
175
     1
 42
1.0
 92
        0
 66
   257
 43
1.0
 76
     1
 77
     6
 78
     2
 67
     7
 79
     5
170
     0
171
     0
290
     0
174
     0
 93
        1
 44
0.0
173
     0
291
     0
 45
0.0
  0
VISUALSTYLE
  5
32
102
{ACAD_REACTORS
330
2A
102
}
102
{ACAD_XDICTIONARY
360
278
102
}
330
2A
100
AcDbVisualStyle
  2
Basic
 70
     7
 71
     1
 72
     0
 73
     1
 90
        0
 40
0.6
 41
30.0
 62
     5
 63
     7
421
 16777215
 74
     0
 91
        4
 64
     7
 65
   257
 75
     1
175
     1
 42
1.0
 92
        8
 66
     7
 43
1.0
 76
     1
 77
     6
 78
     2
 67
     7
 79
     5
170
     0
171
     0
290
     0
174
     0
 93
        1
 44
0.0
173
     0
291
     1
 45
0.0
  0
VISUALSTYLE
  5
36
102
{ACAD_REACTORS
330
2A
102
}
102
{ACAD_XDICTIONARY
360
280
102
}
330
2A
100
AcDbVisualStyle
  2
Brighten
 70
    12
 71
     2
 72
     2
 73
     0
 90
        0
 40
0.6
 41
30.0
 62
     5
 63
     7
421
 16777215
 74
     1
 91
        4
 64
     7
 65
   257
 75
     1
175
     1
 42
1.0
 92
        8
 66
     7
 43
1.0
 76
     1
 77
     6
 78
     2
 67
     7
 79
     5
170
     0
171
     0
290
     0
174
     0
 93
        1
 44
50.0
173
     0
291
     1
 45
0.0
  0
VISUALSTYLE
  5
3A
102
{ACAD_REACTORS
330
2A
102
}
102
{ACAD_XDICTIONARY
360
288
102
}
330
2A
100
AcDbVisualStyle
  2
ColorChange
 70
    16
 71
     2
 72
     2
 73
     3
 90
        0
 40
0.6
 41
30.0
 62
     5
 63
     8
421
  8421504
 74
     1
 91
        4
 64
     7
 65
   257
 75
     1
175
     1
 42
1.0
 92
        8
 66
     8
424
  8421504
 43
1.0
 76
     1
 77
     6
 78
     2
 67
     7
 79
     5
170
     0
171
     0
290
     0
174
     0
 93
        1
 44
0.0
173
     0
291
     1
 45
0.0
  0
VISUALSTYLE
  5
34
102
{ACAD_REACTORS
330
2A
102
}
102
{ACAD_XDICTIONARY
360
27C
102
}
330
2A
100
AcDbVisualStyle
  2
Conceptual
 70
     9
 71
     3
 72
     2
 73
     0
 90
        0
 40
0.6
 41
30.0
 62
     5
 63
     7
421
 16777215
 74
     2
 91
        2
 64
     7
 65
   257
 75
     1
175
     1
 42
179.0
 92
        8
 66
     7
 43
1.0
 76
     1
 77
     6
 78
     2
 67
     7
 79
     3
170
     0
171
     0
290
     0
174
     0
 93
        1
 44
0.0
173
     0
291
     0
 45
0.0
  0
VISUALSTYLE
  5
35
102
{ACAD_REACTORS
330
2A
102
}
102
{ACAD_XDICTIONARY
360
27E
102
}
330
2A
100
AcDbVisualStyle
  2
Dim
 70
    11
 71
     2
 72
     2
 73
     0
 90
        0
 40
0.6
 41
30.0
 62
     5
 63
     7
421
 16777215
 74
     1
 91
        4
 64
     7
 65
   257
 75
     1
175
     1
 42
1.0
 92
        8
 66
     7
 43
1.0
 76
     1
 77
     6
 78
     2
 67
     7
 79
     5
170
     0
171
     0
290
     0
174
     0
 93
        1
 44
-50.0
173
     0
291
     1
 45
0.0
  0
VISUALSTYLE
  5
3D
102
{ACAD_REACTORS
330
2A
102
}
102
{ACAD_XDICTIONARY
360
28E
102
}
330
2A
100
AcDbVisualStyle
  2
EdgeColorOff
 70
    22
 71
     2
 72
     2
 73
     0
 90
        0
 40
0.6
 41
30.0
 62
     5
 63
     7
421
 16777215
 74
     1
 91
        4
 64
     7
 65
   257
 75
     1
175
     1
 42
1.0
 92
        8
 66
     7
 43
1.0
 76
     1
 77
     6
 78
     2
 67
     7
 79
     5
170
     0
171
     0
290
     0
174
     0
 93
        1
 44
0.0
173
     0
291
     1
 45
0.0
  0
VISUALSTYLE
  5
39
102
{ACAD_REACTORS
330
2A
102
}
102
{ACAD_XDICTIONARY
360
286
102
}
330
2A
100
AcDbVisualStyle
  2
Facepattern
 70
    15
 71
     2
 72
     2
 73
     0
 90
        0
 40
0.6
 41
30.0
 62
     5
 63
     7
421
 16777215
 74
     1
 91
        4
 64
     7
 65
   257
 75
     1
175
     1
 42
1.0
 92
        8
 66
     7
 43
1.0
 76
     1
 77
     6
 78
     2
 67
     7
 79
     5
170
     0
171
     0
290
     0
174
     0
 93
        1
 44
0.0
173
     0
291
     1
 45
0.0
  0
VISUALSTYLE
  5
2B
102
{ACAD_REACTORS
330
2A
102
}
102
{ACAD_XDICTIONARY
360
26A
102
}
330
2A
100
AcDbVisualStyle
  2
Flat
 70
     0
 71
     2
 72
     1
 73
     1
 90
        2
 40
0.6
 41
30.0
 62
     5
 63
     7
421
 16777215
 74
     0
 91
        0
 64
     7
 65
   257
 75
     1
175
     1
 42
1.0
 92
        8
 66
     7
 43
1.0
 76
     1
 77
     6
 78
     2
 67
     7
 79
     5
170
     0
171
     0
290
     0
174
     0
 93
       13
 44
0.0
173
     0
291
     1
 45
0.0
  0
VISUALSTYLE
  5
2C
102
{ACAD_REACTORS
330
2A
102
}
102
{ACAD_XDICTIONARY
360
26C
102
}
330
2A
100
AcDbVisualStyle
  2
FlatWithEdges
 70
     1
 71
     2
 72
     1
 73
     1
 90
        2
 40
0.6
 41
30.0
 62
     5
 63
     7
421
 16777215
 74
     1
 91
        0
 64
     7
 65
   257
 75
     1
175
     1
 42
1.0
 92
        0
 66
   257
 43
1.0
 76
     1
 77
     6
 78
     2
 67
     7
 79
     5
170
     0
171
     0
290
     0
174
     0
 93
       13
 44
0.0
173
     0
291
     1
 45
0.0
  0
VISUALSTYLE
  5
2D
102
{ACAD_REACTORS
330
2A
102
}
102
{ACAD_XDICTIONARY
360
26E
102
}
330
2A
100
AcDbVisualStyle
  2
Gouraud
 70
     2
 71
     2
 72
     2
 73
     1
 90
        2
 40
0.6
 41
30.0
 62
     5
 63
     7
421
 16777215
 74
     0
 91
        0
 64
     7
 65
   257
 75
     1
175
     1
 42
1.0
 92
        0
 66
     7
 43
1.0
 76
     1
 77
     6
 78
     2
 67
     7
 79
     5
170
     0
171
     0
290
     0
174
     0
 93
       13
 44
0.0
173
     0
291
     1
 45
0.0
  0
VISUALSTYLE
  5
2E
102
{ACAD_REACTORS
330
2A
102
}
102
{ACAD_XDICTIONARY
360
270
102
}
330
2A
100
AcDbVisualStyle
  2
GouraudWithEdges
 70
     3
 71
     2
 72
     2
 73
     1
 90
        2
 40
0.6
 41
30.0
 62
     5
 63
     7
421
 16777215
 74
     1
 91
        0
 64
     7
 65
   257
 75
     1
175
     1
 42
1.0
 92
        0
 66
   257
 43
1.0
 76
     1
 77
     6
 78
     2
 67
     7
 79
     5
170
     0
171
     0
290
     0
174
     0
 93
       13
 44
0.0
173
     0
291
     1
 45
0.0
  0
VISUALSTYLE
  5
31
102
{ACAD_REACTORS
330
2A
102
}
102
{ACAD_XDICTIONARY
360
276
102
}
330
2A
100
AcDbVisualStyle
  2
Hidden
 70
     6
 71
     1
 72
     2
 73
     2
 90
        0
 40
0.6
 41
30.0
 62
     5
 63
     7
421
 16777215
 74
     2
 91
        2
 64
     7
 65
   257
 75
     2
175
     1
 42
40.0
 92
        0
 66
   257
 43
1.0
 76
     1
 77
     6
 78
     2
 67
     7
 79
     3
170
     0
171
     0
290
     0
174
     0
 93
        1
 44
0.0
173
     0
291
     0
 45
0.0
  0
VISUALSTYLE
  5
3B
102
{ACAD_REACTORS
330
2A
102
}
102
{ACAD_XDICTIONARY
360
28A
102
}
330
2A
100
AcDbVisualStyle
  2
JitterOff
 70
    20
 71
     2
 72
     2
 73
     0
 90
        0
 40
0.6
 41
30.0
 62
     5
 63
     7
421
 16777215
 74
     1
 91
        4
 64
     7
 65
   257
 75
     1
175
     1
 42
1.0
 92
       10
 66
     7
 43
1.0
 76
     1
 77
     6
 78
     2
 67
     7
 79
     5
170
     0
171
     0
290
     0
174
     0
 93
        1
 44
0.0
173
     0
291
     1
 45
0.0
  0
VISUALSTYLE
  5
38
102
{ACAD_REACTORS
330
2A
102
}
102
{ACAD_XDICTIONARY
360
284
102
}
330
2A
100
AcDbVisualStyle
  2
Linepattern
 70
    14
 71
     2
 72
     2
 73
     0
 90
        0
 40
0.6
 41
30.0
 62
     5
 63
     7
421
 16777215
 74
     1
 91
        4
 64
     7
 65
   257
 75
     7
175
     7
 42
1.0
 92
        8
 66
     7
 43
1.0
 76
     1
 77
     6
 78
     2
 67
     7
 79
     5
170
     0
171
     0
290
     0
174
     0
 93
        1
 44
0.0
173
     0
291
     1
 45
0.0
  0
VISUALSTYLE
  5
3C
102
{ACAD_REACTORS
330
2A
102
}
102
{ACAD_XDICTIONARY
360
28C
102
}
330
2A
100
AcDbVisualStyle
  2
OverhangOff
 70
    21
 71
     2
 72
     2
 73
     0
 90
        0
 40
0.6
 41
30.0
 62
     5
 63
     7
421
 16777215
 74
     1
 91
        4
 64
     7
 65
   257
 75
     1
175
     1
 42
1.0
 92
        9
 66
     7
 43
1.0
 76
     1
 77
     6
 78
     2
 67
     7
 79
     5
170
     0
171
     0
290
     0
174
     0
 93
        1
 44
0.0
173
     0
291
     1
 45
0.0
  0
VISUALSTYLE
  5
33
102
{ACAD_REACTORS
330
2A
102
}
102
{ACAD_XDICTIONARY
360
27A
102
}
330
2A
100
AcDbVisualStyle
  2
Realistic
 70
     8
 71
     2
 72
     3
 73
     0
 90
        2
 40
0.6
 41
30.0
 62
     5
 63
     7
421
 16777215
 74
     0
 91
        0
 64
     7
 65
   257
 75
     1
175
     1
 42
1.0
 92
        8
 66
   257
 43
1.0
 76
     1
 77
     6
 78
     2
 67
     7
 79
     3
170
     0
171
     0
290
     0
174
     0
 93
       13
 44
0.0
173
     0
291
     0
 45
0.0
  0
VISUALSTYLE
  5
42
102
{ACAD_REACTORS
330
2A
102
}
102
{ACAD_XDICTIONARY
360
298
102
}
330
2A
100
AcDbVisualStyle
  2
Shaded
 70
    27
 71
     2
 72
     2
 73
     1
 90
        2
 40
0.6
 41
30.0
 62
     5
 63
     7
421
 16777215
 74
     0
 91
        4
 64
     7
 65
   257
 75
     1
175
     1
 42
1.0
 92
        8
 66
   257
 43
1.0
 76
     1
 77
     6
 78
     2
 67
     8
425
  7895160
 79
     3
170
     0
171
     0
290
     0
174
     0
 93
        5
 44
0.0
173
     0
291
     0
 45
0.0
  0
VISUALSTYLE
  5
41
102
{ACAD_REACTORS
330
2A
102
}
102
{ACAD_XDICTIONARY
360
296
102
}
330
2A
100
AcDbVisualStyle
  2
Shaded with edges
 70
    26
 71
     2
 72
     2
 73
     1
 90
        2
 40
0.6
 41
30.0
 62
     5
 63
     7
421
 16777215
 74
     1
 91
       10
 64
     7
 65
   257
 75
     2
175
     1
 42
1.0
 92
        8
 66
   257
 43
1.0
 76
     1
 77
     6
 78
     2
 67
     7
 79
     3
170
     0
171
     0
290
     0
174
     0
 93
        5
 44
0.0
173
     0
291
     0
 45
0.0
  0
VISUALSTYLE
  5
3E
102
{ACAD_REACTORS
330
2A
102
}
102
{ACAD_XDICTIONARY
360
290
102
}
330
2A
100
AcDbVisualStyle
  2
Shades of Gray
 70
    23
 71
     2
 72
     2
 73
     3
 90
        0
 40
0.6
 41
30.0
 62
     5
 63
     7
421
 16777215
 74
     2
 91
        2
 64
     7
 65
     7
 75
     1
175
     1
 42
40.0
 92
        8
 66
     7
 43
1.0
 76
     1
 77
     6
 78
     2
 67
     7
 79
     3
170
     0
171
     0
290
     0
174
     0
 93
        1
 44
0.0
173
     0
291
     0
 45
0.0
  0
VISUALSTYLE
  5
3F
102
{ACAD_REACTORS
330
2A
102
}
102
{ACAD_XDICTIONARY
360
292
102
}
330
2A
100
AcDbVisualStyle
  2
Sketchy
 70
    24
 71
     1
 72
     2
 73
     2
 90
        0
 40
0.6
 41
30.0
 62
     5
 63
     7
421
 16777215
 74
     2
 91
        2
 64
     7
 65
     7
 75
     1
175
     1
 42
40.0
 92
       11
 66
     7
 43
1.0
 76
     1
 77
     6
 78
     2
 67
     7
 79
     6
170
     0
171
     0
290
     0
174
     0
 93
        1
 44
0.0
173
     0
291
     0
 45
0.0
  0
VISUALSTYLE
  5
37
102
{ACAD_REACTORS
330
2A
102
}
102
{ACAD_XDICTIONARY
360
282
102
}
330
2A
100
AcDbVisualStyle
  2
Thicken
 70
    13
 71
     2
 72
     2
 73
     0
 90
        0
 40
0.6
 41
30.0
 62
     5
 63
     7
421
 16777215
 74
     1
 91
        4
 64
     7
 65
   257
 75
     1
175
     1
 42
1.0
 92
       12
 66
     7
 43
1.0
 76
     1
 77
     6
 78
     2
 67
     7
 79
     5
170
     0
171
     0
290
     0
174
     0
 93
        1
 44
0.0
173
     0
291
     1
 45
0.0
  0
VISUALSTYLE
  5
30
102
{ACAD_REACTORS
330
2A
102
}
102
{ACAD_XDICTIONARY
360
274
102
}
330
2A
100
AcDbVisualStyle
  2
Wireframe
 70
     5
 71
     0
 72
     2
 73
     0
 90
        0
 40
0.6
 41
30.0
 62
     5
 63
     7
421
 16777215
 74
     1
 91
        4
 64
     7
 65
   257
 75
     1
175
     1
 42
1.0
 92
        0
 66
   257
 43
1.0
 76
     1
 77
     6
 78
     2
 67
     7
 79
     3
170
     0
171
     0
290
     0
174
     0
 93
        1
 44
0.0
173
     0
291
     0
 45
0.0
  0
VISUALSTYLE
  5
40
102
{ACAD_REACTORS
330
2A
102
}
102
{ACAD_XDICTIONARY
360
294
102
}
330
2A
100
AcDbVisualStyle
  2
X-Ray
 70
    25
 71
     2
 72
     2
 73
     1
 90
        1
 40
0.5
 41
30.0
 62
     5
 63
     7
421
 16777215
 74
     1
 91
        0
 64
     7
 65
   257
 75
     1
175
     1
 42
1.0
 92
        8
 66
     7
 43
1.0
 76
     1
 77
     6
 78
     2
 67
     7
 79
     3
170
     0
171
     0
290
     0
174
     0
 93
       13
 44
0.0
173
     0
291
     0
 45
0.0
  0
DICTIONARYVAR
  5
268
102
{ACAD_REACTORS
330
267
102
}
330
267
100
DictionaryVariables
280
     0
  1
1:1
  0
DICTIONARYVAR
  5
2A1
102
{ACAD_REACTORS
330
267
102
}
330
267
100
DictionaryVariables
280
     0
  1
Standard
  0
DICTIONARYVAR
  5
2A0
102
{ACAD_REACTORS
330
267
102
}
330
267
100
DictionaryVariables
280
     0
  1
Standard
  0
DICTIONARYVAR
  5
269
102
{ACAD_REACTORS
330
267
102
}
330
267
100
DictionaryVariables
280
     0
  1
2
  0
DICTIONARY
  5
29D
330
5C
100
AcDbDictionary
280
     1
281
     1
  3
ACAD_XREC_ROUNDTRIP
360
29E
  0
DICTIONARY
  5
29A
330
5A
100
AcDbDictionary
280
     1
281
     1
  3
ACAD_ROUNDTRIP_2008_TABLESTYLE_CELLSTYLEMAP
360
29B
  0
DICTIONARY
  5
272
330
2F
100
AcDbDictionary
280
     1
281
     1
  3
ACAD_XREC_ROUNDTRIP
360
273
  0
DICTIONARY
  5
278
330
32
100
AcDbDictionary
280
     1
281
     1
  3
ACAD_XREC_ROUNDTRIP
360
279
  0
DICTIONARY
  5
280
330
36
100
AcDbDictionary
280
     1
281
     1
  3
ACAD_XREC_ROUNDTRIP
360
281
  0
DICTIONARY
  5
288
330
3A
100
AcDbDictionary
280
     1
281
     1
  3
ACAD_XREC_ROUNDTRIP
360
289
  0
DICTIONARY
  5
27C
330
34
100
AcDbDictionary
280
     1
281
     1
  3
ACAD_XREC_ROUNDTRIP
360
27D
  0
DICTIONARY
  5
27E
330
35
100
AcDbDictionary
280
     1
281
     1
  3
ACAD_XREC_ROUNDTRIP
360
27F
  0
DICTIONARY
  5
28E
330
3D
100
AcDbDictionary
280
     1
281
     1
  3
ACAD_XREC_ROUNDTRIP
360
28F
  0
DICTIONARY
  5
286
330
39
100
AcDbDictionary
280
     1
281
     1
  3
ACAD_XREC_ROUNDTRIP
360
287
  0
DICTIONARY
  5
26A
330
2B
100
AcDbDictionary
280
     1
281
     1
  3
ACAD_XREC_ROUNDTRIP
360
26B
  0
DICTIONARY
  5
26C
330
2C
100
AcDbDictionary
280
     1
281
     1
  3
ACAD_XREC_ROUNDTRIP
360
26D
  0
DICTIONARY
  5
26E
330
2D
100
AcDbDictionary
280
     1
281
     1
  3
ACAD_XREC_ROUNDTRIP
360
26F
  0
DICTIONARY
  5
270
330
2E
100
AcDbDictionary
280
     1
281
     1
  3
ACAD_XREC_ROUNDTRIP
360
271
  0
DICTIONARY
  5
276
330
31
100
AcDbDictionary
280
     1
281
     1
  3
ACAD_XREC_ROUNDTRIP
360
277
  0
DICTIONARY
  5
28A
330
3B
100
AcDbDictionary
280
     1
281
     1
  3
ACAD_XREC_ROUNDTRIP
360
28B
  0
DICTIONARY
  5
284
330
38
100
AcDbDictionary
280
     1
281
     1
  3
ACAD_XREC_ROUNDTRIP
360
285
  0
DICTIONARY
  5
28C
330
3C
100
AcDbDictionary
280
     1
281
     1
  3
ACAD_XREC_ROUNDTRIP
360
28D
  0
DICTIONARY
  5
27A
330
33
100
AcDbDictionary
280
     1
281
     1
  3
ACAD_XREC_ROUNDTRIP
360
27B
  0
DICTIONARY
  5
298
330
42
100
AcDbDictionary
280
     1
281
     1
  3
ACAD_XREC_ROUNDTRIP
360
299
  0
DICTIONARY
  5
296
330
41
100
AcDbDictionary
280
     1
281
     1
  3
ACAD_XREC_ROUNDTRIP
360
297
  0
DICTIONARY
  5
290
330
3E
100
AcDbDictionary
280
     1
281
     1
  3
ACAD_XREC_ROUNDTRIP
360
291
  0
DICTIONARY
  5
292
330
3F
100
AcDbDictionary
280
     1
281
     1
  3
ACAD_XREC_ROUNDTRIP
360
293
  0
DICTIONARY
  5
282
330
37
100
AcDbDictionary
280
     1
281
     1
  3
ACAD_XREC_ROUNDTRIP
360
283
  0
DICTIONARY
  5
274
330
30
100
AcDbDictionary
280
     1
281
     1
  3
ACAD_XREC_ROUNDTRIP
360
275
  0
DICTIONARY
  5
294
330
40
100
AcDbDictionary
280
     1
281
     1
  3
ACAD_XREC_ROUNDTRIP
360
295
  0
XRECORD
  5
29E
102
{ACAD_REACTORS
330
29D
102
}
330
29D
100
AcDbXrecord
280
     1
102
ACAD_ROUNDTRIP_2010_MLEADER_STYLE
  0
CELLSTYLEMAP
  5
29B
102
{ACAD_REACTORS
330
29A
102
}
330
29A
100
AcDbCellStyleMap
 90
        3
300
CELLSTYLE
  1
TABLEFORMAT_BEGIN
 90
        5
170
     1
 91
        0
 92
    32768
 62
   257
 93
        1
300
CONTENTFORMAT
  1
CONTENTFORMAT_BEGIN
 90
        0
 91
        0
 92
        4
 93
        0
300

 40
0.0
140
1.0
 94
        5
 62
     0
340
11
144
0.25
309
CONTENTFORMAT_END
171
     1
301
MARGIN
  1
CELLMARGIN_BEGIN
 40
0.06
 40
0.06
 40
0.06
 40
0.06
 40
0.06
 40
0.06
309
CELLMARGIN_END
 94
        6
 95
        1
302
GRIDFORMAT
  1
GRIDFORMAT_BEGIN
 90
        0
 91
        1
 62
     0
 92
       -2
340
14
 93
        0
 40
0.045
309
GRIDFORMAT_END
 95
        2
302
GRIDFORMAT
  1
GRIDFORMAT_BEGIN
 90
        0
 91
        1
 62
     0
 92
       -2
340
14
 93
        0
 40
0.045
309
GRIDFORMAT_END
 95
        4
302
GRIDFORMAT
  1
GRIDFORMAT_BEGIN
 90
        0
 91
        1
 62
     0
 92
       -2
340
14
 93
        0
 40
0.045
309
GRIDFORMAT_END
 95
        8
302
GRIDFORMAT
  1
GRIDFORMAT_BEGIN
 90
        0
 91
        1
 62
     0
 92
       -2
340
14
 93
        0
 40
0.045
309
GRIDFORMAT_END
 95
       16
302
GRIDFORMAT
  1
GRIDFORMAT_BEGIN
 90
        0
 91
        1
 62
     0
 92
       -2
340
14
 93
        0
 40
0.045
309
GRIDFORMAT_END
 95
       32
302
GRIDFORMAT
  1
GRIDFORMAT_BEGIN
 90
        0
 91
        1
 62
     0
 92
       -2
340
14
 93
        0
 40
0.045
309
GRIDFORMAT_END
309
TABLEFORMAT_END
  1
CELLSTYLE_BEGIN
 90
        1
 91
        1
300
_TITLE
309
CELLSTYLE_END
300
CELLSTYLE
  1
TABLEFORMAT_BEGIN
 90
        5
170
     1
 91
        0
 92
        0
 62
   257
 93
        1
300
CONTENTFORMAT
  1
CONTENTFORMAT_BEGIN
 90
        0
 91
        0
 92
        4
 93
        0
300

 40
0.0
140
1.0
 94
        5
 62
     0
340
11
144
0.18
309
CONTENTFORMAT_END
171
     1
301
MARGIN
  1
CELLMARGIN_BEGIN
 40
0.06
 40
0.06
 40
0.06
 40
0.06
 40
0.06
 40
0.06
309
CELLMARGIN_END
 94
        6
 95
        1
302
GRIDFORMAT
  1
GRIDFORMAT_BEGIN
 90
        0
 91
        1
 62
     0
 92
       -2
340
14
 93
        0
 40
0.045
309
GRIDFORMAT_END
 95
        2
302
GRIDFORMAT
  1
GRIDFORMAT_BEGIN
 90
        0
 91
        1
 62
     0
 92
       -2
340
14
 93
        0
 40
0.045
309
GRIDFORMAT_END
 95
        4
302
GRIDFORMAT
  1
GRIDFORMAT_BEGIN
 90
        0
 91
        1
 62
     0
 92
       -2
340
14
 93
        0
 40
0.045
309
GRIDFORMAT_END
 95
        8
302
GRIDFORMAT
  1
GRIDFORMAT_BEGIN
 90
        0
 91
        1
 62
     0
 92
       -2
340
14
 93
        0
 40
0.045
309
GRIDFORMAT_END
 95
       16
302
GRIDFORMAT
  1
GRIDFORMAT_BEGIN
 90
        0
 91
        1
 62
     0
 92
       -2
340
14
 93
        0
 40
0.045
309
GRIDFORMAT_END
 95
       32
302
GRIDFORMAT
  1
GRIDFORMAT_BEGIN
 90
        0
 91
        1
 62
     0
 92
       -2
340
14
 93
        0
 40
0.045
309
GRIDFORMAT_END
309
TABLEFORMAT_END
  1
CELLSTYLE_BEGIN
 90
        2
 91
        1
300
_HEADER
309
CELLSTYLE_END
300
CELLSTYLE
  1
TABLEFORMAT_BEGIN
 90
        5
170
     1
 91
        0
 92
        0
 62
   257
 93
        1
300
CONTENTFORMAT
  1
CONTENTFORMAT_BEGIN
 90
        0
 91
        0
 92
        4
 93
        0
300

 40
0.0
140
1.0
 94
        2
 62
     0
340
11
144
0.18
309
CONTENTFORMAT_END
171
     1
301
MARGIN
  1
CELLMARGIN_BEGIN
 40
0.06
 40
0.06
 40
0.06
 40
0.06
 40
0.06
 40
0.06
309
CELLMARGIN_END
 94
        6
 95
        1
302
GRIDFORMAT
  1
GRIDFORMAT_BEGIN
 90
        0
 91
        1
 62
     0
 92
       -2
340
14
 93
        0
 40
0.045
309
GRIDFORMAT_END
 95
        2
302
GRIDFORMAT
  1
GRIDFORMAT_BEGIN
 90
        0
 91
        1
 62
     0
 92
       -2
340
14
 93
        0
 40
0.045
309
GRIDFORMAT_END
 95
        4
302
GRIDFORMAT
  1
GRIDFORMAT_BEGIN
 90
        0
 91
        1
 62
     0
 92
       -2
340
14
 93
        0
 40
0.045
309
GRIDFORMAT_END
 95
        8
302
GRIDFORMAT
  1
GRIDFORMAT_BEGIN
 90
        0
 91
        1
 62
     0
 92
       -2
340
14
 93
        0
 40
0.045
309
GRIDFORMAT_END
 95
       16
302
GRIDFORMAT
  1
GRIDFORMAT_BEGIN
 90
        0
 91
        1
 62
     0
 92
       -2
340
14
 93
        0
 40
0.045
309
GRIDFORMAT_END
 95
       32
302
GRIDFORMAT
  1
GRIDFORMAT_BEGIN
 90
        0
 91
        1
 62
     0
 92
       -2
340
14
 93
        0
 40
0.045
309
GRIDFORMAT_END
309
TABLEFORMAT_END
  1
CELLSTYLE_BEGIN
 90
        3
 91
        2
300
_DATA
309
CELLSTYLE_END
  0
XRECORD
  5
273
102
{ACAD_REACTORS
330
272
102
}
330
272
100
AcDbXrecord
280
     1
102
RTVSPropertyOp0
 70
     1
102
RTVSPropertyOp1
 70
     1
102
RTVSPropertyOp2
 70
     1
102
RTVSPropertyOp3
 70
     1
102
RTVSPropertyOp4
 70
     1
102
RTVSPropertyOp5
 70
     1
102
RTVSPropertyOp6
 70
     1
102
RTVSPropertyOp7
 70
     1
102
RTVSPropertyOp8
 70
     1
102
RTVSPropertyOp9
 70
     1
102
RTVSPropertyOp10
 70
     1
102
RTVSPropertyOp11
 70
     1
102
RTVSPropertyOp12
 70
     1
102
RTVSPropertyOp13
 70
     1
102
RTVSPropertyOp14
 70
     1
102
RTVSPropertyOp15
 70
     1
102
RTVSPropertyOp16
 70
     1
102
RTVSPropertyOp17
 70
     1
102
RTVSPropertyOp18
 70
     1
102
RTVSPropertyOp19
 70
     1
102
RTVSPropertyOp20
 70
     1
102
RTVSPropertyOp21
 70
     1
102
RTVSPropertyOp22
 70
     1
102
RTVSPropertyOp23
 70
     1
102
RTVSPropertyOp24
 70
     1
102
RTVSPropertyOp25
 70
     1
102
RTVSPropertyOp26
 70
     1
102
RTVSPropertyOp27
 70
     1
102
RTVSPropertyOp28
 70
     1
102
RTVSPropertyOp29
 70
     1
102
RTVSPropertyOp30
 70
     1
102
RTVSPropertyOp31
 70
     1
102
RTVSPropertyOp32
 70
     1
102
RTVSPropertyOp33
 70
     1
102
RTVSPropertyOp34
 70
     1
102
RTVSPropertyOp35
 70
     1
102
RTVSPropertyOp36
 70
     1
102
RTVSPropertyOp37
 70
     1
102
RTVSPropertyOp38
 70
     1
102
RTVSPropertyOp39
 70
     1
102
RTVSPropertyOp40
 70
     1
102
RTVSPropertyOp41
 70
     1
102
RTVSPropertyOp42
 70
     1
102
RTVSPropertyOp43
 70
     1
102
RTVSPropertyOp44
 70
     1
102
RTVSPropertyOp45
 70
     1
102
RTVSPropertyOp46
 70
     1
102
RTVSPropertyOp47
 70
     1
102
RTVSPropertyOp48
 70
     1
102
RTVSPropertyOp49
 70
     1
102
RTVSPropertyOp50
 70
     1
102
RTVSPropertyOp51
 70
     0
102
RTVSPropertyOp52
 70
     0
102
RTVSPropertyOp53
 70
     1
102
RTVSPropertyOp54
 70
     1
102
RTVSPropertyOp55
 70
     1
102
RTVSPropertyOp56
 70
     1
102
RTVSPropertyOp57
 70
     1
102
RTVSPost2010Prop28
280
     1
102
RTVSPost2010PropOp28
 70
     1
102
RTVSPost2010Prop29
280
     1
102
RTVSPost2010PropOp29
 70
     1
102
RTVSPost2010Prop30
280
     0
102
RTVSPost2010PropOp30
 70
     1
102
RTVSPost2010Prop31
280
     0
102
RTVSPost2010PropOp31
 70
     1
102
RTVSPost2010Prop32
280
     0
102
RTVSPost2010PropOp32
 70
     1
102
RTVSPost2010Prop33
280
     0
102
RTVSPost2010PropOp33
 70
     1
102
RTVSPost2010Prop34
280
     0
102
RTVSPost2010PropOp34
 70
     1
102
RTVSPost2010Prop35
280
     0
102
RTVSPost2010PropOp35
 70
     1
102
RTVSPost2010Prop36
280
     0
102
RTVSPost2010PropOp36
 70
     1
102
RTVSPost2010Prop37
 90
       50
102
RTVSPost2010PropOp37
 70
     1
102
RTVSPost2010Prop38
140
0.0
102
RTVSPost2010PropOp38
 70
     1
102
RTVSPost2010Prop39
140
1.0
102
RTVSPost2010PropOp39
 70
     1
102
RTVSPost2010Prop40
 90
        0
102
RTVSPost2010PropOp40
 70
     1
102
RTVSPost2010Prop41ColorIndex
 90
       18
102
RTVSPost2010Prop41ColorRGB
 90
        0
102
RTVSPost2010PropOp41
 70
     1
102
RTVSPost2010Prop42
 90
       50
102
RTVSPost2010PropOp42
 70
     1
102
RTVSPost2010Prop43
 90
        3
102
RTVSPost2010PropOp43
 70
     1
102
RTVSPost2010Prop44ColorIndex
 90
        5
102
RTVSPost2010Prop44ColorRGB
 90
      255
102
RTVSPost2010PropOp44
 70
     1
102
RTVSPost2010Prop45
280
     0
102
RTVSPost2010PropOp45
 70
     1
102
RTVSPost2010Prop46
 90
       50
102
RTVSPost2010PropOp46
 70
     1
102
RTVSPost2010Prop47
 90
       50
102
RTVSPost2010PropOp47
 70
     1
102
RTVSPost2010Prop48
 90
       50
102
RTVSPost2010PropOp48
 70
     1
102
RTVSPost2010Prop49
280
     0
102
RTVSPost2010PropOp49
 70
     1
102
RTVSPost2010Prop50
 90
       50
102
RTVSPost2010PropOp50
 70
     1
102
RTVSPost2010Prop51ColorIndex
 90
      256
102
RTVSPost2010Prop51ColorRGB
 90
-16777216
102
RTVSPost2010PropOp51
 70
     0
102
RTVSPost2010Prop52
140
1.0
102
RTVSPost2010PropOp52
 70
     0
102
RTVSPost2010Prop53
 90
        2
102
RTVSPost2010PropOp53
 70
     1
102
RTVSPost2010Prop54
  1
strokes_ogs.tif
102
RTVSPost2010PropOp54
 70
     1
102
RTVSPost2010Prop55
280
     0
102
RTVSPost2010PropOp55
 70
     1
102
RTVSPost2010Prop56
140
1.0
102
RTVSPost2010PropOp56
 70
     1
102
RTVSPost2010Prop57
140
1.0
102
RTVSPost2010PropOp57
 70
     1
  0
XRECORD
  5
279
102
{ACAD_REACTORS
330
278
102
}
330
278
100
AcDbXrecord
280
     1
102
RTVSPropertyOp0
 70
     1
102
RTVSPropertyOp1
 70
     1
102
RTVSPropertyOp2
 70
     1
102
RTVSPropertyOp3
 70
     1
102
RTVSPropertyOp4
 70
     1
102
RTVSPropertyOp5
 70
     1
102
RTVSPropertyOp6
 70
     1
102
RTVSPropertyOp7
 70
     1
102
RTVSPropertyOp8
 70
     1
102
RTVSPropertyOp9
 70
     1
102
RTVSPropertyOp10
 70
     1
102
RTVSPropertyOp11
 70
     1
102
RTVSPropertyOp12
 70
     1
102
RTVSPropertyOp13
 70
     1
102
RTVSPropertyOp14
 70
     1
102
RTVSPropertyOp15
 70
     1
102
RTVSPropertyOp16
 70
     1
102
RTVSPropertyOp17
 70
     1
102
RTVSPropertyOp18
 70
     1
102
RTVSPropertyOp19
 70
     1
102
RTVSPropertyOp20
 70
     1
102
RTVSPropertyOp21
 70
     1
102
RTVSPropertyOp22
 70
     1
102
RTVSPropertyOp23
 70
     1
102
RTVSPropertyOp24
 70
     1
102
RTVSPropertyOp25
 70
     1
102
RTVSPropertyOp26
 70
     1
102
RTVSPropertyOp27
 70
     1
102
RTVSPropertyOp28
 70
     1
102
RTVSPropertyOp29
 70
     1
102
RTVSPropertyOp30
 70
     1
102
RTVSPropertyOp31
 70
     1
102
RTVSPropertyOp32
 70
     1
102
RTVSPropertyOp33
 70
     1
102
RTVSPropertyOp34
 70
     1
102
RTVSPropertyOp35
 70
     1
102
RTVSPropertyOp36
 70
     1
102
RTVSPropertyOp37
 70
     1
102
RTVSPropertyOp38
 70
     1
102
RTVSPropertyOp39
 70
     1
102
RTVSPropertyOp40
 70
     1
102
RTVSPropertyOp41
 70
     1
102
RTVSPropertyOp42
 70
     1
102
RTVSPropertyOp43
 70
     1
102
RTVSPropertyOp44
 70
     1
102
RTVSPropertyOp45
 70
     1
102
RTVSPropertyOp46
 70
     1
102
RTVSPropertyOp47
 70
     1
102
RTVSPropertyOp48
 70
     1
102
RTVSPropertyOp49
 70
     1
102
RTVSPropertyOp50
 70
     1
102
RTVSPropertyOp51
 70
     0
102
RTVSPropertyOp52
 70
     0
102
RTVSPropertyOp53
 70
     1
102
RTVSPropertyOp54
 70
     1
102
RTVSPropertyOp55
 70
     1
102
RTVSPropertyOp56
 70
     1
102
RTVSPropertyOp57
 70
     1
102
RTVSPost2010Prop28
280
     0
102
RTVSPost2010PropOp28
 70
     1
102
RTVSPost2010Prop29
280
     1
102
RTVSPost2010PropOp29
 70
     1
102
RTVSPost2010Prop30
280
     1
102
RTVSPost2010PropOp30
 70
     1
102
RTVSPost2010Prop31
280
     0
102
RTVSPost2010PropOp31
 70
     1
102
RTVSPost2010Prop32
280
     0
102
RTVSPost2010PropOp32
 70
     1
102
RTVSPost2010Prop33
280
     0
102
RTVSPost2010PropOp33
 70
     1
102
RTVSPost2010Prop34
280
     0
102
RTVSPost2010PropOp34
 70
     1
102
RTVSPost2010Prop35
280
     0
102
RTVSPost2010PropOp35
 70
     1
102
RTVSPost2010Prop36
280
     0
102
RTVSPost2010PropOp36
 70
     1
102
RTVSPost2010Prop37
 90
       50
102
RTVSPost2010PropOp37
 70
     1
102
RTVSPost2010Prop38
140
0.0
102
RTVSPost2010PropOp38
 70
     1
102
RTVSPost2010Prop39
140
1.0
102
RTVSPost2010PropOp39
 70
     1
102
RTVSPost2010Prop40
 90
        0
102
RTVSPost2010PropOp40
 70
     1
102
RTVSPost2010Prop41ColorIndex
 90
       18
102
RTVSPost2010Prop41ColorRGB
 90
        0
102
RTVSPost2010PropOp41
 70
     1
102
RTVSPost2010Prop42
 90
       50
102
RTVSPost2010PropOp42
 70
     1
102
RTVSPost2010Prop43
 90
        3
102
RTVSPost2010PropOp43
 70
     1
102
RTVSPost2010Prop44ColorIndex
 90
        5
102
RTVSPost2010Prop44ColorRGB
 90
      255
102
RTVSPost2010PropOp44
 70
     1
102
RTVSPost2010Prop45
280
     0
102
RTVSPost2010PropOp45
 70
     1
102
RTVSPost2010Prop46
 90
       50
102
RTVSPost2010PropOp46
 70
     1
102
RTVSPost2010Prop47
 90
       50
102
RTVSPost2010PropOp47
 70
     1
102
RTVSPost2010Prop48
 90
       50
102
RTVSPost2010PropOp48
 70
     1
102
RTVSPost2010Prop49
280
     0
102
RTVSPost2010PropOp49
 70
     1
102
RTVSPost2010Prop50
 90
       50
102
RTVSPost2010PropOp50
 70
     1
102
RTVSPost2010Prop51ColorIndex
 90
      256
102
RTVSPost2010Prop51ColorRGB
 90
-16777216
102
RTVSPost2010PropOp51
 70
     0
102
RTVSPost2010Prop52
140
1.0
102
RTVSPost2010PropOp52
 70
     0
102
RTVSPost2010Prop53
 90
        2
102
RTVSPost2010PropOp53
 70
     1
102
RTVSPost2010Prop54
  1
strokes_ogs.tif
102
RTVSPost2010PropOp54
 70
     1
102
RTVSPost2010Prop55
280
     0
102
RTVSPost2010PropOp55
 70
     1
102
RTVSPost2010Prop56
140
1.0
102
RTVSPost2010PropOp56
 70
     1
102
RTVSPost2010Prop57
140
1.0
102
RTVSPost2010PropOp57
 70
     1
  0
XRECORD
  5
281
102
{ACAD_REACTORS
330
280
102
}
330
280
100
AcDbXrecord
280
     1
102
RTVSPropertyOp0
 70
     1
102
RTVSPropertyOp1
 70
     1
102
RTVSPropertyOp2
 70
     1
102
RTVSPropertyOp3
 70
     1
102
RTVSPropertyOp4
 70
     1
102
RTVSPropertyOp5
 70
     1
102
RTVSPropertyOp6
 70
     1
102
RTVSPropertyOp7
 70
     1
102
RTVSPropertyOp8
 70
     1
102
RTVSPropertyOp9
 70
     1
102
RTVSPropertyOp10
 70
     1
102
RTVSPropertyOp11
 70
     1
102
RTVSPropertyOp12
 70
     1
102
RTVSPropertyOp13
 70
     1
102
RTVSPropertyOp14
 70
     1
102
RTVSPropertyOp15
 70
     1
102
RTVSPropertyOp16
 70
     1
102
RTVSPropertyOp17
 70
     1
102
RTVSPropertyOp18
 70
     1
102
RTVSPropertyOp19
 70
     1
102
RTVSPropertyOp20
 70
     1
102
RTVSPropertyOp21
 70
     1
102
RTVSPropertyOp22
 70
     1
102
RTVSPropertyOp23
 70
     1
102
RTVSPropertyOp24
 70
     1
102
RTVSPropertyOp25
 70
     1
102
RTVSPropertyOp26
 70
     1
102
RTVSPropertyOp27
 70
     1
102
RTVSPropertyOp28
 70
     1
102
RTVSPropertyOp29
 70
     1
102
RTVSPropertyOp30
 70
     1
102
RTVSPropertyOp31
 70
     1
102
RTVSPropertyOp32
 70
     1
102
RTVSPropertyOp33
 70
     1
102
RTVSPropertyOp34
 70
     1
102
RTVSPropertyOp35
 70
     1
102
RTVSPropertyOp36
 70
     1
102
RTVSPropertyOp37
 70
     1
102
RTVSPropertyOp38
 70
     1
102
RTVSPropertyOp39
 70
     1
102
RTVSPropertyOp40
 70
     1
102
RTVSPropertyOp41
 70
     1
102
RTVSPropertyOp42
 70
     1
102
RTVSPropertyOp43
 70
     1
102
RTVSPropertyOp44
 70
     1
102
RTVSPropertyOp45
 70
     1
102
RTVSPropertyOp46
 70
     1
102
RTVSPropertyOp47
 70
     1
102
RTVSPropertyOp48
 70
     1
102
RTVSPropertyOp49
 70
     1
102
RTVSPropertyOp50
 70
     1
102
RTVSPropertyOp51
 70
     0
102
RTVSPropertyOp52
 70
     0
102
RTVSPropertyOp53
 70
     1
102
RTVSPropertyOp54
 70
     1
102
RTVSPropertyOp55
 70
     1
102
RTVSPropertyOp56
 70
     1
102
RTVSPropertyOp57
 70
     1
102
RTVSPost2010Prop28
280
     0
102
RTVSPost2010PropOp28
 70
     1
102
RTVSPost2010Prop29
280
     1
102
RTVSPost2010PropOp29
 70
     1
102
RTVSPost2010Prop30
280
     1
102
RTVSPost2010PropOp30
 70
     1
102
RTVSPost2010Prop31
280
     0
102
RTVSPost2010PropOp31
 70
     1
102
RTVSPost2010Prop32
280
     0
102
RTVSPost2010PropOp32
 70
     1
102
RTVSPost2010Prop33
280
     0
102
RTVSPost2010PropOp33
 70
     1
102
RTVSPost2010Prop34
280
     0
102
RTVSPost2010PropOp34
 70
     1
102
RTVSPost2010Prop35
280
     0
102
RTVSPost2010PropOp35
 70
     1
102
RTVSPost2010Prop36
280
     0
102
RTVSPost2010PropOp36
 70
     1
102
RTVSPost2010Prop37
 90
       50
102
RTVSPost2010PropOp37
 70
     1
102
RTVSPost2010Prop38
140
0.0
102
RTVSPost2010PropOp38
 70
     1
102
RTVSPost2010Prop39
140
1.0
102
RTVSPost2010PropOp39
 70
     1
102
RTVSPost2010Prop40
 90
        0
102
RTVSPost2010PropOp40
 70
     1
102
RTVSPost2010Prop41ColorIndex
 90
       18
102
RTVSPost2010Prop41ColorRGB
 90
        0
102
RTVSPost2010PropOp41
 70
     1
102
RTVSPost2010Prop42
 90
       50
102
RTVSPost2010PropOp42
 70
     1
102
RTVSPost2010Prop43
 90
        3
102
RTVSPost2010PropOp43
 70
     1
102
RTVSPost2010Prop44ColorIndex
 90
        5
102
RTVSPost2010Prop44ColorRGB
 90
      255
102
RTVSPost2010PropOp44
 70
     1
102
RTVSPost2010Prop45
280
     0
102
RTVSPost2010PropOp45
 70
     1
102
RTVSPost2010Prop46
 90
       50
102
RTVSPost2010PropOp46
 70
     1
102
RTVSPost2010Prop47
 90
       50
102
RTVSPost2010PropOp47
 70
     1
102
RTVSPost2010Prop48
 90
       50
102
RTVSPost2010PropOp48
 70
     1
102
RTVSPost2010Prop49
280
     0
102
RTVSPost2010PropOp49
 70
     1
102
RTVSPost2010Prop50
 90
       50
102
RTVSPost2010PropOp50
 70
     1
102
RTVSPost2010Prop51ColorIndex
 90
      256
102
RTVSPost2010Prop51ColorRGB
 90
-16777216
102
RTVSPost2010PropOp51
 70
     0
102
RTVSPost2010Prop52
140
1.0
102
RTVSPost2010PropOp52
 70
     0
102
RTVSPost2010Prop53
 90
        2
102
RTVSPost2010PropOp53
 70
     1
102
RTVSPost2010Prop54
  1
strokes_ogs.tif
102
RTVSPost2010PropOp54
 70
     1
102
RTVSPost2010Prop55
280
     0
102
RTVSPost2010PropOp55
 70
     1
102
RTVSPost2010Prop56
140
1.0
102
RTVSPost2010PropOp56
 70
     1
102
RTVSPost2010Prop57
140
1.0
102
RTVSPost2010PropOp57
 70
     1
  0
XRECORD
  5
289
102
{ACAD_REACTORS
330
288
102
}
330
288
100
AcDbXrecord
280
     1
102
RTVSPropertyOp0
 70
     1
102
RTVSPropertyOp1
 70
     1
102
RTVSPropertyOp2
 70
     1
102
RTVSPropertyOp3
 70
     1
102
RTVSPropertyOp4
 70
     1
102
RTVSPropertyOp5
 70
     1
102
RTVSPropertyOp6
 70
     1
102
RTVSPropertyOp7
 70
     1
102
RTVSPropertyOp8
 70
     1
102
RTVSPropertyOp9
 70
     1
102
RTVSPropertyOp10
 70
     1
102
RTVSPropertyOp11
 70
     1
102
RTVSPropertyOp12
 70
     1
102
RTVSPropertyOp13
 70
     1
102
RTVSPropertyOp14
 70
     1
102
RTVSPropertyOp15
 70
     1
102
RTVSPropertyOp16
 70
     1
102
RTVSPropertyOp17
 70
     1
102
RTVSPropertyOp18
 70
     1
102
RTVSPropertyOp19
 70
     1
102
RTVSPropertyOp20
 70
     1
102
RTVSPropertyOp21
 70
     1
102
RTVSPropertyOp22
 70
     1
102
RTVSPropertyOp23
 70
     1
102
RTVSPropertyOp24
 70
     1
102
RTVSPropertyOp25
 70
     1
102
RTVSPropertyOp26
 70
     1
102
RTVSPropertyOp27
 70
     1
102
RTVSPropertyOp28
 70
     1
102
RTVSPropertyOp29
 70
     1
102
RTVSPropertyOp30
 70
     1
102
RTVSPropertyOp31
 70
     1
102
RTVSPropertyOp32
 70
     1
102
RTVSPropertyOp33
 70
     1
102
RTVSPropertyOp34
 70
     1
102
RTVSPropertyOp35
 70
     1
102
RTVSPropertyOp36
 70
     1
102
RTVSPropertyOp37
 70
     1
102
RTVSPropertyOp38
 70
     1
102
RTVSPropertyOp39
 70
     1
102
RTVSPropertyOp40
 70
     1
102
RTVSPropertyOp41
 70
     1
102
RTVSPropertyOp42
 70
     1
102
RTVSPropertyOp43
 70
     1
102
RTVSPropertyOp44
 70
     1
102
RTVSPropertyOp45
 70
     1
102
RTVSPropertyOp46
 70
     1
102
RTVSPropertyOp47
 70
     1
102
RTVSPropertyOp48
 70
     1
102
RTVSPropertyOp49
 70
     1
102
RTVSPropertyOp50
 70
     1
102
RTVSPropertyOp51
 70
     0
102
RTVSPropertyOp52
 70
     0
102
RTVSPropertyOp53
 70
     1
102
RTVSPropertyOp54
 70
     1
102
RTVSPropertyOp55
 70
     1
102
RTVSPropertyOp56
 70
     1
102
RTVSPropertyOp57
 70
     1
102
RTVSPost2010Prop28
280
     0
102
RTVSPost2010PropOp28
 70
     1
102
RTVSPost2010Prop29
280
     1
102
RTVSPost2010PropOp29
 70
     1
102
RTVSPost2010Prop30
280
     1
102
RTVSPost2010PropOp30
 70
     1
102
RTVSPost2010Prop31
280
     0
102
RTVSPost2010PropOp31
 70
     1
102
RTVSPost2010Prop32
280
     0
102
RTVSPost2010PropOp32
 70
     1
102
RTVSPost2010Prop33
280
     0
102
RTVSPost2010PropOp33
 70
     1
102
RTVSPost2010Prop34
280
     0
102
RTVSPost2010PropOp34
 70
     1
102
RTVSPost2010Prop35
280
     0
102
RTVSPost2010PropOp35
 70
     1
102
RTVSPost2010Prop36
280
     0
102
RTVSPost2010PropOp36
 70
     1
102
RTVSPost2010Prop37
 90
       50
102
RTVSPost2010PropOp37
 70
     1
102
RTVSPost2010Prop38
140
0.0
102
RTVSPost2010PropOp38
 70
     1
102
RTVSPost2010Prop39
140
1.0
102
RTVSPost2010PropOp39
 70
     1
102
RTVSPost2010Prop40
 90
        0
102
RTVSPost2010PropOp40
 70
     1
102
RTVSPost2010Prop41ColorIndex
 90
       18
102
RTVSPost2010Prop41ColorRGB
 90
        0
102
RTVSPost2010PropOp41
 70
     1
102
RTVSPost2010Prop42
 90
       50
102
RTVSPost2010PropOp42
 70
     1
102
RTVSPost2010Prop43
 90
        3
102
RTVSPost2010PropOp43
 70
     1
102
RTVSPost2010Prop44ColorIndex
 90
        5
102
RTVSPost2010Prop44ColorRGB
 90
      255
102
RTVSPost2010PropOp44
 70
     1
102
RTVSPost2010Prop45
280
     0
102
RTVSPost2010PropOp45
 70
     1
102
RTVSPost2010Prop46
 90
       50
102
RTVSPost2010PropOp46
 70
     1
102
RTVSPost2010Prop47
 90
       50
102
RTVSPost2010PropOp47
 70
     1
102
RTVSPost2010Prop48
 90
       50
102
RTVSPost2010PropOp48
 70
     1
102
RTVSPost2010Prop49
280
     0
102
RTVSPost2010PropOp49
 70
     1
102
RTVSPost2010Prop50
 90
       50
102
RTVSPost2010PropOp50
 70
     1
102
RTVSPost2010Prop51ColorIndex
 90
      256
102
RTVSPost2010Prop51ColorRGB
 90
-16777216
102
RTVSPost2010PropOp51
 70
     0
102
RTVSPost2010Prop52
140
1.0
102
RTVSPost2010PropOp52
 70
     0
102
RTVSPost2010Prop53
 90
        2
102
RTVSPost2010PropOp53
 70
     1
102
RTVSPost2010Prop54
  1
strokes_ogs.tif
102
RTVSPost2010PropOp54
 70
     1
102
RTVSPost2010Prop55
280
     0
102
RTVSPost2010PropOp55
 70
     1
102
RTVSPost2010Prop56
140
1.0
102
RTVSPost2010PropOp56
 70
     1
102
RTVSPost2010Prop57
140
1.0
102
RTVSPost2010PropOp57
 70
     1
  0
XRECORD
  5
27D
102
{ACAD_REACTORS
330
27C
102
}
330
27C
100
AcDbXrecord
280
     1
102
RTVSPropertyOp0
 70
     1
102
RTVSPropertyOp1
 70
     1
102
RTVSPropertyOp2
 70
     1
102
RTVSPropertyOp3
 70
     1
102
RTVSPropertyOp4
 70
     1
102
RTVSPropertyOp5
 70
     1
102
RTVSPropertyOp6
 70
     1
102
RTVSPropertyOp7
 70
     1
102
RTVSPropertyOp8
 70
     1
102
RTVSPropertyOp9
 70
     1
102
RTVSPropertyOp10
 70
     1
102
RTVSPropertyOp11
 70
     1
102
RTVSPropertyOp12
 70
     1
102
RTVSPropertyOp13
 70
     1
102
RTVSPropertyOp14
 70
     1
102
RTVSPropertyOp15
 70
     1
102
RTVSPropertyOp16
 70
     1
102
RTVSPropertyOp17
 70
     1
102
RTVSPropertyOp18
 70
     1
102
RTVSPropertyOp19
 70
     1
102
RTVSPropertyOp20
 70
     1
102
RTVSPropertyOp21
 70
     1
102
RTVSPropertyOp22
 70
     1
102
RTVSPropertyOp23
 70
     1
102
RTVSPropertyOp24
 70
     1
102
RTVSPropertyOp25
 70
     1
102
RTVSPropertyOp26
 70
     1
102
RTVSPropertyOp27
 70
     1
102
RTVSPropertyOp28
 70
     1
102
RTVSPropertyOp29
 70
     1
102
RTVSPropertyOp30
 70
     1
102
RTVSPropertyOp31
 70
     1
102
RTVSPropertyOp32
 70
     1
102
RTVSPropertyOp33
 70
     1
102
RTVSPropertyOp34
 70
     1
102
RTVSPropertyOp35
 70
     1
102
RTVSPropertyOp36
 70
     1
102
RTVSPropertyOp37
 70
     1
102
RTVSPropertyOp38
 70
     1
102
RTVSPropertyOp39
 70
     1
102
RTVSPropertyOp40
 70
     1
102
RTVSPropertyOp41
 70
     1
102
RTVSPropertyOp42
 70
     1
102
RTVSPropertyOp43
 70
     1
102
RTVSPropertyOp44
 70
     1
102
RTVSPropertyOp45
 70
     1
102
RTVSPropertyOp46
 70
     1
102
RTVSPropertyOp47
 70
     1
102
RTVSPropertyOp48
 70
     1
102
RTVSPropertyOp49
 70
     1
102
RTVSPropertyOp50
 70
     1
102
RTVSPropertyOp51
 70
     0
102
RTVSPropertyOp52
 70
     0
102
RTVSPropertyOp53
 70
     1
102
RTVSPropertyOp54
 70
     1
102
RTVSPropertyOp55
 70
     1
102
RTVSPropertyOp56
 70
     1
102
RTVSPropertyOp57
 70
     1
102
RTVSPost2010Prop28
280
     0
102
RTVSPost2010PropOp28
 70
     1
102
RTVSPost2010Prop29
280
     1
102
RTVSPost2010PropOp29
 70
     1
102
RTVSPost2010Prop30
280
     1
102
RTVSPost2010PropOp30
 70
     1
102
RTVSPost2010Prop31
280
     0
102
RTVSPost2010PropOp31
 70
     1
102
RTVSPost2010Prop32
280
     0
102
RTVSPost2010PropOp32
 70
     1
102
RTVSPost2010Prop33
280
     0
102
RTVSPost2010PropOp33
 70
     1
102
RTVSPost2010Prop34
280
     0
102
RTVSPost2010PropOp34
 70
     1
102
RTVSPost2010Prop35
280
     0
102
RTVSPost2010PropOp35
 70
     1
102
RTVSPost2010Prop36
280
     0
102
RTVSPost2010PropOp36
 70
     1
102
RTVSPost2010Prop37
 90
       50
102
RTVSPost2010PropOp37
 70
     1
102
RTVSPost2010Prop38
140
0.0
102
RTVSPost2010PropOp38
 70
     1
102
RTVSPost2010Prop39
140
1.0
102
RTVSPost2010PropOp39
 70
     1
102
RTVSPost2010Prop40
 90
        0
102
RTVSPost2010PropOp40
 70
     1
102
RTVSPost2010Prop41ColorIndex
 90
       18
102
RTVSPost2010Prop41ColorRGB
 90
        0
102
RTVSPost2010PropOp41
 70
     1
102
RTVSPost2010Prop42
 90
       50
102
RTVSPost2010PropOp42
 70
     1
102
RTVSPost2010Prop43
 90
        3
102
RTVSPost2010PropOp43
 70
     1
102
RTVSPost2010Prop44ColorIndex
 90
        5
102
RTVSPost2010Prop44ColorRGB
 90
      255
102
RTVSPost2010PropOp44
 70
     1
102
RTVSPost2010Prop45
280
     0
102
RTVSPost2010PropOp45
 70
     1
102
RTVSPost2010Prop46
 90
       50
102
RTVSPost2010PropOp46
 70
     1
102
RTVSPost2010Prop47
 90
       50
102
RTVSPost2010PropOp47
 70
     1
102
RTVSPost2010Prop48
 90
       50
102
RTVSPost2010PropOp48
 70
     1
102
RTVSPost2010Prop49
280
     0
102
RTVSPost2010PropOp49
 70
     1
102
RTVSPost2010Prop50
 90
       50
102
RTVSPost2010PropOp50
 70
     1
102
RTVSPost2010Prop51ColorIndex
 90
      256
102
RTVSPost2010Prop51ColorRGB
 90
-16777216
102
RTVSPost2010PropOp51
 70
     0
102
RTVSPost2010Prop52
140
1.0
102
RTVSPost2010PropOp52
 70
     0
102
RTVSPost2010Prop53
 90
        2
102
RTVSPost2010PropOp53
 70
     1
102
RTVSPost2010Prop54
  1
strokes_ogs.tif
102
RTVSPost2010PropOp54
 70
     1
102
RTVSPost2010Prop55
280
     0
102
RTVSPost2010PropOp55
 70
     1
102
RTVSPost2010Prop56
140
1.0
102
RTVSPost2010PropOp56
 70
     1
102
RTVSPost2010Prop57
140
1.0
102
RTVSPost2010PropOp57
 70
     1
  0
XRECORD
  5
27F
102
{ACAD_REACTORS
330
27E
102
}
330
27E
100
AcDbXrecord
280
     1
102
RTVSPropertyOp0
 70
     1
102
RTVSPropertyOp1
 70
     1
102
RTVSPropertyOp2
 70
     1
102
RTVSPropertyOp3
 70
     1
102
RTVSPropertyOp4
 70
     1
102
RTVSPropertyOp5
 70
     1
102
RTVSPropertyOp6
 70
     1
102
RTVSPropertyOp7
 70
     1
102
RTVSPropertyOp8
 70
     1
102
RTVSPropertyOp9
 70
     1
102
RTVSPropertyOp10
 70
     1
102
RTVSPropertyOp11
 70
     1
102
RTVSPropertyOp12
 70
     1
102
RTVSPropertyOp13
 70
     1
102
RTVSPropertyOp14
 70
     1
102
RTVSPropertyOp15
 70
     1
102
RTVSPropertyOp16
 70
     1
102
RTVSPropertyOp17
 70
     1
102
RTVSPropertyOp18
 70
     1
102
RTVSPropertyOp19
 70
     1
102
RTVSPropertyOp20
 70
     1
102
RTVSPropertyOp21
 70
     1
102
RTVSPropertyOp22
 70
     1
102
RTVSPropertyOp23
 70
     1
102
RTVSPropertyOp24
 70
     1
102
RTVSPropertyOp25
 70
     1
102
RTVSPropertyOp26
 70
     1
102
RTVSPropertyOp27
 70
     1
102
RTVSPropertyOp28
 70
     1
102
RTVSPropertyOp29
 70
     1
102
RTVSPropertyOp30
 70
     1
102
RTVSPropertyOp31
 70
     1
102
RTVSPropertyOp32
 70
     1
102
RTVSPropertyOp33
 70
     1
102
RTVSPropertyOp34
 70
     1
102
RTVSPropertyOp35
 70
     1
102
RTVSPropertyOp36
 70
     1
102
RTVSPropertyOp37
 70
     1
102
RTVSPropertyOp38
 70
     1
102
RTVSPropertyOp39
 70
     1
102
RTVSPropertyOp40
 70
     1
102
RTVSPropertyOp41
 70
     1
102
RTVSPropertyOp42
 70
     1
102
RTVSPropertyOp43
 70
     1
102
RTVSPropertyOp44
 70
     1
102
RTVSPropertyOp45
 70
     1
102
RTVSPropertyOp46
 70
     1
102
RTVSPropertyOp47
 70
     1
102
RTVSPropertyOp48
 70
     1
102
RTVSPropertyOp49
 70
     1
102
RTVSPropertyOp50
 70
     1
102
RTVSPropertyOp51
 70
     0
102
RTVSPropertyOp52
 70
     0
102
RTVSPropertyOp53
 70
     1
102
RTVSPropertyOp54
 70
     1
102
RTVSPropertyOp55
 70
     1
102
RTVSPropertyOp56
 70
     1
102
RTVSPropertyOp57
 70
     1
102
RTVSPost2010Prop28
280
     0
102
RTVSPost2010PropOp28
 70
     1
102
RTVSPost2010Prop29
280
     1
102
RTVSPost2010PropOp29
 70
     1
102
RTVSPost2010Prop30
280
     1
102
RTVSPost2010PropOp30
 70
     1
102
RTVSPost2010Prop31
280
     0
102
RTVSPost2010PropOp31
 70
     1
102
RTVSPost2010Prop32
280
     0
102
RTVSPost2010PropOp32
 70
     1
102
RTVSPost2010Prop33
280
     0
102
RTVSPost2010PropOp33
 70
     1
102
RTVSPost2010Prop34
280
     0
102
RTVSPost2010PropOp34
 70
     1
102
RTVSPost2010Prop35
280
     0
102
RTVSPost2010PropOp35
 70
     1
102
RTVSPost2010Prop36
280
     0
102
RTVSPost2010PropOp36
 70
     1
102
RTVSPost2010Prop37
 90
       50
102
RTVSPost2010PropOp37
 70
     1
102
RTVSPost2010Prop38
140
0.0
102
RTVSPost2010PropOp38
 70
     1
102
RTVSPost2010Prop39
140
1.0
102
RTVSPost2010PropOp39
 70
     1
102
RTVSPost2010Prop40
 90
        0
102
RTVSPost2010PropOp40
 70
     1
102
RTVSPost2010Prop41ColorIndex
 90
       18
102
RTVSPost2010Prop41ColorRGB
 90
        0
102
RTVSPost2010PropOp41
 70
     1
102
RTVSPost2010Prop42
 90
       50
102
RTVSPost2010PropOp42
 70
     1
102
RTVSPost2010Prop43
 90
        3
102
RTVSPost2010PropOp43
 70
     1
102
RTVSPost2010Prop44ColorIndex
 90
        5
102
RTVSPost2010Prop44ColorRGB
 90
      255
102
RTVSPost2010PropOp44
 70
     1
102
RTVSPost2010Prop45
280
     0
102
RTVSPost2010PropOp45
 70
     1
102
RTVSPost2010Prop46
 90
       50
102
RTVSPost2010PropOp46
 70
     1
102
RTVSPost2010Prop47
 90
       50
102
RTVSPost2010PropOp47
 70
     1
102
RTVSPost2010Prop48
 90
       50
102
RTVSPost2010PropOp48
 70
     1
102
RTVSPost2010Prop49
280
     0
102
RTVSPost2010PropOp49
 70
     1
102
RTVSPost2010Prop50
 90
       50
102
RTVSPost2010PropOp50
 70
     1
102
RTVSPost2010Prop51ColorIndex
 90
      256
102
RTVSPost2010Prop51ColorRGB
 90
-16777216
102
RTVSPost2010PropOp51
 70
     0
102
RTVSPost2010Prop52
140
1.0
102
RTVSPost2010PropOp52
 70
     0
102
RTVSPost2010Prop53
 90
        2
102
RTVSPost2010PropOp53
 70
     1
102
RTVSPost2010Prop54
  1
strokes_ogs.tif
102
RTVSPost2010PropOp54
 70
     1
102
RTVSPost2010Prop55
280
     0
102
RTVSPost2010PropOp55
 70
     1
102
RTVSPost2010Prop56
140
1.0
102
RTVSPost2010PropOp56
 70
     1
102
RTVSPost2010Prop57
140
1.0
102
RTVSPost2010PropOp57
 70
     1
  0
XRECORD
  5
28F
102
{ACAD_REACTORS
330
28E
102
}
330
28E
100
AcDbXrecord
280
     1
102
RTVSPropertyOp0
 70
     0
102
RTVSPropertyOp1
 70
     0
102
RTVSPropertyOp2
 70
     0
102
RTVSPropertyOp3
 70
     0
102
RTVSPropertyOp4
 70
     0
102
RTVSPropertyOp5
 70
     0
102
RTVSPropertyOp6
 70
     0
102
RTVSPropertyOp7
 70
     0
102
RTVSPropertyOp8
 70
     0
102
RTVSPropertyOp9
 70
     0
102
RTVSPropertyOp10
 70
     0
102
RTVSPropertyOp11
 70
     0
102
RTVSPropertyOp12
 70
     0
102
RTVSPropertyOp13
 70
     0
102
RTVSPropertyOp14
 70
     2
102
RTVSPropertyOp15
 70
     0
102
RTVSPropertyOp16
 70
     0
102
RTVSPropertyOp17
 70
     0
102
RTVSPropertyOp18
 70
     0
102
RTVSPropertyOp19
 70
     0
102
RTVSPropertyOp20
 70
     0
102
RTVSPropertyOp21
 70
     0
102
RTVSPropertyOp22
 70
     0
102
RTVSPropertyOp23
 70
     0
102
RTVSPropertyOp24
 70
     0
102
RTVSPropertyOp25
 70
     0
102
RTVSPropertyOp26
 70
     0
102
RTVSPropertyOp27
 70
     0
102
RTVSPropertyOp28
 70
     0
102
RTVSPropertyOp29
 70
     0
102
RTVSPropertyOp30
 70
     0
102
RTVSPropertyOp31
 70
     0
102
RTVSPropertyOp32
 70
     0
102
RTVSPropertyOp33
 70
     0
102
RTVSPropertyOp34
 70
     0
102
RTVSPropertyOp35
 70
     0
102
RTVSPropertyOp36
 70
     0
102
RTVSPropertyOp37
 70
     0
102
RTVSPropertyOp38
 70
     0
102
RTVSPropertyOp39
 70
     0
102
RTVSPropertyOp40
 70
     0
102
RTVSPropertyOp41
 70
     0
102
RTVSPropertyOp42
 70
     0
102
RTVSPropertyOp43
 70
     0
102
RTVSPropertyOp44
 70
     0
102
RTVSPropertyOp45
 70
     0
102
RTVSPropertyOp46
 70
     0
102
RTVSPropertyOp47
 70
     0
102
RTVSPropertyOp48
 70
     0
102
RTVSPropertyOp49
 70
     0
102
RTVSPropertyOp50
 70
     0
102
RTVSPropertyOp51
 70
     0
102
RTVSPropertyOp52
 70
     0
102
RTVSPropertyOp53
 70
     0
102
RTVSPropertyOp54
 70
     0
102
RTVSPropertyOp55
 70
     0
102
RTVSPropertyOp56
 70
     0
102
RTVSPropertyOp57
 70
     0
102
RTVSPost2010Prop28
280
     0
102
RTVSPost2010PropOp28
 70
     0
102
RTVSPost2010Prop29
280
     1
102
RTVSPost2010PropOp29
 70
     0
102
RTVSPost2010Prop30
280
     1
102
RTVSPost2010PropOp30
 70
     0
102
RTVSPost2010Prop31
280
     0
102
RTVSPost2010PropOp31
 70
     0
102
RTVSPost2010Prop32
280
     0
102
RTVSPost2010PropOp32
 70
     0
102
RTVSPost2010Prop33
280
     0
102
RTVSPost2010PropOp33
 70
     0
102
RTVSPost2010Prop34
280
     0
102
RTVSPost2010PropOp34
 70
     0
102
RTVSPost2010Prop35
280
     0
102
RTVSPost2010PropOp35
 70
     0
102
RTVSPost2010Prop36
280
     0
102
RTVSPost2010PropOp36
 70
     0
102
RTVSPost2010Prop37
 90
       50
102
RTVSPost2010PropOp37
 70
     0
102
RTVSPost2010Prop38
140
0.0
102
RTVSPost2010PropOp38
 70
     0
102
RTVSPost2010Prop39
140
1.0
102
RTVSPost2010PropOp39
 70
     0
102
RTVSPost2010Prop40
 90
        0
102
RTVSPost2010PropOp40
 70
     0
102
RTVSPost2010Prop41ColorIndex
 90
       18
102
RTVSPost2010Prop41ColorRGB
 90
        0
102
RTVSPost2010PropOp41
 70
     0
102
RTVSPost2010Prop42
 90
       50
102
RTVSPost2010PropOp42
 70
     0
102
RTVSPost2010Prop43
 90
        3
102
RTVSPost2010PropOp43
 70
     0
102
RTVSPost2010Prop44ColorIndex
 90
        5
102
RTVSPost2010Prop44ColorRGB
 90
      255
102
RTVSPost2010PropOp44
 70
     0
102
RTVSPost2010Prop45
280
     0
102
RTVSPost2010PropOp45
 70
     0
102
RTVSPost2010Prop46
 90
       50
102
RTVSPost2010PropOp46
 70
     0
102
RTVSPost2010Prop47
 90
       50
102
RTVSPost2010PropOp47
 70
     0
102
RTVSPost2010Prop48
 90
       50
102
RTVSPost2010PropOp48
 70
     0
102
RTVSPost2010Prop49
280
     0
102
RTVSPost2010PropOp49
 70
     0
102
RTVSPost2010Prop50
 90
       50
102
RTVSPost2010PropOp50
 70
     0
102
RTVSPost2010Prop51ColorIndex
 90
      256
102
RTVSPost2010Prop51ColorRGB
 90
-16777216
102
RTVSPost2010PropOp51
 70
     0
102
RTVSPost2010Prop52
140
1.0
102
RTVSPost2010PropOp52
 70
     0
102
RTVSPost2010Prop53
 90
        2
102
RTVSPost2010PropOp53
 70
     0
102
RTVSPost2010Prop54
  1
strokes_ogs.tif
102
RTVSPost2010PropOp54
 70
     0
102
RTVSPost2010Prop55
280
     0
102
RTVSPost2010PropOp55
 70
     0
102
RTVSPost2010Prop56
140
1.0
102
RTVSPost2010PropOp56
 70
     0
102
RTVSPost2010Prop57
140
1.0
102
RTVSPost2010PropOp57
 70
     0
  0
XRECORD
  5
287
102
{ACAD_REACTORS
330
286
102
}
330
286
100
AcDbXrecord
280
     1
102
RTVSPropertyOp0
 70
     1
102
RTVSPropertyOp1
 70
     1
102
RTVSPropertyOp2
 70
     1
102
RTVSPropertyOp3
 70
     1
102
RTVSPropertyOp4
 70
     1
102
RTVSPropertyOp5
 70
     1
102
RTVSPropertyOp6
 70
     1
102
RTVSPropertyOp7
 70
     1
102
RTVSPropertyOp8
 70
     1
102
RTVSPropertyOp9
 70
     1
102
RTVSPropertyOp10
 70
     1
102
RTVSPropertyOp11
 70
     1
102
RTVSPropertyOp12
 70
     1
102
RTVSPropertyOp13
 70
     1
102
RTVSPropertyOp14
 70
     1
102
RTVSPropertyOp15
 70
     1
102
RTVSPropertyOp16
 70
     1
102
RTVSPropertyOp17
 70
     1
102
RTVSPropertyOp18
 70
     1
102
RTVSPropertyOp19
 70
     1
102
RTVSPropertyOp20
 70
     1
102
RTVSPropertyOp21
 70
     1
102
RTVSPropertyOp22
 70
     1
102
RTVSPropertyOp23
 70
     1
102
RTVSPropertyOp24
 70
     1
102
RTVSPropertyOp25
 70
     1
102
RTVSPropertyOp26
 70
     1
102
RTVSPropertyOp27
 70
     1
102
RTVSPropertyOp28
 70
     1
102
RTVSPropertyOp29
 70
     1
102
RTVSPropertyOp30
 70
     1
102
RTVSPropertyOp31
 70
     1
102
RTVSPropertyOp32
 70
     1
102
RTVSPropertyOp33
 70
     1
102
RTVSPropertyOp34
 70
     1
102
RTVSPropertyOp35
 70
     1
102
RTVSPropertyOp36
 70
     1
102
RTVSPropertyOp37
 70
     1
102
RTVSPropertyOp38
 70
     1
102
RTVSPropertyOp39
 70
     1
102
RTVSPropertyOp40
 70
     1
102
RTVSPropertyOp41
 70
     1
102
RTVSPropertyOp42
 70
     1
102
RTVSPropertyOp43
 70
     1
102
RTVSPropertyOp44
 70
     1
102
RTVSPropertyOp45
 70
     1
102
RTVSPropertyOp46
 70
     1
102
RTVSPropertyOp47
 70
     1
102
RTVSPropertyOp48
 70
     1
102
RTVSPropertyOp49
 70
     1
102
RTVSPropertyOp50
 70
     1
102
RTVSPropertyOp51
 70
     0
102
RTVSPropertyOp52
 70
     0
102
RTVSPropertyOp53
 70
     1
102
RTVSPropertyOp54
 70
     1
102
RTVSPropertyOp55
 70
     1
102
RTVSPropertyOp56
 70
     1
102
RTVSPropertyOp57
 70
     1
102
RTVSPost2010Prop28
280
     0
102
RTVSPost2010PropOp28
 70
     1
102
RTVSPost2010Prop29
280
     1
102
RTVSPost2010PropOp29
 70
     1
102
RTVSPost2010Prop30
280
     1
102
RTVSPost2010PropOp30
 70
     1
102
RTVSPost2010Prop31
280
     0
102
RTVSPost2010PropOp31
 70
     1
102
RTVSPost2010Prop32
280
     0
102
RTVSPost2010PropOp32
 70
     1
102
RTVSPost2010Prop33
280
     0
102
RTVSPost2010PropOp33
 70
     1
102
RTVSPost2010Prop34
280
     0
102
RTVSPost2010PropOp34
 70
     1
102
RTVSPost2010Prop35
280
     0
102
RTVSPost2010PropOp35
 70
     1
102
RTVSPost2010Prop36
280
     0
102
RTVSPost2010PropOp36
 70
     1
102
RTVSPost2010Prop37
 90
       50
102
RTVSPost2010PropOp37
 70
     1
102
RTVSPost2010Prop38
140
0.0
102
RTVSPost2010PropOp38
 70
     1
102
RTVSPost2010Prop39
140
1.0
102
RTVSPost2010PropOp39
 70
     1
102
RTVSPost2010Prop40
 90
        0
102
RTVSPost2010PropOp40
 70
     1
102
RTVSPost2010Prop41ColorIndex
 90
       18
102
RTVSPost2010Prop41ColorRGB
 90
        0
102
RTVSPost2010PropOp41
 70
     1
102
RTVSPost2010Prop42
 90
       50
102
RTVSPost2010PropOp42
 70
     1
102
RTVSPost2010Prop43
 90
        3
102
RTVSPost2010PropOp43
 70
     1
102
RTVSPost2010Prop44ColorIndex
 90
        5
102
RTVSPost2010Prop44ColorRGB
 90
      255
102
RTVSPost2010PropOp44
 70
     1
102
RTVSPost2010Prop45
280
     0
102
RTVSPost2010PropOp45
 70
     1
102
RTVSPost2010Prop46
 90
       50
102
RTVSPost2010PropOp46
 70
     1
102
RTVSPost2010Prop47
 90
       50
102
RTVSPost2010PropOp47
 70
     1
102
RTVSPost2010Prop48
 90
       50
102
RTVSPost2010PropOp48
 70
     1
102
RTVSPost2010Prop49
280
     0
102
RTVSPost2010PropOp49
 70
     1
102
RTVSPost2010Prop50
 90
       50
102
RTVSPost2010PropOp50
 70
     1
102
RTVSPost2010Prop51ColorIndex
 90
      256
102
RTVSPost2010Prop51ColorRGB
 90
-16777216
102
RTVSPost2010PropOp51
 70
     0
102
RTVSPost2010Prop52
140
1.0
102
RTVSPost2010PropOp52
 70
     0
102
RTVSPost2010Prop53
 90
        2
102
RTVSPost2010PropOp53
 70
     1
102
RTVSPost2010Prop54
  1
strokes_ogs.tif
102
RTVSPost2010PropOp54
 70
     1
102
RTVSPost2010Prop55
280
     0
102
RTVSPost2010PropOp55
 70
     1
102
RTVSPost2010Prop56
140
1.0
102
RTVSPost2010PropOp56
 70
     1
102
RTVSPost2010Prop57
140
1.0
102
RTVSPost2010PropOp57
 70
     1
  0
XRECORD
  5
26B
102
{ACAD_REACTORS
330
26A
102
}
330
26A
100
AcDbXrecord
280
     1
102
RTVSPropertyOp0
 70
     1
102
RTVSPropertyOp1
 70
     1
102
RTVSPropertyOp2
 70
     1
102
RTVSPropertyOp3
 70
     1
102
RTVSPropertyOp4
 70
     1
102
RTVSPropertyOp5
 70
     1
102
RTVSPropertyOp6
 70
     1
102
RTVSPropertyOp7
 70
     1
102
RTVSPropertyOp8
 70
     1
102
RTVSPropertyOp9
 70
     1
102
RTVSPropertyOp10
 70
     1
102
RTVSPropertyOp11
 70
     1
102
RTVSPropertyOp12
 70
     1
102
RTVSPropertyOp13
 70
     1
102
RTVSPropertyOp14
 70
     1
102
RTVSPropertyOp15
 70
     1
102
RTVSPropertyOp16
 70
     1
102
RTVSPropertyOp17
 70
     1
102
RTVSPropertyOp18
 70
     1
102
RTVSPropertyOp19
 70
     1
102
RTVSPropertyOp20
 70
     1
102
RTVSPropertyOp21
 70
     1
102
RTVSPropertyOp22
 70
     1
102
RTVSPropertyOp23
 70
     1
102
RTVSPropertyOp24
 70
     1
102
RTVSPropertyOp25
 70
     1
102
RTVSPropertyOp26
 70
     1
102
RTVSPropertyOp27
 70
     1
102
RTVSPropertyOp28
 70
     1
102
RTVSPropertyOp29
 70
     1
102
RTVSPropertyOp30
 70
     1
102
RTVSPropertyOp31
 70
     1
102
RTVSPropertyOp32
 70
     1
102
RTVSPropertyOp33
 70
     1
102
RTVSPropertyOp34
 70
     1
102
RTVSPropertyOp35
 70
     1
102
RTVSPropertyOp36
 70
     1
102
RTVSPropertyOp37
 70
     1
102
RTVSPropertyOp38
 70
     1
102
RTVSPropertyOp39
 70
     1
102
RTVSPropertyOp40
 70
     1
102
RTVSPropertyOp41
 70
     1
102
RTVSPropertyOp42
 70
     1
102
RTVSPropertyOp43
 70
     1
102
RTVSPropertyOp44
 70
     1
102
RTVSPropertyOp45
 70
     1
102
RTVSPropertyOp46
 70
     1
102
RTVSPropertyOp47
 70
     1
102
RTVSPropertyOp48
 70
     1
102
RTVSPropertyOp49
 70
     1
102
RTVSPropertyOp50
 70
     1
102
RTVSPropertyOp51
 70
     0
102
RTVSPropertyOp52
 70
     0
102
RTVSPropertyOp53
 70
     1
102
RTVSPropertyOp54
 70
     1
102
RTVSPropertyOp55
 70
     1
102
RTVSPropertyOp56
 70
     1
102
RTVSPropertyOp57
 70
     1
102
RTVSPost2010Prop28
280
     0
102
RTVSPost2010PropOp28
 70
     1
102
RTVSPost2010Prop29
280
     1
102
RTVSPost2010PropOp29
 70
     1
102
RTVSPost2010Prop30
280
     1
102
RTVSPost2010PropOp30
 70
     1
102
RTVSPost2010Prop31
280
     0
102
RTVSPost2010PropOp31
 70
     1
102
RTVSPost2010Prop32
280
     0
102
RTVSPost2010PropOp32
 70
     1
102
RTVSPost2010Prop33
280
     0
102
RTVSPost2010PropOp33
 70
     1
102
RTVSPost2010Prop34
280
     0
102
RTVSPost2010PropOp34
 70
     1
102
RTVSPost2010Prop35
280
     0
102
RTVSPost2010PropOp35
 70
     1
102
RTVSPost2010Prop36
280
     0
102
RTVSPost2010PropOp36
 70
     1
102
RTVSPost2010Prop37
 90
       50
102
RTVSPost2010PropOp37
 70
     1
102
RTVSPost2010Prop38
140
0.0
102
RTVSPost2010PropOp38
 70
     1
102
RTVSPost2010Prop39
140
1.0
102
RTVSPost2010PropOp39
 70
     1
102
RTVSPost2010Prop40
 90
        0
102
RTVSPost2010PropOp40
 70
     1
102
RTVSPost2010Prop41ColorIndex
 90
       18
102
RTVSPost2010Prop41ColorRGB
 90
        0
102
RTVSPost2010PropOp41
 70
     1
102
RTVSPost2010Prop42
 90
       50
102
RTVSPost2010PropOp42
 70
     1
102
RTVSPost2010Prop43
 90
        3
102
RTVSPost2010PropOp43
 70
     1
102
RTVSPost2010Prop44ColorIndex
 90
        5
102
RTVSPost2010Prop44ColorRGB
 90
      255
102
RTVSPost2010PropOp44
 70
     1
102
RTVSPost2010Prop45
280
     0
102
RTVSPost2010PropOp45
 70
     1
102
RTVSPost2010Prop46
 90
       50
102
RTVSPost2010PropOp46
 70
     1
102
RTVSPost2010Prop47
 90
       50
102
RTVSPost2010PropOp47
 70
     1
102
RTVSPost2010Prop48
 90
       50
102
RTVSPost2010PropOp48
 70
     1
102
RTVSPost2010Prop49
280
     0
102
RTVSPost2010PropOp49
 70
     1
102
RTVSPost2010Prop50
 90
       50
102
RTVSPost2010PropOp50
 70
     1
102
RTVSPost2010Prop51ColorIndex
 90
      256
102
RTVSPost2010Prop51ColorRGB
 90
-16777216
102
RTVSPost2010PropOp51
 70
     0
102
RTVSPost2010Prop52
140
1.0
102
RTVSPost2010PropOp52
 70
     0
102
RTVSPost2010Prop53
 90
        2
102
RTVSPost2010PropOp53
 70
     1
102
RTVSPost2010Prop54
  1
strokes_ogs.tif
102
RTVSPost2010PropOp54
 70
     1
102
RTVSPost2010Prop55
280
     0
102
RTVSPost2010PropOp55
 70
     1
102
RTVSPost2010Prop56
140
1.0
102
RTVSPost2010PropOp56
 70
     1
102
RTVSPost2010Prop57
140
1.0
102
RTVSPost2010PropOp57
 70
     1
  0
XRECORD
  5
26D
102
{ACAD_REACTORS
330
26C
102
}
330
26C
100
AcDbXrecord
280
     1
102
RTVSPropertyOp0
 70
     1
102
RTVSPropertyOp1
 70
     1
102
RTVSPropertyOp2
 70
     1
102
RTVSPropertyOp3
 70
     1
102
RTVSPropertyOp4
 70
     1
102
RTVSPropertyOp5
 70
     1
102
RTVSPropertyOp6
 70
     1
102
RTVSPropertyOp7
 70
     1
102
RTVSPropertyOp8
 70
     1
102
RTVSPropertyOp9
 70
     1
102
RTVSPropertyOp10
 70
     1
102
RTVSPropertyOp11
 70
     1
102
RTVSPropertyOp12
 70
     1
102
RTVSPropertyOp13
 70
     1
102
RTVSPropertyOp14
 70
     1
102
RTVSPropertyOp15
 70
     1
102
RTVSPropertyOp16
 70
     1
102
RTVSPropertyOp17
 70
     1
102
RTVSPropertyOp18
 70
     1
102
RTVSPropertyOp19
 70
     1
102
RTVSPropertyOp20
 70
     1
102
RTVSPropertyOp21
 70
     1
102
RTVSPropertyOp22
 70
     1
102
RTVSPropertyOp23
 70
     1
102
RTVSPropertyOp24
 70
     1
102
RTVSPropertyOp25
 70
     1
102
RTVSPropertyOp26
 70
     1
102
RTVSPropertyOp27
 70
     1
102
RTVSPropertyOp28
 70
     1
102
RTVSPropertyOp29
 70
     1
102
RTVSPropertyOp30
 70
     1
102
RTVSPropertyOp31
 70
     1
102
RTVSPropertyOp32
 70
     1
102
RTVSPropertyOp33
 70
     1
102
RTVSPropertyOp34
 70
     1
102
RTVSPropertyOp35
 70
     1
102
RTVSPropertyOp36
 70
     1
102
RTVSPropertyOp37
 70
     1
102
RTVSPropertyOp38
 70
     1
102
RTVSPropertyOp39
 70
     1
102
RTVSPropertyOp40
 70
     1
102
RTVSPropertyOp41
 70
     1
102
RTVSPropertyOp42
 70
     1
102
RTVSPropertyOp43
 70
     1
102
RTVSPropertyOp44
 70
     1
102
RTVSPropertyOp45
 70
     1
102
RTVSPropertyOp46
 70
     1
102
RTVSPropertyOp47
 70
     1
102
RTVSPropertyOp48
 70
     1
102
RTVSPropertyOp49
 70
     1
102
RTVSPropertyOp50
 70
     1
102
RTVSPropertyOp51
 70
     0
102
RTVSPropertyOp52
 70
     0
102
RTVSPropertyOp53
 70
     1
102
RTVSPropertyOp54
 70
     1
102
RTVSPropertyOp55
 70
     1
102
RTVSPropertyOp56
 70
     1
102
RTVSPropertyOp57
 70
     1
102
RTVSPost2010Prop28
280
     0
102
RTVSPost2010PropOp28
 70
     1
102
RTVSPost2010Prop29
280
     1
102
RTVSPost2010PropOp29
 70
     1
102
RTVSPost2010Prop30
280
     1
102
RTVSPost2010PropOp30
 70
     1
102
RTVSPost2010Prop31
280
     0
102
RTVSPost2010PropOp31
 70
     1
102
RTVSPost2010Prop32
280
     0
102
RTVSPost2010PropOp32
 70
     1
102
RTVSPost2010Prop33
280
     0
102
RTVSPost2010PropOp33
 70
     1
102
RTVSPost2010Prop34
280
     0
102
RTVSPost2010PropOp34
 70
     1
102
RTVSPost2010Prop35
280
     0
102
RTVSPost2010PropOp35
 70
     1
102
RTVSPost2010Prop36
280
     0
102
RTVSPost2010PropOp36
 70
     1
102
RTVSPost2010Prop37
 90
       50
102
RTVSPost2010PropOp37
 70
     1
102
RTVSPost2010Prop38
140
0.0
102
RTVSPost2010PropOp38
 70
     1
102
RTVSPost2010Prop39
140
1.0
102
RTVSPost2010PropOp39
 70
     1
102
RTVSPost2010Prop40
 90
        0
102
RTVSPost2010PropOp40
 70
     1
102
RTVSPost2010Prop41ColorIndex
 90
       18
102
RTVSPost2010Prop41ColorRGB
 90
        0
102
RTVSPost2010PropOp41
 70
     1
102
RTVSPost2010Prop42
 90
       50
102
RTVSPost2010PropOp42
 70
     1
102
RTVSPost2010Prop43
 90
        3
102
RTVSPost2010PropOp43
 70
     1
102
RTVSPost2010Prop44ColorIndex
 90
        5
102
RTVSPost2010Prop44ColorRGB
 90
      255
102
RTVSPost2010PropOp44
 70
     1
102
RTVSPost2010Prop45
280
     0
102
RTVSPost2010PropOp45
 70
     1
102
RTVSPost2010Prop46
 90
       50
102
RTVSPost2010PropOp46
 70
     1
102
RTVSPost2010Prop47
 90
       50
102
RTVSPost2010PropOp47
 70
     1
102
RTVSPost2010Prop48
 90
       50
102
RTVSPost2010PropOp48
 70
     1
102
RTVSPost2010Prop49
280
     0
102
RTVSPost2010PropOp49
 70
     1
102
RTVSPost2010Prop50
 90
       50
102
RTVSPost2010PropOp50
 70
     1
102
RTVSPost2010Prop51ColorIndex
 90
      256
102
RTVSPost2010Prop51ColorRGB
 90
-16777216
102
RTVSPost2010PropOp51
 70
     0
102
RTVSPost2010Prop52
140
1.0
102
RTVSPost2010PropOp52
 70
     0
102
RTVSPost2010Prop53
 90
        2
102
RTVSPost2010PropOp53
 70
     1
102
RTVSPost2010Prop54
  1
strokes_ogs.tif
102
RTVSPost2010PropOp54
 70
     1
102
RTVSPost2010Prop55
280
     0
102
RTVSPost2010PropOp55
 70
     1
102
RTVSPost2010Prop56
140
1.0
102
RTVSPost2010PropOp56
 70
     1
102
RTVSPost2010Prop57
140
1.0
102
RTVSPost2010PropOp57
 70
     1
  0
XRECORD
  5
26F
102
{ACAD_REACTORS
330
26E
102
}
330
26E
100
AcDbXrecord
280
     1
102
RTVSPropertyOp0
 70
     1
102
RTVSPropertyOp1
 70
     1
102
RTVSPropertyOp2
 70
     1
102
RTVSPropertyOp3
 70
     1
102
RTVSPropertyOp4
 70
     1
102
RTVSPropertyOp5
 70
     1
102
RTVSPropertyOp6
 70
     1
102
RTVSPropertyOp7
 70
     1
102
RTVSPropertyOp8
 70
     1
102
RTVSPropertyOp9
 70
     1
102
RTVSPropertyOp10
 70
     1
102
RTVSPropertyOp11
 70
     1
102
RTVSPropertyOp12
 70
     1
102
RTVSPropertyOp13
 70
     1
102
RTVSPropertyOp14
 70
     1
102
RTVSPropertyOp15
 70
     1
102
RTVSPropertyOp16
 70
     1
102
RTVSPropertyOp17
 70
     1
102
RTVSPropertyOp18
 70
     1
102
RTVSPropertyOp19
 70
     1
102
RTVSPropertyOp20
 70
     1
102
RTVSPropertyOp21
 70
     1
102
RTVSPropertyOp22
 70
     1
102
RTVSPropertyOp23
 70
     1
102
RTVSPropertyOp24
 70
     1
102
RTVSPropertyOp25
 70
     1
102
RTVSPropertyOp26
 70
     1
102
RTVSPropertyOp27
 70
     1
102
RTVSPropertyOp28
 70
     1
102
RTVSPropertyOp29
 70
     1
102
RTVSPropertyOp30
 70
     1
102
RTVSPropertyOp31
 70
     1
102
RTVSPropertyOp32
 70
     1
102
RTVSPropertyOp33
 70
     1
102
RTVSPropertyOp34
 70
     1
102
RTVSPropertyOp35
 70
     1
102
RTVSPropertyOp36
 70
     1
102
RTVSPropertyOp37
 70
     1
102
RTVSPropertyOp38
 70
     1
102
RTVSPropertyOp39
 70
     1
102
RTVSPropertyOp40
 70
     1
102
RTVSPropertyOp41
 70
     1
102
RTVSPropertyOp42
 70
     1
102
RTVSPropertyOp43
 70
     1
102
RTVSPropertyOp44
 70
     1
102
RTVSPropertyOp45
 70
     1
102
RTVSPropertyOp46
 70
     1
102
RTVSPropertyOp47
 70
     1
102
RTVSPropertyOp48
 70
     1
102
RTVSPropertyOp49
 70
     1
102
RTVSPropertyOp50
 70
     1
102
RTVSPropertyOp51
 70
     0
102
RTVSPropertyOp52
 70
     0
102
RTVSPropertyOp53
 70
     1
102
RTVSPropertyOp54
 70
     1
102
RTVSPropertyOp55
 70
     1
102
RTVSPropertyOp56
 70
     1
102
RTVSPropertyOp57
 70
     1
102
RTVSPost2010Prop28
280
     0
102
RTVSPost2010PropOp28
 70
     1
102
RTVSPost2010Prop29
280
     1
102
RTVSPost2010PropOp29
 70
     1
102
RTVSPost2010Prop30
280
     1
102
RTVSPost2010PropOp30
 70
     1
102
RTVSPost2010Prop31
280
     0
102
RTVSPost2010PropOp31
 70
     1
102
RTVSPost2010Prop32
280
     0
102
RTVSPost2010PropOp32
 70
     1
102
RTVSPost2010Prop33
280
     0
102
RTVSPost2010PropOp33
 70
     1
102
RTVSPost2010Prop34
280
     0
102
RTVSPost2010PropOp34
 70
     1
102
RTVSPost2010Prop35
280
     0
102
RTVSPost2010PropOp35
 70
     1
102
RTVSPost2010Prop36
280
     0
102
RTVSPost2010PropOp36
 70
     1
102
RTVSPost2010Prop37
 90
       50
102
RTVSPost2010PropOp37
 70
     1
102
RTVSPost2010Prop38
140
0.0
102
RTVSPost2010PropOp38
 70
     1
102
RTVSPost2010Prop39
140
1.0
102
RTVSPost2010PropOp39
 70
     1
102
RTVSPost2010Prop40
 90
        0
102
RTVSPost2010PropOp40
 70
     1
102
RTVSPost2010Prop41ColorIndex
 90
       18
102
RTVSPost2010Prop41ColorRGB
 90
        0
102
RTVSPost2010PropOp41
 70
     1
102
RTVSPost2010Prop42
 90
       50
102
RTVSPost2010PropOp42
 70
     1
102
RTVSPost2010Prop43
 90
        3
102
RTVSPost2010PropOp43
 70
     1
102
RTVSPost2010Prop44ColorIndex
 90
        5
102
RTVSPost2010Prop44ColorRGB
 90
      255
102
RTVSPost2010PropOp44
 70
     1
102
RTVSPost2010Prop45
280
     0
102
RTVSPost2010PropOp45
 70
     1
102
RTVSPost2010Prop46
 90
       50
102
RTVSPost2010PropOp46
 70
     1
102
RTVSPost2010Prop47
 90
       50
102
RTVSPost2010PropOp47
 70
     1
102
RTVSPost2010Prop48
 90
       50
102
RTVSPost2010PropOp48
 70
     1
102
RTVSPost2010Prop49
280
     0
102
RTVSPost2010PropOp49
 70
     1
102
RTVSPost2010Prop50
 90
       50
102
RTVSPost2010PropOp50
 70
     1
102
RTVSPost2010Prop51ColorIndex
 90
      256
102
RTVSPost2010Prop51ColorRGB
 90
-16777216
102
RTVSPost2010PropOp51
 70
     0
102
RTVSPost2010Prop52
140
1.0
102
RTVSPost2010PropOp52
 70
     0
102
RTVSPost2010Prop53
 90
        2
102
RTVSPost2010PropOp53
 70
     1
102
RTVSPost2010Prop54
  1
strokes_ogs.tif
102
RTVSPost2010PropOp54
 70
     1
102
RTVSPost2010Prop55
280
     0
102
RTVSPost2010PropOp55
 70
     1
102
RTVSPost2010Prop56
140
1.0
102
RTVSPost2010PropOp56
 70
     1
102
RTVSPost2010Prop57
140
1.0
102
RTVSPost2010PropOp57
 70
     1
  0
XRECORD
  5
271
102
{ACAD_REACTORS
330
270
102
}
330
270
100
AcDbXrecord
280
     1
102
RTVSPropertyOp0
 70
     1
102
RTVSPropertyOp1
 70
     1
102
RTVSPropertyOp2
 70
     1
102
RTVSPropertyOp3
 70
     1
102
RTVSPropertyOp4
 70
     1
102
RTVSPropertyOp5
 70
     1
102
RTVSPropertyOp6
 70
     1
102
RTVSPropertyOp7
 70
     1
102
RTVSPropertyOp8
 70
     1
102
RTVSPropertyOp9
 70
     1
102
RTVSPropertyOp10
 70
     1
102
RTVSPropertyOp11
 70
     1
102
RTVSPropertyOp12
 70
     1
102
RTVSPropertyOp13
 70
     1
102
RTVSPropertyOp14
 70
     1
102
RTVSPropertyOp15
 70
     1
102
RTVSPropertyOp16
 70
     1
102
RTVSPropertyOp17
 70
     1
102
RTVSPropertyOp18
 70
     1
102
RTVSPropertyOp19
 70
     1
102
RTVSPropertyOp20
 70
     1
102
RTVSPropertyOp21
 70
     1
102
RTVSPropertyOp22
 70
     1
102
RTVSPropertyOp23
 70
     1
102
RTVSPropertyOp24
 70
     1
102
RTVSPropertyOp25
 70
     1
102
RTVSPropertyOp26
 70
     1
102
RTVSPropertyOp27
 70
     1
102
RTVSPropertyOp28
 70
     1
102
RTVSPropertyOp29
 70
     1
102
RTVSPropertyOp30
 70
     1
102
RTVSPropertyOp31
 70
     1
102
RTVSPropertyOp32
 70
     1
102
RTVSPropertyOp33
 70
     1
102
RTVSPropertyOp34
 70
     1
102
RTVSPropertyOp35
 70
     1
102
RTVSPropertyOp36
 70
     1
102
RTVSPropertyOp37
 70
     1
102
RTVSPropertyOp38
 70
     1
102
RTVSPropertyOp39
 70
     1
102
RTVSPropertyOp40
 70
     1
102
RTVSPropertyOp41
 70
     1
102
RTVSPropertyOp42
 70
     1
102
RTVSPropertyOp43
 70
     1
102
RTVSPropertyOp44
 70
     1
102
RTVSPropertyOp45
 70
     1
102
RTVSPropertyOp46
 70
     1
102
RTVSPropertyOp47
 70
     1
102
RTVSPropertyOp48
 70
     1
102
RTVSPropertyOp49
 70
     1
102
RTVSPropertyOp50
 70
     1
102
RTVSPropertyOp51
 70
     0
102
RTVSPropertyOp52
 70
     0
102
RTVSPropertyOp53
 70
     1
102
RTVSPropertyOp54
 70
     1
102
RTVSPropertyOp55
 70
     1
102
RTVSPropertyOp56
 70
     1
102
RTVSPropertyOp57
 70
     1
102
RTVSPost2010Prop28
280
     0
102
RTVSPost2010PropOp28
 70
     1
102
RTVSPost2010Prop29
280
     1
102
RTVSPost2010PropOp29
 70
     1
102
RTVSPost2010Prop30
280
     1
102
RTVSPost2010PropOp30
 70
     1
102
RTVSPost2010Prop31
280
     0
102
RTVSPost2010PropOp31
 70
     1
102
RTVSPost2010Prop32
280
     0
102
RTVSPost2010PropOp32
 70
     1
102
RTVSPost2010Prop33
280
     0
102
RTVSPost2010PropOp33
 70
     1
102
RTVSPost2010Prop34
280
     0
102
RTVSPost2010PropOp34
 70
     1
102
RTVSPost2010Prop35
280
     0
102
RTVSPost2010PropOp35
 70
     1
102
RTVSPost2010Prop36
280
     0
102
RTVSPost2010PropOp36
 70
     1
102
RTVSPost2010Prop37
 90
       50
102
RTVSPost2010PropOp37
 70
     1
102
RTVSPost2010Prop38
140
0.0
102
RTVSPost2010PropOp38
 70
     1
102
RTVSPost2010Prop39
140
1.0
102
RTVSPost2010PropOp39
 70
     1
102
RTVSPost2010Prop40
 90
        0
102
RTVSPost2010PropOp40
 70
     1
102
RTVSPost2010Prop41ColorIndex
 90
       18
102
RTVSPost2010Prop41ColorRGB
 90
        0
102
RTVSPost2010PropOp41
 70
     1
102
RTVSPost2010Prop42
 90
       50
102
RTVSPost2010PropOp42
 70
     1
102
RTVSPost2010Prop43
 90
        3
102
RTVSPost2010PropOp43
 70
     1
102
RTVSPost2010Prop44ColorIndex
 90
        5
102
RTVSPost2010Prop44ColorRGB
 90
      255
102
RTVSPost2010PropOp44
 70
     1
102
RTVSPost2010Prop45
280
     0
102
RTVSPost2010PropOp45
 70
     1
102
RTVSPost2010Prop46
 90
       50
102
RTVSPost2010PropOp46
 70
     1
102
RTVSPost2010Prop47
 90
       50
102
RTVSPost2010PropOp47
 70
     1
102
RTVSPost2010Prop48
 90
       50
102
RTVSPost2010PropOp48
 70
     1
102
RTVSPost2010Prop49
280
     0
102
RTVSPost2010PropOp49
 70
     1
102
RTVSPost2010Prop50
 90
       50
102
RTVSPost2010PropOp50
 70
     1
102
RTVSPost2010Prop51ColorIndex
 90
      256
102
RTVSPost2010Prop51ColorRGB
 90
-16777216
102
RTVSPost2010PropOp51
 70
     0
102
RTVSPost2010Prop52
140
1.0
102
RTVSPost2010PropOp52
 70
     0
102
RTVSPost2010Prop53
 90
        2
102
RTVSPost2010PropOp53
 70
     1
102
RTVSPost2010Prop54
  1
strokes_ogs.tif
102
RTVSPost2010PropOp54
 70
     1
102
RTVSPost2010Prop55
280
     0
102
RTVSPost2010PropOp55
 70
     1
102
RTVSPost2010Prop56
140
1.0
102
RTVSPost2010PropOp56
 70
     1
102
RTVSPost2010Prop57
140
1.0
102
RTVSPost2010PropOp57
 70
     1
  0
XRECORD
  5
277
102
{ACAD_REACTORS
330
276
102
}
330
276
100
AcDbXrecord
280
     1
102
RTVSPropertyOp0
 70
     1
102
RTVSPropertyOp1
 70
     1
102
RTVSPropertyOp2
 70
     1
102
RTVSPropertyOp3
 70
     1
102
RTVSPropertyOp4
 70
     1
102
RTVSPropertyOp5
 70
     1
102
RTVSPropertyOp6
 70
     1
102
RTVSPropertyOp7
 70
     1
102
RTVSPropertyOp8
 70
     1
102
RTVSPropertyOp9
 70
     1
102
RTVSPropertyOp10
 70
     1
102
RTVSPropertyOp11
 70
     1
102
RTVSPropertyOp12
 70
     1
102
RTVSPropertyOp13
 70
     1
102
RTVSPropertyOp14
 70
     1
102
RTVSPropertyOp15
 70
     1
102
RTVSPropertyOp16
 70
     1
102
RTVSPropertyOp17
 70
     1
102
RTVSPropertyOp18
 70
     1
102
RTVSPropertyOp19
 70
     1
102
RTVSPropertyOp20
 70
     1
102
RTVSPropertyOp21
 70
     1
102
RTVSPropertyOp22
 70
     1
102
RTVSPropertyOp23
 70
     1
102
RTVSPropertyOp24
 70
     1
102
RTVSPropertyOp25
 70
     1
102
RTVSPropertyOp26
 70
     1
102
RTVSPropertyOp27
 70
     1
102
RTVSPropertyOp28
 70
     1
102
RTVSPropertyOp29
 70
     1
102
RTVSPropertyOp30
 70
     1
102
RTVSPropertyOp31
 70
     1
102
RTVSPropertyOp32
 70
     1
102
RTVSPropertyOp33
 70
     1
102
RTVSPropertyOp34
 70
     1
102
RTVSPropertyOp35
 70
     1
102
RTVSPropertyOp36
 70
     1
102
RTVSPropertyOp37
 70
     1
102
RTVSPropertyOp38
 70
     1
102
RTVSPropertyOp39
 70
     1
102
RTVSPropertyOp40
 70
     1
102
RTVSPropertyOp41
 70
     1
102
RTVSPropertyOp42
 70
     1
102
RTVSPropertyOp43
 70
     1
102
RTVSPropertyOp44
 70
     1
102
RTVSPropertyOp45
 70
     1
102
RTVSPropertyOp46
 70
     1
102
RTVSPropertyOp47
 70
     1
102
RTVSPropertyOp48
 70
     1
102
RTVSPropertyOp49
 70
     1
102
RTVSPropertyOp50
 70
     1
102
RTVSPropertyOp51
 70
     0
102
RTVSPropertyOp52
 70
     0
102
RTVSPropertyOp53
 70
     1
102
RTVSPropertyOp54
 70
     1
102
RTVSPropertyOp55
 70
     1
102
RTVSPropertyOp56
 70
     1
102
RTVSPropertyOp57
 70
     1
102
RTVSPost2010Prop28
280
     0
102
RTVSPost2010PropOp28
 70
     1
102
RTVSPost2010Prop29
280
     1
102
RTVSPost2010PropOp29
 70
     1
102
RTVSPost2010Prop30
280
     1
102
RTVSPost2010PropOp30
 70
     1
102
RTVSPost2010Prop31
280
     0
102
RTVSPost2010PropOp31
 70
     1
102
RTVSPost2010Prop32
280
     0
102
RTVSPost2010PropOp32
 70
     1
102
RTVSPost2010Prop33
280
     0
102
RTVSPost2010PropOp33
 70
     1
102
RTVSPost2010Prop34
280
     0
102
RTVSPost2010PropOp34
 70
     1
102
RTVSPost2010Prop35
280
     0
102
RTVSPost2010PropOp35
 70
     1
102
RTVSPost2010Prop36
280
     0
102
RTVSPost2010PropOp36
 70
     1
102
RTVSPost2010Prop37
 90
       50
102
RTVSPost2010PropOp37
 70
     1
102
RTVSPost2010Prop38
140
0.0
102
RTVSPost2010PropOp38
 70
     1
102
RTVSPost2010Prop39
140
1.0
102
RTVSPost2010PropOp39
 70
     1
102
RTVSPost2010Prop40
 90
        0
102
RTVSPost2010PropOp40
 70
     1
102
RTVSPost2010Prop41ColorIndex
 90
       18
102
RTVSPost2010Prop41ColorRGB
 90
        0
102
RTVSPost2010PropOp41
 70
     1
102
RTVSPost2010Prop42
 90
       50
102
RTVSPost2010PropOp42
 70
     1
102
RTVSPost2010Prop43
 90
        3
102
RTVSPost2010PropOp43
 70
     1
102
RTVSPost2010Prop44ColorIndex
 90
        5
102
RTVSPost2010Prop44ColorRGB
 90
      255
102
RTVSPost2010PropOp44
 70
     1
102
RTVSPost2010Prop45
280
     0
102
RTVSPost2010PropOp45
 70
     1
102
RTVSPost2010Prop46
 90
       50
102
RTVSPost2010PropOp46
 70
     1
102
RTVSPost2010Prop47
 90
       50
102
RTVSPost2010PropOp47
 70
     1
102
RTVSPost2010Prop48
 90
       50
102
RTVSPost2010PropOp48
 70
     1
102
RTVSPost2010Prop49
280
     0
102
RTVSPost2010PropOp49
 70
     1
102
RTVSPost2010Prop50
 90
       50
102
RTVSPost2010PropOp50
 70
     1
102
RTVSPost2010Prop51ColorIndex
 90
      256
102
RTVSPost2010Prop51ColorRGB
 90
-16777216
102
RTVSPost2010PropOp51
 70
     0
102
RTVSPost2010Prop52
140
1.0
102
RTVSPost2010PropOp52
 70
     0
102
RTVSPost2010Prop53
 90
        2
102
RTVSPost2010PropOp53
 70
     1
102
RTVSPost2010Prop54
  1
strokes_ogs.tif
102
RTVSPost2010PropOp54
 70
     1
102
RTVSPost2010Prop55
280
     0
102
RTVSPost2010PropOp55
 70
     1
102
RTVSPost2010Prop56
140
1.0
102
RTVSPost2010PropOp56
 70
     1
102
RTVSPost2010Prop57
140
1.0
102
RTVSPost2010PropOp57
 70
     1
  0
XRECORD
  5
28B
102
{ACAD_REACTORS
330
28A
102
}
330
28A
100
AcDbXrecord
280
     1
102
RTVSPropertyOp0
 70
     0
102
RTVSPropertyOp1
 70
     0
102
RTVSPropertyOp2
 70
     0
102
RTVSPropertyOp3
 70
     0
102
RTVSPropertyOp4
 70
     0
102
RTVSPropertyOp5
 70
     0
102
RTVSPropertyOp6
 70
     0
102
RTVSPropertyOp7
 70
     0
102
RTVSPropertyOp8
 70
     0
102
RTVSPropertyOp9
 70
     0
102
RTVSPropertyOp10
 70
     0
102
RTVSPropertyOp11
 70
     0
102
RTVSPropertyOp12
 70
     0
102
RTVSPropertyOp13
 70
     0
102
RTVSPropertyOp14
 70
     2
102
RTVSPropertyOp15
 70
     0
102
RTVSPropertyOp16
 70
     0
102
RTVSPropertyOp17
 70
     0
102
RTVSPropertyOp18
 70
     0
102
RTVSPropertyOp19
 70
     0
102
RTVSPropertyOp20
 70
     0
102
RTVSPropertyOp21
 70
     0
102
RTVSPropertyOp22
 70
     0
102
RTVSPropertyOp23
 70
     0
102
RTVSPropertyOp24
 70
     0
102
RTVSPropertyOp25
 70
     0
102
RTVSPropertyOp26
 70
     0
102
RTVSPropertyOp27
 70
     0
102
RTVSPropertyOp28
 70
     0
102
RTVSPropertyOp29
 70
     0
102
RTVSPropertyOp30
 70
     0
102
RTVSPropertyOp31
 70
     0
102
RTVSPropertyOp32
 70
     0
102
RTVSPropertyOp33
 70
     0
102
RTVSPropertyOp34
 70
     0
102
RTVSPropertyOp35
 70
     0
102
RTVSPropertyOp36
 70
     0
102
RTVSPropertyOp37
 70
     0
102
RTVSPropertyOp38
 70
     0
102
RTVSPropertyOp39
 70
     0
102
RTVSPropertyOp40
 70
     0
102
RTVSPropertyOp41
 70
     0
102
RTVSPropertyOp42
 70
     0
102
RTVSPropertyOp43
 70
     0
102
RTVSPropertyOp44
 70
     0
102
RTVSPropertyOp45
 70
     0
102
RTVSPropertyOp46
 70
     0
102
RTVSPropertyOp47
 70
     0
102
RTVSPropertyOp48
 70
     0
102
RTVSPropertyOp49
 70
     0
102
RTVSPropertyOp50
 70
     0
102
RTVSPropertyOp51
 70
     0
102
RTVSPropertyOp52
 70
     0
102
RTVSPropertyOp53
 70
     0
102
RTVSPropertyOp54
 70
     0
102
RTVSPropertyOp55
 70
     0
102
RTVSPropertyOp56
 70
     0
102
RTVSPropertyOp57
 70
     0
102
RTVSPost2010Prop28
280
     0
102
RTVSPost2010PropOp28
 70
     0
102
RTVSPost2010Prop29
280
     1
102
RTVSPost2010PropOp29
 70
     0
102
RTVSPost2010Prop30
280
     1
102
RTVSPost2010PropOp30
 70
     0
102
RTVSPost2010Prop31
280
     0
102
RTVSPost2010PropOp31
 70
     0
102
RTVSPost2010Prop32
280
     0
102
RTVSPost2010PropOp32
 70
     0
102
RTVSPost2010Prop33
280
     0
102
RTVSPost2010PropOp33
 70
     0
102
RTVSPost2010Prop34
280
     0
102
RTVSPost2010PropOp34
 70
     0
102
RTVSPost2010Prop35
280
     0
102
RTVSPost2010PropOp35
 70
     0
102
RTVSPost2010Prop36
280
     0
102
RTVSPost2010PropOp36
 70
     0
102
RTVSPost2010Prop37
 90
       50
102
RTVSPost2010PropOp37
 70
     0
102
RTVSPost2010Prop38
140
0.0
102
RTVSPost2010PropOp38
 70
     0
102
RTVSPost2010Prop39
140
1.0
102
RTVSPost2010PropOp39
 70
     0
102
RTVSPost2010Prop40
 90
        0
102
RTVSPost2010PropOp40
 70
     0
102
RTVSPost2010Prop41ColorIndex
 90
       18
102
RTVSPost2010Prop41ColorRGB
 90
        0
102
RTVSPost2010PropOp41
 70
     0
102
RTVSPost2010Prop42
 90
       50
102
RTVSPost2010PropOp42
 70
     0
102
RTVSPost2010Prop43
 90
        3
102
RTVSPost2010PropOp43
 70
     0
102
RTVSPost2010Prop44ColorIndex
 90
        5
102
RTVSPost2010Prop44ColorRGB
 90
      255
102
RTVSPost2010PropOp44
 70
     0
102
RTVSPost2010Prop45
280
     0
102
RTVSPost2010PropOp45
 70
     0
102
RTVSPost2010Prop46
 90
       50
102
RTVSPost2010PropOp46
 70
     0
102
RTVSPost2010Prop47
 90
       50
102
RTVSPost2010PropOp47
 70
     0
102
RTVSPost2010Prop48
 90
       50
102
RTVSPost2010PropOp48
 70
     0
102
RTVSPost2010Prop49
280
     0
102
RTVSPost2010PropOp49
 70
     0
102
RTVSPost2010Prop50
 90
       50
102
RTVSPost2010PropOp50
 70
     0
102
RTVSPost2010Prop51ColorIndex
 90
      256
102
RTVSPost2010Prop51ColorRGB
 90
-16777216
102
RTVSPost2010PropOp51
 70
     0
102
RTVSPost2010Prop52
140
1.0
102
RTVSPost2010PropOp52
 70
     0
102
RTVSPost2010Prop53
 90
        2
102
RTVSPost2010PropOp53
 70
     0
102
RTVSPost2010Prop54
  1
strokes_ogs.tif
102
RTVSPost2010PropOp54
 70
     0
102
RTVSPost2010Prop55
280
     0
102
RTVSPost2010PropOp55
 70
     0
102
RTVSPost2010Prop56
140
1.0
102
RTVSPost2010PropOp56
 70
     0
102
RTVSPost2010Prop57
140
1.0
102
RTVSPost2010PropOp57
 70
     0
  0
XRECORD
  5
285
102
{ACAD_REACTORS
330
284
102
}
330
284
100
AcDbXrecord
280
     1
102
RTVSPropertyOp0
 70
     1
102
RTVSPropertyOp1
 70
     1
102
RTVSPropertyOp2
 70
     1
102
RTVSPropertyOp3
 70
     1
102
RTVSPropertyOp4
 70
     1
102
RTVSPropertyOp5
 70
     1
102
RTVSPropertyOp6
 70
     1
102
RTVSPropertyOp7
 70
     1
102
RTVSPropertyOp8
 70
     1
102
RTVSPropertyOp9
 70
     1
102
RTVSPropertyOp10
 70
     1
102
RTVSPropertyOp11
 70
     1
102
RTVSPropertyOp12
 70
     1
102
RTVSPropertyOp13
 70
     1
102
RTVSPropertyOp14
 70
     1
102
RTVSPropertyOp15
 70
     1
102
RTVSPropertyOp16
 70
     1
102
RTVSPropertyOp17
 70
     1
102
RTVSPropertyOp18
 70
     1
102
RTVSPropertyOp19
 70
     1
102
RTVSPropertyOp20
 70
     1
102
RTVSPropertyOp21
 70
     1
102
RTVSPropertyOp22
 70
     1
102
RTVSPropertyOp23
 70
     1
102
RTVSPropertyOp24
 70
     1
102
RTVSPropertyOp25
 70
     1
102
RTVSPropertyOp26
 70
     1
102
RTVSPropertyOp27
 70
     1
102
RTVSPropertyOp28
 70
     1
102
RTVSPropertyOp29
 70
     1
102
RTVSPropertyOp30
 70
     1
102
RTVSPropertyOp31
 70
     1
102
RTVSPropertyOp32
 70
     1
102
RTVSPropertyOp33
 70
     1
102
RTVSPropertyOp34
 70
     1
102
RTVSPropertyOp35
 70
     1
102
RTVSPropertyOp36
 70
     1
102
RTVSPropertyOp37
 70
     1
102
RTVSPropertyOp38
 70
     1
102
RTVSPropertyOp39
 70
     1
102
RTVSPropertyOp40
 70
     1
102
RTVSPropertyOp41
 70
     1
102
RTVSPropertyOp42
 70
     1
102
RTVSPropertyOp43
 70
     1
102
RTVSPropertyOp44
 70
     1
102
RTVSPropertyOp45
 70
     1
102
RTVSPropertyOp46
 70
     1
102
RTVSPropertyOp47
 70
     1
102
RTVSPropertyOp48
 70
     1
102
RTVSPropertyOp49
 70
     1
102
RTVSPropertyOp50
 70
     1
102
RTVSPropertyOp51
 70
     0
102
RTVSPropertyOp52
 70
     0
102
RTVSPropertyOp53
 70
     1
102
RTVSPropertyOp54
 70
     1
102
RTVSPropertyOp55
 70
     1
102
RTVSPropertyOp56
 70
     1
102
RTVSPropertyOp57
 70
     1
102
RTVSPost2010Prop28
280
     0
102
RTVSPost2010PropOp28
 70
     1
102
RTVSPost2010Prop29
280
     1
102
RTVSPost2010PropOp29
 70
     1
102
RTVSPost2010Prop30
280
     1
102
RTVSPost2010PropOp30
 70
     1
102
RTVSPost2010Prop31
280
     0
102
RTVSPost2010PropOp31
 70
     1
102
RTVSPost2010Prop32
280
     0
102
RTVSPost2010PropOp32
 70
     1
102
RTVSPost2010Prop33
280
     0
102
RTVSPost2010PropOp33
 70
     1
102
RTVSPost2010Prop34
280
     0
102
RTVSPost2010PropOp34
 70
     1
102
RTVSPost2010Prop35
280
     0
102
RTVSPost2010PropOp35
 70
     1
102
RTVSPost2010Prop36
280
     0
102
RTVSPost2010PropOp36
 70
     1
102
RTVSPost2010Prop37
 90
       50
102
RTVSPost2010PropOp37
 70
     1
102
RTVSPost2010Prop38
140
0.0
102
RTVSPost2010PropOp38
 70
     1
102
RTVSPost2010Prop39
140
1.0
102
RTVSPost2010PropOp39
 70
     1
102
RTVSPost2010Prop40
 90
        0
102
RTVSPost2010PropOp40
 70
     1
102
RTVSPost2010Prop41ColorIndex
 90
       18
102
RTVSPost2010Prop41ColorRGB
 90
        0
102
RTVSPost2010PropOp41
 70
     1
102
RTVSPost2010Prop42
 90
       50
102
RTVSPost2010PropOp42
 70
     1
102
RTVSPost2010Prop43
 90
        3
102
RTVSPost2010PropOp43
 70
     1
102
RTVSPost2010Prop44ColorIndex
 90
        5
102
RTVSPost2010Prop44ColorRGB
 90
      255
102
RTVSPost2010PropOp44
 70
     1
102
RTVSPost2010Prop45
280
     0
102
RTVSPost2010PropOp45
 70
     1
102
RTVSPost2010Prop46
 90
       50
102
RTVSPost2010PropOp46
 70
     1
102
RTVSPost2010Prop47
 90
       50
102
RTVSPost2010PropOp47
 70
     1
102
RTVSPost2010Prop48
 90
       50
102
RTVSPost2010PropOp48
 70
     1
102
RTVSPost2010Prop49
280
     0
102
RTVSPost2010PropOp49
 70
     1
102
RTVSPost2010Prop50
 90
       50
102
RTVSPost2010PropOp50
 70
     1
102
RTVSPost2010Prop51ColorIndex
 90
      256
102
RTVSPost2010Prop51ColorRGB
 90
-16777216
102
RTVSPost2010PropOp51
 70
     0
102
RTVSPost2010Prop52
140
1.0
102
RTVSPost2010PropOp52
 70
     0
102
RTVSPost2010Prop53
 90
        2
102
RTVSPost2010PropOp53
 70
     1
102
RTVSPost2010Prop54
  1
strokes_ogs.tif
102
RTVSPost2010PropOp54
 70
     1
102
RTVSPost2010Prop55
280
     0
102
RTVSPost2010PropOp55
 70
     1
102
RTVSPost2010Prop56
140
1.0
102
RTVSPost2010PropOp56
 70
     1
102
RTVSPost2010Prop57
140
1.0
102
RTVSPost2010PropOp57
 70
     1
  0
XRECORD
  5
28D
102
{ACAD_REACTORS
330
28C
102
}
330
28C
100
AcDbXrecord
280
     1
102
RTVSPropertyOp0
 70
     0
102
RTVSPropertyOp1
 70
     0
102
RTVSPropertyOp2
 70
     0
102
RTVSPropertyOp3
 70
     0
102
RTVSPropertyOp4
 70
     0
102
RTVSPropertyOp5
 70
     0
102
RTVSPropertyOp6
 70
     0
102
RTVSPropertyOp7
 70
     0
102
RTVSPropertyOp8
 70
     0
102
RTVSPropertyOp9
 70
     0
102
RTVSPropertyOp10
 70
     0
102
RTVSPropertyOp11
 70
     0
102
RTVSPropertyOp12
 70
     0
102
RTVSPropertyOp13
 70
     0
102
RTVSPropertyOp14
 70
     2
102
RTVSPropertyOp15
 70
     0
102
RTVSPropertyOp16
 70
     0
102
RTVSPropertyOp17
 70
     0
102
RTVSPropertyOp18
 70
     0
102
RTVSPropertyOp19
 70
     0
102
RTVSPropertyOp20
 70
     0
102
RTVSPropertyOp21
 70
     0
102
RTVSPropertyOp22
 70
     0
102
RTVSPropertyOp23
 70
     0
102
RTVSPropertyOp24
 70
     0
102
RTVSPropertyOp25
 70
     0
102
RTVSPropertyOp26
 70
     0
102
RTVSPropertyOp27
 70
     0
102
RTVSPropertyOp28
 70
     0
102
RTVSPropertyOp29
 70
     0
102
RTVSPropertyOp30
 70
     0
102
RTVSPropertyOp31
 70
     0
102
RTVSPropertyOp32
 70
     0
102
RTVSPropertyOp33
 70
     0
102
RTVSPropertyOp34
 70
     0
102
RTVSPropertyOp35
 70
     0
102
RTVSPropertyOp36
 70
     0
102
RTVSPropertyOp37
 70
     0
102
RTVSPropertyOp38
 70
     0
102
RTVSPropertyOp39
 70
     0
102
RTVSPropertyOp40
 70
     0
102
RTVSPropertyOp41
 70
     0
102
RTVSPropertyOp42
 70
     0
102
RTVSPropertyOp43
 70
     0
102
RTVSPropertyOp44
 70
     0
102
RTVSPropertyOp45
 70
     0
102
RTVSPropertyOp46
 70
     0
102
RTVSPropertyOp47
 70
     0
102
RTVSPropertyOp48
 70
     0
102
RTVSPropertyOp49
 70
     0
102
RTVSPropertyOp50
 70
     0
102
RTVSPropertyOp51
 70
     0
102
RTVSPropertyOp52
 70
     0
102
RTVSPropertyOp53
 70
     0
102
RTVSPropertyOp54
 70
     0
102
RTVSPropertyOp55
 70
     0
102
RTVSPropertyOp56
 70
     0
102
RTVSPropertyOp57
 70
     0
102
RTVSPost2010Prop28
280
     0
102
RTVSPost2010PropOp28
 70
     0
102
RTVSPost2010Prop29
280
     1
102
RTVSPost2010PropOp29
 70
     0
102
RTVSPost2010Prop30
280
     1
102
RTVSPost2010PropOp30
 70
     0
102
RTVSPost2010Prop31
280
     0
102
RTVSPost2010PropOp31
 70
     0
102
RTVSPost2010Prop32
280
     0
102
RTVSPost2010PropOp32
 70
     0
102
RTVSPost2010Prop33
280
     0
102
RTVSPost2010PropOp33
 70
     0
102
RTVSPost2010Prop34
280
     0
102
RTVSPost2010PropOp34
 70
     0
102
RTVSPost2010Prop35
280
     0
102
RTVSPost2010PropOp35
 70
     0
102
RTVSPost2010Prop36
280
     0
102
RTVSPost2010PropOp36
 70
     0
102
RTVSPost2010Prop37
 90
       50
102
RTVSPost2010PropOp37
 70
     0
102
RTVSPost2010Prop38
140
0.0
102
RTVSPost2010PropOp38
 70
     0
102
RTVSPost2010Prop39
140
1.0
102
RTVSPost2010PropOp39
 70
     0
102
RTVSPost2010Prop40
 90
        0
102
RTVSPost2010PropOp40
 70
     0
102
RTVSPost2010Prop41ColorIndex
 90
       18
102
RTVSPost2010Prop41ColorRGB
 90
        0
102
RTVSPost2010PropOp41
 70
     0
102
RTVSPost2010Prop42
 90
       50
102
RTVSPost2010PropOp42
 70
     0
102
RTVSPost2010Prop43
 90
        3
102
RTVSPost2010PropOp43
 70
     0
102
RTVSPost2010Prop44ColorIndex
 90
        5
102
RTVSPost2010Prop44ColorRGB
 90
      255
102
RTVSPost2010PropOp44
 70
     0
102
RTVSPost2010Prop45
280
     0
102
RTVSPost2010PropOp45
 70
     0
102
RTVSPost2010Prop46
 90
       50
102
RTVSPost2010PropOp46
 70
     0
102
RTVSPost2010Prop47
 90
       50
102
RTVSPost2010PropOp47
 70
     0
102
RTVSPost2010Prop48
 90
       50
102
RTVSPost2010PropOp48
 70
     0
102
RTVSPost2010Prop49
280
     0
102
RTVSPost2010PropOp49
 70
     0
102
RTVSPost2010Prop50
 90
       50
102
RTVSPost2010PropOp50
 70
     0
102
RTVSPost2010Prop51ColorIndex
 90
      256
102
RTVSPost2010Prop51ColorRGB
 90
-16777216
102
RTVSPost2010PropOp51
 70
     0
102
RTVSPost2010Prop52
140
1.0
102
RTVSPost2010PropOp52
 70
     0
102
RTVSPost2010Prop53
 90
        2
102
RTVSPost2010PropOp53
 70
     0
102
RTVSPost2010Prop54
  1
strokes_ogs.tif
102
RTVSPost2010PropOp54
 70
     0
102
RTVSPost2010Prop55
280
     0
102
RTVSPost2010PropOp55
 70
     0
102
RTVSPost2010Prop56
140
1.0
102
RTVSPost2010PropOp56
 70
     0
102
RTVSPost2010Prop57
140
1.0
102
RTVSPost2010PropOp57
 70
     0
  0
XRECORD
  5
27B
102
{ACAD_REACTORS
330
27A
102
}
330
27A
100
AcDbXrecord
280
     1
102
RTVSPropertyOp0
 70
     1
102
RTVSPropertyOp1
 70
     1
102
RTVSPropertyOp2
 70
     1
102
RTVSPropertyOp3
 70
     1
102
RTVSPropertyOp4
 70
     1
102
RTVSPropertyOp5
 70
     1
102
RTVSPropertyOp6
 70
     1
102
RTVSPropertyOp7
 70
     1
102
RTVSPropertyOp8
 70
     1
102
RTVSPropertyOp9
 70
     1
102
RTVSPropertyOp10
 70
     1
102
RTVSPropertyOp11
 70
     1
102
RTVSPropertyOp12
 70
     1
102
RTVSPropertyOp13
 70
     1
102
RTVSPropertyOp14
 70
     1
102
RTVSPropertyOp15
 70
     1
102
RTVSPropertyOp16
 70
     1
102
RTVSPropertyOp17
 70
     1
102
RTVSPropertyOp18
 70
     1
102
RTVSPropertyOp19
 70
     1
102
RTVSPropertyOp20
 70
     1
102
RTVSPropertyOp21
 70
     1
102
RTVSPropertyOp22
 70
     1
102
RTVSPropertyOp23
 70
     1
102
RTVSPropertyOp24
 70
     1
102
RTVSPropertyOp25
 70
     1
102
RTVSPropertyOp26
 70
     1
102
RTVSPropertyOp27
 70
     1
102
RTVSPropertyOp28
 70
     1
102
RTVSPropertyOp29
 70
     1
102
RTVSPropertyOp30
 70
     1
102
RTVSPropertyOp31
 70
     1
102
RTVSPropertyOp32
 70
     1
102
RTVSPropertyOp33
 70
     1
102
RTVSPropertyOp34
 70
     1
102
RTVSPropertyOp35
 70
     1
102
RTVSPropertyOp36
 70
     1
102
RTVSPropertyOp37
 70
     1
102
RTVSPropertyOp38
 70
     1
102
RTVSPropertyOp39
 70
     1
102
RTVSPropertyOp40
 70
     1
102
RTVSPropertyOp41
 70
     1
102
RTVSPropertyOp42
 70
     1
102
RTVSPropertyOp43
 70
     1
102
RTVSPropertyOp44
 70
     1
102
RTVSPropertyOp45
 70
     1
102
RTVSPropertyOp46
 70
     1
102
RTVSPropertyOp47
 70
     1
102
RTVSPropertyOp48
 70
     1
102
RTVSPropertyOp49
 70
     1
102
RTVSPropertyOp50
 70
     1
102
RTVSPropertyOp51
 70
     0
102
RTVSPropertyOp52
 70
     0
102
RTVSPropertyOp53
 70
     1
102
RTVSPropertyOp54
 70
     1
102
RTVSPropertyOp55
 70
     1
102
RTVSPropertyOp56
 70
     1
102
RTVSPropertyOp57
 70
     1
102
RTVSPost2010Prop28
280
     0
102
RTVSPost2010PropOp28
 70
     1
102
RTVSPost2010Prop29
280
     1
102
RTVSPost2010PropOp29
 70
     1
102
RTVSPost2010Prop30
280
     1
102
RTVSPost2010PropOp30
 70
     1
102
RTVSPost2010Prop31
280
     0
102
RTVSPost2010PropOp31
 70
     1
102
RTVSPost2010Prop32
280
     0
102
RTVSPost2010PropOp32
 70
     1
102
RTVSPost2010Prop33
280
     0
102
RTVSPost2010PropOp33
 70
     1
102
RTVSPost2010Prop34
280
     0
102
RTVSPost2010PropOp34
 70
     1
102
RTVSPost2010Prop35
280
     0
102
RTVSPost2010PropOp35
 70
     1
102
RTVSPost2010Prop36
280
     0
102
RTVSPost2010PropOp36
 70
     1
102
RTVSPost2010Prop37
 90
       50
102
RTVSPost2010PropOp37
 70
     1
102
RTVSPost2010Prop38
140
0.0
102
RTVSPost2010PropOp38
 70
     1
102
RTVSPost2010Prop39
140
1.0
102
RTVSPost2010PropOp39
 70
     1
102
RTVSPost2010Prop40
 90
        0
102
RTVSPost2010PropOp40
 70
     1
102
RTVSPost2010Prop41ColorIndex
 90
       18
102
RTVSPost2010Prop41ColorRGB
 90
        0
102
RTVSPost2010PropOp41
 70
     1
102
RTVSPost2010Prop42
 90
       50
102
RTVSPost2010PropOp42
 70
     1
102
RTVSPost2010Prop43
 90
        3
102
RTVSPost2010PropOp43
 70
     1
102
RTVSPost2010Prop44ColorIndex
 90
        5
102
RTVSPost2010Prop44ColorRGB
 90
      255
102
RTVSPost2010PropOp44
 70
     1
102
RTVSPost2010Prop45
280
     0
102
RTVSPost2010PropOp45
 70
     1
102
RTVSPost2010Prop46
 90
       50
102
RTVSPost2010PropOp46
 70
     1
102
RTVSPost2010Prop47
 90
       50
102
RTVSPost2010PropOp47
 70
     1
102
RTVSPost2010Prop48
 90
       50
102
RTVSPost2010PropOp48
 70
     1
102
RTVSPost2010Prop49
280
     0
102
RTVSPost2010PropOp49
 70
     1
102
RTVSPost2010Prop50
 90
       50
102
RTVSPost2010PropOp50
 70
     1
102
RTVSPost2010Prop51ColorIndex
 90
      256
102
RTVSPost2010Prop51ColorRGB
 90
-16777216
102
RTVSPost2010PropOp51
 70
     0
102
RTVSPost2010Prop52
140
1.0
102
RTVSPost2010PropOp52
 70
     0
102
RTVSPost2010Prop53
 90
        2
102
RTVSPost2010PropOp53
 70
     1
102
RTVSPost2010Prop54
  1
strokes_ogs.tif
102
RTVSPost2010PropOp54
 70
     1
102
RTVSPost2010Prop55
280
     0
102
RTVSPost2010PropOp55
 70
     1
102
RTVSPost2010Prop56
140
1.0
102
RTVSPost2010PropOp56
 70
     1
102
RTVSPost2010Prop57
140
1.0
102
RTVSPost2010PropOp57
 70
     1
  0
XRECORD
  5
299
102
{ACAD_REACTORS
330
298
102
}
330
298
100
AcDbXrecord
280
     1
102
RTVSPropertyOp0
 70
     1
102
RTVSPropertyOp1
 70
     1
102
RTVSPropertyOp2
 70
     1
102
RTVSPropertyOp3
 70
     1
102
RTVSPropertyOp4
 70
     1
102
RTVSPropertyOp5
 70
     1
102
RTVSPropertyOp6
 70
     1
102
RTVSPropertyOp7
 70
     1
102
RTVSPropertyOp8
 70
     1
102
RTVSPropertyOp9
 70
     1
102
RTVSPropertyOp10
 70
     1
102
RTVSPropertyOp11
 70
     1
102
RTVSPropertyOp12
 70
     1
102
RTVSPropertyOp13
 70
     1
102
RTVSPropertyOp14
 70
     1
102
RTVSPropertyOp15
 70
     1
102
RTVSPropertyOp16
 70
     1
102
RTVSPropertyOp17
 70
     1
102
RTVSPropertyOp18
 70
     1
102
RTVSPropertyOp19
 70
     1
102
RTVSPropertyOp20
 70
     1
102
RTVSPropertyOp21
 70
     1
102
RTVSPropertyOp22
 70
     1
102
RTVSPropertyOp23
 70
     1
102
RTVSPropertyOp24
 70
     1
102
RTVSPropertyOp25
 70
     1
102
RTVSPropertyOp26
 70
     1
102
RTVSPropertyOp27
 70
     1
102
RTVSPropertyOp28
 70
     1
102
RTVSPropertyOp29
 70
     1
102
RTVSPropertyOp30
 70
     1
102
RTVSPropertyOp31
 70
     1
102
RTVSPropertyOp32
 70
     1
102
RTVSPropertyOp33
 70
     1
102
RTVSPropertyOp34
 70
     1
102
RTVSPropertyOp35
 70
     1
102
RTVSPropertyOp36
 70
     1
102
RTVSPropertyOp37
 70
     1
102
RTVSPropertyOp38
 70
     1
102
RTVSPropertyOp39
 70
     1
102
RTVSPropertyOp40
 70
     1
102
RTVSPropertyOp41
 70
     1
102
RTVSPropertyOp42
 70
     1
102
RTVSPropertyOp43
 70
     1
102
RTVSPropertyOp44
 70
     1
102
RTVSPropertyOp45
 70
     1
102
RTVSPropertyOp46
 70
     1
102
RTVSPropertyOp47
 70
     1
102
RTVSPropertyOp48
 70
     1
102
RTVSPropertyOp49
 70
     1
102
RTVSPropertyOp50
 70
     1
102
RTVSPropertyOp51
 70
     0
102
RTVSPropertyOp52
 70
     0
102
RTVSPropertyOp53
 70
     1
102
RTVSPropertyOp54
 70
     1
102
RTVSPropertyOp55
 70
     1
102
RTVSPropertyOp56
 70
     1
102
RTVSPropertyOp57
 70
     1
102
RTVSPost2010Prop28
280
     0
102
RTVSPost2010PropOp28
 70
     1
102
RTVSPost2010Prop29
280
     1
102
RTVSPost2010PropOp29
 70
     1
102
RTVSPost2010Prop30
280
     1
102
RTVSPost2010PropOp30
 70
     1
102
RTVSPost2010Prop31
280
     0
102
RTVSPost2010PropOp31
 70
     1
102
RTVSPost2010Prop32
280
     0
102
RTVSPost2010PropOp32
 70
     1
102
RTVSPost2010Prop33
280
     0
102
RTVSPost2010PropOp33
 70
     1
102
RTVSPost2010Prop34
280
     0
102
RTVSPost2010PropOp34
 70
     1
102
RTVSPost2010Prop35
280
     0
102
RTVSPost2010PropOp35
 70
     1
102
RTVSPost2010Prop36
280
     0
102
RTVSPost2010PropOp36
 70
     1
102
RTVSPost2010Prop37
 90
       50
102
RTVSPost2010PropOp37
 70
     1
102
RTVSPost2010Prop38
140
0.0
102
RTVSPost2010PropOp38
 70
     1
102
RTVSPost2010Prop39
140
1.0
102
RTVSPost2010PropOp39
 70
     1
102
RTVSPost2010Prop40
 90
        0
102
RTVSPost2010PropOp40
 70
     1
102
RTVSPost2010Prop41ColorIndex
 90
       18
102
RTVSPost2010Prop41ColorRGB
 90
        0
102
RTVSPost2010PropOp41
 70
     1
102
RTVSPost2010Prop42
 90
       50
102
RTVSPost2010PropOp42
 70
     1
102
RTVSPost2010Prop43
 90
        3
102
RTVSPost2010PropOp43
 70
     1
102
RTVSPost2010Prop44ColorIndex
 90
        5
102
RTVSPost2010Prop44ColorRGB
 90
      255
102
RTVSPost2010PropOp44
 70
     1
102
RTVSPost2010Prop45
280
     0
102
RTVSPost2010PropOp45
 70
     1
102
RTVSPost2010Prop46
 90
       50
102
RTVSPost2010PropOp46
 70
     1
102
RTVSPost2010Prop47
 90
       50
102
RTVSPost2010PropOp47
 70
     1
102
RTVSPost2010Prop48
 90
       50
102
RTVSPost2010PropOp48
 70
     1
102
RTVSPost2010Prop49
280
     0
102
RTVSPost2010PropOp49
 70
     1
102
RTVSPost2010Prop50
 90
       50
102
RTVSPost2010PropOp50
 70
     1
102
RTVSPost2010Prop51ColorIndex
 90
      256
102
RTVSPost2010Prop51ColorRGB
 90
-16777216
102
RTVSPost2010PropOp51
 70
     0
102
RTVSPost2010Prop52
140
1.0
102
RTVSPost2010PropOp52
 70
     0
102
RTVSPost2010Prop53
 90
        2
102
RTVSPost2010PropOp53
 70
     1
102
RTVSPost2010Prop54
  1
strokes_ogs.tif
102
RTVSPost2010PropOp54
 70
     1
102
RTVSPost2010Prop55
280
     0
102
RTVSPost2010PropOp55
 70
     1
102
RTVSPost2010Prop56
140
1.0
102
RTVSPost2010PropOp56
 70
     1
102
RTVSPost2010Prop57
140
1.0
102
RTVSPost2010PropOp57
 70
     1
  0
XRECORD
  5
297
102
{ACAD_REACTORS
330
296
102
}
330
296
100
AcDbXrecord
280
     1
102
RTVSPropertyOp0
 70
     1
102
RTVSPropertyOp1
 70
     1
102
RTVSPropertyOp2
 70
     1
102
RTVSPropertyOp3
 70
     1
102
RTVSPropertyOp4
 70
     1
102
RTVSPropertyOp5
 70
     1
102
RTVSPropertyOp6
 70
     1
102
RTVSPropertyOp7
 70
     1
102
RTVSPropertyOp8
 70
     1
102
RTVSPropertyOp9
 70
     1
102
RTVSPropertyOp10
 70
     1
102
RTVSPropertyOp11
 70
     1
102
RTVSPropertyOp12
 70
     1
102
RTVSPropertyOp13
 70
     1
102
RTVSPropertyOp14
 70
     1
102
RTVSPropertyOp15
 70
     1
102
RTVSPropertyOp16
 70
     1
102
RTVSPropertyOp17
 70
     1
102
RTVSPropertyOp18
 70
     1
102
RTVSPropertyOp19
 70
     1
102
RTVSPropertyOp20
 70
     1
102
RTVSPropertyOp21
 70
     1
102
RTVSPropertyOp22
 70
     1
102
RTVSPropertyOp23
 70
     1
102
RTVSPropertyOp24
 70
     1
102
RTVSPropertyOp25
 70
     1
102
RTVSPropertyOp26
 70
     1
102
RTVSPropertyOp27
 70
     1
102
RTVSPropertyOp28
 70
     1
102
RTVSPropertyOp29
 70
     1
102
RTVSPropertyOp30
 70
     1
102
RTVSPropertyOp31
 70
     1
102
RTVSPropertyOp32
 70
     1
102
RTVSPropertyOp33
 70
     1
102
RTVSPropertyOp34
 70
     1
102
RTVSPropertyOp35
 70
     1
102
RTVSPropertyOp36
 70
     1
102
RTVSPropertyOp37
 70
     1
102
RTVSPropertyOp38
 70
     1
102
RTVSPropertyOp39
 70
     1
102
RTVSPropertyOp40
 70
     1
102
RTVSPropertyOp41
 70
     1
102
RTVSPropertyOp42
 70
     1
102
RTVSPropertyOp43
 70
     1
102
RTVSPropertyOp44
 70
     1
102
RTVSPropertyOp45
 70
     1
102
RTVSPropertyOp46
 70
     1
102
RTVSPropertyOp47
 70
     1
102
RTVSPropertyOp48
 70
     1
102
RTVSPropertyOp49
 70
     1
102
RTVSPropertyOp50
 70
     1
102
RTVSPropertyOp51
 70
     0
102
RTVSPropertyOp52
 70
     0
102
RTVSPropertyOp53
 70
     1
102
RTVSPropertyOp54
 70
     1
102
RTVSPropertyOp55
 70
     1
102
RTVSPropertyOp56
 70
     1
102
RTVSPropertyOp57
 70
     1
102
RTVSPost2010Prop28
280
     0
102
RTVSPost2010PropOp28
 70
     1
102
RTVSPost2010Prop29
280
     1
102
RTVSPost2010PropOp29
 70
     1
102
RTVSPost2010Prop30
280
     1
102
RTVSPost2010PropOp30
 70
     1
102
RTVSPost2010Prop31
280
     0
102
RTVSPost2010PropOp31
 70
     1
102
RTVSPost2010Prop32
280
     0
102
RTVSPost2010PropOp32
 70
     1
102
RTVSPost2010Prop33
280
     0
102
RTVSPost2010PropOp33
 70
     1
102
RTVSPost2010Prop34
280
     0
102
RTVSPost2010PropOp34
 70
     1
102
RTVSPost2010Prop35
280
     0
102
RTVSPost2010PropOp35
 70
     1
102
RTVSPost2010Prop36
280
     0
102
RTVSPost2010PropOp36
 70
     1
102
RTVSPost2010Prop37
 90
       50
102
RTVSPost2010PropOp37
 70
     1
102
RTVSPost2010Prop38
140
0.0
102
RTVSPost2010PropOp38
 70
     1
102
RTVSPost2010Prop39
140
1.0
102
RTVSPost2010PropOp39
 70
     1
102
RTVSPost2010Prop40
 90
        0
102
RTVSPost2010PropOp40
 70
     1
102
RTVSPost2010Prop41ColorIndex
 90
       18
102
RTVSPost2010Prop41ColorRGB
 90
        0
102
RTVSPost2010PropOp41
 70
     1
102
RTVSPost2010Prop42
 90
       50
102
RTVSPost2010PropOp42
 70
     1
102
RTVSPost2010Prop43
 90
        3
102
RTVSPost2010PropOp43
 70
     1
102
RTVSPost2010Prop44ColorIndex
 90
        5
102
RTVSPost2010Prop44ColorRGB
 90
      255
102
RTVSPost2010PropOp44
 70
     1
102
RTVSPost2010Prop45
280
     0
102
RTVSPost2010PropOp45
 70
     1
102
RTVSPost2010Prop46
 90
       50
102
RTVSPost2010PropOp46
 70
     1
102
RTVSPost2010Prop47
 90
       50
102
RTVSPost2010PropOp47
 70
     1
102
RTVSPost2010Prop48
 90
       50
102
RTVSPost2010PropOp48
 70
     1
102
RTVSPost2010Prop49
280
     0
102
RTVSPost2010PropOp49
 70
     1
102
RTVSPost2010Prop50
 90
       50
102
RTVSPost2010PropOp50
 70
     1
102
RTVSPost2010Prop51ColorIndex
 90
      256
102
RTVSPost2010Prop51ColorRGB
 90
-16777216
102
RTVSPost2010PropOp51
 70
     0
102
RTVSPost2010Prop52
140
1.0
102
RTVSPost2010PropOp52
 70
     0
102
RTVSPost2010Prop53
 90
        2
102
RTVSPost2010PropOp53
 70
     1
102
RTVSPost2010Prop54
  1
strokes_ogs.tif
102
RTVSPost2010PropOp54
 70
     1
102
RTVSPost2010Prop55
280
     0
102
RTVSPost2010PropOp55
 70
     1
102
RTVSPost2010Prop56
140
1.0
102
RTVSPost2010PropOp56
 70
     1
102
RTVSPost2010Prop57
140
1.0
102
RTVSPost2010PropOp57
 70
     1
  0
XRECORD
  5
291
102
{ACAD_REACTORS
330
290
102
}
330
290
100
AcDbXrecord
280
     1
102
RTVSPropertyOp0
 70
     1
102
RTVSPropertyOp1
 70
     1
102
RTVSPropertyOp2
 70
     1
102
RTVSPropertyOp3
 70
     1
102
RTVSPropertyOp4
 70
     1
102
RTVSPropertyOp5
 70
     1
102
RTVSPropertyOp6
 70
     1
102
RTVSPropertyOp7
 70
     1
102
RTVSPropertyOp8
 70
     1
102
RTVSPropertyOp9
 70
     1
102
RTVSPropertyOp10
 70
     1
102
RTVSPropertyOp11
 70
     1
102
RTVSPropertyOp12
 70
     1
102
RTVSPropertyOp13
 70
     1
102
RTVSPropertyOp14
 70
     1
102
RTVSPropertyOp15
 70
     1
102
RTVSPropertyOp16
 70
     1
102
RTVSPropertyOp17
 70
     1
102
RTVSPropertyOp18
 70
     1
102
RTVSPropertyOp19
 70
     1
102
RTVSPropertyOp20
 70
     1
102
RTVSPropertyOp21
 70
     1
102
RTVSPropertyOp22
 70
     1
102
RTVSPropertyOp23
 70
     1
102
RTVSPropertyOp24
 70
     1
102
RTVSPropertyOp25
 70
     1
102
RTVSPropertyOp26
 70
     1
102
RTVSPropertyOp27
 70
     1
102
RTVSPropertyOp28
 70
     1
102
RTVSPropertyOp29
 70
     1
102
RTVSPropertyOp30
 70
     1
102
RTVSPropertyOp31
 70
     1
102
RTVSPropertyOp32
 70
     1
102
RTVSPropertyOp33
 70
     1
102
RTVSPropertyOp34
 70
     1
102
RTVSPropertyOp35
 70
     1
102
RTVSPropertyOp36
 70
     1
102
RTVSPropertyOp37
 70
     1
102
RTVSPropertyOp38
 70
     1
102
RTVSPropertyOp39
 70
     1
102
RTVSPropertyOp40
 70
     1
102
RTVSPropertyOp41
 70
     1
102
RTVSPropertyOp42
 70
     1
102
RTVSPropertyOp43
 70
     1
102
RTVSPropertyOp44
 70
     1
102
RTVSPropertyOp45
 70
     1
102
RTVSPropertyOp46
 70
     1
102
RTVSPropertyOp47
 70
     1
102
RTVSPropertyOp48
 70
     1
102
RTVSPropertyOp49
 70
     1
102
RTVSPropertyOp50
 70
     1
102
RTVSPropertyOp51
 70
     0
102
RTVSPropertyOp52
 70
     0
102
RTVSPropertyOp53
 70
     1
102
RTVSPropertyOp54
 70
     1
102
RTVSPropertyOp55
 70
     1
102
RTVSPropertyOp56
 70
     1
102
RTVSPropertyOp57
 70
     1
102
RTVSPost2010Prop28
280
     0
102
RTVSPost2010PropOp28
 70
     1
102
RTVSPost2010Prop29
280
     1
102
RTVSPost2010PropOp29
 70
     1
102
RTVSPost2010Prop30
280
     1
102
RTVSPost2010PropOp30
 70
     1
102
RTVSPost2010Prop31
280
     0
102
RTVSPost2010PropOp31
 70
     1
102
RTVSPost2010Prop32
280
     0
102
RTVSPost2010PropOp32
 70
     1
102
RTVSPost2010Prop33
280
     0
102
RTVSPost2010PropOp33
 70
     1
102
RTVSPost2010Prop34
280
     0
102
RTVSPost2010PropOp34
 70
     1
102
RTVSPost2010Prop35
280
     0
102
RTVSPost2010PropOp35
 70
     1
102
RTVSPost2010Prop36
280
     0
102
RTVSPost2010PropOp36
 70
     1
102
RTVSPost2010Prop37
 90
       50
102
RTVSPost2010PropOp37
 70
     1
102
RTVSPost2010Prop38
140
0.0
102
RTVSPost2010PropOp38
 70
     1
102
RTVSPost2010Prop39
140
1.0
102
RTVSPost2010PropOp39
 70
     1
102
RTVSPost2010Prop40
 90
        0
102
RTVSPost2010PropOp40
 70
     1
102
RTVSPost2010Prop41ColorIndex
 90
       18
102
RTVSPost2010Prop41ColorRGB
 90
        0
102
RTVSPost2010PropOp41
 70
     1
102
RTVSPost2010Prop42
 90
       50
102
RTVSPost2010PropOp42
 70
     1
102
RTVSPost2010Prop43
 90
        3
102
RTVSPost2010PropOp43
 70
     1
102
RTVSPost2010Prop44ColorIndex
 90
        5
102
RTVSPost2010Prop44ColorRGB
 90
      255
102
RTVSPost2010PropOp44
 70
     1
102
RTVSPost2010Prop45
280
     0
102
RTVSPost2010PropOp45
 70
     1
102
RTVSPost2010Prop46
 90
       50
102
RTVSPost2010PropOp46
 70
     1
102
RTVSPost2010Prop47
 90
       50
102
RTVSPost2010PropOp47
 70
     1
102
RTVSPost2010Prop48
 90
       50
102
RTVSPost2010PropOp48
 70
     1
102
RTVSPost2010Prop49
280
     0
102
RTVSPost2010PropOp49
 70
     1
102
RTVSPost2010Prop50
 90
       50
102
RTVSPost2010PropOp50
 70
     1
102
RTVSPost2010Prop51ColorIndex
 90
      256
102
RTVSPost2010Prop51ColorRGB
 90
-16777216
102
RTVSPost2010PropOp51
 70
     0
102
RTVSPost2010Prop52
140
1.0
102
RTVSPost2010PropOp52
 70
     0
102
RTVSPost2010Prop53
 90
        2
102
RTVSPost2010PropOp53
 70
     1
102
RTVSPost2010Prop54
  1
strokes_ogs.tif
102
RTVSPost2010PropOp54
 70
     1
102
RTVSPost2010Prop55
280
     0
102
RTVSPost2010PropOp55
 70
     1
102
RTVSPost2010Prop56
140
1.0
102
RTVSPost2010PropOp56
 70
     1
102
RTVSPost2010Prop57
140
1.0
102
RTVSPost2010PropOp57
 70
     1
  0
XRECORD
  5
293
102
{ACAD_REACTORS
330
292
102
}
330
292
100
AcDbXrecord
280
     1
102
RTVSPropertyOp0
 70
     1
102
RTVSPropertyOp1
 70
     1
102
RTVSPropertyOp2
 70
     1
102
RTVSPropertyOp3
 70
     1
102
RTVSPropertyOp4
 70
     1
102
RTVSPropertyOp5
 70
     1
102
RTVSPropertyOp6
 70
     1
102
RTVSPropertyOp7
 70
     1
102
RTVSPropertyOp8
 70
     1
102
RTVSPropertyOp9
 70
     1
102
RTVSPropertyOp10
 70
     1
102
RTVSPropertyOp11
 70
     1
102
RTVSPropertyOp12
 70
     1
102
RTVSPropertyOp13
 70
     1
102
RTVSPropertyOp14
 70
     1
102
RTVSPropertyOp15
 70
     1
102
RTVSPropertyOp16
 70
     1
102
RTVSPropertyOp17
 70
     1
102
RTVSPropertyOp18
 70
     1
102
RTVSPropertyOp19
 70
     1
102
RTVSPropertyOp20
 70
     1
102
RTVSPropertyOp21
 70
     1
102
RTVSPropertyOp22
 70
     1
102
RTVSPropertyOp23
 70
     1
102
RTVSPropertyOp24
 70
     1
102
RTVSPropertyOp25
 70
     1
102
RTVSPropertyOp26
 70
     1
102
RTVSPropertyOp27
 70
     1
102
RTVSPropertyOp28
 70
     1
102
RTVSPropertyOp29
 70
     1
102
RTVSPropertyOp30
 70
     1
102
RTVSPropertyOp31
 70
     1
102
RTVSPropertyOp32
 70
     1
102
RTVSPropertyOp33
 70
     1
102
RTVSPropertyOp34
 70
     1
102
RTVSPropertyOp35
 70
     1
102
RTVSPropertyOp36
 70
     1
102
RTVSPropertyOp37
 70
     1
102
RTVSPropertyOp38
 70
     1
102
RTVSPropertyOp39
 70
     1
102
RTVSPropertyOp40
 70
     1
102
RTVSPropertyOp41
 70
     1
102
RTVSPropertyOp42
 70
     1
102
RTVSPropertyOp43
 70
     1
102
RTVSPropertyOp44
 70
     1
102
RTVSPropertyOp45
 70
     1
102
RTVSPropertyOp46
 70
     1
102
RTVSPropertyOp47
 70
     1
102
RTVSPropertyOp48
 70
     1
102
RTVSPropertyOp49
 70
     1
102
RTVSPropertyOp50
 70
     1
102
RTVSPropertyOp51
 70
     0
102
RTVSPropertyOp52
 70
     0
102
RTVSPropertyOp53
 70
     1
102
RTVSPropertyOp54
 70
     1
102
RTVSPropertyOp55
 70
     1
102
RTVSPropertyOp56
 70
     1
102
RTVSPropertyOp57
 70
     1
102
RTVSPost2010Prop28
280
     0
102
RTVSPost2010PropOp28
 70
     1
102
RTVSPost2010Prop29
280
     1
102
RTVSPost2010PropOp29
 70
     1
102
RTVSPost2010Prop30
280
     1
102
RTVSPost2010PropOp30
 70
     1
102
RTVSPost2010Prop31
280
     0
102
RTVSPost2010PropOp31
 70
     1
102
RTVSPost2010Prop32
280
     0
102
RTVSPost2010PropOp32
 70
     1
102
RTVSPost2010Prop33
280
     0
102
RTVSPost2010PropOp33
 70
     1
102
RTVSPost2010Prop34
280
     0
102
RTVSPost2010PropOp34
 70
     1
102
RTVSPost2010Prop35
280
     0
102
RTVSPost2010PropOp35
 70
     1
102
RTVSPost2010Prop36
280
     0
102
RTVSPost2010PropOp36
 70
     1
102
RTVSPost2010Prop37
 90
       50
102
RTVSPost2010PropOp37
 70
     1
102
RTVSPost2010Prop38
140
0.0
102
RTVSPost2010PropOp38
 70
     1
102
RTVSPost2010Prop39
140
1.0
102
RTVSPost2010PropOp39
 70
     1
102
RTVSPost2010Prop40
 90
        0
102
RTVSPost2010PropOp40
 70
     1
102
RTVSPost2010Prop41ColorIndex
 90
       18
102
RTVSPost2010Prop41ColorRGB
 90
        0
102
RTVSPost2010PropOp41
 70
     1
102
RTVSPost2010Prop42
 90
       50
102
RTVSPost2010PropOp42
 70
     1
102
RTVSPost2010Prop43
 90
        3
102
RTVSPost2010PropOp43
 70
     1
102
RTVSPost2010Prop44ColorIndex
 90
        5
102
RTVSPost2010Prop44ColorRGB
 90
      255
102
RTVSPost2010PropOp44
 70
     1
102
RTVSPost2010Prop45
280
     0
102
RTVSPost2010PropOp45
 70
     1
102
RTVSPost2010Prop46
 90
       50
102
RTVSPost2010PropOp46
 70
     1
102
RTVSPost2010Prop47
 90
       50
102
RTVSPost2010PropOp47
 70
     1
102
RTVSPost2010Prop48
 90
       50
102
RTVSPost2010PropOp48
 70
     1
102
RTVSPost2010Prop49
280
     0
102
RTVSPost2010PropOp49
 70
     1
102
RTVSPost2010Prop50
 90
       50
102
RTVSPost2010PropOp50
 70
     1
102
RTVSPost2010Prop51ColorIndex
 90
      256
102
RTVSPost2010Prop51ColorRGB
 90
-16777216
102
RTVSPost2010PropOp51
 70
     0
102
RTVSPost2010Prop52
140
1.0
102
RTVSPost2010PropOp52
 70
     0
102
RTVSPost2010Prop53
 90
        2
102
RTVSPost2010PropOp53
 70
     1
102
RTVSPost2010Prop54
  1
strokes_ogs.tif
102
RTVSPost2010PropOp54
 70
     1
102
RTVSPost2010Prop55
280
     0
102
RTVSPost2010PropOp55
 70
     1
102
RTVSPost2010Prop56
140
1.0
102
RTVSPost2010PropOp56
 70
     1
102
RTVSPost2010Prop57
140
1.0
102
RTVSPost2010PropOp57
 70
     1
  0
XRECORD
  5
283
102
{ACAD_REACTORS
330
282
102
}
330
282
100
AcDbXrecord
280
     1
102
RTVSPropertyOp0
 70
     1
102
RTVSPropertyOp1
 70
     1
102
RTVSPropertyOp2
 70
     1
102
RTVSPropertyOp3
 70
     1
102
RTVSPropertyOp4
 70
     1
102
RTVSPropertyOp5
 70
     1
102
RTVSPropertyOp6
 70
     1
102
RTVSPropertyOp7
 70
     1
102
RTVSPropertyOp8
 70
     1
102
RTVSPropertyOp9
 70
     1
102
RTVSPropertyOp10
 70
     1
102
RTVSPropertyOp11
 70
     1
102
RTVSPropertyOp12
 70
     1
102
RTVSPropertyOp13
 70
     1
102
RTVSPropertyOp14
 70
     1
102
RTVSPropertyOp15
 70
     1
102
RTVSPropertyOp16
 70
     1
102
RTVSPropertyOp17
 70
     1
102
RTVSPropertyOp18
 70
     1
102
RTVSPropertyOp19
 70
     1
102
RTVSPropertyOp20
 70
     1
102
RTVSPropertyOp21
 70
     1
102
RTVSPropertyOp22
 70
     1
102
RTVSPropertyOp23
 70
     1
102
RTVSPropertyOp24
 70
     1
102
RTVSPropertyOp25
 70
     1
102
RTVSPropertyOp26
 70
     1
102
RTVSPropertyOp27
 70
     1
102
RTVSPropertyOp28
 70
     1
102
RTVSPropertyOp29
 70
     1
102
RTVSPropertyOp30
 70
     1
102
RTVSPropertyOp31
 70
     1
102
RTVSPropertyOp32
 70
     1
102
RTVSPropertyOp33
 70
     1
102
RTVSPropertyOp34
 70
     1
102
RTVSPropertyOp35
 70
     1
102
RTVSPropertyOp36
 70
     1
102
RTVSPropertyOp37
 70
     1
102
RTVSPropertyOp38
 70
     1
102
RTVSPropertyOp39
 70
     1
102
RTVSPropertyOp40
 70
     1
102
RTVSPropertyOp41
 70
     1
102
RTVSPropertyOp42
 70
     1
102
RTVSPropertyOp43
 70
     1
102
RTVSPropertyOp44
 70
     1
102
RTVSPropertyOp45
 70
     1
102
RTVSPropertyOp46
 70
     1
102
RTVSPropertyOp47
 70
     1
102
RTVSPropertyOp48
 70
     1
102
RTVSPropertyOp49
 70
     1
102
RTVSPropertyOp50
 70
     1
102
RTVSPropertyOp51
 70
     0
102
RTVSPropertyOp52
 70
     0
102
RTVSPropertyOp53
 70
     1
102
RTVSPropertyOp54
 70
     1
102
RTVSPropertyOp55
 70
     1
102
RTVSPropertyOp56
 70
     1
102
RTVSPropertyOp57
 70
     1
102
RTVSPost2010Prop28
280
     0
102
RTVSPost2010PropOp28
 70
     1
102
RTVSPost2010Prop29
280
     1
102
RTVSPost2010PropOp29
 70
     1
102
RTVSPost2010Prop30
280
     1
102
RTVSPost2010PropOp30
 70
     1
102
RTVSPost2010Prop31
280
     0
102
RTVSPost2010PropOp31
 70
     1
102
RTVSPost2010Prop32
280
     0
102
RTVSPost2010PropOp32
 70
     1
102
RTVSPost2010Prop33
280
     0
102
RTVSPost2010PropOp33
 70
     1
102
RTVSPost2010Prop34
280
     0
102
RTVSPost2010PropOp34
 70
     1
102
RTVSPost2010Prop35
280
     0
102
RTVSPost2010PropOp35
 70
     1
102
RTVSPost2010Prop36
280
     0
102
RTVSPost2010PropOp36
 70
     1
102
RTVSPost2010Prop37
 90
       50
102
RTVSPost2010PropOp37
 70
     1
102
RTVSPost2010Prop38
140
0.0
102
RTVSPost2010PropOp38
 70
     1
102
RTVSPost2010Prop39
140
1.0
102
RTVSPost2010PropOp39
 70
     1
102
RTVSPost2010Prop40
 90
        0
102
RTVSPost2010PropOp40
 70
     1
102
RTVSPost2010Prop41ColorIndex
 90
       18
102
RTVSPost2010Prop41ColorRGB
 90
        0
102
RTVSPost2010PropOp41
 70
     1
102
RTVSPost2010Prop42
 90
       50
102
RTVSPost2010PropOp42
 70
     1
102
RTVSPost2010Prop43
 90
        3
102
RTVSPost2010PropOp43
 70
     1
102
RTVSPost2010Prop44ColorIndex
 90
        5
102
RTVSPost2010Prop44ColorRGB
 90
      255
102
RTVSPost2010PropOp44
 70
     1
102
RTVSPost2010Prop45
280
     0
102
RTVSPost2010PropOp45
 70
     1
102
RTVSPost2010Prop46
 90
       50
102
RTVSPost2010PropOp46
 70
     1
102
RTVSPost2010Prop47
 90
       50
102
RTVSPost2010PropOp47
 70
     1
102
RTVSPost2010Prop48
 90
       50
102
RTVSPost2010PropOp48
 70
     1
102
RTVSPost2010Prop49
280
     0
102
RTVSPost2010PropOp49
 70
     1
102
RTVSPost2010Prop50
 90
       50
102
RTVSPost2010PropOp50
 70
     1
102
RTVSPost2010Prop51ColorIndex
 90
      256
102
RTVSPost2010Prop51ColorRGB
 90
-16777216
102
RTVSPost2010PropOp51
 70
     0
102
RTVSPost2010Prop52
140
1.0
102
RTVSPost2010PropOp52
 70
     0
102
RTVSPost2010Prop53
 90
        2
102
RTVSPost2010PropOp53
 70
     1
102
RTVSPost2010Prop54
  1
strokes_ogs.tif
102
RTVSPost2010PropOp54
 70
     1
102
RTVSPost2010Prop55
280
     0
102
RTVSPost2010PropOp55
 70
     1
102
RTVSPost2010Prop56
140
1.0
102
RTVSPost2010PropOp56
 70
     1
102
RTVSPost2010Prop57
140
1.0
102
RTVSPost2010PropOp57
 70
     1
  0
XRECORD
  5
275
102
{ACAD_REACTORS
330
274
102
}
330
274
100
AcDbXrecord
280
     1
102
RTVSPropertyOp0
 70
     1
102
RTVSPropertyOp1
 70
     1
102
RTVSPropertyOp2
 70
     1
102
RTVSPropertyOp3
 70
     1
102
RTVSPropertyOp4
 70
     1
102
RTVSPropertyOp5
 70
     1
102
RTVSPropertyOp6
 70
     1
102
RTVSPropertyOp7
 70
     1
102
RTVSPropertyOp8
 70
     1
102
RTVSPropertyOp9
 70
     1
102
RTVSPropertyOp10
 70
     1
102
RTVSPropertyOp11
 70
     1
102
RTVSPropertyOp12
 70
     1
102
RTVSPropertyOp13
 70
     1
102
RTVSPropertyOp14
 70
     1
102
RTVSPropertyOp15
 70
     1
102
RTVSPropertyOp16
 70
     1
102
RTVSPropertyOp17
 70
     1
102
RTVSPropertyOp18
 70
     1
102
RTVSPropertyOp19
 70
     1
102
RTVSPropertyOp20
 70
     1
102
RTVSPropertyOp21
 70
     1
102
RTVSPropertyOp22
 70
     1
102
RTVSPropertyOp23
 70
     1
102
RTVSPropertyOp24
 70
     1
102
RTVSPropertyOp25
 70
     1
102
RTVSPropertyOp26
 70
     1
102
RTVSPropertyOp27
 70
     1
102
RTVSPropertyOp28
 70
     1
102
RTVSPropertyOp29
 70
     1
102
RTVSPropertyOp30
 70
     1
102
RTVSPropertyOp31
 70
     1
102
RTVSPropertyOp32
 70
     1
102
RTVSPropertyOp33
 70
     1
102
RTVSPropertyOp34
 70
     1
102
RTVSPropertyOp35
 70
     1
102
RTVSPropertyOp36
 70
     1
102
RTVSPropertyOp37
 70
     1
102
RTVSPropertyOp38
 70
     1
102
RTVSPropertyOp39
 70
     1
102
RTVSPropertyOp40
 70
     1
102
RTVSPropertyOp41
 70
     1
102
RTVSPropertyOp42
 70
     1
102
RTVSPropertyOp43
 70
     1
102
RTVSPropertyOp44
 70
     1
102
RTVSPropertyOp45
 70
     1
102
RTVSPropertyOp46
 70
     1
102
RTVSPropertyOp47
 70
     1
102
RTVSPropertyOp48
 70
     1
102
RTVSPropertyOp49
 70
     1
102
RTVSPropertyOp50
 70
     1
102
RTVSPropertyOp51
 70
     0
102
RTVSPropertyOp52
 70
     0
102
RTVSPropertyOp53
 70
     1
102
RTVSPropertyOp54
 70
     1
102
RTVSPropertyOp55
 70
     1
102
RTVSPropertyOp56
 70
     1
102
RTVSPropertyOp57
 70
     1
102
RTVSPost2010Prop28
280
     0
102
RTVSPost2010PropOp28
 70
     1
102
RTVSPost2010Prop29
280
     1
102
RTVSPost2010PropOp29
 70
     1
102
RTVSPost2010Prop30
280
     1
102
RTVSPost2010PropOp30
 70
     1
102
RTVSPost2010Prop31
280
     0
102
RTVSPost2010PropOp31
 70
     1
102
RTVSPost2010Prop32
280
     0
102
RTVSPost2010PropOp32
 70
     1
102
RTVSPost2010Prop33
280
     0
102
RTVSPost2010PropOp33
 70
     1
102
RTVSPost2010Prop34
280
     0
102
RTVSPost2010PropOp34
 70
     1
102
RTVSPost2010Prop35
280
     0
102
RTVSPost2010PropOp35
 70
     1
102
RTVSPost2010Prop36
280
     0
102
RTVSPost2010PropOp36
 70
     1
102
RTVSPost2010Prop37
 90
       50
102
RTVSPost2010PropOp37
 70
     1
102
RTVSPost2010Prop38
140
0.0
102
RTVSPost2010PropOp38
 70
     1
102
RTVSPost2010Prop39
140
1.0
102
RTVSPost2010PropOp39
 70
     1
102
RTVSPost2010Prop40
 90
        0
102
RTVSPost2010PropOp40
 70
     1
102
RTVSPost2010Prop41ColorIndex
 90
       18
102
RTVSPost2010Prop41ColorRGB
 90
        0
102
RTVSPost2010PropOp41
 70
     1
102
RTVSPost2010Prop42
 90
       50
102
RTVSPost2010PropOp42
 70
     1
102
RTVSPost2010Prop43
 90
        3
102
RTVSPost2010PropOp43
 70
     1
102
RTVSPost2010Prop44ColorIndex
 90
        5
102
RTVSPost2010Prop44ColorRGB
 90
      255
102
RTVSPost2010PropOp44
 70
     1
102
RTVSPost2010Prop45
280
     0
102
RTVSPost2010PropOp45
 70
     1
102
RTVSPost2010Prop46
 90
       50
102
RTVSPost2010PropOp46
 70
     1
102
RTVSPost2010Prop47
 90
       50
102
RTVSPost2010PropOp47
 70
     1
102
RTVSPost2010Prop48
 90
       50
102
RTVSPost2010PropOp48
 70
     1
102
RTVSPost2010Prop49
280
     0
102
RTVSPost2010PropOp49
 70
     1
102
RTVSPost2010Prop50
 90
       50
102
RTVSPost2010PropOp50
 70
     1
102
RTVSPost2010Prop51ColorIndex
 90
      256
102
RTVSPost2010Prop51ColorRGB
 90
-16777216
102
RTVSPost2010PropOp51
 70
     0
102
RTVSPost2010Prop52
140
1.0
102
RTVSPost2010PropOp52
 70
     0
102
RTVSPost2010Prop53
 90
        2
102
RTVSPost2010PropOp53
 70
     1
102
RTVSPost2010Prop54
  1
strokes_ogs.tif
102
RTVSPost2010PropOp54
 70
     1
102
RTVSPost2010Prop55
280
     0
102
RTVSPost2010PropOp55
 70
     1
102
RTVSPost2010Prop56
140
1.0
102
RTVSPost2010PropOp56
 70
     1
102
RTVSPost2010Prop57
140
1.0
102
RTVSPost2010PropOp57
 70
     1
  0
XRECORD
  5
295
102
{ACAD_REACTORS
330
294
102
}
330
294
100
AcDbXrecord
280
     1
102
RTVSPropertyOp0
 70
     1
102
RTVSPropertyOp1
 70
     1
102
RTVSPropertyOp2
 70
     1
102
RTVSPropertyOp3
 70
     1
102
RTVSPropertyOp4
 70
     1
102
RTVSPropertyOp5
 70
     1
102
RTVSPropertyOp6
 70
     1
102
RTVSPropertyOp7
 70
     1
102
RTVSPropertyOp8
 70
     1
102
RTVSPropertyOp9
 70
     1
102
RTVSPropertyOp10
 70
     1
102
RTVSPropertyOp11
 70
     1
102
RTVSPropertyOp12
 70
     1
102
RTVSPropertyOp13
 70
     1
102
RTVSPropertyOp14
 70
     1
102
RTVSPropertyOp15
 70
     1
102
RTVSPropertyOp16
 70
     1
102
RTVSPropertyOp17
 70
     1
102
RTVSPropertyOp18
 70
     1
102
RTVSPropertyOp19
 70
     1
102
RTVSPropertyOp20
 70
     1
102
RTVSPropertyOp21
 70
     1
102
RTVSPropertyOp22
 70
     1
102
RTVSPropertyOp23
 70
     1
102
RTVSPropertyOp24
 70
     1
102
RTVSPropertyOp25
 70
     1
102
RTVSPropertyOp26
 70
     1
102
RTVSPropertyOp27
 70
     1
102
RTVSPropertyOp28
 70
     1
102
RTVSPropertyOp29
 70
     1
102
RTVSPropertyOp30
 70
     1
102
RTVSPropertyOp31
 70
     1
102
RTVSPropertyOp32
 70
     1
102
RTVSPropertyOp33
 70
     1
102
RTVSPropertyOp34
 70
     1
102
RTVSPropertyOp35
 70
     1
102
RTVSPropertyOp36
 70
     1
102
RTVSPropertyOp37
 70
     1
102
RTVSPropertyOp38
 70
     1
102
RTVSPropertyOp39
 70
     1
102
RTVSPropertyOp40
 70
     1
102
RTVSPropertyOp41
 70
     1
102
RTVSPropertyOp42
 70
     1
102
RTVSPropertyOp43
 70
     1
102
RTVSPropertyOp44
 70
     1
102
RTVSPropertyOp45
 70
     1
102
RTVSPropertyOp46
 70
     1
102
RTVSPropertyOp47
 70
     1
102
RTVSPropertyOp48
 70
     1
102
RTVSPropertyOp49
 70
     1
102
RTVSPropertyOp50
 70
     1
102
RTVSPropertyOp51
 70
     0
102
RTVSPropertyOp52
 70
     0
102
RTVSPropertyOp53
 70
     1
102
RTVSPropertyOp54
 70
     1
102
RTVSPropertyOp55
 70
     1
102
RTVSPropertyOp56
 70
     1
102
RTVSPropertyOp57
 70
     1
102
RTVSPost2010Prop28
280
     0
102
RTVSPost2010PropOp28
 70
     1
102
RTVSPost2010Prop29
280
     1
102
RTVSPost2010PropOp29
 70
     1
102
RTVSPost2010Prop30
280
     1
102
RTVSPost2010PropOp30
 70
     1
102
RTVSPost2010Prop31
280
     0
102
RTVSPost2010PropOp31
 70
     1
102
RTVSPost2010Prop32
280
     0
102
RTVSPost2010PropOp32
 70
     1
102
RTVSPost2010Prop33
280
     0
102
RTVSPost2010PropOp33
 70
     1
102
RTVSPost2010Prop34
280
     0
102
RTVSPost2010PropOp34
 70
     1
102
RTVSPost2010Prop35
280
     0
102
RTVSPost2010PropOp35
 70
     1
102
RTVSPost2010Prop36
280
     0
102
RTVSPost2010PropOp36
 70
     1
102
RTVSPost2010Prop37
 90
       50
102
RTVSPost2010PropOp37
 70
     1
102
RTVSPost2010Prop38
140
0.0
102
RTVSPost2010PropOp38
 70
     1
102
RTVSPost2010Prop39
140
1.0
102
RTVSPost2010PropOp39
 70
     1
102
RTVSPost2010Prop40
 90
        0
102
RTVSPost2010PropOp40
 70
     1
102
RTVSPost2010Prop41ColorIndex
 90
       18
102
RTVSPost2010Prop41ColorRGB
 90
        0
102
RTVSPost2010PropOp41
 70
     1
102
RTVSPost2010Prop42
 90
       50
102
RTVSPost2010PropOp42
 70
     1
102
RTVSPost2010Prop43
 90
        3
102
RTVSPost2010PropOp43
 70
     1
102
RTVSPost2010Prop44ColorIndex
 90
        5
102
RTVSPost2010Prop44ColorRGB
 90
      255
102
RTVSPost2010PropOp44
 70
     1
102
RTVSPost2010Prop45
280
     0
102
RTVSPost2010PropOp45
 70
     1
102
RTVSPost2010Prop46
 90
       50
102
RTVSPost2010PropOp46
 70
     1
102
RTVSPost2010Prop47
 90
       50
102
RTVSPost2010PropOp47
 70
     1
102
RTVSPost2010Prop48
 90
       50
102
RTVSPost2010PropOp48
 70
     1
102
RTVSPost2010Prop49
280
     0
102
RTVSPost2010PropOp49
 70
     1
102
RTVSPost2010Prop50
 90
       50
102
RTVSPost2010PropOp50
 70
     1
102
RTVSPost2010Prop51ColorIndex
 90
      256
102
RTVSPost2010Prop51ColorRGB
 90
-16777216
102
RTVSPost2010PropOp51
 70
     0
102
RTVSPost2010Prop52
140
1.0
102
RTVSPost2010PropOp52
 70
     0
102
RTVSPost2010Prop53
 90
        2
102
RTVSPost2010PropOp53
 70
     1
102
RTVSPost2010Prop54
  1
strokes_ogs.tif
102
RTVSPost2010PropOp54
 70
     1
102
RTVSPost2010Prop55
280
     0
102
RTVSPost2010PropOp55
 70
     1
102
RTVSPost2010Prop56
140
1.0
102
RTVSPost2010PropOp56
 70
     1
102
RTVSPost2010Prop57
140
1.0
102
RTVSPost2010PropOp57
 70
     1
  0
ENDSEC
  0
EOF
