  0
SECTION
  2
HEADER
  9
$ACADVER
  1
AC1021
  9
$ACADMAINTVER
 70
    25
  9
$DWGCODEPAGE
  3
ANSI_1252
  9
$LASTSAVEDBY
  1
carolinacolombo
  9
$INSBASE
 10
0.0
 20
0.0
 30
0.0
  9
$EXTMIN
 10
345.9061736246163
 20
638.913730650837
 30
-0.0000000000000041
  9
$EXTMAX
 10
1534.481375988935
 20
2579.443564801614
 30
0.0000000000000017
  9
$LIMMIN
 10
0.0
 20
0.0
  9
$LIMMAX
 10
12.0
 20
9.0
  9
$ORTHOMODE
 70
     0
  9
$REGENMODE
 70
     1
  9
$FILLMODE
 70
     1
  9
$QTEXTMODE
 70
     0
  9
$MIRRTEXT
 70
     1
  9
$LTSCALE
 40
1.0
  9
$ATTMODE
 70
     1
  9
$TEXTSIZE
 40
0.2
  9
$TRACEWID
 40
0.05
  9
$TEXTSTYLE
  7
Standard
  9
$CLAYER
  8
1
  9
$CELTYPE
  6
ByLayer
  9
$CECOLOR
 62
   256
  9
$CELTSCALE
 40
1.0
  9
$DISPSILH
 70
     0
  9
$DIMSCALE
 40
1.0
  9
$DIMASZ
 40
0.18
  9
$DIMEXO
 40
0.0625
  9
$DIMDLI
 40
0.38
  9
$DIMRND
 40
0.0
  9
$DIMDLE
 40
0.0
  9
$DIMEXE
 40
0.18
  9
$DIMTP
 40
0.0
  9
$DIMTM
 40
0.0
  9
$DIMTXT
 40
0.18
  9
$DIMCEN
 40
0.09
  9
$DIMTSZ
 40
0.0
  9
$DIMTOL
 70
     0
  9
$DIMLIM
 70
     0
  9
$DIMTIH
 70
     1
  9
$DIMTOH
 70
     1
  9
$DIMSE1
 70
     0
  9
$DIMSE2
 70
     0
  9
$DIMTAD
 70
     0
  9
$DIMZIN
 70
     0
  9
$DIMBLK
  1

  9
$DIMASO
 70
     1
  9
$DIMSHO
 70
     1
  9
$DIMPOST
  1

  9
$DIMAPOST
  1

  9
$DIMALT
 70
     0
  9
$DIMALTD
 70
     2
  9
$DIMALTF
 40
25.4
  9
$DIMLFAC
 40
1.0
  9
$DIMTOFL
 70
     0
  9
$DIMTVP
 40
0.0
  9
$DIMTIX
 70
     0
  9
$DIMSOXD
 70
     0
  9
$DIMSAH
 70
     0
  9
$DIMBLK1
  1

  9
$DIMBLK2
  1

  9
$DIMSTYLE
  2
STANDARD_ACAD
  9
$DIMCLRD
 70
     0
  9
$DIMCLRE
 70
     0
  9
$DIMCLRT
 70
     0
  9
$DIMTFAC
 40
1.0
  9
$DIMGAP
 40
0.09
  9
$DIMJUST
 70
     0
  9
$DIMSD1
 70
     0
  9
$DIMSD2
 70
     0
  9
$DIMTOLJ
 70
     1
  9
$DIMTZIN
 70
     0
  9
$DIMALTZ
 70
     0
  9
$DIMALTTZ
 70
     0
  9
$DIMUPT
 70
     0
  9
$DIMDEC
 70
     4
  9
$DIMTDEC
 70
     4
  9
$DIMALTU
 70
     2
  9
$DIMALTTD
 70
     2
  9
$DIMTXSTY
  7
Standard
  9
$DIMAUNIT
 70
     0
  9
$DIMADEC
 70
     0
  9
$DIMALTRND
 40
0.0
  9
$DIMAZIN
 70
     0
  9
$DIMDSEP
 70
    46
  9
$DIMATFIT
 70
     3
  9
$DIMFRAC
 70
     0
  9
$DIMLDRBLK
  1

  9
$DIMLUNIT
 70
     2
  9
$DIMLWD
 70
    -2
  9
$DIMLWE
 70
    -2
  9
$DIMTMOVE
 70
     2
  9
$DIMFXL
 40
1.0
  9
$DIMFXLON
 70
     0
  9
$DIMJOGANG
 40
0.7853981633974483
  9
$DIMTFILL
 70
     0
  9
$DIMTFILLCLR
 70
     0
  9
$DIMARCSYM
 70
     0
  9
$DIMLTYPE
  6

  9
$DIMLTEX1
  6

  9
$DIMLTEX2
  6

  9
$LUNITS
 70
     2
  9
$LUPREC
 70
     3
  9
$SKETCHINC
 40
0.1
  9
$FILLETRAD
 40
0.0
  9
$AUNITS
 70
     0
  9
$AUPREC
 70
     0
  9
$MENU
  1
.
  9
$ELEVATION
 40
0.0
  9
$PELEVATION
 40
0.0
  9
$THICKNESS
 40
0.0
  9
$LIMCHECK
 70
     0
  9
$CHAMFERA
 40
0.0
  9
$CHAMFERB
 40
0.0
  9
$CHAMFERC
 40
0.0
  9
$CHAMFERD
 40
0.0
  9
$SKPOLY
 70
     0
  9
$TDCREATE
 40
2461083.708949826
  9
$TDUCREATE
 40
2461083.66728316
  9
$TDUPDATE
 40
2461083.708963079
  9
$TDUUPDATE
 40
2461083.667296412
  9
$TDINDWG
 40
0.0000000116
  9
$TDUSRTIMER
 40
0.0000000116
  9
$USRTIMER
 70
     1
  9
$ANGBASE
 50
0.0
  9
$ANGDIR
 70
     0
  9
$PDMODE
 70
     0
  9
$PDSIZE
 40
0.0
  9
$PLINEWID
 40
0.0
  9
$SPLFRAME
 70
     0
  9
$SPLINETYPE
 70
     6
  9
$SPLINESEGS
 70
     8
  9
$HANDSEED
  5
303
  9
$SURFTAB1
 70
     6
  9
$SURFTAB2
 70
     6
  9
$SURFTYPE
 70
     6
  9
$SURFU
 70
     6
  9
$SURFV
 70
     6
  9
$UCSBASE
  2

  9
$UCSNAME
  2

  9
$UCSORG
 10
0.0
 20
0.0
 30
0.0
  9
$UCSXDIR
 10
1.0
 20
0.0
 30
0.0
  9
$UCSYDIR
 10
0.0
 20
1.0
 30
0.0
  9
$UCSORTHOREF
  2

  9
$UCSORTHOVIEW
 70
     0
  9
$UCSORGTOP
 10
0.0
 20
0.0
 30
0.0
  9
$UCSORGBOTTOM
 10
0.0
 20
0.0
 30
0.0
  9
$UCSORGLEFT
 10
0.0
 20
0.0
 30
0.0
  9
$UCSORGRIGHT
 10
0.0
 20
0.0
 30
0.0
  9
$UCSORGFRONT
 10
0.0
 20
0.0
 30
0.0
  9
$UCSORGBACK
 10
0.0
 20
0.0
 30
0.0
  9
$PUCSBASE
  2

  9
$PUCSNAME
  2

  9
$PUCSORG
 10
0.0
 20
0.0
 30
0.0
  9
$PUCSXDIR
 10
1.0
 20
0.0
 30
0.0
  9
$PUCSYDIR
 10
0.0
 20
1.0
 30
0.0
  9
$PUCSORTHOREF
  2

  9
$PUCSORTHOVIEW
 70
     0
  9
$PUCSORGTOP
 10
0.0
 20
0.0
 30
0.0
  9
$PUCSORGBOTTOM
 10
0.0
 20
0.0
 30
0.0
  9
$PUCSORGLEFT
 10
0.0
 20
0.0
 30
0.0
  9
$PUCSORGRIGHT
 10
0.0
 20
0.0
 30
0.0
  9
$PUCSORGFRONT
 10
0.0
 20
0.0
 30
0.0
  9
$PUCSORGBACK
 10
0.0
 20
0.0
 30
0.0
  9
$USERI1
 70
     0
  9
$USERI2
 70
     0
  9
$USERI3
 70
     0
  9
$USERI4
 70
     0
  9
$USERI5
 70
     0
  9
$USERR1
 40
0.0
  9
$USERR2
 40
0.0
  9
$USERR3
 40
0.0
  9
$USERR4
 40
0.0
  9
$USERR5
 40
0.0
  9
$WORLDVIEW
 70
     1
  9
$SHADEDGE
 70
     3
  9
$SHADEDIF
 70
    70
  9
$TILEMODE
 70
     1
  9
$MAXACTVP
 70
    64
  9
$PINSBASE
 10
0.0
 20
0.0
 30
0.0
  9
$PLIMCHECK
 70
     0
  9
$PEXTMIN
 10
1.000000000000000E+20
 20
1.000000000000000E+20
 30
1.000000000000000E+20
  9
$PEXTMAX
 10
-1.000000000000000E+20
 20
-1.000000000000000E+20
 30
-1.000000000000000E+20
  9
$PLIMMIN
 10
0.0
 20
0.0
  9
$PLIMMAX
 10
12.0
 20
9.0
  9
$UNITMODE
 70
     0
  9
$VISRETAIN
 70
     1
  9
$PLINEGEN
 70
     0
  9
$PSLTSCALE
 70
     1
  9
$TREEDEPTH
 70
  3020
  9
$CMLSTYLE
  2
Standard
  9
$CMLJUST
 70
     0
  9
$CMLSCALE
 40
1.0
  9
$PROXYGRAPHICS
 70
     1
  9
$MEASUREMENT
 70
     1
  9
$CELWEIGHT
370
    -1
  9
$ENDCAPS
280
     0
  9
$JOINSTYLE
280
     0
  9
$LWDISPLAY
290
     0
  9
$INSUNITS
 70
     4
  9
$HYPERLINKBASE
  1

  9
$STYLESHEET
  1

  9
$XEDIT
290
     1
  9
$CEPSNTYPE
380
     0
  9
$PSTYLEMODE
290
     1
  9
$FINGERPRINTGUID
  2
{f29ca8f9-a618-2047-a90f-d25980bc7e4b}
  9
$VERSIONGUID
  2
{FAEB1C32-E019-11D5-929B-00C0DF256EC4}
  9
$EXTNAMES
290
     1
  9
$PSVPSCALE
 40
0.0
  9
$OLESTARTUP
290
     0
  9
$SORTENTS
280
   127
  9
$INDEXCTL
280
     0
  9
$HIDETEXT
280
     1
  9
$XCLIPFRAME
290
     0
  9
$HALOGAP
280
     0
  9
$OBSCOLOR
 70
   257
  9
$OBSLTYPE
280
     0
  9
$INTERSECTIONDISPLAY
280
     0
  9
$INTERSECTIONCOLOR
 70
   257
  9
$DIMASSOC
280
     2
  9
$PROJECTNAME
  1

  9
$CAMERADISPLAY
290
     0
  9
$LENSLENGTH
 40
50.0
  9
$CAMERAHEIGHT
 40
0.0
  9
$STEPSPERSEC
 40
2.0
  9
$STEPSIZE
 40
6.0
  9
$3DDWFPREC
 40
2.0
  9
$PSOLWIDTH
 40
0.25
  9
$PSOLHEIGHT
 40
4.0
  9
$LOFTANG1
 40
1.570796326794897
  9
$LOFTANG2
 40
1.570796326794897
  9
$LOFTMAG1
 40
0.0
  9
$LOFTMAG2
 40
0.0
  9
$LOFTPARAM
 70
     7
  9
$LOFTNORMALS
280
     1
  9
$LATITUDE
 40
37.795
  9
$LONGITUDE
 40
-122.394
  9
$NORTHDIRECTION
 40
0.0
  9
$TIMEZONE
 70
 -8000
  9
$LIGHTGLYPHDISPLAY
280
     1
  9
$TILEMODELIGHTSYNCH
280
     1
  9
$CMATERIAL
347
44
  9
$SOLIDHIST
280
     0
  9
$SHOWHIST
280
     1
  9
$DWFFRAME
280
     2
  9
$DGNFRAME
280
     2
  9
$REALWORLDSCALE
290
     1
  9
$INTERFERECOLOR
 62
   256
  9
$CSHADOW
280
     0
  9
$SHADOWPLANELOCATION
 40
0.0
  0
ENDSEC
  0
SECTION
  2
CLASSES
  0
CLASS
  1
ACDBDICTIONARYWDFLT
  2
AcDbDictionaryWithDefault
  3
ObjectDBX Classes
 90
        0
 91
        3
280
     0
281
     0
  0
CLASS
  1
VISUALSTYLE
  2
AcDbVisualStyle
  3
ObjectDBX Classes
 90
     4095
 91
        3
280
     0
281
     0
  0
CLASS
  1
MATERIAL
  2
AcDbMaterial
  3
ObjectDBX Classes
 90
     1153
 91
        3
280
     0
281
     0
  0
CLASS
  1
SCALE
  2
AcDbScale
  3
ObjectDBX Classes
 90
     1153
 91
        3
280
     0
281
     0
  0
CLASS
  1
TABLESTYLE
  2
AcDbTableStyle
  3
ObjectDBX Classes
 90
     4095
 91
        3
280
     0
281
     0
  0
CLASS
  1
MLEADERSTYLE
  2
AcDbMLeaderStyle
  3
ACDB_MLEADERSTYLE_CLASS
 90
     4095
 91
        3
280
     0
281
     0
  0
CLASS
  1
SUN
  2
AcDbSun
  3
SCENEOE
 90
     1153
 91
        3
280
     0
281
     0
  0
CLASS
  1
DICTIONARYVAR
  2
AcDbDictionaryVar
  3
ObjectDBX Classes
 90
        0
 91
        3
280
     0
281
     0
  0
CLASS
  1
CELLSTYLEMAP
  2
AcDbCellStyleMap
  3
ObjectDBX Classes
 90
     1152
 91
        3
280
     0
281
     0
  0
ENDSEC
  0
SECTION
  2
TABLES
  0
TABLE
  2
VPORT
  5
8
330
0
100
AcDbSymbolTable
 70
     1
  0
VPORT
  5
29
330
8
100
AcDbSymbolTableRecord
100
AcDbViewportTableRecord
  2
*Active
 70
     0
 10
0.0
 20
0.0
 11
1.0
 21
1.0
 12
10.42990654205607
 22
4.5
 13
0.0
 23
0.0
 14
0.5
 24
0.5
 15
0.5
 25
0.5
 16
0.0
 26
0.0
 36
1.0
 17
0.0
 27
0.0
 37
0.0
 40
9.0
 41
1.972972972850329
 42
50.0
 43
0.0
 44
0.0
 50
0.0
 51
0.0
 71
     0
 72
   100
 73
     1
 74
     3
 75
     0
 76
     0
 77
     0
 78
     0
281
     0
 65
     1
110
0.0
120
0.0
130
0.0
111
1.0
121
0.0
131
0.0
112
0.0
122
1.0
132
0.0
 79
     0
146
0.0
348
2F
 60
     3
 61
     5
292
     1
282
     1
141
0.0
142
0.0
 63
   250
361
5D
  0
ENDTAB
  0
TABLE
  2
LTYPE
  5
5
330
0
100
AcDbSymbolTable
 70
     1
  0
LTYPE
  5
14
330
5
100
AcDbSymbolTableRecord
100
AcDbLinetypeTableRecord
  2
ByBlock
 70
     0
  3

 72
    65
 73
     0
 40
0.0
  0
LTYPE
  5
15
330
5
100
AcDbSymbolTableRecord
100
AcDbLinetypeTableRecord
  2
ByLayer
 70
     0
  3

 72
    65
 73
     0
 40
0.0
  0
LTYPE
  5
16
330
5
100
AcDbSymbolTableRecord
100
AcDbLinetypeTableRecord
  2
Continuous
 70
     0
  3
Solid line
 72
    65
 73
     0
 40
0.0
  0
ENDTAB
  0
TABLE
  2
LAYER
  5
2
330
0
100
AcDbSymbolTable
 70
     2
  0
LAYER
  5
10
330
2
100
AcDbSymbolTableRecord
100
AcDbLayerTableRecord
  2
0
 70
     0
 62
     7
  6
Continuous
370
    -3
390
F
347
46
  0
LAYER
  5
5F
330
2
100
AcDbSymbolTableRecord
100
AcDbLayerTableRecord
  2
1
 70
     0
 62
     7
420
 16777215
  6
Continuous
370
    -3
390
F
347
46
  0
ENDTAB
  0
TABLE
  2
STYLE
  5
3
330
0
100
AcDbSymbolTable
 70
     1
  0
STYLE
  5
11
330
3
100
AcDbSymbolTableRecord
100
AcDbTextStyleTableRecord
  2
Standard
 70
     0
 40
0.0
 41
1.0
 50
0.0
 71
     0
 42
0.2
  3
txt
  4

  0
ENDTAB
  0
TABLE
  2
VIEW
  5
6
330
0
100
AcDbSymbolTable
 70
     0
  0
ENDTAB
  0
TABLE
  2
UCS
  5
7
330
0
100
AcDbSymbolTable
 70
     0
  0
ENDTAB
  0
TABLE
  2
APPID
  5
9
330
0
100
AcDbSymbolTable
 70
     3
  0
APPID
  5
12
330
9
100
AcDbSymbolTableRecord
100
AcDbRegAppTableRecord
  2
ACAD
 70
     0
  0
APPID
  5
5E
330
9
100
AcDbSymbolTableRecord
100
AcDbRegAppTableRecord
  2
Rhino
 70
     0
  0
APPID
  5
2FB
330
9
100
AcDbSymbolTableRecord
100
AcDbRegAppTableRecord
  2
ACAD_MLEADERVER
 70
     0
  0
ENDTAB
  0
TABLE
  2
DIMSTYLE
  5
A
330
0
100
AcDbSymbolTable
 70
     1
100
AcDbDimStyleTable
  0
DIMSTYLE
105
27
330
A
100
AcDbSymbolTableRecord
100
AcDbDimStyleTableRecord
  2
STANDARD_ACAD
 70
     0
178
     0
340
11
  0
ENDTAB
  0
TABLE
  2
BLOCK_RECORD
  5
1
330
0
100
AcDbSymbolTable
 70
     1
  0
BLOCK_RECORD
  5
1F
330
1
100
AcDbSymbolTableRecord
100
AcDbBlockTableRecord
  2
*Model_Space
340
22
 70
     0
280
     1
281
     0
  0
BLOCK_RECORD
  5
1B
330
1
100
AcDbSymbolTableRecord
100
AcDbBlockTableRecord
  2
*Paper_Space
340
1E
 70
     0
280
     1
281
     0
  0
BLOCK_RECORD
  5
23
330
1
100
AcDbSymbolTableRecord
100
AcDbBlockTableRecord
  2
*Paper_Space0
340
26
 70
     0
280
     1
281
     0
  0
ENDTAB
  0
ENDSEC
  0
SECTION
  2
BLOCKS
  0
BLOCK
  5
20
330
1F
100
AcDbEntity
  8
0
100
AcDbBlockBegin
  2
*Model_Space
 70
     0
 10
0.0
 20
0.0
 30
0.0
  3
*Model_Space
  1

  0
ENDBLK
  5
21
330
1F
100
AcDbEntity
  8
0
100
AcDbBlockEnd
  0
BLOCK
  5
1C
330
1B
100
AcDbEntity
 67
     1
  8
0
100
AcDbBlockBegin
  2
*Paper_Space
 70
     0
 10
0.0
 20
0.0
 30
0.0
  3
*Paper_Space
  1

  0
ENDBLK
  5
1D
330
1B
100
AcDbEntity
 67
     1
  8
0
100
AcDbBlockEnd
  0
BLOCK
  5
24
330
23
100
AcDbEntity
  8
0
100
AcDbBlockBegin
  2
*Paper_Space0
 70
     0
 10
0.0
 20
0.0
 30
0.0
  3
*Paper_Space0
  1

  0
ENDBLK
  5
25
330
23
100
AcDbEntity
  8
0
100
AcDbBlockEnd
  0
ENDSEC
  0
SECTION
  2
ENTITIES
  0
SPLINE
  5
60
330
1F
100
AcDbEntity
  8
1
  6
Continuous
 62
   155
420
  5010073
370
    35
100
AcDbSpline
210
0.0
220
0.0
230
1.0
 70
     8
 71
     3
 72
    16
 73
    12
 74
     0
 42
0.0000000001
 43
0.0000000001
 40
0.0
 40
0.0
 40
0.0
 40
0.0
 40
0.1346065554781989
 40
0.2538519218668949
 40
0.3519267207485901
 40
0.4310404316853562
 40
0.5096726488622098
 40
0.5755407601470374
 40
0.6405601263887262
 40
0.7106627231149829
 40
1.0
 40
1.0
 40
1.0
 40
1.0
 10
411.2332061236983
 20
1983.73039979503
 30
0.0
 10
411.2395834127273
 20
1987.383545362741
 30
0.0
 10
411.4380616096042
 20
1994.229330342606
 30
0.0
 10
412.2229008633682
 20
2003.630556514474
 30
0.0
 10
413.2014143101864
 20
2011.429354049814
 30
0.0000000000000002
 10
414.2429761326003
 20
2018.086926950928
 30
-0.0000000000000002
 10
415.2892650179793
 20
2023.870429112914
 30
0.0000000000000004
 10
416.3758856157402
 20
2029.280412441368
 30
-0.0000000000000003
 10
417.4937088908922
 20
2034.485348224139
 30
0.0000000000000002
 10
418.6510316335904
 20
2039.647565835125
 30
-0.0000000000000015
 10
419.8419755089063
 20
2044.937884335916
 30
0.0000000000000008
 10
420.8548526246162
 20
2049.672039034058
 30
0.0
  0
POLYLINE
  5
61
330
1F
100
AcDbEntity
  8
1
  6
Continuous
 62
   155
420
  5010073
370
    35
100
AcDb2dPolyline
 66
     1
 10
0.0
 20
0.0
 30
0.0
  0
VERTEX
  5
62
330
61
100
AcDbEntity
  8
1
  6
Continuous
 62
   155
420
  5010073
370
    35
100
AcDbVertex
100
AcDb2dVertex
 10
420.8548526246162
 20
2250.468531
 30
0.0
  0
VERTEX
  5
63
330
61
100
AcDbEntity
  8
1
  6
Continuous
 62
   155
420
  5010073
370
    35
100
AcDbVertex
100
AcDb2dVertex
 10
420.8548526246162
 20
2049.820094
 30
0.0
  0
SEQEND
  5
64
330
61
100
AcDbEntity
  8
1
  6
Continuous
 62
   155
420
  5010073
370
    35
  0
SPLINE
  5
65
330
1F
100
AcDbEntity
  8
1
  6
Continuous
 62
   155
420
  5010073
370
    35
100
AcDbSpline
210
0.0
220
0.0
230
1.0
 70
     8
 71
     3
 72
     8
 73
     4
 74
     0
 42
0.0000000001
 43
0.0000000001
 40
0.0
 40
0.0
 40
0.0
 40
0.0
 40
1.0
 40
1.0
 40
1.0
 40
1.0
 10
420.7812893087984
 20
2173.511077313459
 30
0.0
 10
420.7812893087984
 20
2173.511077313459
 30
0.0
 10
420.6195523704693
 20
2174.340063633194
 30
0.0
 10
420.4475829540762
 20
2175.172141860228
 30
0.0000000000000001
  0
LINE
  5
66
330
1F
100
AcDbEntity
  8
1
  6
Continuous
 62
   155
420
  5010073
370
    18
100
AcDbLine
 10
488.0178096246162
 20
2284.168656
 30
0.0
 11
497.5009026246163
 21
2284.168656
 31
0.0
  0
LINE
  5
67
330
1F
100
AcDbEntity
  8
1
  6
Continuous
 62
   155
420
  5010073
370
    18
100
AcDbLine
 10
345.9061846246162
 20
2284.168656
 30
0.0
 11
355.3892746246162
 21
2284.168656
 31
0.0
  0
LINE
  5
68
330
1F
100
AcDbEntity
  8
1
  6
Continuous
 62
   155
420
  5010073
370
    35
100
AcDbLine
 10
497.2068306246164
 20
2250.471274
 30
0.0
 11
346.2002576246163
 21
2250.471274
 31
0.0
  0
LINE
  5
69
330
1F
100
AcDbEntity
  8
1
  6
Continuous
 62
   155
420
  5010073
370
    35
100
AcDbLine
 10
497.2068306246164
 20
2250.471274
 30
0.0
 11
497.5009026246163
 21
2284.168656
 31
0.0
  0
LINE
  5
6A
330
1F
100
AcDbEntity
  8
1
  6
Continuous
 62
   155
420
  5010073
370
    35
100
AcDbLine
 10
345.9061846246162
 20
2284.168656
 30
0.0
 11
346.2002576246163
 21
2250.471274
 31
0.0
  0
LINE
  5
6B
330
1F
100
AcDbEntity
  8
1
  6
Continuous
 62
   155
420
  5010073
370
    18
100
AcDbLine
 10
356.7542116246162
 20
2284.171274
 30
0.0
 11
486.6528726246162
 21
2284.171274
 31
0.0
  0
LINE
  5
6C
330
1F
100
AcDbEntity
  8
1
  6
Continuous
 62
   155
420
  5010073
370
    18
100
AcDbLine
 10
486.6528626246162
 20
2284.168656
 30
0.0
 11
356.7542206246163
 21
2284.168656
 31
0.0
  0
LINE
  5
6D
330
1F
100
AcDbEntity
  8
1
  6
Continuous
 62
   155
420
  5010073
370
    35
100
AcDbLine
 10
371.6329096246162
 20
1978.761625
 30
0.0
 11
421.6329096246162
 21
1978.761625
 31
0.0
  0
LINE
  5
6E
330
1F
100
AcDbEntity
  8
1
  6
Continuous
 62
   155
420
  5010073
370
    35
100
AcDbLine
 10
421.6329096246162
 20
1978.761625
 30
0.0
 11
471.6329096246162
 21
1978.761625
 31
0.0
  0
LINE
  5
6F
330
1F
100
AcDbEntity
  8
1
  6
Continuous
 62
   155
420
  5010073
370
    35
100
AcDbLine
 10
471.6329096246162
 20
1976.461625
 30
0.0
 11
371.6329096246162
 21
1976.461625
 31
0.0
  0
LINE
  5
70
330
1F
100
AcDbEntity
  8
1
  6
Continuous
 62
   155
420
  5010073
370
    35
100
AcDbLine
 10
471.6329096246162
 20
1976.461625
 30
0.0
 11
471.6329096246162
 21
1978.761625
 31
0.0
  0
LINE
  5
71
330
1F
100
AcDbEntity
  8
1
  6
Continuous
 62
   155
420
  5010073
370
    35
100
AcDbLine
 10
371.6329096246162
 20
1978.761625
 30
0.0
 11
371.6329096246162
 21
1976.461625
 31
0.0
  0
LINE
  5
72
330
1F
100
AcDbEntity
  8
1
  6
Continuous
 62
   155
420
  5010073
370
    35
100
AcDbLine
 10
469.8223766246164
 20
1975.262727
 30
0.0
 11
470.0129386246164
 21
1975.567625
 31
0.0
  0
LINE
  5
73
330
1F
100
AcDbEntity
  8
1
  6
Continuous
 62
   155
420
  5010073
370
    35
100
AcDbLine
 10
373.1967676246162
 20
1975.567625
 30
0.0
 11
373.3873296246162
 21
1975.262727
 31
0.0
  0
LINE
  5
74
330
1F
100
AcDbEntity
  8
1
  6
Continuous
 62
   155
420
  5010073
370
    18
100
AcDbLine
 10
373.1967676246162
 20
1975.567625
 30
0.0
 11
470.0129386246164
 21
1975.567625
 31
0.0
  0
LINE
  5
75
330
1F
100
AcDbEntity
  8
1
  6
Continuous
 62
   155
420
  5010073
370
    35
100
AcDbLine
 10
470.5839066246164
 20
1975.661625
 30
0.0
 11
372.6257986246163
 21
1975.661625
 31
0.0
  0
LINE
  5
76
330
1F
100
AcDbEntity
  8
1
  6
Continuous
 62
   155
420
  5010073
370
    35
100
AcDbLine
 10
470.5839066246164
 20
1975.661625
 30
0.0
 11
470.5978706246163
 21
1976.461625
 31
0.0
  0
LINE
  5
77
330
1F
100
AcDbEntity
  8
1
  6
Continuous
 62
   155
420
  5010073
370
    35
100
AcDbLine
 10
372.6118356246162
 20
1976.46161
 30
0.0
 11
372.6257986246163
 21
1975.661625
 31
0.0
  0
LINE
  5
78
330
1F
100
AcDbEntity
  8
1
  6
Continuous
 62
   155
420
  5010073
370
    35
100
AcDbLine
 10
479.2141066246162
 20
2288.168656
 30
0.0
 11
480.5801316246162
 21
2288.168656
 31
0.0
  0
LINE
  5
79
330
1F
100
AcDbEntity
  8
1
  6
Continuous
 62
   155
420
  5010073
370
    35
100
AcDbLine
 10
493.2035436246164
 20
2286.168656
 30
0.0
 11
490.0005766246162
 21
2286.168656
 31
0.0
  0
LINE
  5
7A
330
1F
100
AcDbEntity
  8
1
  6
Continuous
 62
   155
420
  5010073
370
    35
100
AcDbLine
 10
493.2035436246164
 20
2288.168656
 30
0.0
 11
490.0005766246162
 21
2288.168656
 31
0.0
  0
LINE
  5
7B
330
1F
100
AcDbEntity
  8
1
  6
Continuous
 62
   155
420
  5010073
370
    35
100
AcDbLine
 10
493.2035436246164
 20
2286.168656
 30
0.0
 11
493.2035436246164
 21
2288.168656
 31
0.0
  0
LINE
  5
7C
330
1F
100
AcDbEntity
  8
1
  6
Continuous
 62
   155
420
  5010073
370
    35
100
AcDbLine
 10
353.4065116246162
 20
2286.168656
 30
0.0
 11
350.2035436246164
 21
2286.168656
 31
0.0
  0
LINE
  5
7D
330
1F
100
AcDbEntity
  8
1
  6
Continuous
 62
   155
420
  5010073
370
    35
100
AcDbLine
 10
353.4065116246162
 20
2288.168656
 30
0.0
 11
350.2035436246164
 21
2288.168656
 31
0.0
  0
LINE
  5
7E
330
1F
100
AcDbEntity
  8
1
  6
Continuous
 62
   155
420
  5010073
370
    35
100
AcDbLine
 10
350.2035436246164
 20
2286.168656
 30
0.0
 11
350.2035436246164
 21
2288.168656
 31
0.0
  0
LINE
  5
7F
330
1F
100
AcDbEntity
  8
1
  6
Continuous
 62
   155
420
  5010073
370
    35
100
AcDbLine
 10
487.1294246246163
 20
2286.168656
 30
0.0
 11
480.6961766246162
 21
2286.168656
 31
0.0
  0
LINE
  5
80
330
1F
100
AcDbEntity
  8
1
  6
Continuous
 62
   155
420
  5010073
370
    35
100
AcDbLine
 10
487.1294246246163
 20
2288.168656
 30
0.0
 11
480.5801316246162
 21
2288.168656
 31
0.0
  0
LINE
  5
81
330
1F
100
AcDbEntity
  8
1
  6
Continuous
 62
   155
420
  5010073
370
    35
100
AcDbLine
 10
490.0005766246162
 20
2286.168656
 30
0.0
 11
487.1294246246163
 21
2286.168656
 31
0.0
  0
LINE
  5
82
330
1F
100
AcDbEntity
  8
1
  6
Continuous
 62
   155
420
  5010073
370
    35
100
AcDbLine
 10
487.1294246246163
 20
2288.168656
 30
0.0
 11
490.0005766246162
 21
2288.168656
 31
0.0
  0
LINE
  5
83
330
1F
100
AcDbEntity
  8
1
  6
Continuous
 62
   155
420
  5010073
370
    35
100
AcDbLine
 10
356.2776636246164
 20
2286.168656
 30
0.0
 11
353.4065116246162
 21
2286.168656
 31
0.0
  0
LINE
  5
84
330
1F
100
AcDbEntity
  8
1
  6
Continuous
 62
   155
420
  5010073
370
    35
100
AcDbLine
 10
479.2141066246162
 20
2288.168656
 30
0.0
 11
478.6293326246163
 21
2288.168656
 31
0.0
  0
LINE
  5
85
330
1F
100
AcDbEntity
  8
1
  6
Continuous
 62
   155
420
  5010073
370
    35
100
AcDbLine
 10
478.1766326246162
 20
2286.168656
 30
0.0
 11
478.6294246246163
 21
2286.168656
 31
0.0
  0
LINE
  5
86
330
1F
100
AcDbEntity
  8
1
  6
Continuous
 62
   155
420
  5010073
370
    35
100
AcDbLine
 10
478.6294246246163
 20
2288.168656
 30
0.0
 11
478.1766326246162
 21
2288.168656
 31
0.0
  0
LINE
  5
87
330
1F
100
AcDbEntity
  8
1
  6
Continuous
 62
   155
420
  5010073
370
    35
100
AcDbLine
 10
364.7776636246164
 20
2286.168656
 30
0.0
 11
365.2304556246162
 21
2286.168656
 31
0.0
  0
LINE
  5
88
330
1F
100
AcDbEntity
  8
1
  6
Continuous
 62
   155
420
  5010073
370
    35
100
AcDbLine
 10
478.1766326246162
 20
2286.168656
 30
0.0
 11
365.2304556246162
 21
2286.168656
 31
0.0
  0
LINE
  5
89
330
1F
100
AcDbEntity
  8
1
  6
Continuous
 62
   155
420
  5010073
370
    35
100
AcDbLine
 10
422.3548526246162
 20
1978.762281
 30
0.0
 11
422.3548526246162
 21
2058.177906
 31
0.0
  0
LINE
  5
8A
330
1F
100
AcDbEntity
  8
1
  6
Continuous
 62
   155
420
  5010073
370
    35
100
AcDbLine
 10
420.8548526246162
 20
2049.820094
 30
0.0
 11
420.8548526246162
 21
1978.762281
 31
0.0
  0
LINE
  5
8B
330
1F
100
AcDbEntity
  8
1
  6
Continuous
 62
   155
420
  5010073
370
    35
100
AcDbLine
 10
371.6053916246163
 20
930.263844
 30
0.0
 11
471.6053916246163
 21
930.263844
 31
0.0
  0
LINE
  5
8C
330
1F
100
AcDbEntity
  8
1
  6
Continuous
 62
   155
420
  5010073
370
    35
100
AcDbLine
 10
471.6053916246163
 20
927.963844
 30
0.0
 11
371.7271886246164
 21
927.963844
 31
0.0
  0
LINE
  5
8D
330
1F
100
AcDbEntity
  8
1
  6
Continuous
 62
   155
420
  5010073
370
    35
100
AcDbLine
 10
371.7271886246164
 20
927.963844
 30
0.0
 11
371.6053916246163
 21
927.963844
 31
0.0
  0
LINE
  5
8E
330
1F
100
AcDbEntity
  8
1
  6
Continuous
 62
   155
420
  5010073
370
    35
100
AcDbLine
 10
371.6053916246163
 20
930.263844
 30
0.0
 11
371.6053916246163
 21
927.963844
 31
0.0
  0
LINE
  5
8F
330
1F
100
AcDbEntity
  8
1
  6
Continuous
 62
   155
420
  5010073
370
    35
100
AcDbLine
 10
471.6053916246163
 20
927.963844
 30
0.0
 11
471.6053916246163
 21
930.263844
 31
0.0
  0
LINE
  5
90
330
1F
100
AcDbEntity
  8
1
  6
Continuous
 62
   155
420
  5010073
370
    35
100
AcDbLine
 10
355.9608826246164
 20
2284.471274
 30
0.0
 11
357.0112646246163
 21
2284.471274
 31
0.0
  0
LINE
  5
91
330
1F
100
AcDbEntity
  8
1
  6
Continuous
 62
   155
420
  5010073
370
    35
100
AcDbLine
 10
486.4874496246163
 20
2284.471274
 30
0.0
 11
487.4462056246163
 21
2284.471274
 31
0.0
  0
LINE
  5
92
330
1F
100
AcDbEntity
  8
1
  6
Continuous
 62
   155
420
  5010073
370
    35
100
AcDbLine
 10
493.2035436246164
 20
2286.168656
 30
0.0
 11
493.2035436246164
 21
2284.471281
 31
0.0
  0
LINE
  5
93
330
1F
100
AcDbEntity
  8
1
  6
Continuous
 62
   155
420
  5010073
370
    35
100
AcDbLine
 10
350.2035436246164
 20
2284.471281
 30
0.0
 11
350.2035436246164
 21
2286.168656
 31
0.0
  0
LINE
  5
94
330
1F
100
AcDbEntity
  8
1
  6
Continuous
 62
   155
420
  5010073
370
    35
100
AcDbLine
 10
493.1827106246163
 20
2286.168656
 30
0.0
 11
490.0005766246162
 21
2286.168656
 31
0.0
  0
LINE
  5
95
330
1F
100
AcDbEntity
  8
1
  6
Continuous
 62
   155
420
  5010073
370
    18
100
AcDbLine
 10
493.1827106246163
 20
2284.471281
 30
0.0
 11
493.1827106246163
 21
2286.168656
 31
0.0
  0
LINE
  5
96
330
1F
100
AcDbEntity
  8
1
  6
Continuous
 62
   155
420
  5010073
370
    35
100
AcDbLine
 10
353.4065116246162
 20
2286.168656
 30
0.0
 11
350.2243776246163
 21
2286.168656
 31
0.0
  0
LINE
  5
97
330
1F
100
AcDbEntity
  8
1
  6
Continuous
 62
   155
420
  5010073
370
    18
100
AcDbLine
 10
350.2243776246163
 20
2286.168656
 30
0.0
 11
350.2243776246163
 21
2284.471281
 31
0.0
  0
LINE
  5
98
330
1F
100
AcDbEntity
  8
1
  6
Continuous
 62
   155
420
  5010073
370
    35
100
AcDbLine
 10
487.1294246246163
 20
2286.168656
 30
0.0
 11
480.6962036246163
 21
2286.168656
 31
0.0
  0
LINE
  5
99
330
1F
100
AcDbEntity
  8
1
  6
Continuous
 62
   155
420
  5010073
370
    35
100
AcDbLine
 10
362.7108836246163
 20
2286.168656
 30
0.0
 11
356.2776636246164
 21
2286.168656
 31
0.0
  0
LINE
  5
9A
330
1F
100
AcDbEntity
  8
1
  6
Continuous
 62
   155
420
  5010073
370
    35
100
AcDbLine
 10
487.1294246246163
 20
2286.168656
 30
0.0
 11
490.0005766246162
 21
2286.168656
 31
0.0
  0
LINE
  5
9B
330
1F
100
AcDbEntity
  8
1
  6
Continuous
 62
   155
420
  5010073
370
    35
100
AcDbLine
 10
353.4065116246162
 20
2286.168656
 30
0.0
 11
356.2776636246164
 21
2286.168656
 31
0.0
  0
LINE
  5
9C
330
1F
100
AcDbEntity
  8
1
  6
Continuous
 62
   155
420
  5010073
370
    35
100
AcDbLine
 10
480.6961566246163
 20
2286.168656
 30
0.0
 11
478.6294066246163
 21
2286.168656
 31
0.0
  0
LINE
  5
9D
330
1F
100
AcDbEntity
  8
1
  6
Continuous
 62
   155
420
  5010073
370
    35
100
AcDbLine
 10
478.6294246246163
 20
2286.168656
 30
0.0
 11
478.1766326246162
 21
2286.168656
 31
0.0
  0
LINE
  5
9E
330
1F
100
AcDbEntity
  8
1
  6
Continuous
 62
   155
420
  5010073
370
    35
100
AcDbLine
 10
364.7776636246164
 20
2286.168656
 30
0.0
 11
365.2304556246162
 21
2286.168656
 31
0.0
  0
LINE
  5
9F
330
1F
100
AcDbEntity
  8
1
  6
Continuous
 62
   155
420
  5010073
370
    35
100
AcDbLine
 10
478.1766326246162
 20
2286.168656
 30
0.0
 11
365.2304556246162
 21
2286.168656
 31
0.0
  0
LINE
  5
A0
330
1F
100
AcDbEntity
  8
1
  6
Continuous
 62
   155
420
  5010073
370
    35
100
AcDbLine
 10
471.6048526246162
 20
931.262725
 30
0.0
 11
421.6048526246162
 21
931.262725
 31
0.0
  0
LINE
  5
A1
330
1F
100
AcDbEntity
  8
1
  6
Continuous
 62
   155
420
  5010073
370
    35
100
AcDbLine
 10
421.6048526246162
 20
931.262725
 30
0.0
 11
371.6048526246162
 21
931.262725
 31
0.0
  0
LINE
  5
A2
330
1F
100
AcDbEntity
  8
1
  6
Continuous
 62
   155
420
  5010073
370
    35
100
AcDbLine
 10
371.6048526246162
 20
1975.262725
 30
0.0
 11
421.6048526246162
 21
1975.262725
 31
0.0
  0
LINE
  5
A3
330
1F
100
AcDbEntity
  8
1
  6
Continuous
 62
   155
420
  5010073
370
    35
100
AcDbLine
 10
421.6048526246162
 20
1975.262725
 30
0.0
 11
471.6048526246162
 21
1975.262725
 31
0.0
  0
LINE
  5
A4
330
1F
100
AcDbEntity
  8
1
  6
Continuous
 62
   155
420
  5010073
370
    35
100
AcDbLine
 10
371.6048526246162
 20
1975.262725
 30
0.0
 11
371.6048526246162
 21
931.262725
 31
0.0
  0
LINE
  5
A5
330
1F
100
AcDbEntity
  8
1
  6
Continuous
 62
   155
420
  5010073
370
    35
100
AcDbLine
 10
471.6048526246162
 20
931.262725
 30
0.0
 11
471.6048526246162
 21
1975.262725
 31
0.0
  0
LINE
  5
A6
330
1F
100
AcDbEntity
  8
1
  6
Continuous
 62
   155
420
  5010073
370
    35
100
AcDbLine
 10
373.2628596246162
 20
931.26273
 30
0.0
 11
373.1973056246162
 21
931.157844
 31
0.0
  0
LINE
  5
A7
330
1F
100
AcDbEntity
  8
1
  6
Continuous
 62
   155
420
  5010073
370
    35
100
AcDbLine
 10
470.0134766246164
 20
931.157844
 30
0.0
 11
469.9479226246164
 21
931.26273
 31
0.0
  0
LINE
  5
A8
330
1F
100
AcDbEntity
  8
1
  6
Continuous
 62
   155
420
  5010073
370
    18
100
AcDbLine
 10
470.0134766246164
 20
931.157844
 30
0.0
 11
373.1973056246162
 21
931.157844
 31
0.0
  0
LINE
  5
A9
330
1F
100
AcDbEntity
  8
1
  6
Continuous
 62
   155
420
  5010073
370
    35
100
AcDbLine
 10
470.5844446246164
 20
931.063844
 30
0.0
 11
378.7673456246163
 21
931.063844
 31
0.0
  0
LINE
  5
AA
330
1F
100
AcDbEntity
  8
1
  6
Continuous
 62
   155
420
  5010073
370
    35
100
AcDbLine
 10
378.7673456246163
 20
931.063844
 30
0.0
 11
372.6263376246162
 21
931.063844
 31
0.0
  0
LINE
  5
AB
330
1F
100
AcDbEntity
  8
1
  6
Continuous
 62
   155
420
  5010073
370
    35
100
AcDbLine
 10
372.6263376246162
 20
931.063844
 30
0.0
 11
372.6123736246162
 21
930.263844
 31
0.0
  0
LINE
  5
AC
330
1F
100
AcDbEntity
  8
1
  6
Continuous
 62
   155
420
  5010073
370
    35
100
AcDbLine
 10
470.5984086246164
 20
930.263844
 30
0.0
 11
470.5844446246164
 21
931.063844
 31
0.0
  0
LINE
  5
AD
330
1F
100
AcDbEntity
  8
1
  6
Continuous
 62
   155
420
  5010073
370
    35
100
AcDbLine
 10
355.6517316246162
 20
2284.471274
 30
0.0
 11
346.2061656246163
 21
2284.471274
 31
0.0
  0
LINE
  5
AE
330
1F
100
AcDbEntity
  8
1
  6
Continuous
 62
   155
420
  5010073
370
    18
100
AcDbLine
 10
345.9061736246164
 20
2284.171274
 30
0.0
 11
355.3892646246162
 21
2284.171274
 31
0.0
  0
LINE
  5
AF
330
1F
100
AcDbEntity
  8
1
  6
Continuous
 62
   155
420
  5010073
370
    35
100
AcDbLine
 10
487.7553566246162
 20
2284.471274
 30
0.0
 11
497.2009146246163
 21
2284.471274
 31
0.0
  0
LINE
  5
B0
330
1F
100
AcDbEntity
  8
1
  6
Continuous
 62
   155
420
  5010073
370
    18
100
AcDbLine
 10
497.5009146246163
 20
2284.171274
 30
0.0
 11
488.0178196246162
 21
2284.171274
 31
0.0
  0
LINE
  5
B1
330
1F
100
AcDbEntity
  8
1
  6
Continuous
 62
   155
420
  5010073
370
    35
100
AcDbLine
 10
355.6517316246162
 20
2284.471274
 30
0.0
 11
355.9608826246164
 21
2284.471274
 31
0.0
  0
LINE
  5
B2
330
1F
100
AcDbEntity
  8
1
  6
Continuous
 62
   155
420
  5010073
370
    35
100
AcDbLine
 10
487.4462056246163
 20
2284.471274
 30
0.0
 11
487.7553566246162
 21
2284.471274
 31
0.0
  0
ARC
  5
B3
330
1F
100
AcDbEntity
  8
1
  6
Continuous
 62
   155
420
  5010073
370
    35
100
AcDbCircle
 10
470.1825376246162
 20
1975.461625
 30
0.0
 40
0.2
100
AcDbArc
 50
90.0
 51
147.9946170000036
  0
ARC
  5
B4
330
1F
100
AcDbEntity
  8
1
  6
Continuous
 62
   155
420
  5010073
370
    35
100
AcDbCircle
 10
373.0271676246163
 20
1975.461625
 30
0.0
 40
0.2
100
AcDbArc
 50
32.00538300000508
 51
90.00000000001629
  0
ARC
  5
B5
330
1F
100
AcDbEntity
  8
1
  6
Continuous
 62
   155
420
  5010073
370
    35
100
AcDbCircle
 10
373.0277066246164
 20
931.263844
 30
0.0
 40
0.2
100
AcDbArc
 50
270.0
 51
327.9946170000035
  0
ARC
  5
B6
330
1F
100
AcDbEntity
  8
1
  6
Continuous
 62
   155
420
  5010073
370
    35
100
AcDbCircle
 10
470.1830756246162
 20
931.263844
 30
0.0
 40
0.2
100
AcDbArc
 50
212.0053830000051
 51
270.0000000000163
  0
ARC
  5
B7
330
1F
100
AcDbEntity
  8
1
  6
Continuous
 62
   155
420
  5010073
370
    35
100
AcDbCircle
 10
346.2061736246163
 20
2284.171274
 30
0.0
 40
0.2999999999999947
100
AcDbArc
 50
90.00144799998262
 51
180.2499999999568
  0
ARC
  5
B8
330
1F
100
AcDbEntity
  8
1
  6
Continuous
 62
   155
420
  5010073
370
    35
100
AcDbCircle
 10
497.2009146246163
 20
2284.171274
 30
0.0
 40
0.2999999999999829
100
AcDbArc
 50
0.0
 51
90.0
  0
ARC
  5
B9
330
1F
100
AcDbEntity
  8
1
  6
Continuous
 62
   155
420
  5010073
370
    35
100
AcDbCircle
 10
497.2009146246163
 20
2284.171274
 30
0.0
 40
0.2999999997902844
100
AcDbArc
 50
359.5000000000324
 51
0.0
  0
SPLINE
  5
BA
330
1F
100
AcDbEntity
  8
1
  6
Continuous
 62
   155
420
  5010073
370
    35
100
AcDbSpline
210
0.0
220
0.0
230
1.0
 70
     8
 71
     3
 72
     8
 73
     4
 74
     0
 42
0.0000000001
 43
0.0000000001
 40
0.0
 40
0.0
 40
0.0
 40
0.0
 40
1.0
 40
1.0
 40
1.0
 40
1.0
 10
356.7541975117932
 20
2284.168657925334
 30
-0.0000000000000037
 10
356.7420575627622
 20
2284.169476518682
 30
-0.0000000000000039
 10
356.7317002961962
 20
2284.170361533743
 30
-0.000000000000004
 10
356.7242394805572
 20
2284.171276501367
 30
-0.0000000000000041
  0
SPLINE
  5
BB
330
1F
100
AcDbEntity
  8
1
  6
Continuous
 62
   155
420
  5010073
370
    35
100
AcDbSpline
210
0.0
220
0.0
230
1.0
 70
     8
 71
     2
 72
     6
 73
     3
 74
     0
 42
0.0000000001
 43
0.0000000001
 40
0.0
 40
0.0
 40
0.0
 40
1.0
 40
1.0
 40
1.0
 10
416.7330334214054
 20
2159.418072844337
 30
-0.0000000000000017
 10
416.7307751187112
 20
2156.56979542568
 30
-0.0000000000000015
 10
416.7329918052673
 20
2153.721221675652
 30
-0.0000000000000013
  0
SPLINE
  5
BC
330
1F
100
AcDbEntity
  8
1
  6
Continuous
 62
   155
420
  5010073
370
    35
100
AcDbSpline
210
0.0
220
0.0
230
1.0
 70
     8
 71
     3
 72
    22
 73
    18
 74
     0
 42
0.0000000001
 43
0.0000000001
 40
0.0
 40
0.0
 40
0.0
 40
0.0
 40
0.0715121971720066
 40
0.1330727076876586
 40
0.1849396538021787
 40
0.2446342374218085
 40
0.2934760498947515
 40
0.3945003044224519
 40
0.4963210221338162
 40
0.5976963261323295
 40
0.6958760237519026
 40
0.7259152408769809
 40
0.757116233632412
 40
0.7997278358759121
 40
0.8544924031595306
 40
0.921218280919702
 40
1.0
 40
1.0
 40
1.0
 40
1.0
 10
416.7329918052673
 20
2153.72122167565
 30
-0.0000000000000013
 10
416.7328927601583
 20
2151.752569292187
 30
-0.0000000000000012
 10
416.7327654542752
 20
2147.968510330852
 30
-0.000000000000001
 10
416.7330392269283
 20
2142.358865669353
 30
-0.0000000000000006
 10
416.7328900202173
 20
2136.925018928581
 30
-0.0000000000000003
 10
416.7328522262823
 20
2131.748147111711
 30
0.0
 10
416.7328635221012
 20
2124.868435912673
 30
0.0000000000000005
 10
416.7329512708362
 20
2116.464342811607
 30
0.000000000000001
 10
416.7329734851734
 20
2106.30292017421
 30
-0.000000000000002
 10
416.7329271471243
 20
2096.464218345977
 30
-0.0000000000000014
 10
416.7328850605244
 20
2089.326585063586
 30
-0.0000000000000009
 10
416.7328775905252
 20
2084.625369267383
 30
-0.0000000000000006
 10
416.7328817980473
 20
2081.64763744844
 30
-0.0000000000000005
 10
416.7328993992563
 20
2078.101585509805
 30
-0.0000000000000002
 10
416.7329590197352
 20
2073.845305376139
 30
0.0
 10
416.7330230598483
 20
2069.103235435278
 30
-0.0000000000000015
 10
416.7329108720022
 20
2066.083376729681
 30
0.0000000000000005
 10
416.7328175323772
 20
2064.570136342138
 30
0.0000000000000001
  0
SPLINE
  5
BD
330
1F
100
AcDbEntity
  8
1
  6
Continuous
 62
   155
420
  5010073
370
    35
100
AcDbSpline
210
0.0
220
0.0
230
1.0
 70
    24
 71
     2
 72
     6
 73
     3
 74
     0
 42
0.0000000001
 43
0.0000000001
 40
0.0
 40
0.0
 40
0.0
 40
1.0
 40
1.0
 40
1.0
 10
405.7332147984092
 20
1983.736038812248
 30
0.0
 10
405.7331059131408
 20
1981.248843150701
 30
0.0
 10
405.7329970278723
 20
1978.761647489154
 30
0.0
  0
SPLINE
  5
BE
330
1F
100
AcDbEntity
  8
1
  6
Continuous
 62
   155
420
  5010073
370
    35
100
AcDbSpline
210
0.0
220
0.0
230
1.0
 70
    24
 71
     2
 72
     6
 73
     3
 74
     0
 42
0.0000000001
 43
0.0000000001
 40
0.0
 40
0.0
 40
0.0
 40
1.0
 40
1.0
 40
1.0
 10
411.2329945384212
 20
1978.761663719334
 30
0.0
 10
411.2331003310597
 20
1981.246031757182
 30
0.0
 10
411.2332061236983
 20
1983.73039979503
 30
0.0
  0
SPLINE
  5
BF
330
1F
100
AcDbEntity
  8
1
  6
Continuous
 62
   155
420
  5010073
370
    35
100
AcDbSpline
210
0.0
220
0.0
230
1.0
 70
     8
 71
     3
 72
     9
 73
     5
 74
     0
 42
0.0000000001
 43
0.0000000001
 40
0.0
 40
0.0
 40
0.0
 40
0.0
 40
0.2418892251902087
 40
1.0
 40
1.0
 40
1.0
 40
1.0
 10
398.8547682115924
 20
2250.471553056847
 30
0.0
 10
398.8547577300732
 20
2249.626572543464
 30
0.0
 10
398.8547176847572
 20
2246.133318499615
 30
0.0
 10
398.8546720204362
 20
2242.640064475374
 30
0.0
 10
398.8546453427613
 20
2239.991790953595
 30
0.0
  0
SPLINE
  5
C0
330
1F
100
AcDbEntity
  8
1
  6
Continuous
 62
   155
420
  5010073
370
    35
100
AcDbSpline
210
0.0
220
0.0
230
1.0
 70
     8
 71
     3
 72
     9
 73
     5
 74
     0
 42
0.0000000001
 43
0.0000000001
 40
0.0
 40
0.0
 40
0.0
 40
0.0
 40
0.7575693927629679
 40
1.0
 40
1.0
 40
1.0
 40
1.0
 10
404.3546385537062
 20
2240.03147114356
 30
0.0
 10
404.3546699477832
 20
2242.667765997841
 30
0.0
 10
404.3547173148573
 20
2246.147704428127
 30
0.0
 10
404.3547641499612
 20
2249.627642869106
 30
0.0
 10
404.3547759569864
 20
2250.471286457419
 30
0.0
  0
SPLINE
  5
C1
330
1F
100
AcDbEntity
  8
1
  6
Continuous
 62
   155
420
  5010073
370
    18
100
AcDbSpline
210
0.0
220
0.0
230
1.0
 70
    12
 71
     4
 72
    10
 73
     5
 74
     0
 42
0.0000000001
 43
0.0000000001
 40
0.0
 40
0.0
 40
0.0
 40
0.0
 40
0.0
 40
1.0
 40
1.0
 40
1.0
 40
1.0
 40
1.0
 10
398.8546453455673
 20
2239.991792355604
 30
0.0
 41
1.003916279487174
 10
398.854698351861
 20
2239.992174572307
 30
0.0
 41
1.008072662634884
 10
398.8926718272883
 20
2239.992820558648
 30
0.0
 41
1.012782757493704
 10
398.9644057301512
 20
2239.993687242437
 30
0.0
 41
1.016611713785804
 10
399.0587316712502
 20
2239.994683035566
 30
0.0
 41
1.016611713785804
  0
SPLINE
  5
C2
330
1F
100
AcDbEntity
  8
1
  6
Continuous
 62
   155
420
  5010073
370
    35
100
AcDbSpline
210
0.0
220
0.0
230
1.0
 70
    24
 71
     2
 72
     6
 73
     3
 74
     0
 42
0.0000000001
 43
0.0000000001
 40
0.0
 40
0.0
 40
0.0
 40
1.0
 40
1.0
 40
1.0
 10
487.4750645978123
 20
2284.470449637724
 30
-0.000000000000002
 10
487.4593669774227
 20
2284.470453441594
 30
-0.0000000000000021
 10
487.4436693570332
 20
2284.470457245464
 30
-0.0000000000000023
  0
SPLINE
  5
C3
330
1F
100
AcDbEntity
  8
1
  6
Continuous
 62
   155
420
  5010073
370
    35
100
AcDbSpline
210
0.0
220
0.0
230
1.0
 70
    24
 71
     2
 72
     6
 73
     3
 74
     0
 42
0.0000000001
 43
0.0000000001
 40
0.0
 40
0.0
 40
0.0
 40
1.0
 40
1.0
 40
1.0
 10
355.9634185318654
 20
2284.470457245491
 30
0.0000000000000017
 10
355.9477209128663
 20
2284.470453441687
 30
0.0000000000000015
 10
355.9320232938672
 20
2284.470449637882
 30
0.0000000000000013
  0
SPLINE
  5
C4
330
1F
100
AcDbEntity
  8
1
  6
Continuous
 62
   155
420
  5010073
370
    35
100
AcDbSpline
210
0.0
220
0.0
230
1.0
 70
     8
 71
     3
 72
     8
 73
     4
 74
     0
 42
0.0000000001
 43
0.0000000001
 40
0.0
 40
0.0
 40
0.0
 40
0.0
 40
1.0
 40
1.0
 40
1.0
 40
1.0
 10
488.0177876941453
 20
2284.168657925334
 30
-0.000000000000003
 10
488.0063871805202
 20
2284.169476518692
 30
-0.0000000000000032
 10
487.9919474926322
 20
2284.170361533765
 30
-0.0000000000000033
 10
487.9744151879273
 20
2284.171276501358
 30
-0.0000000000000035
  0
SPLINE
  5
C5
330
1F
100
AcDbEntity
  8
1
  6
Continuous
 62
   155
420
  5010073
370
    35
100
AcDbSpline
210
0.0
220
0.0
230
1.0
 70
     8
 71
     3
 72
    19
 73
    15
 74
     0
 42
0.0000000001
 43
0.0000000001
 40
0.0
 40
0.0
 40
0.0
 40
0.0
 40
0.1257301394601614
 40
0.2334213720919993
 40
0.3229647451917566
 40
0.3931579522800704
 40
0.4488285982302136
 40
0.5066482998682017
 40
0.5782062159414165
 40
0.6632706230371158
 40
0.7358563940567616
 40
0.8160245308829329
 40
0.9037529020902763
 40
1.0
 40
1.0
 40
1.0
 40
1.0
 10
398.8546453427613
 20
2239.991790953595
 30
0.0
 10
398.9315892543203
 20
2236.378754074287
 30
0.0
 10
399.4667980245393
 20
2229.732007843277
 30
0.0
 10
401.4191390576533
 20
2220.688076199112
 30
0.0
 10
403.4316168072183
 20
2213.314924772976
 30
0.0
 10
405.2342706317144
 20
2207.429800102954
 30
0.0
 10
406.8314625451893
 20
2202.438145068649
 30
0.0
 10
408.4593963497513
 20
2197.429599906673
 30
0.0000000000000001
 10
410.3231171849174
 20
2191.64812120212
 30
0.0
 10
412.2063120037764
 20
2185.498781857676
 30
0.0000000000000002
 10
413.9387841676634
 20
2179.171527544388
 30
-0.0000000000000001
 10
415.3772184002213
 20
2172.864669266086
 30
0.0000000000000002
 10
416.4660678793822
 20
2166.109743178574
 30
0.0000000000000003
 10
416.7239770073592
 20
2161.675842628576
 30
0.0000000000000017
 10
416.7330334214054
 20
2159.418072844336
 30
-0.0000000000000017
  0
SPLINE
  5
C6
330
1F
100
AcDbEntity
  8
1
  6
Continuous
 62
   155
420
  5010073
370
    35
100
AcDbSpline
210
0.0
220
0.0
230
1.0
 70
     8
 71
     2
 72
     6
 73
     3
 74
     0
 42
0.0000000001
 43
0.0000000001
 40
0.0
 40
0.0
 40
0.0
 40
1.0
 40
1.0
 40
1.0
 10
416.7328175323772
 20
2064.570136342138
 30
0.0000000000000001
 10
416.7324755944443
 20
2062.57618454017
 30
-0.0000000000000001
 10
416.7331457290792
 20
2060.584123035131
 30
0.0
  0
SPLINE
  5
C7
330
1F
100
AcDbEntity
  8
1
  6
Continuous
 62
   155
420
  5010073
370
    18
100
AcDbSpline
210
0.0
220
0.0
230
1.0
 70
    12
 71
     4
 72
    10
 73
     5
 74
     0
 42
0.0000000001
 43
0.0000000001
 40
0.0
 40
0.0
 40
0.0
 40
0.0
 40
0.0
 40
1.0
 40
1.0
 40
1.0
 40
1.0
 40
1.0
 10
405.7332224138332
 20
1983.736027602141
 30
-0.0000000000000001
 41
1.004861095676214
 10
405.7338428048272
 20
1983.735534637213
 30
0.0
 41
1.008858728641332
 10
405.7679200005053
 20
1983.735019919295
 30
0.0
 41
1.013201466024661
 10
405.8317930568902
 20
1983.734502187274
 30
0.0
 41
1.016611713785803
 10
405.9162675868064
 20
1983.734003765608
 30
0.0
 41
1.016611713785803
  0
SPLINE
  5
C8
330
1F
100
AcDbEntity
  8
1
  6
Continuous
 62
   155
420
  5010073
370
    35
100
AcDbSpline
210
0.0
220
0.0
230
1.0
 70
     8
 71
     3
 72
    20
 73
    16
 74
     0
 42
0.0000000001
 43
0.0000000001
 40
0.0
 40
0.0
 40
0.0
 40
0.0
 40
0.0430791922730025
 40
0.0806283651109136
 40
0.1495126994199162
 40
0.2162751227245571
 40
0.2789411367092474
 40
0.3489312179879991
 40
0.4150284251606162
 40
0.4819478806723896
 40
0.5616230474168582
 40
0.6420828259534143
 40
0.7421349193357409
 40
0.8633952375022104
 40
1.0
 40
1.0
 40
1.0
 40
1.0
 10
416.7331457290792
 20
2060.584123035131
 30
0.0
 10
416.7356465203512
 20
2059.930878823885
 30
0.0
 10
416.6717418696902
 20
2058.552136640766
 30
0.0000000000000003
 10
416.3172545986343
 20
2055.430422106658
 30
0.0000000000000001
 10
415.5358961997732
 20
2051.06206471911
 30
0.0000000000000006
 10
414.4023781950713
 20
2045.809650801465
 30
0.0000000000000007
 10
413.2148114455773
 20
2040.546006465706
 30
-0.0000000000000015
 10
412.0535788962583
 20
2035.357446486855
 30
0.0000000000000002
 10
410.9277229358732
 20
2030.097042183707
 30
-0.0000000000000005
 10
409.8288238316962
 20
2024.597396713646
 30
0.0000000000000001
 10
408.7711210951842
 20
2018.715064686648
 30
-0.0000000000000006
 10
407.7170476248142
 20
2011.930009331833
 30
0.0000000000000001
 10
406.7284836508012
 20
2003.977191016024
 30
0.0
 10
405.9388746244853
 20
1994.404637379342
 30
0.0
 10
405.7394730367893
 20
1987.445294988932
 30
0.0
 10
405.7332147984092
 20
1983.736038812248
 30
0.0
  0
POLYLINE
  5
C9
330
1F
100
AcDbEntity
  8
1
  6
Continuous
 62
   155
420
  5010073
370
    35
100
AcDb2dPolyline
 66
     1
 10
0.0
 20
0.0
 30
0.0
  0
VERTEX
  5
CA
330
C9
100
AcDbEntity
  8
1
  6
Continuous
 62
   155
420
  5010073
370
    35
100
AcDbVertex
100
AcDb2dVertex
 10
422.3548526246162
 20
2058.177906
 30
0.0
  0
VERTEX
  5
CB
330
C9
100
AcDbEntity
  8
1
  6
Continuous
 62
   155
420
  5010073
370
    35
100
AcDbVertex
100
AcDb2dVertex
 10
422.3548526246162
 20
2175.173219
 30
0.0
  0
SEQEND
  5
CC
330
C9
100
AcDbEntity
  8
1
  6
Continuous
 62
   155
420
  5010073
370
    35
  0
SPLINE
  5
CD
330
1F
100
AcDbEntity
  8
1
  6
Continuous
 62
   155
420
  5010073
370
    35
100
AcDbSpline
210
0.0
220
0.0
230
1.0
 70
     8
 71
     3
 72
    17
 73
    13
 74
     0
 42
0.0000000001
 43
0.0000000001
 40
0.0
 40
0.0
 40
0.0
 40
0.0
 40
0.0836158337344262
 40
0.1751177046136773
 40
0.2492266990781223
 40
0.3093523802623869
 40
0.382524666665385
 40
0.4745201578407433
 40
0.5843478529218001
 40
0.7102206886085483
 40
0.8493989011280233
 40
1.0
 40
1.0
 40
1.0
 40
1.0
 10
420.4475829540762
 20
2175.172141860228
 30
0.0000000000000001
 10
419.6914147240603
 20
2178.634003053219
 30
0.0000000000000002
 10
418.8224307677514
 20
2182.197153447781
 30
0.0000000000000005
 10
417.3898790947263
 20
2187.31625987273
 30
-0.0000000000000001
 10
415.9747453223944
 20
2191.974307624598
 30
0.0000000000000001
 10
414.6165542186883
 20
2196.264138451694
 30
-0.0000000000000001
 10
413.1030345180212
 20
2200.936285329737
 30
0.0
 10
411.2446865055653
 20
2206.65900669605
 30
0.0
 10
409.0966548136213
 20
2213.517880638395
 30
0.0
 10
406.8898176388992
 20
2221.441647684755
 30
0.0
 10
404.9384009273132
 20
2230.37433007472
 30
0.0
 10
404.4301734828033
 20
2236.709538580577
 30
0.0
 10
404.3546385537062
 20
2240.03147114356
 30
0.0
  0
POLYLINE
  5
CE
330
1F
100
AcDbEntity
  8
1
  6
Continuous
 62
   155
420
  5010073
370
    35
100
AcDb2dPolyline
 66
     1
 10
0.0
 20
0.0
 30
0.0
  0
VERTEX
  5
CF
330
CE
100
AcDbEntity
  8
1
  6
Continuous
 62
   155
420
  5010073
370
    35
100
AcDbVertex
100
AcDb2dVertex
 10
422.3548526246162
 20
2175.173219
 30
0.0
  0
VERTEX
  5
D0
330
CE
100
AcDbEntity
  8
1
  6
Continuous
 62
   155
420
  5010073
370
    35
100
AcDbVertex
100
AcDb2dVertex
 10
422.3548526246162
 20
2250.468531
 30
0.0
  0
SEQEND
  5
D1
330
CE
100
AcDbEntity
  8
1
  6
Continuous
 62
   155
420
  5010073
370
    35
  0
POLYLINE
  5
D2
330
1F
100
AcDbEntity
  8
1
  6
Continuous
 62
   155
420
  5010073
370
    35
100
AcDb2dPolyline
 66
     1
 10
0.0
 20
0.0
 30
0.0
  0
VERTEX
  5
D3
330
D2
100
AcDbEntity
  8
1
  6
Continuous
 62
   155
420
  5010073
370
    35
100
AcDbVertex
100
AcDb2dVertex
 10
355.3892746246162
 20
2284.168656
 30
0.0
  0
VERTEX
  5
D4
330
D2
100
AcDbEntity
  8
1
  6
Continuous
 62
   155
420
  5010073
370
    35
100
AcDbVertex
100
AcDb2dVertex
 10
356.7542116246162
 20
2284.171274
 30
0.0
  0
SEQEND
  5
D5
330
D2
100
AcDbEntity
  8
1
  6
Continuous
 62
   155
420
  5010073
370
    35
  0
POLYLINE
  5
D6
330
1F
100
AcDbEntity
  8
1
  6
Continuous
 62
   155
420
  5010073
370
    35
100
AcDb2dPolyline
 66
     1
 10
0.0
 20
0.0
 30
0.0
  0
VERTEX
  5
D7
330
D6
100
AcDbEntity
  8
1
  6
Continuous
 62
   155
420
  5010073
370
    35
100
AcDbVertex
100
AcDb2dVertex
 10
364.7776636246164
 20
2286.168656
 30
0.0
  0
VERTEX
  5
D8
330
D6
100
AcDbEntity
  8
1
  6
Continuous
 62
   155
420
  5010073
370
    35
100
AcDbVertex
100
AcDb2dVertex
 10
356.2776636246164
 20
2286.168656
 30
0.0
  0
SEQEND
  5
D9
330
D6
100
AcDbEntity
  8
1
  6
Continuous
 62
   155
420
  5010073
370
    35
  0
POLYLINE
  5
DA
330
1F
100
AcDbEntity
  8
1
  6
Continuous
 62
   155
420
  5010073
370
    35
100
AcDb2dPolyline
 66
     1
 10
0.0
 20
0.0
 30
0.0
  0
VERTEX
  5
DB
330
DA
100
AcDbEntity
  8
1
  6
Continuous
 62
   155
420
  5010073
370
    35
100
AcDbVertex
100
AcDb2dVertex
 10
353.4065116246162
 20
2288.168656
 30
0.0
  0
VERTEX
  5
DC
330
DA
100
AcDbEntity
  8
1
  6
Continuous
 62
   155
420
  5010073
370
    35
100
AcDbVertex
100
AcDb2dVertex
 10
365.2304556246162
 20
2288.168656
 30
0.0
  0
SEQEND
  5
DD
330
DA
100
AcDbEntity
  8
1
  6
Continuous
 62
   155
420
  5010073
370
    35
  0
LINE
  5
DE
330
1F
100
AcDbEntity
  8
1
  6
Continuous
 62
   155
420
  5010073
370
    35
100
AcDbLine
 10
478.1766326246162
 20
2288.168656
 30
0.0
 11
365.2304556246162
 21
2288.168656
 31
0.0
  0
POLYLINE
  5
DF
330
1F
100
AcDbEntity
  8
1
  6
Continuous
 62
   155
420
  5010073
370
    35
100
AcDb2dPolyline
 66
     1
 10
0.0
 20
0.0
 30
0.0
  0
VERTEX
  5
E0
330
DF
100
AcDbEntity
  8
1
  6
Continuous
 62
   155
420
  5010073
370
    35
100
AcDbVertex
100
AcDb2dVertex
 10
486.4874496246163
 20
2284.471274
 30
0.0
  0
VERTEX
  5
E1
330
DF
100
AcDbEntity
  8
1
  6
Continuous
 62
   155
420
  5010073
370
    35
100
AcDbVertex
100
AcDb2dVertex
 10
357.0112796246163
 20
2284.471274
 30
0.0
  0
SEQEND
  5
E2
330
DF
100
AcDbEntity
  8
1
  6
Continuous
 62
   155
420
  5010073
370
    35
  0
POLYLINE
  5
E3
330
1F
100
AcDbEntity
  8
1
  6
Continuous
 62
   155
420
  5010073
370
    18
100
AcDb2dPolyline
 66
     1
 10
0.0
 20
0.0
 30
0.0
  0
VERTEX
  5
E4
330
E3
100
AcDbEntity
  8
1
  6
Continuous
 62
   155
420
  5010073
370
    18
100
AcDbVertex
100
AcDb2dVertex
 10
486.6528626246162
 20
2284.168656
 30
0.0
  0
VERTEX
  5
E5
330
E3
100
AcDbEntity
  8
1
  6
Continuous
 62
   155
420
  5010073
370
    18
100
AcDbVertex
100
AcDb2dVertex
 10
488.0178196246162
 20
2284.171274
 30
0.0
  0
SEQEND
  5
E6
330
E3
100
AcDbEntity
  8
1
  6
Continuous
 62
   155
420
  5010073
370
    18
  0
POLYLINE
  5
E7
330
1F
100
AcDbEntity
  8
1
  6
Continuous
 62
   155
420
  5010073
370
    18
100
AcDb2dPolyline
 66
     1
 10
0.0
 20
0.0
 30
0.0
  0
VERTEX
  5
E8
330
E7
100
AcDbEntity
  8
1
  6
Continuous
 62
   155
420
  5010073
370
    18
100
AcDbVertex
100
AcDb2dVertex
 10
1041.117029999525
 20
2284.168656
 30
0.0
  0
VERTEX
  5
E9
330
E7
100
AcDbEntity
  8
1
  6
Continuous
 62
   155
420
  5010073
370
    18
100
AcDbVertex
100
AcDb2dVertex
 10
1039.752072999525
 20
2284.171274
 30
0.0
  0
SEQEND
  5
EA
330
E7
100
AcDbEntity
  8
1
  6
Continuous
 62
   155
420
  5010073
370
    18
  0
POLYLINE
  5
EB
330
1F
100
AcDbEntity
  8
1
  6
Continuous
 62
   155
420
  5010073
370
    35
100
AcDb2dPolyline
 66
     1
 10
0.0
 20
0.0
 30
0.0
  0
VERTEX
  5
EC
330
EB
100
AcDbEntity
  8
1
  6
Continuous
 62
   155
420
  5010073
370
    35
100
AcDbVertex
100
AcDb2dVertex
 10
1041.282442999525
 20
2284.471274
 30
0.0
  0
VERTEX
  5
ED
330
EB
100
AcDbEntity
  8
1
  6
Continuous
 62
   155
420
  5010073
370
    35
100
AcDbVertex
100
AcDb2dVertex
 10
1170.758612999525
 20
2284.471274
 30
0.0
  0
SEQEND
  5
EE
330
EB
100
AcDbEntity
  8
1
  6
Continuous
 62
   155
420
  5010073
370
    35
  0
POLYLINE
  5
EF
330
1F
100
AcDbEntity
  8
1
  6
Continuous
 62
   155
420
  5010073
370
    35
100
AcDb2dPolyline
 66
     1
 10
0.0
 20
0.0
 30
0.0
  0
VERTEX
  5
F0
330
EF
100
AcDbEntity
  8
1
  6
Continuous
 62
   155
420
  5010073
370
    35
100
AcDbVertex
100
AcDb2dVertex
 10
1174.363380999525
 20
2288.168656
 30
0.0
  0
VERTEX
  5
F1
330
EF
100
AcDbEntity
  8
1
  6
Continuous
 62
   155
420
  5010073
370
    35
100
AcDbVertex
100
AcDb2dVertex
 10
1162.539436999526
 20
2288.168656
 30
0.0
  0
SEQEND
  5
F2
330
EF
100
AcDbEntity
  8
1
  6
Continuous
 62
   155
420
  5010073
370
    35
  0
POLYLINE
  5
F3
330
1F
100
AcDbEntity
  8
1
  6
Continuous
 62
   155
420
  5010073
370
    35
100
AcDb2dPolyline
 66
     1
 10
0.0
 20
0.0
 30
0.0
  0
VERTEX
  5
F4
330
F3
100
AcDbEntity
  8
1
  6
Continuous
 62
   155
420
  5010073
370
    35
100
AcDbVertex
100
AcDb2dVertex
 10
1162.992228999525
 20
2286.168656
 30
0.0
  0
VERTEX
  5
F5
330
F3
100
AcDbEntity
  8
1
  6
Continuous
 62
   155
420
  5010073
370
    35
100
AcDbVertex
100
AcDb2dVertex
 10
1171.492228999525
 20
2286.168656
 30
0.0
  0
SEQEND
  5
F6
330
F3
100
AcDbEntity
  8
1
  6
Continuous
 62
   155
420
  5010073
370
    35
  0
POLYLINE
  5
F7
330
1F
100
AcDbEntity
  8
1
  6
Continuous
 62
   155
420
  5010073
370
    35
100
AcDb2dPolyline
 66
     1
 10
0.0
 20
0.0
 30
0.0
  0
VERTEX
  5
F8
330
F7
100
AcDbEntity
  8
1
  6
Continuous
 62
   155
420
  5010073
370
    35
100
AcDbVertex
100
AcDb2dVertex
 10
1172.380617999526
 20
2284.168656
 30
0.0
  0
VERTEX
  5
F9
330
F7
100
AcDbEntity
  8
1
  6
Continuous
 62
   155
420
  5010073
370
    35
100
AcDbVertex
100
AcDb2dVertex
 10
1171.015680999525
 20
2284.171274
 30
0.0
  0
SEQEND
  5
FA
330
F7
100
AcDbEntity
  8
1
  6
Continuous
 62
   155
420
  5010073
370
    35
  0
POLYLINE
  5
FB
330
1F
100
AcDbEntity
  8
1
  6
Continuous
 62
   155
420
  5010073
370
    35
100
AcDb2dPolyline
 66
     1
 10
0.0
 20
0.0
 30
0.0
  0
VERTEX
  5
FC
330
FB
100
AcDbEntity
  8
1
  6
Continuous
 62
   155
420
  5010073
370
    35
100
AcDbVertex
100
AcDb2dVertex
 10
1106.915039999525
 20
2250.468531
 30
0.0
  0
VERTEX
  5
FD
330
FB
100
AcDbEntity
  8
1
  6
Continuous
 62
   155
420
  5010073
370
    35
100
AcDbVertex
100
AcDb2dVertex
 10
1106.915039999525
 20
2172.835965325584
 30
0.0
  0
SEQEND
  5
FE
330
FB
100
AcDbEntity
  8
1
  6
Continuous
 62
   155
420
  5010073
370
    35
  0
POLYLINE
  5
FF
330
1F
100
AcDbEntity
  8
1
  6
Continuous
 62
   155
420
  5010073
370
    35
100
AcDb2dPolyline
 66
     1
 10
0.0
 20
0.0
 30
0.0
  0
VERTEX
  5
100
330
FF
100
AcDbEntity
  8
1
  6
Continuous
 62
   155
420
  5010073
370
    35
100
AcDbVertex
100
AcDb2dVertex
 10
1105.415039999525
 20
2175.173219
 30
0.0
  0
VERTEX
  5
101
330
FF
100
AcDbEntity
  8
1
  6
Continuous
 62
   155
420
  5010073
370
    35
100
AcDbVertex
100
AcDb2dVertex
 10
1105.415039999525
 20
2250.468531
 30
0.0
  0
SEQEND
  5
102
330
FF
100
AcDbEntity
  8
1
  6
Continuous
 62
   155
420
  5010073
370
    35
  0
SPLINE
  5
103
330
1F
100
AcDbEntity
  8
1
  6
Continuous
 62
   155
420
  5010073
370
    35
100
AcDbSpline
210
0.0
220
0.0
230
1.0
 70
     8
 71
     3
 72
     8
 73
     4
 74
     0
 42
0.0000000001
 43
0.0000000001
 40
0.0
 40
0.0
 40
0.0
 40
0.0
 40
1.0
 40
1.0
 40
1.0
 40
1.0
 10
1105.415039999525
 20
2162.913198150207
 30
0.0
 10
1106.988603315343
 20
2173.511077313459
 30
0.0
 10
1107.150340253672
 20
2174.340063633194
 30
0.0
 10
1107.322309670065
 20
2175.172141860228
 30
0.0000000000000001
  0
SPLINE
  5
104
330
1F
100
AcDbEntity
  8
1
  6
Continuous
 62
   155
420
  5010073
370
    35
100
AcDbSpline
210
0.0
220
0.0
230
1.0
 70
     8
 71
     3
 72
    17
 73
    13
 74
     0
 42
0.0000000001
 43
0.0000000001
 40
0.0
 40
0.0
 40
0.0
 40
0.0
 40
0.0836158337344262
 40
0.1751177046136773
 40
0.2492266990781223
 40
0.3093523802623869
 40
0.382524666665385
 40
0.4745201578407433
 40
0.5843478529218001
 40
0.7102206886085483
 40
0.8493989011280233
 40
1.0
 40
1.0
 40
1.0
 40
1.0
 10
1107.322309670065
 20
2175.172141860228
 30
0.0000000000000001
 10
1108.078477900081
 20
2178.634003053219
 30
0.0000000000000002
 10
1108.94746185639
 20
2182.197153447781
 30
0.0000000000000005
 10
1110.380013529415
 20
2187.31625987273
 30
-0.0000000000000001
 10
1111.795147301747
 20
2191.974307624598
 30
0.0000000000000001
 10
1113.153338405453
 20
2196.264138451694
 30
-0.0000000000000001
 10
1114.66685810612
 20
2200.936285329737
 30
0.0
 10
1116.525206118576
 20
2206.65900669605
 30
0.0
 10
1118.67323781052
 20
2213.517880638395
 30
0.0
 10
1120.880074985242
 20
2221.441647684755
 30
0.0
 10
1122.831491696828
 20
2230.37433007472
 30
0.0
 10
1123.339719141338
 20
2236.709538580577
 30
0.0
 10
1123.415254070435
 20
2240.03147114356
 30
0.0
  0
SPLINE
  5
105
330
1F
100
AcDbEntity
  8
1
  6
Continuous
 62
   155
420
  5010073
370
    35
100
AcDbSpline
210
0.0
220
0.0
230
1.0
 70
     8
 71
     3
 72
    20
 73
    16
 74
     0
 42
0.0000000001
 43
0.0000000001
 40
0.0
 40
0.0
 40
0.0
 40
0.0
 40
0.1346065554781989
 40
0.2538519218668949
 40
0.3519267207485901
 40
0.4310404316853562
 40
0.5096726488622098
 40
0.5755407601470374
 40
0.6405601263887262
 40
0.7106627231149829
 40
0.7734415023528922
 40
0.8412247706990583
 40
0.9136017254468481
 40
0.9541437283295139
 40
1.0
 40
1.0
 40
1.0
 40
1.0
 10
1116.536686500443
 20
1983.73039979503
 30
0.0
 10
1116.530309211414
 20
1987.383545362741
 30
0.0
 10
1116.331831014537
 20
1994.229330342606
 30
0.0
 10
1115.546991760773
 20
2003.630556514474
 30
0.0
 10
1114.568478313955
 20
2011.429354049814
 30
0.0000000000000002
 10
1113.526916491541
 20
2018.086926950928
 30
-0.0000000000000002
 10
1112.480627606162
 20
2023.870429112914
 30
0.0000000000000004
 10
1111.394007008401
 20
2029.280412441368
 30
-0.0000000000000003
 10
1110.276183733249
 20
2034.485348224139
 30
0.0000000000000002
 10
1109.118860990551
 20
2039.647565835125
 30
-0.0000000000000015
 10
1107.927917115235
 20
2044.937884335916
 30
0.0000000000000008
 10
1106.77702178097
 20
2050.315929763955
 30
0.0000000000000008
 10
1105.974329979853
 20
2054.906600588177
 30
0.0000000000000005
 10
1105.603389568104
 20
2058.296170494195
 30
0.0
 10
1105.535007061567
 20
2059.828870171574
 30
-0.0000000000000002
 10
1105.415039999525
 20
2062.218906027843
 30
0.0
  0
POLYLINE
  5
106
330
1F
100
AcDbEntity
  8
1
  6
Continuous
 62
   155
420
  5010073
370
    35
100
AcDb2dPolyline
 66
     1
 10
0.0
 20
0.0
 30
0.0
  0
VERTEX
  5
107
330
106
100
AcDbEntity
  8
1
  6
Continuous
 62
   155
420
  5010073
370
    35
100
AcDbVertex
100
AcDb2dVertex
 10
1105.415039999525
 20
2058.177906
 30
0.0
  0
VERTEX
  5
108
330
106
100
AcDbEntity
  8
1
  6
Continuous
 62
   155
420
  5010073
370
    35
100
AcDbVertex
100
AcDb2dVertex
 10
1105.415039999525
 20
2175.173219
 30
0.0
  0
SEQEND
  5
109
330
106
100
AcDbEntity
  8
1
  6
Continuous
 62
   155
420
  5010073
370
    35
  0
SPLINE
  5
10A
330
1F
100
AcDbEntity
  8
1
  6
Continuous
 62
   155
420
  5010073
370
    35
100
AcDbSpline
210
0.0
220
0.0
230
1.0
 70
     8
 71
     3
 72
    20
 73
    16
 74
     0
 42
0.0000000001
 43
0.0000000001
 40
0.0
 40
0.0
 40
0.0
 40
0.0
 40
0.0430791922730025
 40
0.0806283651109136
 40
0.1495126994199162
 40
0.2162751227245571
 40
0.2789411367092474
 40
0.3489312179879991
 40
0.4150284251606162
 40
0.4819478806723896
 40
0.5616230474168582
 40
0.6420828259534143
 40
0.7421349193357409
 40
0.8633952375022104
 40
1.0
 40
1.0
 40
1.0
 40
1.0
 10
1111.036746895062
 20
2060.584123035131
 30
0.0
 10
1111.03424610379
 20
2059.930878823885
 30
0.0
 10
1111.098150754451
 20
2058.552136640766
 30
0.0000000000000003
 10
1111.452638025507
 20
2055.430422106658
 30
0.0000000000000001
 10
1112.233996424368
 20
2051.06206471911
 30
0.0000000000000006
 10
1113.36751442907
 20
2045.809650801465
 30
0.0000000000000007
 10
1114.555081178564
 20
2040.546006465706
 30
-0.0000000000000015
 10
1115.716313727883
 20
2035.357446486855
 30
0.0000000000000002
 10
1116.842169688268
 20
2030.097042183707
 30
-0.0000000000000005
 10
1117.941068792445
 20
2024.597396713646
 30
0.0000000000000001
 10
1118.998771528957
 20
2018.715064686648
 30
-0.0000000000000006
 10
1120.052844999327
 20
2011.930009331833
 30
0.0000000000000001
 10
1121.04140897334
 20
2003.977191016024
 30
0.0
 10
1121.831017999656
 20
1994.404637379342
 30
0.0
 10
1122.030419587352
 20
1987.445294988932
 30
0.0
 10
1122.036677825732
 20
1983.736038812248
 30
0.0
  0
SPLINE
  5
10B
330
1F
100
AcDbEntity
  8
1
  6
Continuous
 62
   155
420
  5010073
370
    18
100
AcDbSpline
210
0.0
220
0.0
230
1.0
 70
    12
 71
     4
 72
    10
 73
     5
 74
     0
 42
0.0000000001
 43
0.0000000001
 40
0.0
 40
0.0
 40
0.0
 40
0.0
 40
0.0
 40
1.0
 40
1.0
 40
1.0
 40
1.0
 40
1.0
 10
1122.036670210309
 20
1983.736027602141
 30
-0.0000000000000001
 41
1.004861095676214
 10
1122.036049819314
 20
1983.735534637213
 30
0.0
 41
1.008858728641332
 10
1122.001972623636
 20
1983.735019919295
 30
0.0
 41
1.013201466024661
 10
1121.938099567251
 20
1983.734502187274
 30
0.0
 41
1.016611713785803
 10
1121.853625037335
 20
1983.734003765608
 30
0.0
 41
1.016611713785803
  0
SPLINE
  5
10C
330
1F
100
AcDbEntity
  8
1
  6
Continuous
 62
   155
420
  5010073
370
    35
100
AcDbSpline
210
0.0
220
0.0
230
1.0
 70
     8
 71
     2
 72
     6
 73
     3
 74
     0
 42
0.0000000001
 43
0.0000000001
 40
0.0
 40
0.0
 40
0.0
 40
1.0
 40
1.0
 40
1.0
 10
1111.037075091764
 20
2064.570136342138
 30
0.0000000000000001
 10
1111.037417029697
 20
2062.57618454017
 30
-0.0000000000000001
 10
1111.036746895062
 20
2060.584123035131
 30
0.0
  0
SPLINE
  5
10D
330
1F
100
AcDbEntity
  8
1
  6
Continuous
 62
   155
420
  5010073
370
    35
100
AcDbSpline
210
0.0
220
0.0
230
1.0
 70
     8
 71
     3
 72
    19
 73
    15
 74
     0
 42
0.0000000001
 43
0.0000000001
 40
0.0
 40
0.0
 40
0.0
 40
0.0
 40
0.1257301394601614
 40
0.2334213720919993
 40
0.3229647451917566
 40
0.3931579522800704
 40
0.4488285982302136
 40
0.5066482998682017
 40
0.5782062159414165
 40
0.6632706230371158
 40
0.7358563940567616
 40
0.8160245308829329
 40
0.9037529020902763
 40
1.0
 40
1.0
 40
1.0
 40
1.0
 10
1128.91524728138
 20
2239.991790953595
 30
0.0
 10
1128.838303369821
 20
2236.378754074287
 30
0.0
 10
1128.303094599602
 20
2229.732007843277
 30
0.0
 10
1126.350753566488
 20
2220.688076199112
 30
0.0
 10
1124.338275816923
 20
2213.314924772976
 30
0.0
 10
1122.535621992427
 20
2207.429800102954
 30
0.0
 10
1120.938430078952
 20
2202.438145068649
 30
0.0
 10
1119.31049627439
 20
2197.429599906673
 30
0.0000000000000001
 10
1117.446775439224
 20
2191.64812120212
 30
0.0
 10
1115.563580620365
 20
2185.498781857676
 30
0.0000000000000002
 10
1113.831108456478
 20
2179.171527544388
 30
-0.0000000000000001
 10
1112.39267422392
 20
2172.864669266086
 30
0.0000000000000002
 10
1111.303824744759
 20
2166.109743178574
 30
0.0000000000000003
 10
1111.045915616782
 20
2161.675842628576
 30
0.0000000000000017
 10
1111.036859202736
 20
2159.418072844336
 30
-0.0000000000000017
  0
SPLINE
  5
10E
330
1F
100
AcDbEntity
  8
1
  6
Continuous
 62
   155
420
  5010073
370
    35
100
AcDbSpline
210
0.0
220
0.0
230
1.0
 70
     8
 71
     3
 72
     8
 73
     4
 74
     0
 42
0.0000000001
 43
0.0000000001
 40
0.0
 40
0.0
 40
0.0
 40
0.0
 40
1.0
 40
1.0
 40
1.0
 40
1.0
 10
1039.752104929996
 20
2284.168657925334
 30
-0.000000000000003
 10
1039.763505443621
 20
2284.169476518692
 30
-0.0000000000000032
 10
1039.777945131509
 20
2284.170361533765
 30
-0.0000000000000033
 10
1039.795477436214
 20
2284.171276501358
 30
-0.0000000000000035
  0
SPLINE
  5
10F
330
1F
100
AcDbEntity
  8
1
  6
Continuous
 62
   155
420
  5010073
370
    35
100
AcDbSpline
210
0.0
220
0.0
230
1.0
 70
    24
 71
     2
 72
     6
 73
     3
 74
     0
 42
0.0000000001
 43
0.0000000001
 40
0.0
 40
0.0
 40
0.0
 40
1.0
 40
1.0
 40
1.0
 10
1171.806474092276
 20
2284.470457245491
 30
0.0000000000000017
 10
1171.822171711275
 20
2284.470453441687
 30
0.0000000000000015
 10
1171.837869330274
 20
2284.470449637882
 30
0.0000000000000013
  0
SPLINE
  5
110
330
1F
100
AcDbEntity
  8
1
  6
Continuous
 62
   155
420
  5010073
370
    35
100
AcDbSpline
210
0.0
220
0.0
230
1.0
 70
    24
 71
     2
 72
     6
 73
     3
 74
     0
 42
0.0000000001
 43
0.0000000001
 40
0.0
 40
0.0
 40
0.0
 40
1.0
 40
1.0
 40
1.0
 10
1040.294828026329
 20
2284.470449637724
 30
-0.000000000000002
 10
1040.310525646719
 20
2284.470453441594
 30
-0.0000000000000021
 10
1040.326223267108
 20
2284.470457245464
 30
-0.0000000000000023
  0
SPLINE
  5
111
330
1F
100
AcDbEntity
  8
1
  6
Continuous
 62
   155
420
  5010073
370
    18
100
AcDbSpline
210
0.0
220
0.0
230
1.0
 70
    12
 71
     4
 72
    10
 73
     5
 74
     0
 42
0.0000000001
 43
0.0000000001
 40
0.0
 40
0.0
 40
0.0
 40
0.0
 40
0.0
 40
1.0
 40
1.0
 40
1.0
 40
1.0
 40
1.0
 10
1128.915247278574
 20
2239.991792355604
 30
0.0
 41
1.003916279487174
 10
1128.91519427228
 20
2239.992174572307
 30
0.0
 41
1.008072662634884
 10
1128.877220796853
 20
2239.992820558648
 30
0.0
 41
1.012782757493704
 10
1128.80548689399
 20
2239.993687242437
 30
0.0
 41
1.016611713785804
 10
1128.711160952891
 20
2239.994683035566
 30
0.0
 41
1.016611713785804
  0
SPLINE
  5
112
330
1F
100
AcDbEntity
  8
1
  6
Continuous
 62
   155
420
  5010073
370
    35
100
AcDbSpline
210
0.0
220
0.0
230
1.0
 70
     8
 71
     3
 72
     9
 73
     5
 74
     0
 42
0.0000000001
 43
0.0000000001
 40
0.0
 40
0.0
 40
0.0
 40
0.0
 40
0.7575693927629679
 40
1.0
 40
1.0
 40
1.0
 40
1.0
 10
1123.415254070435
 20
2240.03147114356
 30
0.0
 10
1123.415222676358
 20
2242.667765997841
 30
0.0
 10
1123.415175309284
 20
2246.147704428127
 30
0.0
 10
1123.41512847418
 20
2249.627642869106
 30
0.0
 10
1123.415116667155
 20
2250.471286457419
 30
0.0
  0
SPLINE
  5
113
330
1F
100
AcDbEntity
  8
1
  6
Continuous
 62
   155
420
  5010073
370
    35
100
AcDbSpline
210
0.0
220
0.0
230
1.0
 70
     8
 71
     3
 72
     9
 73
     5
 74
     0
 42
0.0000000001
 43
0.0000000001
 40
0.0
 40
0.0
 40
0.0
 40
0.0
 40
0.2418892251902087
 40
1.0
 40
1.0
 40
1.0
 40
1.0
 10
1128.915124412549
 20
2250.471553056847
 30
0.0
 10
1128.915134894069
 20
2249.626572543464
 30
0.0
 10
1128.915174939384
 20
2246.133318499615
 30
0.0
 10
1128.915220603706
 20
2242.640064475374
 30
0.0
 10
1128.91524728138
 20
2239.991790953595
 30
0.0
  0
SPLINE
  5
114
330
1F
100
AcDbEntity
  8
1
  6
Continuous
 62
   155
420
  5010073
370
    35
100
AcDbSpline
210
0.0
220
0.0
230
1.0
 70
    24
 71
     2
 72
     6
 73
     3
 74
     0
 42
0.0000000001
 43
0.0000000001
 40
0.0
 40
0.0
 40
0.0
 40
1.0
 40
1.0
 40
1.0
 10
1116.53689808572
 20
1978.761663719334
 30
0.0
 10
1116.536792293082
 20
1981.246031757182
 30
0.0
 10
1116.536686500443
 20
1983.73039979503
 30
0.0
  0
SPLINE
  5
115
330
1F
100
AcDbEntity
  8
1
  6
Continuous
 62
   155
420
  5010073
370
    35
100
AcDbSpline
210
0.0
220
0.0
230
1.0
 70
    24
 71
     2
 72
     6
 73
     3
 74
     0
 42
0.0000000001
 43
0.0000000001
 40
0.0
 40
0.0
 40
0.0
 40
1.0
 40
1.0
 40
1.0
 10
1122.036677825732
 20
1983.736038812248
 30
0.0
 10
1122.036786711001
 20
1981.248843150701
 30
0.0
 10
1122.036895596269
 20
1978.761647489154
 30
0.0
  0
SPLINE
  5
116
330
1F
100
AcDbEntity
  8
1
  6
Continuous
 62
   155
420
  5010073
370
    35
100
AcDbSpline
210
0.0
220
0.0
230
1.0
 70
     8
 71
     3
 72
    22
 73
    18
 74
     0
 42
0.0000000001
 43
0.0000000001
 40
0.0
 40
0.0
 40
0.0
 40
0.0
 40
0.0715121971720066
 40
0.1330727076876586
 40
0.1849396538021787
 40
0.2446342374218085
 40
0.2934760498947515
 40
0.3945003044224519
 40
0.4963210221338162
 40
0.5976963261323295
 40
0.6958760237519026
 40
0.7259152408769809
 40
0.757116233632412
 40
0.7997278358759121
 40
0.8544924031595306
 40
0.921218280919702
 40
1.0
 40
1.0
 40
1.0
 40
1.0
 10
1111.036900818874
 20
2153.72122167565
 30
-0.0000000000000013
 10
1111.036999863983
 20
2151.752569292187
 30
-0.0000000000000012
 10
1111.037127169866
 20
2147.968510330852
 30
-0.000000000000001
 10
1111.036853397213
 20
2142.358865669353
 30
-0.0000000000000006
 10
1111.037002603924
 20
2136.925018928581
 30
-0.0000000000000003
 10
1111.037040397859
 20
2131.748147111711
 30
0.0
 10
1111.03702910204
 20
2124.868435912673
 30
0.0000000000000005
 10
1111.036941353305
 20
2116.464342811607
 30
0.000000000000001
 10
1111.036919138968
 20
2106.30292017421
 30
-0.000000000000002
 10
1111.036965477017
 20
2096.464218345977
 30
-0.0000000000000014
 10
1111.037007563617
 20
2089.326585063586
 30
-0.0000000000000009
 10
1111.037015033616
 20
2084.625369267383
 30
-0.0000000000000006
 10
1111.037010826094
 20
2081.64763744844
 30
-0.0000000000000005
 10
1111.036993224885
 20
2078.101585509805
 30
-0.0000000000000002
 10
1111.036933604406
 20
2073.845305376139
 30
0.0
 10
1111.036869564293
 20
2069.103235435278
 30
-0.0000000000000015
 10
1111.036981752139
 20
2066.083376729681
 30
0.0000000000000005
 10
1111.037075091764
 20
2064.570136342138
 30
0.0000000000000001
  0
SPLINE
  5
117
330
1F
100
AcDbEntity
  8
1
  6
Continuous
 62
   155
420
  5010073
370
    35
100
AcDbSpline
210
0.0
220
0.0
230
1.0
 70
     8
 71
     2
 72
     6
 73
     3
 74
     0
 42
0.0000000001
 43
0.0000000001
 40
0.0
 40
0.0
 40
0.0
 40
1.0
 40
1.0
 40
1.0
 10
1111.036859202736
 20
2159.418072844337
 30
-0.0000000000000017
 10
1111.03911750543
 20
2156.56979542568
 30
-0.0000000000000015
 10
1111.036900818874
 20
2153.721221675652
 30
-0.0000000000000013
  0
SPLINE
  5
118
330
1F
100
AcDbEntity
  8
1
  6
Continuous
 62
   155
420
  5010073
370
    35
100
AcDbSpline
210
0.0
220
0.0
230
1.0
 70
     8
 71
     3
 72
     8
 73
     4
 74
     0
 42
0.0000000001
 43
0.0000000001
 40
0.0
 40
0.0
 40
0.0
 40
0.0
 40
1.0
 40
1.0
 40
1.0
 40
1.0
 10
1171.015695112348
 20
2284.168657925334
 30
-0.0000000000000037
 10
1171.02783506138
 20
2284.169476518682
 30
-0.0000000000000039
 10
1171.038192327945
 20
2284.170361533743
 30
-0.000000000000004
 10
1171.045653143584
 20
2284.171276501367
 30
-0.0000000000000041
  0
ARC
  5
119
330
1F
100
AcDbEntity
  8
1
  6
Continuous
 62
   155
420
  5010073
370
    35
100
AcDbCircle
 10
-1030.568977999525
 20
2284.171274
 30
0.0
 40
0.2999999997902844
210
0.0
220
0.0
230
-1.0
100
AcDbArc
 50
359.5000000000322
 51
0.0
  0
ARC
  5
11A
330
1F
100
AcDbEntity
  8
1
  6
Continuous
 62
   155
420
  5010073
370
    35
100
AcDbCircle
 10
-1030.568977999525
 20
2284.171274
 30
0.0
 40
0.2999999999999829
210
0.0
220
0.0
230
-1.0
100
AcDbArc
 50
0.0
 51
90.0
  0
ARC
  5
11B
330
1F
100
AcDbEntity
  8
1
  6
Continuous
 62
   155
420
  5010073
370
    35
100
AcDbCircle
 10
-1181.563718999525
 20
2284.171274
 30
0.0
 40
0.2999999999999947
210
0.0
220
0.0
230
-1.0
100
AcDbArc
 50
90.00144799998262
 51
180.2499999999569
  0
ARC
  5
11C
330
1F
100
AcDbEntity
  8
1
  6
Continuous
 62
   155
420
  5010073
370
    35
100
AcDbCircle
 10
-1057.586816999525
 20
931.263844
 30
0.0
 40
0.2
210
0.0
220
0.0
230
-1.0
100
AcDbArc
 50
212.0053830000137
 51
270.0
  0
ARC
  5
11D
330
1F
100
AcDbEntity
  8
1
  6
Continuous
 62
   155
420
  5010073
370
    35
100
AcDbCircle
 10
-1154.742185999525
 20
931.263844
 30
0.0
 40
0.2
210
0.0
220
0.0
230
-1.0
100
AcDbArc
 50
270.0
 51
327.9946169999863
  0
ARC
  5
11E
330
1F
100
AcDbEntity
  8
1
  6
Continuous
 62
   155
420
  5010073
370
    35
100
AcDbCircle
 10
-1154.742724999525
 20
1975.461625
 30
0.0
 40
0.2
210
0.0
220
0.0
230
-1.0
100
AcDbArc
 50
32.00538300001372
 51
90.0
  0
ARC
  5
11F
330
1F
100
AcDbEntity
  8
1
  6
Continuous
 62
   155
420
  5010073
370
    35
100
AcDbCircle
 10
-1057.587354999525
 20
1975.461625
 30
0.0
 40
0.2
210
0.0
220
0.0
230
-1.0
100
AcDbArc
 50
90.0
 51
147.9946169999863
  0
LINE
  5
120
330
1F
100
AcDbEntity
  8
1
  6
Continuous
 62
   155
420
  5010073
370
    35
100
AcDbLine
 10
1040.323686999525
 20
2284.471274
 30
0.0
 11
1040.014535999525
 21
2284.471274
 31
0.0
  0
LINE
  5
121
330
1F
100
AcDbEntity
  8
1
  6
Continuous
 62
   155
420
  5010073
370
    35
100
AcDbLine
 10
1172.118160999525
 20
2284.471274
 30
0.0
 11
1171.809009999525
 21
2284.471274
 31
0.0
  0
LINE
  5
122
330
1F
100
AcDbEntity
  8
1
  6
Continuous
 62
   155
420
  5010073
370
    18
100
AcDbLine
 10
1030.268977999525
 20
2284.171274
 30
0.0
 11
1039.752072999525
 21
2284.171274
 31
0.0
  0
LINE
  5
123
330
1F
100
AcDbEntity
  8
1
  6
Continuous
 62
   155
420
  5010073
370
    35
100
AcDbLine
 10
1040.014535999525
 20
2284.471274
 30
0.0
 11
1030.568977999525
 21
2284.471274
 31
0.0
  0
LINE
  5
124
330
1F
100
AcDbEntity
  8
1
  6
Continuous
 62
   155
420
  5010073
370
    18
100
AcDbLine
 10
1181.863718999525
 20
2284.171274
 30
0.0
 11
1172.380627999525
 21
2284.171274
 31
0.0
  0
LINE
  5
125
330
1F
100
AcDbEntity
  8
1
  6
Continuous
 62
   155
420
  5010073
370
    35
100
AcDbLine
 10
1172.118160999525
 20
2284.471274
 30
0.0
 11
1181.563726999525
 21
2284.471274
 31
0.0
  0
LINE
  5
126
330
1F
100
AcDbEntity
  8
1
  6
Continuous
 62
   155
420
  5010073
370
    35
100
AcDbLine
 10
1057.171483999525
 20
930.263844
 30
0.0
 11
1057.185447999525
 21
931.063844
 31
0.0
  0
LINE
  5
127
330
1F
100
AcDbEntity
  8
1
  6
Continuous
 62
   155
420
  5010073
370
    35
100
AcDbLine
 10
1155.143554999525
 20
931.063844
 30
0.0
 11
1155.157518999525
 21
930.263844
 31
0.0
  0
LINE
  5
128
330
1F
100
AcDbEntity
  8
1
  6
Continuous
 62
   155
420
  5010073
370
    35
100
AcDbLine
 10
1149.002546999525
 20
931.063844
 30
0.0
 11
1155.143554999525
 21
931.063844
 31
0.0
  0
LINE
  5
129
330
1F
100
AcDbEntity
  8
1
  6
Continuous
 62
   155
420
  5010073
370
    35
100
AcDbLine
 10
1057.185447999525
 20
931.063844
 30
0.0
 11
1149.002546999525
 21
931.063844
 31
0.0
  0
LINE
  5
12A
330
1F
100
AcDbEntity
  8
1
  6
Continuous
 62
   155
420
  5010073
370
    18
100
AcDbLine
 10
1057.756415999525
 20
931.157844
 30
0.0
 11
1154.572586999525
 21
931.157844
 31
0.0
  0
LINE
  5
12B
330
1F
100
AcDbEntity
  8
1
  6
Continuous
 62
   155
420
  5010073
370
    35
100
AcDbLine
 10
1057.756415999525
 20
931.157844
 30
0.0
 11
1057.821969999525
 21
931.26273
 31
0.0
  0
LINE
  5
12C
330
1F
100
AcDbEntity
  8
1
  6
Continuous
 62
   155
420
  5010073
370
    35
100
AcDbLine
 10
1154.507032999525
 20
931.26273
 30
0.0
 11
1154.572586999525
 21
931.157844
 31
0.0
  0
LINE
  5
12D
330
1F
100
AcDbEntity
  8
1
  6
Continuous
 62
   155
420
  5010073
370
    35
100
AcDbLine
 10
1056.165039999525
 20
931.262725
 30
0.0
 11
1056.165039999525
 21
1975.262725
 31
0.0
  0
LINE
  5
12E
330
1F
100
AcDbEntity
  8
1
  6
Continuous
 62
   155
420
  5010073
370
    35
100
AcDbLine
 10
1156.165039999525
 20
1975.262725
 30
0.0
 11
1156.165039999525
 21
931.262725
 31
0.0
  0
LINE
  5
12F
330
1F
100
AcDbEntity
  8
1
  6
Continuous
 62
   155
420
  5010073
370
    35
100
AcDbLine
 10
1106.165039999525
 20
1975.262725
 30
0.0
 11
1056.165039999525
 21
1975.262725
 31
0.0
  0
LINE
  5
130
330
1F
100
AcDbEntity
  8
1
  6
Continuous
 62
   155
420
  5010073
370
    35
100
AcDbLine
 10
1156.165039999525
 20
1975.262725
 30
0.0
 11
1106.165039999525
 21
1975.262725
 31
0.0
  0
LINE
  5
131
330
1F
100
AcDbEntity
  8
1
  6
Continuous
 62
   155
420
  5010073
370
    35
100
AcDbLine
 10
1106.165039999525
 20
931.262725
 30
0.0
 11
1156.165039999525
 21
931.262725
 31
0.0
  0
LINE
  5
132
330
1F
100
AcDbEntity
  8
1
  6
Continuous
 62
   155
420
  5010073
370
    35
100
AcDbLine
 10
1056.165039999525
 20
931.262725
 30
0.0
 11
1106.165039999525
 21
931.262725
 31
0.0
  0
LINE
  5
133
330
1F
100
AcDbEntity
  8
1
  6
Continuous
 62
   155
420
  5010073
370
    35
100
AcDbLine
 10
1049.593259999525
 20
2286.168656
 30
0.0
 11
1162.539436999526
 21
2286.168656
 31
0.0
  0
LINE
  5
134
330
1F
100
AcDbEntity
  8
1
  6
Continuous
 62
   155
420
  5010073
370
    35
100
AcDbLine
 10
1162.992228999525
 20
2286.168656
 30
0.0
 11
1162.539436999526
 21
2286.168656
 31
0.0
  0
LINE
  5
135
330
1F
100
AcDbEntity
  8
1
  6
Continuous
 62
   155
420
  5010073
370
    35
100
AcDbLine
 10
1049.140467999525
 20
2286.168656
 30
0.0
 11
1049.593259999525
 21
2286.168656
 31
0.0
  0
LINE
  5
136
330
1F
100
AcDbEntity
  8
1
  6
Continuous
 62
   155
420
  5010073
370
    35
100
AcDbLine
 10
1047.073735999525
 20
2286.168656
 30
0.0
 11
1049.140485999525
 21
2286.168656
 31
0.0
  0
LINE
  5
137
330
1F
100
AcDbEntity
  8
1
  6
Continuous
 62
   155
420
  5010073
370
    35
100
AcDbLine
 10
1174.363380999525
 20
2286.168656
 30
0.0
 11
1171.492228999525
 21
2286.168656
 31
0.0
  0
LINE
  5
138
330
1F
100
AcDbEntity
  8
1
  6
Continuous
 62
   155
420
  5010073
370
    35
100
AcDbLine
 10
1040.640467999525
 20
2286.168656
 30
0.0
 11
1037.769315999525
 21
2286.168656
 31
0.0
  0
LINE
  5
139
330
1F
100
AcDbEntity
  8
1
  6
Continuous
 62
   155
420
  5010073
370
    35
100
AcDbLine
 10
1165.059008999525
 20
2286.168656
 30
0.0
 11
1171.492228999525
 21
2286.168656
 31
0.0
  0
LINE
  5
13A
330
1F
100
AcDbEntity
  8
1
  6
Continuous
 62
   155
420
  5010073
370
    35
100
AcDbLine
 10
1040.640467999525
 20
2286.168656
 30
0.0
 11
1047.073688999525
 21
2286.168656
 31
0.0
  0
LINE
  5
13B
330
1F
100
AcDbEntity
  8
1
  6
Continuous
 62
   155
420
  5010073
370
    18
100
AcDbLine
 10
1177.545514999525
 20
2286.168656
 30
0.0
 11
1177.545514999525
 21
2284.471281
 31
0.0
  0
LINE
  5
13C
330
1F
100
AcDbEntity
  8
1
  6
Continuous
 62
   155
420
  5010073
370
    35
100
AcDbLine
 10
1174.363380999525
 20
2286.168656
 30
0.0
 11
1177.545514999525
 21
2286.168656
 31
0.0
  0
LINE
  5
13D
330
1F
100
AcDbEntity
  8
1
  6
Continuous
 62
   155
420
  5010073
370
    18
100
AcDbLine
 10
1034.587181999525
 20
2284.471281
 30
0.0
 11
1034.587181999525
 21
2286.168656
 31
0.0
  0
LINE
  5
13E
330
1F
100
AcDbEntity
  8
1
  6
Continuous
 62
   155
420
  5010073
370
    35
100
AcDbLine
 10
1034.587181999525
 20
2286.168656
 30
0.0
 11
1037.769315999525
 21
2286.168656
 31
0.0
  0
LINE
  5
13F
330
1F
100
AcDbEntity
  8
1
  6
Continuous
 62
   155
420
  5010073
370
    35
100
AcDbLine
 10
1177.566348999525
 20
2284.471281
 30
0.0
 11
1177.566348999525
 21
2286.168656
 31
0.0
  0
LINE
  5
140
330
1F
100
AcDbEntity
  8
1
  6
Continuous
 62
   155
420
  5010073
370
    35
100
AcDbLine
 10
1034.566348999525
 20
2286.168656
 30
0.0
 11
1034.566348999525
 21
2284.471281
 31
0.0
  0
LINE
  5
141
330
1F
100
AcDbEntity
  8
1
  6
Continuous
 62
   155
420
  5010073
370
    35
100
AcDbLine
 10
1041.282442999525
 20
2284.471274
 30
0.0
 11
1040.323686999525
 21
2284.471274
 31
0.0
  0
LINE
  5
142
330
1F
100
AcDbEntity
  8
1
  6
Continuous
 62
   155
420
  5010073
370
    35
100
AcDbLine
 10
1171.809009999525
 20
2284.471274
 30
0.0
 11
1170.758627999525
 21
2284.471274
 31
0.0
  0
LINE
  5
143
330
1F
100
AcDbEntity
  8
1
  6
Continuous
 62
   155
420
  5010073
370
    35
100
AcDbLine
 10
1056.164500999525
 20
927.963844
 30
0.0
 11
1056.164500999525
 21
930.263844
 31
0.0
  0
LINE
  5
144
330
1F
100
AcDbEntity
  8
1
  6
Continuous
 62
   155
420
  5010073
370
    35
100
AcDbLine
 10
1156.164500999525
 20
930.263844
 30
0.0
 11
1156.164500999525
 21
927.963844
 31
0.0
  0
LINE
  5
145
330
1F
100
AcDbEntity
  8
1
  6
Continuous
 62
   155
420
  5010073
370
    35
100
AcDbLine
 10
1156.042703999525
 20
927.963844
 30
0.0
 11
1156.164500999525
 21
927.963844
 31
0.0
  0
LINE
  5
146
330
1F
100
AcDbEntity
  8
1
  6
Continuous
 62
   155
420
  5010073
370
    35
100
AcDbLine
 10
1056.164500999525
 20
927.963844
 30
0.0
 11
1156.042703999525
 21
927.963844
 31
0.0
  0
LINE
  5
147
330
1F
100
AcDbEntity
  8
1
  6
Continuous
 62
   155
420
  5010073
370
    35
100
AcDbLine
 10
1156.164500999525
 20
930.263844
 30
0.0
 11
1056.164500999525
 21
930.263844
 31
0.0
  0
LINE
  5
148
330
1F
100
AcDbEntity
  8
1
  6
Continuous
 62
   155
420
  5010073
370
    35
100
AcDbLine
 10
1106.915039999525
 20
2049.820094
 30
0.0
 11
1106.915039999525
 21
1978.762281
 31
0.0
  0
LINE
  5
149
330
1F
100
AcDbEntity
  8
1
  6
Continuous
 62
   155
420
  5010073
370
    35
100
AcDbLine
 10
1105.415039999525
 20
1978.762281
 30
0.0
 11
1105.415039999525
 21
2058.177906
 31
0.0
  0
LINE
  5
14A
330
1F
100
AcDbEntity
  8
1
  6
Continuous
 62
   155
420
  5010073
370
    35
100
AcDbLine
 10
1049.593259999525
 20
2288.168656
 30
0.0
 11
1162.539436999526
 21
2288.168656
 31
0.0
  0
LINE
  5
14B
330
1F
100
AcDbEntity
  8
1
  6
Continuous
 62
   155
420
  5010073
370
    35
100
AcDbLine
 10
1049.593259999525
 20
2286.168656
 30
0.0
 11
1162.539436999526
 21
2286.168656
 31
0.0
  0
LINE
  5
14C
330
1F
100
AcDbEntity
  8
1
  6
Continuous
 62
   155
420
  5010073
370
    35
100
AcDbLine
 10
1162.992228999525
 20
2286.168656
 30
0.0
 11
1162.539436999526
 21
2286.168656
 31
0.0
  0
LINE
  5
14D
330
1F
100
AcDbEntity
  8
1
  6
Continuous
 62
   155
420
  5010073
370
    35
100
AcDbLine
 10
1049.140467999525
 20
2288.168656
 30
0.0
 11
1049.593259999525
 21
2288.168656
 31
0.0
  0
LINE
  5
14E
330
1F
100
AcDbEntity
  8
1
  6
Continuous
 62
   155
420
  5010073
370
    35
100
AcDbLine
 10
1049.593259999525
 20
2286.168656
 30
0.0
 11
1049.140467999525
 21
2286.168656
 31
0.0
  0
LINE
  5
14F
330
1F
100
AcDbEntity
  8
1
  6
Continuous
 62
   155
420
  5010073
370
    35
100
AcDbLine
 10
1048.555785999525
 20
2288.168656
 30
0.0
 11
1049.140559999525
 21
2288.168656
 31
0.0
  0
LINE
  5
150
330
1F
100
AcDbEntity
  8
1
  6
Continuous
 62
   155
420
  5010073
370
    35
100
AcDbLine
 10
1171.492228999525
 20
2286.168656
 30
0.0
 11
1174.363380999525
 21
2286.168656
 31
0.0
  0
LINE
  5
151
330
1F
100
AcDbEntity
  8
1
  6
Continuous
 62
   155
420
  5010073
370
    35
100
AcDbLine
 10
1040.640467999525
 20
2288.168656
 30
0.0
 11
1037.769315999525
 21
2288.168656
 31
0.0
  0
LINE
  5
152
330
1F
100
AcDbEntity
  8
1
  6
Continuous
 62
   155
420
  5010073
370
    35
100
AcDbLine
 10
1037.769315999525
 20
2286.168656
 30
0.0
 11
1040.640467999525
 21
2286.168656
 31
0.0
  0
LINE
  5
153
330
1F
100
AcDbEntity
  8
1
  6
Continuous
 62
   155
420
  5010073
370
    35
100
AcDbLine
 10
1040.640467999525
 20
2288.168656
 30
0.0
 11
1047.189760999525
 21
2288.168656
 31
0.0
  0
LINE
  5
154
330
1F
100
AcDbEntity
  8
1
  6
Continuous
 62
   155
420
  5010073
370
    35
100
AcDbLine
 10
1040.640467999525
 20
2286.168656
 30
0.0
 11
1047.073715999525
 21
2286.168656
 31
0.0
  0
LINE
  5
155
330
1F
100
AcDbEntity
  8
1
  6
Continuous
 62
   155
420
  5010073
370
    35
100
AcDbLine
 10
1177.566348999525
 20
2286.168656
 30
0.0
 11
1177.566348999525
 21
2288.168656
 31
0.0
  0
LINE
  5
156
330
1F
100
AcDbEntity
  8
1
  6
Continuous
 62
   155
420
  5010073
370
    35
100
AcDbLine
 10
1174.363380999525
 20
2288.168656
 30
0.0
 11
1177.566348999525
 21
2288.168656
 31
0.0
  0
LINE
  5
157
330
1F
100
AcDbEntity
  8
1
  6
Continuous
 62
   155
420
  5010073
370
    35
100
AcDbLine
 10
1174.363380999525
 20
2286.168656
 30
0.0
 11
1177.566348999525
 21
2286.168656
 31
0.0
  0
LINE
  5
158
330
1F
100
AcDbEntity
  8
1
  6
Continuous
 62
   155
420
  5010073
370
    35
100
AcDbLine
 10
1034.566348999525
 20
2286.168656
 30
0.0
 11
1034.566348999525
 21
2288.168656
 31
0.0
  0
LINE
  5
159
330
1F
100
AcDbEntity
  8
1
  6
Continuous
 62
   155
420
  5010073
370
    35
100
AcDbLine
 10
1034.566348999525
 20
2288.168656
 30
0.0
 11
1037.769315999525
 21
2288.168656
 31
0.0
  0
LINE
  5
15A
330
1F
100
AcDbEntity
  8
1
  6
Continuous
 62
   155
420
  5010073
370
    35
100
AcDbLine
 10
1034.566348999525
 20
2286.168656
 30
0.0
 11
1037.769315999525
 21
2286.168656
 31
0.0
  0
LINE
  5
15B
330
1F
100
AcDbEntity
  8
1
  6
Continuous
 62
   155
420
  5010073
370
    35
100
AcDbLine
 10
1048.555785999525
 20
2288.168656
 30
0.0
 11
1047.189760999525
 21
2288.168656
 31
0.0
  0
LINE
  5
15C
330
1F
100
AcDbEntity
  8
1
  6
Continuous
 62
   155
420
  5010073
370
    35
100
AcDbLine
 10
1155.158056999525
 20
1976.46161
 30
0.0
 11
1155.144093999525
 21
1975.661625
 31
0.0
  0
LINE
  5
15D
330
1F
100
AcDbEntity
  8
1
  6
Continuous
 62
   155
420
  5010073
370
    35
100
AcDbLine
 10
1057.185985999525
 20
1975.661625
 30
0.0
 11
1057.172021999525
 21
1976.461625
 31
0.0
  0
LINE
  5
15E
330
1F
100
AcDbEntity
  8
1
  6
Continuous
 62
   155
420
  5010073
370
    35
100
AcDbLine
 10
1057.185985999525
 20
1975.661625
 30
0.0
 11
1155.144093999525
 21
1975.661625
 31
0.0
  0
LINE
  5
15F
330
1F
100
AcDbEntity
  8
1
  6
Continuous
 62
   155
420
  5010073
370
    18
100
AcDbLine
 10
1154.573124999525
 20
1975.567625
 30
0.0
 11
1057.756953999525
 21
1975.567625
 31
0.0
  0
LINE
  5
160
330
1F
100
AcDbEntity
  8
1
  6
Continuous
 62
   155
420
  5010073
370
    35
100
AcDbLine
 10
1154.573124999525
 20
1975.567625
 30
0.0
 11
1154.382562999525
 21
1975.262727
 31
0.0
  0
LINE
  5
161
330
1F
100
AcDbEntity
  8
1
  6
Continuous
 62
   155
420
  5010073
370
    35
100
AcDbLine
 10
1057.947515999525
 20
1975.262727
 30
0.0
 11
1057.756953999525
 21
1975.567625
 31
0.0
  0
LINE
  5
162
330
1F
100
AcDbEntity
  8
1
  6
Continuous
 62
   155
420
  5010073
370
    35
100
AcDbLine
 10
1156.136982999525
 20
1978.761625
 30
0.0
 11
1156.136982999525
 21
1976.461625
 31
0.0
  0
LINE
  5
163
330
1F
100
AcDbEntity
  8
1
  6
Continuous
 62
   155
420
  5010073
370
    35
100
AcDbLine
 10
1056.136982999525
 20
1976.461625
 30
0.0
 11
1056.136982999525
 21
1978.761625
 31
0.0
  0
LINE
  5
164
330
1F
100
AcDbEntity
  8
1
  6
Continuous
 62
   155
420
  5010073
370
    35
100
AcDbLine
 10
1056.136982999525
 20
1976.461625
 30
0.0
 11
1156.136982999525
 21
1976.461625
 31
0.0
  0
LINE
  5
165
330
1F
100
AcDbEntity
  8
1
  6
Continuous
 62
   155
420
  5010073
370
    35
100
AcDbLine
 10
1106.136982999525
 20
1978.761625
 30
0.0
 11
1056.136982999525
 21
1978.761625
 31
0.0
  0
LINE
  5
166
330
1F
100
AcDbEntity
  8
1
  6
Continuous
 62
   155
420
  5010073
370
    35
100
AcDbLine
 10
1156.136982999525
 20
1978.761625
 30
0.0
 11
1106.136982999525
 21
1978.761625
 31
0.0
  0
LINE
  5
167
330
1F
100
AcDbEntity
  8
1
  6
Continuous
 62
   155
420
  5010073
370
    18
100
AcDbLine
 10
1041.117029999525
 20
2284.168656
 30
0.0
 11
1171.015671999525
 21
2284.168656
 31
0.0
  0
LINE
  5
168
330
1F
100
AcDbEntity
  8
1
  6
Continuous
 62
   155
420
  5010073
370
    18
100
AcDbLine
 10
1171.015680999525
 20
2284.171274
 30
0.0
 11
1041.117019999525
 21
2284.171274
 31
0.0
  0
LINE
  5
169
330
1F
100
AcDbEntity
  8
1
  6
Continuous
 62
   155
420
  5010073
370
    35
100
AcDbLine
 10
1181.863707999525
 20
2284.168656
 30
0.0
 11
1181.569634999525
 21
2250.471274
 31
0.0
  0
LINE
  5
16A
330
1F
100
AcDbEntity
  8
1
  6
Continuous
 62
   155
420
  5010073
370
    35
100
AcDbLine
 10
1030.563061999525
 20
2250.471274
 30
0.0
 11
1030.268989999525
 21
2284.168656
 31
0.0
  0
LINE
  5
16B
330
1F
100
AcDbEntity
  8
1
  6
Continuous
 62
   155
420
  5010073
370
    35
100
AcDbLine
 10
1030.563061999525
 20
2250.471274
 30
0.0
 11
1181.569634999525
 21
2250.471274
 31
0.0
  0
LINE
  5
16C
330
1F
100
AcDbEntity
  8
1
  6
Continuous
 62
   155
420
  5010073
370
    18
100
AcDbLine
 10
1181.863707999525
 20
2284.168656
 30
0.0
 11
1172.380617999526
 21
2284.168656
 31
0.0
  0
LINE
  5
16D
330
1F
100
AcDbEntity
  8
1
  6
Continuous
 62
   155
420
  5010073
370
    18
100
AcDbLine
 10
1039.752082999525
 20
2284.168656
 30
0.0
 11
1030.268989999525
 21
2284.168656
 31
0.0
  0
LINE
  5
16E
330
1F
100
AcDbEntity
  8
1
  6
Continuous
 62
   155
420
  5010073
370
    35
100
AcDbLine
 10
835.735961
 20
2504.985013285467
 30
0.0
 11
835.742011
 21
2505.011191285467
 31
0.0
  0
LINE
  5
16F
330
1F
100
AcDbEntity
  8
1
  6
Continuous
 62
   155
420
  5010073
370
    35
100
AcDbLine
 10
723.246515
 20
2569.960496285467
 30
0.0
 11
723.226869
 21
2569.942167285467
 31
0.0
  0
LINE
  5
170
330
1F
100
AcDbEntity
  8
1
  6
Continuous
 62
   155
420
  5010073
370
    35
100
AcDbLine
 10
720.907968
 20
2568.603349285467
 30
0.0
 11
720.882272
 21
2568.595500285467
 31
0.0
  0
LINE
  5
171
330
1F
100
AcDbEntity
  8
1
  6
Continuous
 62
   155
420
  5010073
370
    35
100
AcDbLine
 10
720.882272
 20
2438.696889285467
 30
0.0
 11
720.907968
 21
2438.689040285467
 31
0.0
  0
LINE
  5
172
330
1F
100
AcDbEntity
  8
1
  6
Continuous
 62
   155
420
  5010073
370
    35
100
AcDbLine
 10
723.226869
 20
2437.350221285467
 30
0.0
 11
723.246515
 21
2437.331893285467
 31
0.0
  0
LINE
  5
173
330
1F
100
AcDbEntity
  8
1
  6
Continuous
 62
   155
420
  5010073
370
    35
100
AcDbLine
 10
835.742011
 20
2502.281198285467
 30
0.0
 11
835.735961
 21
2502.307376285467
 31
0.0
  0
LINE
  5
174
330
1F
100
AcDbEntity
  8
1
  6
Continuous
 62
   155
420
  5010073
370
    35
100
AcDbLine
 10
709.950811
 20
2503.747503285467
 30
0.0
 11
709.951212
 21
2503.747503285467
 31
0.0
  0
LINE
  5
175
330
1F
100
AcDbEntity
  8
1
  6
Continuous
 62
   155
420
  5010073
370
    35
100
AcDbLine
 10
709.950811
 20
2503.547503285467
 30
0.0
 11
709.950811
 21
2503.747503285467
 31
0.0
  0
CIRCLE
  5
176
330
1F
100
AcDbEntity
  8
1
  6
Continuous
 62
   155
420
  5010073
370
    35
100
AcDbCircle
 10
-759.966224
 20
2503.548042285467
 30
0.0
 40
50.0
210
0.0
220
0.0
230
-1.0
  0
ARC
  5
177
330
1F
100
AcDbEntity
  8
1
  6
Continuous
 62
   155
420
  5010073
370
    35
100
AcDbCircle
 10
759.956933
 20
2503.646194285467
 30
0.0
 40
75.797370516147
100
AcDbArc
 50
121.031832
 51
238.9681740000001
  0
ARC
  5
178
330
1F
100
AcDbEntity
  8
1
  6
Continuous
 62
   155
420
  5010073
370
    35
100
AcDbCircle
 10
721.036965
 20
2568.338459285467
 30
0.0
 40
0.2999999999999947
100
AcDbArc
 50
106.9867049999978
 51
121.031832000003
  0
ARC
  5
179
330
1F
100
AcDbEntity
  8
1
  6
Continuous
 62
   155
420
  5010073
370
    35
100
AcDbCircle
 10
759.956933
 20
2503.646194285467
 30
0.0
 40
75.797370516147
100
AcDbArc
 50
241.0318320000001
 51
269.9999999999999
  0
ARC
  5
17A
330
1F
100
AcDbEntity
  8
1
  6
Continuous
 62
   155
420
  5010073
370
    35
100
AcDbCircle
 10
759.956933
 20
2503.646194285467
 30
0.0
 40
75.797370516147
100
AcDbArc
 50
1.031832000000115
 51
118.9681740000001
  0
ARC
  5
17B
330
1F
100
AcDbEntity
  8
1
  6
Continuous
 62
   155
420
  5010073
370
    35
100
AcDbCircle
 10
759.956933
 20
2503.646194285467
 30
0.0
 40
75.797370516147
100
AcDbArc
 50
270.0
 51
358.9681679999999
  0
ARC
  5
17C
330
1F
100
AcDbEntity
  8
1
  6
Continuous
 62
   155
420
  5010073
370
    18
100
AcDbCircle
 10
759.956933
 20
2503.646194285467
 30
0.0
 40
75.79735909306932
100
AcDbArc
 50
1.031831999999873
 51
118.9681739999999
  0
ARC
  5
17D
330
1F
100
AcDbEntity
  8
1
  6
Continuous
 62
   155
420
  5010073
370
    18
100
AcDbCircle
 10
759.956933
 20
2503.646194285467
 30
0.0
 40
75.79735909306932
100
AcDbArc
 50
121.0318319999999
 51
238.9681740000001
  0
ARC
  5
17E
330
1F
100
AcDbEntity
  8
1
  6
Continuous
 62
   155
420
  5010073
370
    18
100
AcDbCircle
 10
759.956933
 20
2503.646194285467
 30
0.0
 40
75.79735909306932
100
AcDbArc
 50
241.031832
 51
270.0000000000001
  0
ARC
  5
17F
330
1F
100
AcDbEntity
  8
1
  6
Continuous
 62
   155
420
  5010073
370
    18
100
AcDbCircle
 10
759.956933
 20
2503.646194285467
 30
0.0
 40
75.79735909306932
100
AcDbArc
 50
270.0
 51
358.9681680000002
  0
CIRCLE
  5
180
330
1F
100
AcDbEntity
  8
1
  6
Continuous
 62
   155
420
  5010073
370
    35
100
AcDbCircle
 10
759.956933
 20
2503.646194285467
 30
0.0
 40
75.50328649545324
  0
ARC
  5
181
330
1F
100
AcDbEntity
  8
1
  6
Continuous
 62
   155
420
  5010073
370
    35
100
AcDbCircle
 10
759.957547
 20
2503.575560285467
 30
0.0
 40
50.0
100
AcDbArc
 50
17.4881249999998
 51
166.5168750000001
  0
ARC
  5
182
330
1F
100
AcDbEntity
  8
1
  6
Continuous
 62
   155
420
  5010073
370
    35
100
AcDbCircle
 10
759.957547
 20
2503.575560285467
 30
0.0
 40
50.0
100
AcDbArc
 50
170.53875
 51
179.803125
  0
ARC
  5
183
330
1F
100
AcDbEntity
  8
1
  6
Continuous
 62
   155
420
  5010073
370
    35
100
AcDbCircle
 10
-759.950811
 20
2503.547503285467
 30
0.0
 40
50.0
210
0.0
220
0.0
230
-1.0
100
AcDbArc
 50
0.0
 51
88.01437499999999
  0
ARC
  5
184
330
1F
100
AcDbEntity
  8
1
  6
Continuous
 62
   155
420
  5010073
370
    35
100
AcDbCircle
 10
-759.950811
 20
2503.547503285467
 30
0.0
 40
50.0
210
0.0
220
0.0
230
-1.0
100
AcDbArc
 50
101.300625
 51
114.8175
  0
ARC
  5
185
330
1F
100
AcDbEntity
  8
1
  6
Continuous
 62
   155
420
  5010073
370
    35
100
AcDbCircle
 10
-759.950811
 20
2503.547503285467
 30
0.0
 40
50.0
210
0.0
220
0.0
230
-1.0
100
AcDbArc
 50
168.8906249999999
 51
182.4074999999999
  0
ARC
  5
186
330
1F
100
AcDbEntity
  8
1
  6
Continuous
 62
   155
420
  5010073
370
    35
100
AcDbCircle
 10
-759.950811
 20
2503.547503285467
 30
0.0
 40
50.0
210
0.0
220
0.0
230
-1.0
100
AcDbArc
 50
267.9862499999999
 51
0.0
  0
SPLINE
  5
187
330
1F
100
AcDbEntity
  8
1
  6
Continuous
 62
   155
420
  5010073
370
    35
100
AcDbSpline
210
0.0
220
0.0
230
1.0
 70
    12
 71
     2
 72
     6
 73
     3
 74
     0
 42
0.0000000001
 43
0.0000000001
 40
3.141884481380416
 40
3.141884481380416
 40
3.141884481380416
 40
3.402886224352666
 40
3.402886224352666
 40
3.402886224352666
 10
835.7282573751537
 20
2504.911915081346
 30
0.0
 41
0.9998911908568147
 10
835.7366261591662
 20
2504.947987534152
 30
0.0
 41
0.9512424674937713
 10
835.7359607692928
 20
2504.985013473857
 30
0.0
 41
0.9187665872416105
  0
SPLINE
  5
188
330
1F
100
AcDbEntity
  8
1
  6
Continuous
 62
   155
420
  5010073
370
    35
100
AcDbSpline
210
0.0
220
0.0
230
1.0
 70
    12
 71
     2
 72
     6
 73
     3
 74
     0
 42
0.0000000001
 43
0.0000000001
 40
3.14188458168754
 40
3.14188458168754
 40
3.14188458168754
 40
3.402886236944546
 40
3.402886236944546
 40
3.402886236944546
 10
723.1674159990816
 20
2437.393442012195
 30
0.0
 41
0.9998911534638597
 10
723.1944712611967
 20
2437.368158216787
 30
0.0
 41
0.9512424526657439
 10
723.2268693503563
 20
2437.350221497616
 30
0.0
 41
0.9187665841080499
  0
SPLINE
  5
189
330
1F
100
AcDbEntity
  8
1
  6
Continuous
 62
   155
420
  5010073
370
    35
100
AcDbSpline
210
0.0
220
0.0
230
1.0
 70
    12
 71
     2
 72
     6
 73
     3
 74
     0
 42
0.0000000001
 43
0.0000000001
 40
3.141881832936442
 40
3.141881832936442
 40
3.141881832936442
 40
3.402886236919767
 40
3.402886236919767
 40
3.402886236919767
 10
720.9751253294822
 20
2568.633226952668
 30
0.0
 41
0.9998921781577736
 10
720.939700902248
 20
2568.622438284066
 30
0.0
 41
0.9512427946914861
 10
720.9079678804236
 20
2568.603348881233
 30
0.0
 41
0.9187665841142163
  0
SPLINE
  5
18A
330
1F
100
AcDbEntity
  8
1
  6
Continuous
 62
   155
420
  5010073
370
    35
100
AcDbSpline
210
0.0
220
0.0
230
1.0
 70
    12
 71
     2
 72
     6
 73
     3
 74
     0
 42
0.0000000001
 43
0.0000000001
 40
2.880299070260027
 40
2.880299070260027
 40
2.880299070260027
 40
3.141528551899908
 40
3.141528551899908
 40
3.141528551899908
 10
835.7359607692266
 20
2502.307376093386
 30
0.0
 41
0.918766584114268
 10
835.7366267203109
 20
2502.344433236532
 30
0.0
 41
0.9512708006150485
 10
835.7282434764657
 20
2502.380534370003
 30
0.0
 41
0.9999760959663759
  0
SPLINE
  5
18B
330
1F
100
AcDbEntity
  8
1
  6
Continuous
 62
   155
420
  5010073
370
    35
100
AcDbSpline
210
0.0
220
0.0
230
1.0
 70
    12
 71
     2
 72
     6
 73
     3
 74
     0
 42
0.0000000001
 43
0.0000000001
 40
2.880299070261314
 40
2.880299070261314
 40
2.880299070261314
 40
3.14152856035112
 40
3.14152856035112
 40
3.14152856035112
 10
723.2268693503427
 20
2569.942168073311
 30
0.0
 41
0.9187665841145882
 10
723.194443946431
 20
2569.924216231733
 30
0.0
 41
0.9512708016668544
 10
723.167371069011
 20
2569.898905561864
 30
0.0
 41
0.9999760991177722
  0
SPLINE
  5
18C
330
1F
100
AcDbEntity
  8
1
  6
Continuous
 62
   155
420
  5010073
370
    35
100
AcDbSpline
210
0.0
220
0.0
230
1.0
 70
    12
 71
     2
 72
     6
 73
     3
 74
     0
 42
0.0000000001
 43
0.0000000001
 40
2.880299070260997
 40
2.880299070260997
 40
2.880299070260997
 40
3.141528569165857
 40
3.141528569165857
 40
3.141528569165857
 10
720.9079678804239
 20
2438.689039689702
 30
0.0
 41
0.9187665841145095
 10
720.9397273342661
 20
2438.669934386352
 30
0.0
 41
0.9512708027635938
 10
720.9751834573094
 20
2438.659143921616
 30
0.0
 41
0.9999761024047239
  0
SPLINE
  5
18D
330
1F
100
AcDbEntity
  8
1
  6
Continuous
 62
   155
420
  5010073
370
    35
100
AcDbSpline
210
0.0
220
0.0
230
1.0
 70
     8
 71
     3
 72
     8
 73
     4
 74
     0
 42
0.0000000001
 43
0.0000000001
 40
0.0
 40
0.0
 40
0.0
 40
0.0
 40
1.0
 40
1.0
 40
1.0
 40
1.0
 10
723.2464746877793
 20
2437.331915283409
 30
0.0
 10
723.2250282116539
 20
2437.343787688115
 30
0.0
 10
723.2050454288755
 20
2437.358301091451
 30
0.0
 10
723.1871213644303
 20
2437.375023329503
 30
0.0
  0
SPLINE
  5
18E
330
1F
100
AcDbEntity
  8
1
  6
Continuous
 62
   155
420
  5010073
370
    35
100
AcDbSpline
210
0.0
220
0.0
230
1.0
 70
     8
 71
     3
 72
     8
 73
     4
 74
     0
 42
0.0000000001
 43
0.0000000001
 40
0.0
 40
0.0
 40
0.0
 40
0.0
 40
1.0
 40
1.0
 40
1.0
 40
1.0
 10
723.1871213644707
 20
2437.375023329546
 30
0.0
 10
723.2057713609141
 20
2437.357623851475
 30
0.0
 10
723.2259556550651
 20
2437.343283301577
 30
0.0
 10
723.2464404458988
 20
2437.331947283959
 30
0.0
  0
SPLINE
  5
18F
330
1F
100
AcDbEntity
  8
1
  6
Continuous
 62
   155
420
  5010073
370
    35
100
AcDbSpline
210
0.0
220
0.0
230
1.0
 70
     8
 71
     3
 72
     8
 73
     4
 74
     0
 42
0.0000000001
 43
0.0000000001
 40
0.0
 40
0.0
 40
0.0
 40
0.0
 40
1.0
 40
1.0
 40
1.0
 40
1.0
 10
720.9493203329114
 20
2568.625371037384
 30
0.0
 10
720.9249269434641
 20
2568.617919405316
 30
0.0
 10
720.9024155158794
 20
2568.607609568733
 30
0.0
 10
720.8823558412478
 20
2568.595537228245
 30
0.0
  0
SPLINE
  5
190
330
1F
100
AcDbEntity
  8
1
  6
Continuous
 62
   155
420
  5010073
370
    35
100
AcDbSpline
210
0.0
220
0.0
230
1.0
 70
     8
 71
     3
 72
     8
 73
     4
 74
     0
 42
0.0000000001
 43
0.0000000001
 40
0.0
 40
0.0
 40
0.0
 40
0.0
 40
1.0
 40
1.0
 40
1.0
 40
1.0
 10
835.7368473509769
 20
2503.680879905965
 30
0.0
 10
835.7368579410505
 20
2503.657742813419
 30
0.0
 10
835.736857934812
 20
2503.634605716023
 30
0.0
 10
835.7368473322613
 20
2503.611468623482
 30
0.0
  0
SPLINE
  5
191
330
1F
100
AcDbEntity
  8
1
  6
Continuous
 62
   155
420
  5010073
370
    35
100
AcDbSpline
210
0.0
220
0.0
230
1.0
 70
     8
 71
     3
 72
     8
 73
     4
 74
     0
 42
0.0000000001
 43
0.0000000001
 40
0.0
 40
0.0
 40
0.0
 40
0.0
 40
1.0
 40
1.0
 40
1.0
 40
1.0
 10
722.097002059447
 20
2438.001500970276
 30
0.0
 10
722.0769679558246
 20
2438.013075062363
 30
0.0
 10
722.0569338525474
 20
2438.024649155049
 30
0.0
 10
722.0368997496158
 20
2438.036223248332
 30
0.0
  0
SPLINE
  5
192
330
1F
100
AcDbEntity
  8
1
  6
Continuous
 62
   155
420
  5010073
370
    35
100
AcDbSpline
210
0.0
220
0.0
230
1.0
 70
     8
 71
     3
 72
     8
 73
     4
 74
     0
 42
0.0000000001
 43
0.0000000001
 40
0.0
 40
0.0
 40
0.0
 40
0.0
 40
1.0
 40
1.0
 40
1.0
 40
1.0
 10
722.0367876914412
 20
2569.256097030247
 30
0.0
 10
722.0568694529604
 20
2569.267703560367
 30
0.0
 10
722.076956543239
 20
2569.279300870602
 30
0.0
 10
722.0970489538086
 20
2569.290888956062
 30
0.0
  0
SPLINE
  5
193
330
1F
100
AcDbEntity
  8
1
  6
Continuous
 62
   155
420
  5010073
370
    35
100
AcDbSpline
210
0.0
220
0.0
230
1.0
 70
     8
 71
     3
 72
     8
 73
     4
 74
     0
 42
0.0000000001
 43
0.0000000001
 40
0.0
 40
0.0
 40
0.0
 40
0.0
 40
1.0
 40
1.0
 40
1.0
 40
1.0
 10
835.7368359089133
 20
2503.611468628749
 30
0.0
 10
835.7368412133089
 20
2503.623043984215
 30
0.0
 10
835.7368438655069
 20
2503.634619340896
 30
0.0
 10
835.7368438655069
 20
2503.646194697578
 30
0.0
  0
SPLINE
  5
194
330
1F
100
AcDbEntity
  8
1
  6
Continuous
 62
   155
420
  5010073
370
    35
100
AcDbSpline
210
0.0
220
0.0
230
1.0
 70
     8
 71
     3
 72
     8
 73
     4
 74
     0
 42
0.0000000001
 43
0.0000000001
 40
0.0
 40
0.0
 40
0.0
 40
0.0
 40
1.0
 40
1.0
 40
1.0
 40
1.0
 10
835.7368438655069
 20
2503.646194697516
 30
0.0
 10
835.7368438655069
 20
2503.657756432317
 30
0.0
 10
835.7368412195475
 20
2503.669318167118
 30
0.0
 10
835.7368359276289
 20
2503.680879900709
 30
0.0
  0
SPLINE
  5
195
330
1F
100
AcDbEntity
  8
1
  6
Continuous
 62
   155
420
  5010073
370
    35
100
AcDbSpline
210
0.0
220
0.0
230
1.0
 70
     8
 71
     3
 72
    13
 73
     9
 74
     0
 42
0.0000000001
 43
0.0000000001
 40
0.0
 40
0.0
 40
0.0
 40
0.0
 40
0.1262959044297042
 40
0.2503308770503113
 40
0.3743366906057765
 40
0.5005466055399548
 40
0.7506221589530437
 40
1.0
 40
1.0
 40
1.0
 40
1.0
 10
835.7368358150327
 20
2503.681126672076
 30
0.0
 10
835.7367885744808
 20
2503.739270832631
 30
0.0
 10
835.7366949390708
 20
2503.854518265023
 30
0.0
 10
835.7363175040792
 20
2504.023903822174
 30
0.0
 10
835.7358161043396
 20
2504.187277623757
 30
0.0
 10
835.735037797469
 20
2504.392835030013
 30
0.0
 10
835.7338959968874
 20
2504.628468535954
 30
0.0
 10
835.7336706738963
 20
2504.756071134936
 30
0.0
 10
835.7335581697834
 20
2504.81978330708
 30
0.0
  0
SPLINE
  5
196
330
1F
100
AcDbEntity
  8
1
  6
Continuous
 62
   155
420
  5010073
370
    35
100
AcDbSpline
210
0.0
220
0.0
230
1.0
 70
     8
 71
     3
 72
     8
 73
     4
 74
     0
 42
0.0000000001
 43
0.0000000001
 40
0.0
 40
0.0
 40
0.0
 40
0.0
 40
1.0
 40
1.0
 40
1.0
 40
1.0
 10
835.7335581697735
 20
2504.81978330708
 30
0.0
 10
835.733564085499
 20
2504.921980059308
 30
0.0
 10
835.734262346033
 20
2504.977057951764
 30
0.0
 10
835.7359611928588
 20
2504.985013189403
 30
0.0
  0
SPLINE
  5
197
330
1F
100
AcDbEntity
  8
1
  6
Continuous
 62
   155
420
  5010073
370
    35
100
AcDbSpline
210
0.0
220
0.0
230
1.0
 70
     8
 71
     3
 72
     8
 73
     4
 74
     0
 42
0.0000000001
 43
0.0000000001
 40
0.0
 40
0.0
 40
0.0
 40
0.0
 40
1.0
 40
1.0
 40
1.0
 40
1.0
 10
723.2268691862041
 20
2569.942167745726
 30
0.0
 10
723.2208291717278
 20
2569.936718882399
 30
0.0
 10
723.1734794479407
 20
2569.90857522481
 30
0.0
 10
723.0849774221898
 20
2569.857471725527
 30
0.0
  0
SPLINE
  5
198
330
1F
100
AcDbEntity
  8
1
  6
Continuous
 62
   155
420
  5010073
370
    35
100
AcDbSpline
210
0.0
220
0.0
230
1.0
 70
     8
 71
     3
 72
    13
 73
     9
 74
     0
 42
0.0000000001
 43
0.0000000001
 40
0.0
 40
0.0
 40
0.0
 40
0.0
 40
0.1259717269793295
 40
0.2498835624174287
 40
0.3740020238911859
 40
0.5005825244711855
 40
0.7501727550532421
 40
1.0
 40
1.0
 40
1.0
 40
1.0
 10
723.084977422185
 20
2569.857471725536
 30
0.0
 10
723.0587828550357
 20
2569.842379258241
 30
0.0
 10
723.0068220546863
 20
2569.812441115898
 30
0.0
 10
722.9083549053255
 20
2569.75605790673
 30
0.0
 10
722.7961760130765
 20
2569.691930877716
 30
0.0
 10
722.6298530374557
 20
2569.596861348764
 30
0.0
 10
722.397044745747
 20
2569.463608664463
 30
0.0
 10
722.1972490734012
 20
2569.348569596825
 30
0.0
 10
722.0973038275492
 20
2569.291022765292
 30
0.0
  0
SPLINE
  5
199
330
1F
100
AcDbEntity
  8
1
  6
Continuous
 62
   155
420
  5010073
370
    35
100
AcDbSpline
210
0.0
220
0.0
230
1.0
 70
     8
 71
     3
 72
     8
 73
     4
 74
     0
 42
0.0000000001
 43
0.0000000001
 40
0.0
 40
0.0
 40
0.0
 40
0.0
 40
1.0
 40
1.0
 40
1.0
 40
1.0
 10
722.0969387192365
 20
2569.290837027553
 30
0.0
 10
722.0769271595145
 20
2569.279271160823
 30
0.0
 10
722.0569107238721
 20
2569.267714689647
 30
0.0
 10
722.0368894129103
 20
2569.256167612869
 30
0.0
  0
SPLINE
  5
19A
330
1F
100
AcDbEntity
  8
1
  6
Continuous
 62
   155
420
  5010073
370
    35
100
AcDbSpline
210
0.0
220
0.0
230
1.0
 70
     8
 71
     3
 72
    13
 73
     9
 74
     0
 42
0.0000000001
 43
0.0000000001
 40
0.0
 40
0.0
 40
0.0
 40
0.0
 40
0.1263035652172566
 40
0.2503451617414519
 40
0.3743571241993625
 40
0.5005733004117161
 40
0.7506354876494538
 40
1.0
 40
1.0
 40
1.0
 40
1.0
 10
722.0367930696339
 20
2569.256086945225
 30
0.0
 10
721.9864565089439
 20
2569.226970594451
 30
0.0
 10
721.8866848642894
 20
2569.169259337202
 30
0.0
 10
721.7401643582043
 20
2569.084229857116
 30
0.0
 10
721.5989133382569
 20
2569.002099534703
 30
0.0
 10
721.4212747418442
 20
2568.89864108865
 30
0.0
 10
721.217776878083
 20
2568.779833078168
 30
0.0
 10
721.107382436326
 20
2568.715836636749
 30
0.0
 10
721.0522623232891
 20
2568.683883116002
 30
0.0
  0
SPLINE
  5
19B
330
1F
100
AcDbEntity
  8
1
  6
Continuous
 62
   155
420
  5010073
370
    35
100
AcDbSpline
210
0.0
220
0.0
230
1.0
 70
     8
 71
     3
 72
     8
 73
     4
 74
     0
 42
0.0000000001
 43
0.0000000001
 40
0.0
 40
0.0
 40
0.0
 40
0.0
 40
1.0
 40
1.0
 40
1.0
 40
1.0
 10
721.0522623232943
 20
2568.683883115994
 30
0.0
 10
720.9637543818178
 20
2568.632789863049
 30
0.0
 10
720.9157063974967
 20
2568.605855628181
 30
0.0
 10
720.907967536194
 20
2568.603349253871
 30
0.0
  0
SPLINE
  5
19C
330
1F
100
AcDbEntity
  8
1
  6
Continuous
 62
   155
420
  5010073
370
    35
100
AcDbSpline
210
0.0
220
0.0
230
1.0
 70
     8
 71
     3
 72
     8
 73
     4
 74
     0
 42
0.0000000001
 43
0.0000000001
 40
0.0
 40
0.0
 40
0.0
 40
0.0
 40
1.0
 40
1.0
 40
1.0
 40
1.0
 10
720.907967536195
 20
2438.689040141225
 30
0.0
 10
720.9157063974947
 20
2438.686533766914
 30
0.0
 10
720.9637543818156
 20
2438.659599532047
 30
0.0
 10
721.0522623232938
 20
2438.608506279101
 30
0.0
  0
SPLINE
  5
19D
330
1F
100
AcDbEntity
  8
1
  6
Continuous
 62
   155
420
  5010073
370
    35
100
AcDbSpline
210
0.0
220
0.0
230
1.0
 70
     8
 71
     3
 72
    13
 73
     9
 74
     0
 42
0.0000000001
 43
0.0000000001
 40
0.0
 40
0.0
 40
0.0
 40
0.0
 40
0.1259717269762176
 40
0.2498835624131514
 40
0.3740020238875972
 40
0.5005825244699801
 40
0.7501727550491638
 40
1.0
 40
1.0
 40
1.0
 40
1.0
 10
721.0522623232888
 20
2438.608506279092
 30
0.0
 10
721.0784300669463
 20
2438.593367352147
 30
0.0
 10
721.130337658931
 20
2438.563337050215
 30
0.0
 10
721.2284005250972
 20
2438.506253602015
 30
0.0
 10
721.340025607418
 20
2438.441167346066
 30
0.0
 10
721.5055197224253
 20
2438.344662188422
 30
0.0
 10
721.737324078008
 20
2438.20967063574
 30
0.0
 10
721.9368486691839
 20
2438.09416204174
 30
0.0
 10
722.036658310127
 20
2438.036380335611
 30
0.0
  0
SPLINE
  5
19E
330
1F
100
AcDbEntity
  8
1
  6
Continuous
 62
   155
420
  5010073
370
    35
100
AcDbSpline
210
0.0
220
0.0
230
1.0
 70
     8
 71
     3
 72
     8
 73
     4
 74
     0
 42
0.0000000001
 43
0.0000000001
 40
0.0
 40
0.0
 40
0.0
 40
0.0
 40
1.0
 40
1.0
 40
1.0
 40
1.0
 10
722.037001717882
 20
2438.036157011407
 30
0.0
 10
722.056974226413
 20
2438.024638035374
 30
0.0
 10
722.0769416010904
 20
2438.013109873459
 30
0.0
 10
722.0969038417182
 20
2438.001572525314
 30
0.0
  0
SPLINE
  5
19F
330
1F
100
AcDbEntity
  8
1
  6
Continuous
 62
   155
420
  5010073
370
    35
100
AcDbSpline
210
0.0
220
0.0
230
1.0
 70
     8
 71
     3
 72
    13
 73
     9
 74
     0
 42
0.0000000001
 43
0.0000000001
 40
0.0
 40
0.0
 40
0.0
 40
0.0
 40
0.1262959045716528
 40
0.2503308773561994
 40
0.3743366911111354
 40
0.5005466062921841
 40
0.7506221592311773
 40
1.0
 40
1.0
 40
1.0
 40
1.0
 10
722.0972330256353
 20
2438.001407464062
 30
0.0
 10
722.1476109661694
 20
2437.972376295223
 30
0.0
 10
722.2474649883254
 20
2437.914833669509
 30
0.0
 10
722.394345901801
 20
2437.830467758962
 30
0.0
 10
722.5360824646317
 20
2437.749215082808
 30
0.0
 10
722.714489554133
 20
2437.647110413024
 30
0.0
 10
722.9191250567226
 20
2437.530282488265
 30
0.0
 10
723.029744810508
 20
2437.466676324219
 30
0.0
 10
723.0849774221848
 20
2437.434917669558
 30
0.0
  0
SPLINE
  5
1A0
330
1F
100
AcDbEntity
  8
1
  6
Continuous
 62
   155
420
  5010073
370
    35
100
AcDbSpline
210
0.0
220
0.0
230
1.0
 70
     8
 71
     3
 72
     8
 73
     4
 74
     0
 42
0.0000000001
 43
0.0000000001
 40
0.0
 40
0.0
 40
0.0
 40
0.0
 40
1.0
 40
1.0
 40
1.0
 40
1.0
 10
723.0849774221896
 20
2437.434917669567
 30
0.0
 10
723.1734794479423
 20
2437.383814170283
 30
0.0
 10
723.2208291717294
 20
2437.355670512695
 30
0.0
 10
723.226869186204
 20
2437.350221649368
 30
0.0
  0
SPLINE
  5
1A1
330
1F
100
AcDbEntity
  8
1
  6
Continuous
 62
   155
420
  5010073
370
    35
100
AcDbSpline
210
0.0
220
0.0
230
1.0
 70
     8
 71
     3
 72
     8
 73
     4
 74
     0
 42
0.0000000001
 43
0.0000000001
 40
0.0
 40
0.0
 40
0.0
 40
0.0
 40
1.0
 40
1.0
 40
1.0
 40
1.0
 10
835.7359611928582
 20
2502.30737620569
 30
0.0
 10
835.734262346033
 20
2502.315331443333
 30
0.0
 10
835.733564085499
 20
2502.370409335789
 30
0.0
 10
835.7335581697735
 20
2502.472606088014
 30
0.0
  0
SPLINE
  5
1A2
330
1F
100
AcDbEntity
  8
1
  6
Continuous
 62
   155
420
  5010073
370
    35
100
AcDbSpline
210
0.0
220
0.0
230
1.0
 70
     8
 71
     3
 72
    13
 73
     9
 74
     0
 42
0.0000000001
 43
0.0000000001
 40
0.0
 40
0.0
 40
0.0
 40
0.0
 40
0.125971726983796
 40
0.2498835624232923
 40
0.3740020238954745
 40
0.5005825244712774
 40
0.7501727550593016
 40
1.0
 40
1.0
 40
1.0
 40
1.0
 10
835.7335581697834
 20
2502.472606088013
 30
0.0
 10
835.7335849932745
 20
2502.502837482254
 30
0.0
 10
835.7336382016385
 20
2502.56280592653
 30
0.0
 10
835.7340424848327
 20
2502.6762725839
 30
0.0
 10
835.7345962947614
 20
2502.805485868862
 30
0.0
 10
835.7354251553738
 20
2502.997060555462
 30
0.0
 10
835.7364290915015
 20
2503.265304792442
 30
0.0
 10
835.7367001726725
 20
2503.495852454079
 30
0.0
 10
835.7368357775831
 20
2503.611180991738
 30
0.0
  0
ARC
  5
1A3
330
1F
100
AcDbEntity
  8
1
  6
Continuous
 62
   155
420
  5010073
370
    35
100
AcDbCircle
 10
759.9555670000009
 20
714.7111011669851
 30
0.0
 40
75.79737051614794
100
AcDbArc
 50
181.0318320000011
 51
269.9999999999993
  0
ARC
  5
1A4
330
1F
100
AcDbEntity
  8
1
  6
Continuous
 62
   155
420
  5010073
370
    35
100
AcDbCircle
 10
759.9555669999917
 20
714.7111011670165
 30
0.0
 40
75.79737051617947
100
AcDbArc
 50
270.0000000000063
 51
298.9681679999936
  0
POLYLINE
  5
1A5
330
1F
100
AcDbEntity
  8
1
  6
Continuous
 62
   155
420
  5010073
370
    35
100
AcDb2dPolyline
 66
     1
 10
0.0
 20
0.0
 30
0.0
  0
VERTEX
  5
1A6
330
1A5
100
AcDbEntity
  8
1
  6
Continuous
 62
   155
420
  5010073
370
    35
100
AcDbVertex
100
AcDb2dVertex
 10
796.6660246460428
 20
648.3968215842262
 30
0.0
  0
VERTEX
  5
1A7
330
1A5
100
AcDbEntity
  8
1
  6
Continuous
 62
   155
420
  5010073
370
    35
100
AcDbVertex
100
AcDb2dVertex
 10
799.0301821278324
 20
649.7617683776946
 30
0.0
  0
SEQEND
  5
1A8
330
1A5
100
AcDbEntity
  8
1
  6
Continuous
 62
   155
420
  5010073
370
    35
  0
ARC
  5
1A9
330
1F
100
AcDbEntity
  8
1
  6
Continuous
 62
   155
420
  5010073
370
    35
100
AcDbCircle
 10
759.955567
 20
714.7111011669838
 30
0.0
 40
75.797370516147
100
AcDbArc
 50
301.0318259999999
 51
58.96816799999998
  0
POLYLINE
  5
1AA
330
1F
100
AcDbEntity
  8
1
  6
Continuous
 62
   155
420
  5010073
370
    35
100
AcDb2dPolyline
 66
     1
 10
0.0
 20
0.0
 30
0.0
  0
VERTEX
  5
1AB
330
1AA
100
AcDbEntity
  8
1
  6
Continuous
 62
   155
420
  5010073
370
    35
100
AcDbVertex
100
AcDb2dVertex
 10
799.0301889293105
 20
779.6604298643881
 30
0.0
  0
VERTEX
  5
1AC
330
1AA
100
AcDbEntity
  8
1
  6
Continuous
 62
   155
420
  5010073
370
    35
100
AcDbVertex
100
AcDb2dVertex
 10
796.6660315904578
 20
781.0253769054309
 30
0.0
  0
SEQEND
  5
1AD
330
1AA
100
AcDbEntity
  8
1
  6
Continuous
 62
   155
420
  5010073
370
    35
  0
ARC
  5
1AE
330
1F
100
AcDbEntity
  8
1
  6
Continuous
 62
   155
420
  5010073
370
    35
100
AcDbCircle
 10
759.955567
 20
714.7111011669838
 30
0.0
 40
75.797370516147
100
AcDbArc
 50
61.03182599999997
 51
178.9681679999999
  0
POLYLINE
  5
1AF
330
1F
100
AcDbEntity
  8
1
  6
Continuous
 62
   155
420
  5010073
370
    35
100
AcDb2dPolyline
 66
     1
 10
0.0
 20
0.0
 30
0.0
  0
VERTEX
  5
1B0
330
1AF
100
AcDbEntity
  8
1
  6
Continuous
 62
   155
420
  5010073
370
    35
100
AcDbVertex
100
AcDb2dVertex
 10
684.1704874246467
 20
716.076052052337
 30
0.0
  0
VERTEX
  5
1B1
330
1AF
100
AcDbEntity
  8
1
  6
Continuous
 62
   155
420
  5010073
370
    35
100
AcDbVertex
100
AcDb2dVertex
 10
684.1704874246466
 20
713.3461502816306
 30
0.0
  0
SEQEND
  5
1B2
330
1AF
100
AcDbEntity
  8
1
  6
Continuous
 62
   155
420
  5010073
370
    35
  0
POLYLINE
  5
1B3
330
1F
100
AcDbEntity
  8
1
  6
Continuous
 62
   155
420
  5010073
370
    18
100
AcDb2dPolyline
 66
     1
 10
0.0
 20
0.0
 30
0.0
  0
VERTEX
  5
1B4
330
1B3
100
AcDbEntity
  8
1
  6
Continuous
 62
   155
420
  5010073
370
    18
100
AcDbVertex
100
AcDb2dVertex
 10
684.470536272491
 20
716.076052052337
 30
0.0
  0
VERTEX
  5
1B5
330
1B3
100
AcDbEntity
  8
1
  6
Continuous
 62
   155
420
  5010073
370
    18
100
AcDbVertex
100
AcDb2dVertex
 10
684.470439159116
 20
713.3515432791507
 30
0.0
  0
SEQEND
  5
1B6
330
1B3
100
AcDbEntity
  8
1
  6
Continuous
 62
   155
420
  5010073
370
    18
  0
ARC
  5
1B7
330
1F
100
AcDbEntity
  8
1
  6
Continuous
 62
   155
420
  5010073
370
    18
100
AcDbCircle
 10
759.9555783153745
 20
714.7111051726749
 30
0.0
 40
75.49738168957934
100
AcDbArc
 50
181.0318420000082
 51
269.9999959262688
  0
ARC
  5
1B8
330
1F
100
AcDbEntity
  8
1
  6
Continuous
 62
   155
420
  5010073
370
    18
100
AcDbCircle
 10
759.9555321990193
 20
714.7111790010665
 30
0.0
 40
75.49745551798205
100
AcDbArc
 50
270.0000309244392
 51
298.9681629999968
  0
POLYLINE
  5
1B9
330
1F
100
AcDbEntity
  8
1
  6
Continuous
 62
   155
420
  5010073
370
    18
100
AcDb2dPolyline
 66
     1
 10
0.0
 20
0.0
 30
0.0
  0
VERTEX
  5
1BA
330
1B9
100
AcDbEntity
  8
1
  6
Continuous
 62
   155
420
  5010073
370
    18
100
AcDbVertex
100
AcDb2dVertex
 10
796.5207281602889
 20
648.6592885360417
 30
0.0
  0
VERTEX
  5
1BB
330
1B9
100
AcDbEntity
  8
1
  6
Continuous
 62
   155
420
  5010073
370
    18
100
AcDbVertex
100
AcDb2dVertex
 10
798.8755346649345
 20
650.0188367777012
 30
0.0
  0
SEQEND
  5
1BC
330
1B9
100
AcDbEntity
  8
1
  6
Continuous
 62
   155
420
  5010073
370
    18
  0
ARC
  5
1BD
330
1F
100
AcDbEntity
  8
1
  6
Continuous
 62
   155
420
  5010073
370
    18
100
AcDbCircle
 10
759.955567
 20
714.7111011669838
 30
0.0
 40
75.49737051614703
100
AcDbArc
 50
301.0318319999999
 51
58.96816799999982
  0
POLYLINE
  5
1BE
330
1F
100
AcDbEntity
  8
1
  6
Continuous
 62
   155
420
  5010073
370
    18
100
AcDb2dPolyline
 66
     1
 10
0.0
 20
0.0
 30
0.0
  0
VERTEX
  5
1BF
330
1BE
100
AcDbEntity
  8
1
  6
Continuous
 62
   155
420
  5010073
370
    18
100
AcDbVertex
100
AcDb2dVertex
 10
798.8755346649348
 20
779.4033655562664
 30
0.0
  0
VERTEX
  5
1C0
330
1BE
100
AcDbEntity
  8
1
  6
Continuous
 62
   155
420
  5010073
370
    18
100
AcDbVertex
100
AcDb2dVertex
 10
796.5207275569907
 20
780.7629140739275
 30
0.0
  0
SEQEND
  5
1C1
330
1BE
100
AcDbEntity
  8
1
  6
Continuous
 62
   155
420
  5010073
370
    18
  0
ARC
  5
1C2
330
1F
100
AcDbEntity
  8
1
  6
Continuous
 62
   155
420
  5010073
370
    18
100
AcDbCircle
 10
759.955567
 20
714.7111011669838
 30
0.0
 40
75.49737051614709
100
AcDbArc
 50
61.03183199999999
 51
178.968168
  0
POLYLINE
  5
1C3
330
1F
100
AcDbEntity
  8
1
  6
Continuous
 62
   155
420
  5010073
370
    35
100
AcDb2dPolyline
 66
     1
 10
0.0
 20
0.0
 30
0.0
  0
VERTEX
  5
1C4
330
1C3
100
AcDbEntity
  8
1
  6
Continuous
 62
   155
420
  5010073
370
    35
100
AcDbVertex
100
AcDb2dVertex
 10
1496.795220988906
 20
2288.168656
 30
0.0
  0
VERTEX
  5
1C5
330
1C3
100
AcDbEntity
  8
1
  6
Continuous
 62
   155
420
  5010073
370
    35
100
AcDbVertex
100
AcDb2dVertex
 10
1501.942482988906
 20
2288.168656
 30
0.0
  0
SEQEND
  5
1C6
330
1C3
100
AcDbEntity
  8
1
  6
Continuous
 62
   155
420
  5010073
370
    35
  0
POLYLINE
  5
1C7
330
1F
100
AcDbEntity
  8
1
  6
Continuous
 62
   155
420
  5010073
370
    18
100
AcDb2dPolyline
 66
     1
 10
0.0
 20
0.0
 30
0.0
  0
VERTEX
  5
1C8
330
1C7
100
AcDbEntity
  8
1
  6
Continuous
 62
   155
420
  5010073
370
    18
100
AcDbVertex
100
AcDb2dVertex
 10
1497.75857566385
 20
2284.168657925335
 30
0.0
  0
VERTEX
  5
1C9
330
1C7
100
AcDbEntity
  8
1
  6
Continuous
 62
   155
420
  5010073
370
    18
100
AcDbVertex
100
AcDb2dVertex
 10
1382.898936988906
 20
2284.168656
 30
0.0
  0
SEQEND
  5
1CA
330
1C7
100
AcDbEntity
  8
1
  6
Continuous
 62
   155
420
  5010073
370
    18
  0
POLYLINE
  5
1CB
330
1F
100
AcDbEntity
  8
1
  6
Continuous
 62
   155
420
  5010073
370
    35
100
AcDb2dPolyline
 66
     1
 10
0.0
 20
0.0
 30
0.0
  0
VERTEX
  5
1CC
330
1CB
100
AcDbEntity
  8
1
  6
Continuous
 62
   155
420
  5010073
370
    35
100
AcDbVertex
100
AcDb2dVertex
 10
1484.462200988906
 20
2288.168656
 30
0.0
  0
VERTEX
  5
1CD
330
1CB
100
AcDbEntity
  8
1
  6
Continuous
 62
   155
420
  5010073
370
    35
100
AcDbVertex
100
AcDb2dVertex
 10
1496.795220988906
 20
2288.168656
 30
0.0
  0
SEQEND
  5
1CE
330
1CB
100
AcDbEntity
  8
1
  6
Continuous
 62
   155
420
  5010073
370
    35
  0
POLYLINE
  5
1CF
330
1F
100
AcDbEntity
  8
1
  6
Continuous
 62
   155
420
  5010073
370
    35
100
AcDb2dPolyline
 66
     1
 10
0.0
 20
0.0
 30
0.0
  0
VERTEX
  5
1D0
330
1CF
100
AcDbEntity
  8
1
  6
Continuous
 62
   155
420
  5010073
370
    35
100
AcDbVertex
100
AcDb2dVertex
 10
1459.440126988906
 20
2064.881031
 30
0.0
  0
VERTEX
  5
1D1
330
1CF
100
AcDbEntity
  8
1
  6
Continuous
 62
   155
420
  5010073
370
    35
100
AcDbVertex
100
AcDb2dVertex
 10
1459.440126988906
 20
2176.949781
 30
0.0
  0
SEQEND
  5
1D2
330
1CF
100
AcDbEntity
  8
1
  6
Continuous
 62
   155
420
  5010073
370
    35
  0
POLYLINE
  5
1D3
330
1F
100
AcDbEntity
  8
1
  6
Continuous
 62
   155
420
  5010073
370
    35
100
AcDb2dPolyline
 66
     1
 10
0.0
 20
0.0
 30
0.0
  0
VERTEX
  5
1D4
330
1D3
100
AcDbEntity
  8
1
  6
Continuous
 62
   155
420
  5010073
370
    35
100
AcDbVertex
100
AcDb2dVertex
 10
1457.940126988906
 20
2176.949781
 30
0.0
  0
VERTEX
  5
1D5
330
1D3
100
AcDbEntity
  8
1
  6
Continuous
 62
   155
420
  5010073
370
    35
100
AcDbVertex
100
AcDb2dVertex
 10
1457.940126988906
 20
2065.931031
 30
0.0
  0
SEQEND
  5
1D6
330
1D3
100
AcDbEntity
  8
1
  6
Continuous
 62
   155
420
  5010073
370
    35
  0
POLYLINE
  5
1D7
330
1F
100
AcDbEntity
  8
1
  6
Continuous
 62
   155
420
  5010073
370
    35
100
AcDb2dPolyline
 66
     1
 10
0.0
 20
0.0
 30
0.0
  0
VERTEX
  5
1D8
330
1D7
100
AcDbEntity
  8
1
  6
Continuous
 62
   155
420
  5010073
370
    35
100
AcDbVertex
100
AcDb2dVertex
 10
1457.940126988906
 20
2059.213286072403
 30
0.0
  0
VERTEX
  5
1D9
330
1D7
100
AcDbEntity
  8
1
  6
Continuous
 62
   155
420
  5010073
370
    35
100
AcDbVertex
100
AcDb2dVertex
 10
1457.940126988906
 20
2004.866969
 30
0.0
  0
SEQEND
  5
1DA
330
1D7
100
AcDbEntity
  8
1
  6
Continuous
 62
   155
420
  5010073
370
    35
  0
SPLINE
  5
1DB
330
1F
100
AcDbEntity
  8
1
  6
Continuous
 62
   155
420
  5010073
370
    35
100
AcDbSpline
210
0.0
220
0.0
230
1.0
 70
     8
 71
     3
 72
    21
 73
    17
 74
     0
 42
0.0000000001
 43
0.0000000001
 40
0.0
 40
0.0
 40
0.0
 40
0.0
 40
0.0490403447271515
 40
0.088797401884774
 40
0.1254537661845398
 40
0.1606524138325173
 40
0.2341703157501832
 40
0.2815000328884931
 40
0.3251803117646993
 40
0.371548056073832
 40
0.4202346318113608
 40
0.4926344655932424
 40
0.5874842369388288
 40
0.7060323375373764
 40
0.8459360920231864
 40
1.0
 40
1.0
 40
1.0
 40
1.0
 10
1456.881681728528
 20
2059.953796229073
 30
0.0
 10
1460.293194543885
 20
2057.589893561029
 30
0.0
 10
1462.017429092257
 20
2056.055868510525
 30
0.0
 10
1463.893625562206
 20
2053.339200361897
 30
0.0
 10
1464.924331310815
 20
2050.639830545729
 30
0.0
 10
1465.646153911397
 20
2046.980274652709
 30
0.0
 10
1465.623021882449
 20
2042.976406478932
 30
0.0
 10
1465.140923369962
 20
2038.813818471138
 30
0.0
 10
1464.565128098182
 20
2035.352971519062
 30
0.0
 10
1463.86887089126
 20
2031.872430581596
 30
0.0
 10
1462.936329264023
 20
2027.679791278357
 30
0.0
 10
1461.646111980395
 20
2022.275337204197
 30
0.0
 10
1459.908332231208
 20
2015.099188354088
 30
0.0
 10
1458.01008077825
 20
2006.125956505507
 30
0.0
 10
1456.381373582465
 20
1995.466441842886
 30
0.0
 10
1455.968869331715
 20
1987.789707307805
 30
0.0
 10
1455.934100168252
 20
1983.738371836189
 30
0.0
  0
SPLINE
  5
1DC
330
1F
100
AcDbEntity
  8
1
  6
Continuous
 62
   155
420
  5010073
370
    35
100
AcDbSpline
210
0.0
220
0.0
230
1.0
 70
     8
 71
     2
 72
     6
 73
     3
 74
     0
 42
0.0000000001
 43
0.0000000001
 40
0.0
 40
0.0
 40
0.0
 40
1.0
 40
1.0
 40
1.0
 10
1453.49994290443
 20
2062.321166808238
 30
0.0
 10
1455.190625322162
 20
2061.137214324854
 30
0.0
 10
1456.881681728528
 20
2059.953796229073
 30
0.0
  0
SPLINE
  5
1DD
330
1F
100
AcDbEntity
  8
1
  6
Continuous
 62
   155
420
  5010073
370
    35
100
AcDbSpline
210
0.0
220
0.0
230
1.0
 70
    24
 71
     2
 72
     6
 73
     3
 74
     0
 42
0.0000000001
 43
0.0000000001
 40
0.0
 40
0.0
 40
0.0
 40
1.0
 40
1.0
 40
1.0
 10
1461.433549631396
 20
1978.761647244945
 30
0.0
 10
1461.433746989256
 20
1981.244857007341
 30
0.0
 10
1461.433944347116
 20
1983.728066769737
 30
0.0
  0
SPLINE
  5
1DE
330
1F
100
AcDbEntity
  8
1
  6
Continuous
 62
   155
420
  5010073
370
    35
100
AcDbSpline
210
0.0
220
0.0
230
1.0
 70
    24
 71
     2
 72
     6
 73
     3
 74
     0
 42
0.0000000001
 43
0.0000000001
 40
0.0
 40
0.0
 40
0.0
 40
1.0
 40
1.0
 40
1.0
 10
1455.934100168252
 20
1983.738371836189
 30
0.0
 10
1455.933847153502
 20
1981.250017143222
 30
0.0
 10
1455.933594138753
 20
1978.761662450254
 30
0.0
  0
SPLINE
  5
1DF
330
1F
100
AcDbEntity
  8
1
  6
Continuous
 62
   155
420
  5010073
370
    35
100
AcDbSpline
210
0.0
220
0.0
230
1.0
 70
     8
 71
     3
 72
    22
 73
    18
 74
     0
 42
0.0000000001
 43
0.0000000001
 40
0.0
 40
0.0
 40
0.0
 40
0.0
 40
0.1480552694481468
 40
0.2817927019314301
 40
0.3938335066954992
 40
0.4815682972431661
 40
0.5492480171071561
 40
0.5883706882425126
 40
0.625490931914102
 40
0.6605931619056629
 40
0.6967902040774554
 40
0.7495737806166105
 40
0.8177746327527129
 40
0.8567480933524866
 40
0.8992035775158085
 40
0.9465233679854621
 40
1.0
 40
1.0
 40
1.0
 40
1.0
 10
1461.433944347116
 20
1983.728066769737
 30
0.0
 10
1461.474629591871
 20
1987.880555304136
 30
0.0
 10
1461.922128725115
 20
1995.722721407748
 30
0.0
 10
1463.687141563039
 20
2006.548265570444
 30
0.0
 10
1465.667352414903
 20
2015.551482789365
 30
0.0
 10
1467.390575776639
 20
2022.70539309134
 30
0.0
 10
1468.624744517345
 20
2027.892088492076
 30
0.0
 10
1469.465976715134
 20
2031.738281112313
 30
0.0
 10
1470.051617305456
 20
2034.724186913326
 30
0.0
 10
1470.534711406312
 20
2037.645548320508
 30
0.0
 10
1470.952275052044
 20
2041.008831626642
 30
0.0
 10
1471.193467548872
 20
2045.298033307894
 30
0.0
 10
1470.833422466288
 20
2049.691972739132
 30
0.0
 10
1469.731245582209
 20
2053.674431176985
 30
0.0
 10
1468.204330036163
 20
2056.915627025449
 30
0.0
 10
1465.759587940423
 20
2060.118590951707
 30
0.0
 10
1463.641253687946
 20
2061.950633203879
 30
0.0
 10
1462.388143036709
 20
2062.813183781275
 30
0.0
  0
SPLINE
  5
1E0
330
1F
100
AcDbEntity
  8
1
  6
Continuous
 62
   155
420
  5010073
370
    35
100
AcDbSpline
210
0.0
220
0.0
230
1.0
 70
     8
 71
     2
 72
     6
 73
     3
 74
     0
 42
0.0000000001
 43
0.0000000001
 40
0.0
 40
0.0
 40
0.0
 40
1.0
 40
1.0
 40
1.0
 10
1462.388143036709
 20
2062.813183781275
 30
0.0
 10
1459.527105367867
 20
2064.81540564736
 30
0.0
 10
1456.66648747553
 20
2066.818227283395
 30
0.0
  0
SPLINE
  5
1E1
330
1F
100
AcDbEntity
  8
1
  6
Continuous
 62
   155
420
  5010073
370
    35
100
AcDbSpline
210
0.0
220
0.0
230
1.0
 70
     8
 71
     2
 72
     6
 73
     3
 74
     0
 42
0.0000000001
 43
0.0000000001
 40
0.0
 40
0.0
 40
0.0
 40
1.0
 40
1.0
 40
1.0
 10
1442.199999789048
 20
2152.149842686485
 30
0.0
 10
1444.195161884619
 20
2155.001291524538
 30
0.0
 10
1446.192043802579
 20
2157.851536151703
 30
0.0
  0
SPLINE
  5
1E2
330
1F
100
AcDbEntity
  8
1
  6
Continuous
 62
   155
420
  5010073
370
    35
100
AcDbSpline
210
0.0
220
0.0
230
1.0
 70
     8
 71
     2
 72
     6
 73
     3
 74
     0
 42
0.0000000001
 43
0.0000000001
 40
0.0
 40
0.0
 40
0.0
 40
1.0
 40
1.0
 40
1.0
 10
1441.682075200874
 20
2160.999855753583
 30
0.0
 10
1439.68452772929
 20
2158.146815053783
 30
0.0
 10
1437.686991475374
 20
2155.293766491661
 30
0.0
  0
SPLINE
  5
1E3
330
1F
100
AcDbEntity
  8
1
  6
Continuous
 62
   155
420
  5010073
370
    35
100
AcDbSpline
210
0.0
220
0.0
230
1.0
 70
     8
 71
     3
 72
    23
 73
    19
 74
     0
 42
0.0000000001
 43
0.0000000001
 40
0.0
 40
0.0
 40
0.0
 40
0.0
 40
0.0685165841054442
 40
0.1256205095274505
 40
0.1715445401012103
 40
0.2065534343012354
 40
0.2385827861934711
 40
0.2711734019525301
 40
0.3714174842278379
 40
0.4720399654064378
 40
0.572743772857353
 40
0.6663708965458603
 40
0.6966721140614427
 40
0.7362950995685298
 40
0.7864520429056192
 40
0.8471238434580293
 40
0.918282567012846
 40
1.0
 40
1.0
 40
1.0
 40
1.0
 10
1456.66648747553
 20
2066.818227283395
 30
0.0
 10
1454.866844368869
 20
2068.077212999221
 30
0.0
 10
1451.712929396679
 20
2070.548660070284
 30
0.0
 10
1447.744652285701
 20
2074.338849850458
 30
0.0
 10
1444.829720501128
 20
2077.648636341349
 30
0.0
 10
1442.636222720461
 20
2080.513560407044
 30
0.0
 10
1440.848318085538
 20
2083.145859991646
 30
0.0
 10
1438.128689612333
 20
2087.653621136477
 30
0.0
 10
1434.982765652491
 20
2094.450465845863
 30
0.0
 10
1432.372747998059
 20
2103.757124948255
 30
0.0
 10
1431.255686326043
 20
2113.142743455861
 30
0.0
 10
1431.431741777006
 20
2120.335090123711
 30
0.0
 10
1432.012559284987
 20
2125.524658452378
 30
0.0
 10
1432.627791464272
 20
2129.310409470759
 30
0.0
 10
1433.703557520453
 20
2133.996058460612
 30
0.0
 10
1435.475522243754
 20
2139.535597860572
 30
0.0
 10
1438.202593323312
 20
2145.807649179445
 30
0.0
 10
1440.705758619525
 20
2149.990823553771
 30
0.0
 10
1442.199999789048
 20
2152.149842686485
 30
0.0
  0
SPLINE
  5
1E4
330
1F
100
AcDbEntity
  8
1
  6
Continuous
 62
   155
420
  5010073
370
    35
100
AcDbSpline
210
0.0
220
0.0
230
1.0
 70
     8
 71
     3
 72
    22
 73
    18
 74
     0
 42
0.0000000001
 43
0.0000000001
 40
0.0
 40
0.0
 40
0.0
 40
0.0
 40
0.0717801863500893
 40
0.133401849036077
 40
0.1852537968157901
 40
0.2448833328943653
 40
0.2936447814975346
 40
0.3945440042077459
 40
0.4963074271826959
 40
0.5976632934790416
 40
0.69578057103536
 40
0.7258046404626434
 40
0.7570763565566999
 40
0.7998057397414869
 40
0.8546910286334739
 40
0.9214716211198918
 40
1.0
 40
1.0
 40
1.0
 40
1.0
 10
1437.686991475374
 20
2155.293766491661
 30
0.0
 10
1436.254511393489
 20
2153.232495685989
 30
0.0
 10
1433.836897261422
 20
2149.275302569349
 30
0.0
 10
1431.118826029395
 20
2143.413351789042
 30
0.0
 10
1429.067185378317
 20
2137.746347746819
 30
0.0
 10
1427.621751339294
 20
2132.353022286181
 30
0.0
 10
1426.301507900686
 20
2125.187759052011
 30
0.0
 10
1425.641012902375
 20
2116.43195642583
 30
0.0
 10
1426.404134370379
 20
2105.842403443153
 30
0.0
 10
1428.769337094172
 20
2095.589028293709
 30
0.0
 10
1431.771860553746
 20
2088.150962201802
 30
0.0
 10
1434.371048944973
 20
2083.249939500386
 30
0.0
 10
1436.225964970158
 20
2080.140384853044
 30
0.0
 10
1438.757438220867
 20
2076.434329579917
 30
0.0
 10
1442.367236981515
 20
2071.98863903784
 30
0.0
 10
1447.299480450012
 20
2067.042988250916
 30
0.0
 10
1451.248905039026
 20
2063.895975668816
 30
0.0
 10
1453.49994290443
 20
2062.321166808238
 30
0.0
  0
SPLINE
  5
1E5
330
1F
100
AcDbEntity
  8
1
  6
Continuous
 62
   155
420
  5010073
370
    35
100
AcDbSpline
210
0.0
220
0.0
230
1.0
 70
     8
 71
     3
 72
    13
 73
     9
 74
     0
 42
0.0000000001
 43
0.0000000001
 40
0.0
 40
0.0
 40
0.0
 40
0.0
 40
0.125971726983796
 40
0.2498835624232923
 40
0.3740020238954745
 40
0.5005825244712774
 40
0.7501727550593016
 40
1.0
 40
1.0
 40
1.0
 40
1.0
 10
1382.907379819122
 20
2282.834140119528
 30
0.0
 10
1382.907352995631
 20
2282.784604340693
 30
0.0
 10
1382.907299787266
 20
2282.686342792812
 30
0.0
 10
1382.906895504072
 20
2282.556033435374
 30
0.0
 10
1382.906341694143
 20
2282.441227593675
 30
0.0
 10
1382.905512833531
 20
2282.313386945166
 30
0.0
 10
1382.904508897403
 20
2282.194384660766
 30
0.0
 10
1382.904237816232
 20
2282.177683386661
 30
0.0
 10
1382.904102211322
 20
2282.169328786549
 30
0.0
  0
SPLINE
  5
1E6
330
1F
100
AcDbEntity
  8
1
  6
Continuous
 62
   155
420
  5010073
370
    35
100
AcDbSpline
210
0.0
220
0.0
230
1.0
 70
     8
 71
     3
 72
     8
 73
     4
 74
     0
 42
0.0000000001
 43
0.0000000001
 40
0.0
 40
0.0
 40
0.0
 40
0.0
 40
1.0
 40
1.0
 40
1.0
 40
1.0
 10
1382.904976796047
 20
2283.423286736122
 30
0.0
 10
1382.906675642872
 20
2283.212545809787
 30
0.0
 10
1382.907373903406
 20
2283.016163604256
 30
0.0
 10
1382.907379819131
 20
2282.834140119528
 30
0.0
  0
SPLINE
  5
1E7
330
1F
100
AcDbEntity
  8
1
  6
Continuous
 62
   155
420
  5010073
370
    35
100
AcDbSpline
210
0.0
220
0.0
230
1.0
 70
     8
 71
     3
 72
    13
 73
     9
 74
     0
 42
0.0000000001
 43
0.0000000001
 40
0.0
 40
0.0
 40
0.0
 40
0.0
 40
0.1262959044297042
 40
0.2503308770503113
 40
0.3743366906057765
 40
0.5005466055399548
 40
0.7506221589530437
 40
1.0
 40
1.0
 40
1.0
 40
1.0
 10
1382.904102173872
 20
2282.169328755629
 30
0.0
 10
1382.904149414424
 20
2282.171435608853
 30
0.0
 10
1382.904243049834
 20
2282.175611598707
 30
0.0
 10
1382.904620484826
 20
2282.210457372106
 30
0.0
 10
1382.905121884565
 20
2282.266415712111
 30
0.0
 10
1382.905900191436
 20
2282.370287467227
 30
0.0
 10
1382.907041992017
 20
2282.545075163104
 30
0.0
 10
1382.907267315009
 20
2282.737874911378
 30
0.0
 10
1382.907379819122
 20
2282.834140119527
 30
0.0
  0
SPLINE
  5
1E8
330
1F
100
AcDbEntity
  8
1
  6
Continuous
 62
   155
420
  5010073
370
    35
100
AcDbSpline
210
0.0
220
0.0
230
1.0
 70
     8
 71
     3
 72
     8
 73
     4
 74
     0
 42
0.0000000001
 43
0.0000000001
 40
0.0
 40
0.0
 40
0.0
 40
0.0
 40
1.0
 40
1.0
 40
1.0
 40
1.0
 10
1497.75857566385
 20
2284.168657925335
 30
0.0
 10
1497.738402481962
 20
2284.169476518682
 30
0.0
 10
1497.7157491962
 20
2284.170361533743
 30
0.0
 10
1497.691197130254
 20
2284.171276501368
 30
0.0
  0
SPLINE
  5
1E9
330
1F
100
AcDbEntity
  8
1
  6
Continuous
 62
   155
420
  5010073
370
    35
100
AcDbSpline
210
0.0
220
0.0
230
1.0
 70
    24
 71
     2
 72
     6
 73
     3
 74
     0
 42
0.0000000001
 43
0.0000000001
 40
0.0
 40
0.0
 40
0.0
 40
1.0
 40
1.0
 40
1.0
 10
1497.428939806739
 20
2284.470456764908
 30
0.0
 10
1497.413171321873
 20
2284.470453261056
 30
0.0
 10
1497.397402837007
 20
2284.470449757204
 30
0.0
  0
SPLINE
  5
1EA
330
1F
100
AcDbEntity
  8
1
  6
Continuous
 62
   155
420
  5010073
370
    35
100
AcDbSpline
210
0.0
220
0.0
230
1.0
 70
     8
 71
     3
 72
     9
 73
     5
 74
     0
 42
0.0000000001
 43
0.0000000001
 40
0.0
 40
0.0
 40
0.0
 40
0.0
 40
0.757615414494277
 40
1.0
 40
1.0
 40
1.0
 40
1.0
 10
1461.440267946375
 20
2240.015381410407
 30
0.0
 10
1461.43999883934
 20
2242.655987689963
 30
0.0
 10
1461.439485088714
 20
2246.141405494125
 30
0.0
 10
1461.440196572837
 20
2249.626823371157
 30
0.0
 10
1461.440357858932
 20
2250.471634936111
 30
0.0
  0
SPLINE
  5
1EB
330
1F
100
AcDbEntity
  8
1
  6
Continuous
 62
   155
420
  5010073
370
    35
100
AcDbSpline
210
0.0
220
0.0
230
1.0
 70
     8
 71
     3
 72
     9
 73
     5
 74
     0
 42
0.0000000001
 43
0.0000000001
 40
0.0
 40
0.0
 40
0.0
 40
0.0
 40
0.2419650177806655
 40
1.0
 40
1.0
 40
1.0
 40
1.0
 10
1455.939706610556
 20
2250.471627765409
 30
0.0
 10
1455.940077330228
 20
2249.627674167495
 30
0.0
 10
1455.941682524879
 20
2246.139758372787
 30
0.0
 10
1455.940691159578
 20
2242.651842781166
 30
0.0
 10
1455.940134397329
 20
2240.007880653068
 30
0.0
  0
SPLINE
  5
1EC
330
1F
100
AcDbEntity
  8
1
  6
Continuous
 62
   155
420
  5010073
370
    35
100
AcDbSpline
210
0.0
220
0.0
230
1.0
 70
     8
 71
     3
 72
    19
 73
    15
 74
     0
 42
0.0000000001
 43
0.0000000001
 40
0.0
 40
0.0
 40
0.0
 40
0.0
 40
0.1123687453288861
 40
0.2099524548640039
 40
0.2936023042023007
 40
0.3635535241828181
 40
0.4201558381634707
 40
0.4662300381829192
 40
0.5225851302101598
 40
0.5933525346053581
 40
0.6778636475596105
 40
0.7749023245008028
 40
0.8826281980899475
 40
1.0
 40
1.0
 40
1.0
 40
1.0
 10
1446.192043802579
 20
2157.851536151704
 30
0.0
 10
1448.083709223109
 20
2160.559893793823
 30
0.0
 10
1451.26198357372
 20
2165.763275051987
 30
0.0
 10
1454.771515122184
 20
2173.494003421527
 30
0.0
 10
1457.09384799773
 20
2180.255903551546
 30
0.0
 10
1458.595936880412
 20
2185.983763617511
 30
0.0
 10
1459.558884108132
 20
2190.714347897609
 30
0.0
 10
1460.264509694859
 20
2195.088459793241
 30
0.0
 10
1460.853465315679
 20
2199.862472900106
 30
0.0
 10
1461.3375378203
 20
2205.714882700242
 30
0.0
 10
1461.634251276901
 20
2212.731016383725
 30
0.0
 10
1461.699632237535
 20
2220.852871800284
 30
0.0
 10
1461.535826570506
 20
2230.046823983114
 30
0.0
 10
1461.476827644504
 20
2236.579242688807
 30
0.0
 10
1461.440267946375
 20
2240.015381410407
 30
0.0
  0
SPLINE
  5
1ED
330
1F
100
AcDbEntity
  8
1
  6
Continuous
 62
   155
420
  5010073
370
    35
100
AcDbSpline
210
0.0
220
0.0
230
1.0
 70
     8
 71
     3
 72
    19
 73
    15
 74
     0
 42
0.0000000001
 43
0.0000000001
 40
0.0
 40
0.0
 40
0.0
 40
0.0
 40
0.1242193379466444
 40
0.2311841677973462
 40
0.3203342925295731
 40
0.3901959273952999
 40
0.4458311008660331
 40
0.5038340969136837
 40
0.5755695341819466
 40
0.6608685256520875
 40
0.7337168597478473
 40
0.8142868422490329
 40
0.9026935811347194
 40
1.0
 40
1.0
 40
1.0
 40
1.0
 10
1455.940134397329
 20
2240.007880653068
 30
0.0
 10
1455.977264335277
 20
2236.507805106629
 30
0.0
 10
1456.036100707643
 20
2230.05385618984
 30
0.0
 10
1456.192033572084
 20
2221.262272165193
 30
0.0
 10
1456.149283708558
 20
2214.077115224373
 30
0.0
 10
1455.955640414022
 20
2208.332548734892
 30
0.0
 10
1455.645754172537
 20
2203.451811076824
 30
0.0
 10
1455.176259796533
 20
2198.539621044986
 30
0.0
 10
1454.388011391537
 20
2192.861389208847
 30
0.0
 10
1453.169942060381
 20
2186.816655224509
 30
0.0
 10
1451.436718372643
 20
2180.586263310802
 30
0.0
 10
1449.166882072651
 20
2174.358614817351
 30
0.0
 10
1445.991466726195
 20
2167.663277016166
 30
0.0
 10
1443.257231243314
 20
2163.252091062639
 30
0.0
 10
1441.682075200874
 20
2160.999855753583
 30
0.0
  0
SPLINE
  5
1EE
330
1F
100
AcDbEntity
  8
1
  6
Continuous
 62
   155
420
  5010073
370
    35
100
AcDbSpline
210
0.0
220
0.0
230
1.0
 70
    12
 71
     2
 72
     8
 73
     5
 74
     0
 42
0.0000000001
 43
0.0000000001
 40
0.0
 40
0.0
 40
0.0
 40
1.570796326794897
 40
1.570796326794897
 40
1.575644763947544
 40
1.575644763947544
 40
1.575644763947544
 10
1383.198876988906
 20
2284.471274
 30
0.0
 41
1.0
 10
1382.898925588906
 20
2284.471274
 30
0.0
 41
0.7071067811865476
 10
1382.898925588906
 20
2284.171274
 30
0.0
 41
1.0
 10
1382.898925588906
 20
2284.170618638461
 30
0.0
 41
0.9990959525817384
 10
1382.898928451753
 20
2284.169963283176
 30
0.0
 41
0.9981974860488096
  0
ARC
  5
1EF
330
1F
100
AcDbEntity
  8
1
  6
Continuous
 62
   155
420
  5010073
370
    35
100
AcDbCircle
 10
1410.112441988906
 20
1975.461625
 30
0.0
 40
0.2
100
AcDbArc
 50
32.00538300001372
 51
90.0
  0
ARC
  5
1F0
330
1F
100
AcDbEntity
  8
1
  6
Continuous
 62
   155
420
  5010073
370
    35
100
AcDbCircle
 10
1507.267810988906
 20
1975.461625
 30
0.0
 40
0.2
100
AcDbArc
 50
90.0
 51
147.9946169999863
  0
ARC
  5
1F1
330
1F
100
AcDbEntity
  8
1
  6
Continuous
 62
   155
420
  5010073
370
    35
100
AcDbCircle
 10
1534.181375988906
 20
2284.171274
 30
0.0
 40
0.2999999999999999
100
AcDbArc
 50
0.0
 51
90.0
  0
ARC
  5
1F2
330
1F
100
AcDbEntity
  8
1
  6
Continuous
 62
   155
420
  5010073
370
    35
100
AcDbCircle
 10
1534.181375988906
 20
2284.171274
 30
0.0
 40
0.3000000000291879
100
AcDbArc
 50
359.4999999999963
 51
0.0
  0
ARC
  5
1F3
330
1F
100
AcDbEntity
  8
1
  6
Continuous
 62
   155
420
  5010073
370
    35
100
AcDbCircle
 10
1507.252398988906
 20
931.263844
 30
0.0
 40
0.2
100
AcDbArc
 50
212.0053830000137
 51
270.0
  0
ARC
  5
1F4
330
1F
100
AcDbEntity
  8
1
  6
Continuous
 62
   155
420
  5010073
370
    35
100
AcDbCircle
 10
1410.097028988906
 20
931.263844
 30
0.0
 40
0.2
100
AcDbArc
 50
270.0
 51
327.9946169999863
  0
LINE
  5
1F5
330
1F
100
AcDbEntity
  8
1
  6
Continuous
 62
   155
420
  5010073
370
    35
100
AcDbLine
 10
1508.674713988906
 20
927.963844
 30
0.0
 11
1508.674713988906
 21
930.263844
 31
0.0
  0
LINE
  5
1F6
330
1F
100
AcDbEntity
  8
1
  6
Continuous
 62
   155
420
  5010073
370
    35
100
AcDbLine
 10
1408.674713988906
 20
930.263844
 30
0.0
 11
1408.674713988906
 21
927.963844
 31
0.0
  0
LINE
  5
1F7
330
1F
100
AcDbEntity
  8
1
  6
Continuous
 62
   155
420
  5010073
370
    35
100
AcDbLine
 10
1462.162537988906
 20
927.963844
 30
0.0
 11
1408.674713988906
 21
927.963844
 31
0.0
  0
LINE
  5
1F8
330
1F
100
AcDbEntity
  8
1
  6
Continuous
 62
   155
420
  5010073
370
    35
100
AcDbLine
 10
1508.674713988906
 20
927.963844
 30
0.0
 11
1462.162537988906
 21
927.963844
 31
0.0
  0
LINE
  5
1F9
330
1F
100
AcDbEntity
  8
1
  6
Continuous
 62
   155
420
  5010073
370
    35
100
AcDbLine
 10
1408.674713988906
 20
930.263844
 30
0.0
 11
1508.674713988906
 21
930.263844
 31
0.0
  0
LINE
  5
1FA
330
1F
100
AcDbEntity
  8
1
  6
Continuous
 62
   155
420
  5010073
370
    35
100
AcDbLine
 10
1443.961572988906
 20
2288.168656
 30
0.0
 11
1386.647941988906
 21
2288.168656
 31
0.0
  0
LINE
  5
1FB
330
1F
100
AcDbEntity
  8
1
  6
Continuous
 62
   155
420
  5010073
370
    35
100
AcDbLine
 10
1443.961572988906
 20
2286.168656
 30
0.0
 11
1386.647941988906
 21
2286.168656
 31
0.0
  0
LINE
  5
1FC
330
1F
100
AcDbEntity
  8
1
  6
Continuous
 62
   155
420
  5010073
370
    35
100
AcDbLine
 10
1473.406436988906
 20
2288.168656
 30
0.0
 11
1443.961572988906
 21
2288.168656
 31
0.0
  0
LINE
  5
1FD
330
1F
100
AcDbEntity
  8
1
  6
Continuous
 62
   155
420
  5010073
370
    35
100
AcDbLine
 10
1473.406436988906
 20
2286.168656
 30
0.0
 11
1443.961572988906
 21
2286.168656
 31
0.0
  0
LINE
  5
1FE
330
1F
100
AcDbEntity
  8
1
  6
Continuous
 62
   155
420
  5010073
370
    35
100
AcDbLine
 10
1484.462200988906
 20
2288.168656
 30
0.0
 11
1473.406436988906
 21
2288.168656
 31
0.0
  0
LINE
  5
1FF
330
1F
100
AcDbEntity
  8
1
  6
Continuous
 62
   155
420
  5010073
370
    35
100
AcDbLine
 10
1484.462200988906
 20
2286.168656
 30
0.0
 11
1473.406436988906
 21
2286.168656
 31
0.0
  0
LINE
  5
200
330
1F
100
AcDbEntity
  8
1
  6
Continuous
 62
   155
420
  5010073
370
    35
100
AcDbLine
 10
1485.755948988906
 20
2286.168656
 30
0.0
 11
1484.462200988906
 21
2286.168656
 31
0.0
  0
LINE
  5
201
330
1F
100
AcDbEntity
  8
1
  6
Continuous
 62
   155
420
  5010073
370
    35
100
AcDbLine
 10
1501.942482988906
 20
2288.168656
 30
0.0
 11
1504.941871988906
 21
2288.168656
 31
0.0
  0
LINE
  5
202
330
1F
100
AcDbEntity
  8
1
  6
Continuous
 62
   155
420
  5010073
370
    35
100
AcDbLine
 10
1504.941871988906
 20
2286.168656
 30
0.0
 11
1501.942482988906
 21
2286.168656
 31
0.0
  0
LINE
  5
203
330
1F
100
AcDbEntity
  8
1
  6
Continuous
 62
   155
420
  5010073
370
    35
100
AcDbLine
 10
1531.684004988906
 20
2286.168656
 30
0.0
 11
1531.684004988906
 21
2288.168656
 31
0.0
  0
LINE
  5
204
330
1F
100
AcDbEntity
  8
1
  6
Continuous
 62
   155
420
  5010073
370
    35
100
AcDbLine
 10
1504.941871988906
 20
2288.168656
 30
0.0
 11
1531.684004988906
 21
2288.168656
 31
0.0
  0
LINE
  5
205
330
1F
100
AcDbEntity
  8
1
  6
Continuous
 62
   155
420
  5010073
370
    35
100
AcDbLine
 10
1504.941871988906
 20
2286.168656
 30
0.0
 11
1531.684004988906
 21
2286.168656
 31
0.0
  0
LINE
  5
206
330
1F
100
AcDbEntity
  8
1
  6
Continuous
 62
   155
420
  5010073
370
    35
100
AcDbLine
 10
1501.942482988906
 20
2286.168656
 30
0.0
 11
1498.161246988906
 21
2286.168656
 31
0.0
  0
LINE
  5
207
330
1F
100
AcDbEntity
  8
1
  6
Continuous
 62
   155
420
  5010073
370
    35
100
AcDbLine
 10
1498.161246988906
 20
2286.168656
 30
0.0
 11
1497.362215988906
 21
2286.168656
 31
0.0
  0
LINE
  5
208
330
1F
100
AcDbEntity
  8
1
  6
Continuous
 62
   155
420
  5010073
370
    35
100
AcDbLine
 10
1386.621532988906
 20
2288.168656
 30
0.0
 11
1386.621532988906
 21
2286.168656
 31
0.0
  0
LINE
  5
209
330
1F
100
AcDbEntity
  8
1
  6
Continuous
 62
   155
420
  5010073
370
    35
100
AcDbLine
 10
1386.647941988906
 20
2288.168656
 30
0.0
 11
1386.621532988906
 21
2288.168656
 31
0.0
  0
LINE
  5
20A
330
1F
100
AcDbEntity
  8
1
  6
Continuous
 62
   155
420
  5010073
370
    35
100
AcDbLine
 10
1386.621532988906
 20
2286.168656
 30
0.0
 11
1386.647941988906
 21
2286.168656
 31
0.0
  0
LINE
  5
20B
330
1F
100
AcDbEntity
  8
1
  6
Continuous
 62
   155
420
  5010073
370
    35
100
AcDbLine
 10
1508.690126988906
 20
1448.563844
 30
0.0
 11
1508.690126988906
 21
1439.563844
 31
0.0
  0
LINE
  5
20C
330
1F
100
AcDbEntity
  8
1
  6
Continuous
 62
   155
420
  5010073
370
    35
100
AcDbLine
 10
1409.697108988906
 20
1976.46161
 30
0.0
 11
1409.711072988906
 21
1975.661625
 31
0.0
  0
LINE
  5
20D
330
1F
100
AcDbEntity
  8
1
  6
Continuous
 62
   155
420
  5010073
370
    35
100
AcDbLine
 10
1507.669179988906
 20
1975.661625
 30
0.0
 11
1507.683143988906
 21
1976.46161
 31
0.0
  0
LINE
  5
20E
330
1F
100
AcDbEntity
  8
1
  6
Continuous
 62
   155
420
  5010073
370
    35
100
AcDbLine
 10
1507.669179988906
 20
1975.661625
 30
0.0
 11
1409.711072988906
 21
1975.661625
 31
0.0
  0
LINE
  5
20F
330
1F
100
AcDbEntity
  8
1
  6
Continuous
 62
   155
420
  5010073
370
    18
100
AcDbLine
 10
1458.690126988906
 20
1975.567625
 30
0.0
 11
1410.282040988906
 21
1975.567625
 31
0.0
  0
LINE
  5
210
330
1F
100
AcDbEntity
  8
1
  6
Continuous
 62
   155
420
  5010073
370
    18
100
AcDbLine
 10
1507.098211988906
 20
1975.567625
 30
0.0
 11
1458.690126988906
 21
1975.567625
 31
0.0
  0
LINE
  5
211
330
1F
100
AcDbEntity
  8
1
  6
Continuous
 62
   155
420
  5010073
370
    35
100
AcDbLine
 10
1410.282040988906
 20
1975.567625
 30
0.0
 11
1410.472602988906
 21
1975.262727
 31
0.0
  0
LINE
  5
212
330
1F
100
AcDbEntity
  8
1
  6
Continuous
 62
   155
420
  5010073
370
    35
100
AcDbLine
 10
1506.907649988906
 20
1975.262727
 30
0.0
 11
1507.098211988906
 21
1975.567625
 31
0.0
  0
LINE
  5
213
330
1F
100
AcDbEntity
  8
1
  6
Continuous
 62
   155
420
  5010073
370
    35
100
AcDbLine
 10
1408.683390988906
 20
1978.761625
 30
0.0
 11
1408.683390988906
 21
1976.461625
 31
0.0
  0
LINE
  5
214
330
1F
100
AcDbEntity
  8
1
  6
Continuous
 62
   155
420
  5010073
370
    35
100
AcDbLine
 10
1508.683390988906
 20
1976.461625
 30
0.0
 11
1508.683390988906
 21
1978.761625
 31
0.0
  0
LINE
  5
215
330
1F
100
AcDbEntity
  8
1
  6
Continuous
 62
   155
420
  5010073
370
    35
100
AcDbLine
 10
1408.683390988906
 20
1976.461625
 30
0.0
 11
1508.683390988906
 21
1976.461625
 31
0.0
  0
LINE
  5
216
330
1F
100
AcDbEntity
  8
1
  6
Continuous
 62
   155
420
  5010073
370
    35
100
AcDbLine
 10
1508.683390988906
 20
1978.761625
 30
0.0
 11
1408.683390988906
 21
1978.761625
 31
0.0
  0
LINE
  5
217
330
1F
100
AcDbEntity
  8
1
  6
Continuous
 62
   155
420
  5010073
370
    35
100
AcDbLine
 10
1382.904093988906
 20
2282.169329
 30
0.0
 11
1383.180718988906
 21
2250.471274
 31
0.0
  0
LINE
  5
218
330
1F
100
AcDbEntity
  8
1
  6
Continuous
 62
   155
420
  5010073
370
    35
100
AcDbLine
 10
1534.187291988906
 20
2250.471274
 30
0.0
 11
1534.481363988906
 21
2284.168656
 31
0.0
  0
LINE
  5
219
330
1F
100
AcDbEntity
  8
1
  6
Continuous
 62
   155
420
  5010073
370
    35
100
AcDbLine
 10
1383.180718988906
 20
2250.471274
 30
0.0
 11
1534.187291988906
 21
2250.471274
 31
0.0
  0
LINE
  5
21A
330
1F
100
AcDbEntity
  8
1
  6
Continuous
 62
   155
420
  5010073
370
    35
100
AcDbLine
 10
1382.898926988906
 20
2284.169962
 30
0.0
 11
1382.904976988906
 21
2283.423287
 31
0.0
  0
LINE
  5
21B
330
1F
100
AcDbEntity
  8
1
  6
Continuous
 62
   155
420
  5010073
370
    18
100
AcDbLine
 10
1534.481363988906
 20
2284.168656
 30
0.0
 11
1497.758614988906
 21
2284.168656
 31
0.0
  0
LINE
  5
21C
330
1F
100
AcDbEntity
  8
1
  6
Continuous
 62
   155
420
  5010073
370
    18
100
AcDbLine
 10
1382.898925988906
 20
2284.171274
 30
0.0
 11
1458.684004988906
 21
2284.171274
 31
0.0
  0
LINE
  5
21D
330
1F
100
AcDbEntity
  8
1
  6
Continuous
 62
   155
420
  5010073
370
    35
100
AcDbLine
 10
1458.684015988906
 20
2284.471274
 30
0.0
 11
1383.198876988906
 21
2284.471274
 31
0.0
  0
LINE
  5
21E
330
1F
100
AcDbEntity
  8
1
  6
Continuous
 62
   155
420
  5010073
370
    35
100
AcDbLine
 10
1495.249165988906
 20
2284.471274
 30
0.0
 11
1458.684004988906
 21
2284.471274
 31
0.0
  0
LINE
  5
21F
330
1F
100
AcDbEntity
  8
1
  6
Continuous
 62
   155
420
  5010073
370
    35
100
AcDbLine
 10
1495.070677988906
 20
2284.471274
 30
0.0
 11
1497.425483988906
 21
2284.471274
 31
0.0
  0
LINE
  5
220
330
1F
100
AcDbEntity
  8
1
  6
Continuous
 62
   155
420
  5010073
370
    35
100
AcDbLine
 10
1497.691196988906
 20
2284.171274
 30
0.0
 11
1497.758620988906
 21
2284.171274
 31
0.0
  0
LINE
  5
221
330
1F
100
AcDbEntity
  8
1
  6
Continuous
 62
   155
420
  5010073
370
    18
100
AcDbLine
 10
1497.758620988906
 20
2284.171274
 30
0.0
 11
1534.481375988906
 21
2284.171274
 31
0.0
  0
LINE
  5
222
330
1F
100
AcDbEntity
  8
1
  6
Continuous
 62
   155
420
  5010073
370
    35
100
AcDbLine
 10
1497.603972988906
 20
2284.471274
 30
0.0
 11
1534.181375988906
 21
2284.471274
 31
0.0
  0
LINE
  5
223
330
1F
100
AcDbEntity
  8
1
  6
Continuous
 62
   155
420
  5010073
370
    35
100
AcDbLine
 10
1497.425483988906
 20
2284.471274
 30
0.0
 11
1497.603972988906
 21
2284.471274
 31
0.0
  0
LINE
  5
224
330
1F
100
AcDbEntity
  8
1
  6
Continuous
 62
   155
420
  5010073
370
    35
100
AcDbLine
 10
1382.904973988906
 20
2283.423657
 30
0.0
 11
1382.904976988906
 21
2283.423287
 31
0.0
  0
LINE
  5
225
330
1F
100
AcDbEntity
  8
1
  6
Continuous
 62
   155
420
  5010073
370
    35
100
AcDbLine
 10
1507.667731988906
 20
930.26386
 30
0.0
 11
1507.653767988906
 21
931.063844
 31
0.0
  0
LINE
  5
226
330
1F
100
AcDbEntity
  8
1
  6
Continuous
 62
   155
420
  5010073
370
    35
100
AcDbLine
 10
1409.695659988906
 20
931.063844
 30
0.0
 11
1409.681695988906
 21
930.263844
 31
0.0
  0
LINE
  5
227
330
1F
100
AcDbEntity
  8
1
  6
Continuous
 62
   155
420
  5010073
370
    35
100
AcDbLine
 10
1482.420230988906
 20
931.063844
 30
0.0
 11
1409.695659988906
 21
931.063844
 31
0.0
  0
LINE
  5
228
330
1F
100
AcDbEntity
  8
1
  6
Continuous
 62
   155
420
  5010073
370
    35
100
AcDbLine
 10
1507.653767988906
 20
931.063844
 30
0.0
 11
1482.420230988906
 21
931.063844
 31
0.0
  0
LINE
  5
229
330
1F
100
AcDbEntity
  8
1
  6
Continuous
 62
   155
420
  5010073
370
    18
100
AcDbLine
 10
1507.082798988906
 20
931.157844
 30
0.0
 11
1410.266628988906
 21
931.157844
 31
0.0
  0
LINE
  5
22A
330
1F
100
AcDbEntity
  8
1
  6
Continuous
 62
   155
420
  5010073
370
    35
100
AcDbLine
 10
1507.082798988906
 20
931.157844
 30
0.0
 11
1507.017245988906
 21
931.26273
 31
0.0
  0
LINE
  5
22B
330
1F
100
AcDbEntity
  8
1
  6
Continuous
 62
   155
420
  5010073
370
    35
100
AcDbLine
 10
1410.332181988906
 20
931.26273
 30
0.0
 11
1410.266628988906
 21
931.157844
 31
0.0
  0
LINE
  5
22C
330
1F
100
AcDbEntity
  8
1
  6
Continuous
 62
   155
420
  5010073
370
    35
100
AcDbLine
 10
1508.690126988906
 20
931.262725
 30
0.0
 11
1508.690126988906
 21
1975.262725
 31
0.0
  0
LINE
  5
22D
330
1F
100
AcDbEntity
  8
1
  6
Continuous
 62
   155
420
  5010073
370
    35
100
AcDbLine
 10
1408.690126988906
 20
1975.262725
 30
0.0
 11
1408.690126988906
 21
931.262725
 31
0.0
  0
LINE
  5
22E
330
1F
100
AcDbEntity
  8
1
  6
Continuous
 62
   155
420
  5010073
370
    35
100
AcDbLine
 10
1508.690126988906
 20
1975.262725
 30
0.0
 11
1408.690126988906
 21
1975.262725
 31
0.0
  0
LINE
  5
22F
330
1F
100
AcDbEntity
  8
1
  6
Continuous
 62
   155
420
  5010073
370
    35
100
AcDbLine
 10
1508.690126988906
 20
931.262725
 30
0.0
 11
1408.690126988906
 21
931.262725
 31
0.0
  0
LINE
  5
230
330
1F
100
AcDbEntity
  8
1
  6
Continuous
 62
   155
420
  5010073
370
    35
100
AcDbLine
 10
1444.063813988906
 20
2286.168656
 30
0.0
 11
1473.304196988906
 21
2286.168656
 31
0.0
  0
LINE
  5
231
330
1F
100
AcDbEntity
  8
1
  6
Continuous
 62
   155
420
  5010073
370
    18
100
AcDbLine
 10
1386.647941988906
 20
2286.168656
 30
0.0
 11
1386.647941988906
 21
2284.471281
 31
0.0
  0
LINE
  5
232
330
1F
100
AcDbEntity
  8
1
  6
Continuous
 62
   155
420
  5010073
370
    35
100
AcDbLine
 10
1443.860755988906
 20
2286.168656
 30
0.0
 11
1386.647941988906
 21
2286.168656
 31
0.0
  0
LINE
  5
233
330
1F
100
AcDbEntity
  8
1
  6
Continuous
 62
   155
420
  5010073
370
    35
100
AcDbLine
 10
1484.462200988906
 20
2286.168656
 30
0.0
 11
1473.507254988906
 21
2286.168656
 31
0.0
  0
LINE
  5
234
330
1F
100
AcDbEntity
  8
1
  6
Continuous
 62
   155
420
  5010073
370
    35
100
AcDbLine
 10
1484.462200988906
 20
2286.168656
 30
0.0
 11
1485.755948988906
 21
2286.168656
 31
0.0
  0
LINE
  5
235
330
1F
100
AcDbEntity
  8
1
  6
Continuous
 62
   155
420
  5010073
370
    35
100
AcDbLine
 10
1497.362208988906
 20
2286.168656
 30
0.0
 11
1485.755952988906
 21
2286.168656
 31
0.0
  0
LINE
  5
236
330
1F
100
AcDbEntity
  8
1
  6
Continuous
 62
   155
420
  5010073
370
    35
100
AcDbLine
 10
1501.942482988906
 20
2286.168656
 30
0.0
 11
1504.941871988906
 21
2286.168656
 31
0.0
  0
LINE
  5
237
330
1F
100
AcDbEntity
  8
1
  6
Continuous
 62
   155
420
  5010073
370
    35
100
AcDbLine
 10
1531.684004988906
 20
2284.471281
 30
0.0
 11
1531.684004988906
 21
2286.168656
 31
0.0
  0
LINE
  5
238
330
1F
100
AcDbEntity
  8
1
  6
Continuous
 62
   155
420
  5010073
370
    35
100
AcDbLine
 10
1504.941871988906
 20
2286.168656
 30
0.0
 11
1531.684004988906
 21
2286.168656
 31
0.0
  0
LINE
  5
239
330
1F
100
AcDbEntity
  8
1
  6
Continuous
 62
   155
420
  5010073
370
    35
100
AcDbLine
 10
1501.942482988906
 20
2286.168656
 30
0.0
 11
1498.161248988906
 21
2286.168656
 31
0.0
  0
LINE
  5
23A
330
1F
100
AcDbEntity
  8
1
  6
Continuous
 62
   155
420
  5010073
370
    35
100
AcDbLine
 10
1386.621532988906
 20
2286.168656
 30
0.0
 11
1386.621532988906
 21
2284.471281
 31
0.0
  0
LINE
  5
23B
330
1F
100
AcDbEntity
  8
1
  6
Continuous
 62
   155
420
  5010073
370
    35
100
AcDbLine
 10
1386.647941988906
 20
2286.168656
 30
0.0
 11
1386.621532988906
 21
2286.168656
 31
0.0
  0
LINE
  5
23C
330
1F
100
AcDbEntity
  8
1
  6
Continuous
 62
   155
420
  5010073
370
    35
100
AcDbLine
 10
1508.690126988906
 20
1447.063844
 30
0.0
 11
1508.690126988906
 21
1441.063844
 31
0.0
  0
LINE
  5
23D
330
1F
100
AcDbEntity
  8
1
  6
Continuous
 62
   155
420
  5010073
370
    35
100
AcDbLine
 10
1457.940126988906
 20
2183.732594
 30
0.0
 11
1457.940126988906
 21
2176.949781
 31
0.0
  0
LINE
  5
23E
330
1F
100
AcDbEntity
  8
1
  6
Continuous
 62
   155
420
  5010073
370
    35
100
AcDbLine
 10
1459.440126988906
 20
2176.949781
 30
0.0
 11
1459.440126988906
 21
2190.309156
 31
0.0
  0
LINE
  5
23F
330
1F
100
AcDbEntity
  8
1
  6
Continuous
 62
   155
420
  5010073
370
    35
100
AcDbLine
 10
1459.440126988906
 20
2012.596656
 30
0.0
 11
1459.440126988906
 21
2058.177906
 31
0.0
  0
LINE
  5
240
330
1F
100
AcDbEntity
  8
1
  6
Continuous
 62
   155
420
  5010073
370
    18
100
AcDbLine
 10
1386.647941988906
 20
2288.168656
 30
0.0
 11
1386.647941988906
 21
2286.168656
 31
0.0
  0
LINE
  5
241
330
1F
100
AcDbEntity
  8
1
  6
Continuous
 62
   155
420
  5010073
370
    35
100
AcDbLine
 10
711.623692
 20
931.26273
 30
0.0
 11
711.558139
 21
931.157844
 31
0.0
  0
LINE
  5
242
330
1F
100
AcDbEntity
  8
1
  6
Continuous
 62
   155
420
  5010073
370
    35
100
AcDbLine
 10
808.374309
 20
931.157844
 30
0.0
 11
808.308756
 21
931.26273
 31
0.0
  0
LINE
  5
243
330
1F
100
AcDbEntity
  8
1
  6
Continuous
 62
   155
420
  5010073
370
    18
100
AcDbLine
 10
711.558139
 20
931.157844
 30
0.0
 11
783.434929
 21
931.157844
 31
0.0
  0
LINE
  5
244
330
1F
100
AcDbEntity
  8
1
  6
Continuous
 62
   155
420
  5010073
370
    18
100
AcDbLine
 10
783.434929
 20
931.157844
 30
0.0
 11
808.374309
 21
931.157844
 31
0.0
  0
LINE
  5
245
330
1F
100
AcDbEntity
  8
1
  6
Continuous
 62
   155
420
  5010073
370
    35
100
AcDbLine
 10
710.98717
 20
931.063844
 30
0.0
 11
808.945278
 21
931.063844
 31
0.0
  0
LINE
  5
246
330
1F
100
AcDbEntity
  8
1
  6
Continuous
 62
   155
420
  5010073
370
    35
100
AcDbLine
 10
710.98717
 20
931.063844
 30
0.0
 11
710.973206
 21
930.26386
 31
0.0
  0
LINE
  5
247
330
1F
100
AcDbEntity
  8
1
  6
Continuous
 62
   155
420
  5010073
370
    35
100
AcDbLine
 10
808.959242
 20
930.263844
 30
0.0
 11
808.945278
 21
931.063844
 31
0.0
  0
LINE
  5
248
330
1F
100
AcDbEntity
  8
1
  6
Continuous
 62
   155
420
  5010073
370
    35
100
AcDbLine
 10
835.736855
 20
2282.171947
 30
0.0
 11
835.736701
 21
2282.181577
 31
0.0
  0
LINE
  5
249
330
1F
100
AcDbEntity
  8
1
  6
Continuous
 62
   155
420
  5010073
370
    35
100
AcDbLine
 10
835.735961
 20
2283.423287
 30
0.0
 11
835.735964
 21
2283.423657
 31
0.0
  0
LINE
  5
24A
330
1F
100
AcDbEntity
  8
1
  6
Continuous
 62
   155
420
  5010073
370
    18
100
AcDbLine
 10
720.882317
 20
2284.171274
 30
0.0
 11
684.159562
 21
2284.171274
 31
0.0
  0
LINE
  5
24B
330
1F
100
AcDbEntity
  8
1
  6
Continuous
 62
   155
420
  5010073
370
    18
100
AcDbLine
 10
835.742001
 20
2284.168656
 30
0.0
 11
723.246474
 21
2284.168656
 31
0.0
  0
LINE
  5
24C
330
1F
100
AcDbEntity
  8
1
  6
Continuous
 62
   155
420
  5010073
370
    35
100
AcDbLine
 10
809.957547
 20
1976.461625
 30
0.0
 11
709.957547
 21
1976.461625
 31
0.0
  0
LINE
  5
24D
330
1F
100
AcDbEntity
  8
1
  6
Continuous
 62
   155
420
  5010073
370
    35
100
AcDbLine
 10
709.957547
 20
1978.761625
 30
0.0
 11
809.957547
 21
1978.761625
 31
0.0
  0
LINE
  5
24E
330
1F
100
AcDbEntity
  8
1
  6
Continuous
 62
   155
420
  5010073
370
    35
100
AcDbLine
 10
809.957547
 20
1976.461625
 30
0.0
 11
809.957547
 21
1978.761625
 31
0.0
  0
LINE
  5
24F
330
1F
100
AcDbEntity
  8
1
  6
Continuous
 62
   155
420
  5010073
370
    35
100
AcDbLine
 10
709.957547
 20
1978.761625
 30
0.0
 11
709.957547
 21
1976.461625
 31
0.0
  0
LINE
  5
250
330
1F
100
AcDbEntity
  8
1
  6
Continuous
 62
   155
420
  5010073
370
    35
100
AcDbLine
 10
808.168335
 20
1975.262727
 30
0.0
 11
808.358897
 21
1975.567625
 31
0.0
  0
LINE
  5
251
330
1F
100
AcDbEntity
  8
1
  6
Continuous
 62
   155
420
  5010073
370
    35
100
AcDbLine
 10
711.542726
 20
1975.567625
 30
0.0
 11
711.733288
 21
1975.262727
 31
0.0
  0
LINE
  5
252
330
1F
100
AcDbEntity
  8
1
  6
Continuous
 62
   155
420
  5010073
370
    18
100
AcDbLine
 10
711.542726
 20
1975.567625
 30
0.0
 11
808.358897
 21
1975.567625
 31
0.0
  0
LINE
  5
253
330
1F
100
AcDbEntity
  8
1
  6
Continuous
 62
   155
420
  5010073
370
    35
100
AcDbLine
 10
710.971758
 20
1975.661625
 30
0.0
 11
759.950811
 21
1975.661625
 31
0.0
  0
LINE
  5
254
330
1F
100
AcDbEntity
  8
1
  6
Continuous
 62
   155
420
  5010073
370
    35
100
AcDbLine
 10
759.950811
 20
1975.661625
 30
0.0
 11
808.929865
 21
1975.661625
 31
0.0
  0
LINE
  5
255
330
1F
100
AcDbEntity
  8
1
  6
Continuous
 62
   155
420
  5010073
370
    35
100
AcDbLine
 10
808.929865
 20
1975.661625
 30
0.0
 11
808.943829
 21
1976.46161
 31
0.0
  0
LINE
  5
256
330
1F
100
AcDbEntity
  8
1
  6
Continuous
 62
   155
420
  5010073
370
    35
100
AcDbLine
 10
710.957794
 20
1976.46161
 30
0.0
 11
710.971758
 21
1975.661625
 31
0.0
  0
LINE
  5
257
330
1F
100
AcDbEntity
  8
1
  6
Continuous
 62
   155
420
  5010073
370
    35
100
AcDbLine
 10
709.950811
 20
1439.563844
 30
0.0
 11
709.950811
 21
1448.563844
 31
0.0
  0
LINE
  5
258
330
1F
100
AcDbEntity
  8
1
  6
Continuous
 62
   155
420
  5010073
370
    35
100
AcDbLine
 10
832.019405
 20
2288.168656
 30
0.0
 11
831.992996
 21
2288.168656
 31
0.0
  0
LINE
  5
259
330
1F
100
AcDbEntity
  8
1
  6
Continuous
 62
   155
420
  5010073
370
    35
100
AcDbLine
 10
831.992996
 20
2286.168656
 30
0.0
 11
832.019405
 21
2286.168656
 31
0.0
  0
LINE
  5
25A
330
1F
100
AcDbEntity
  8
1
  6
Continuous
 62
   155
420
  5010073
370
    35
100
AcDbLine
 10
832.019405
 20
2286.168656
 30
0.0
 11
832.019405
 21
2288.168656
 31
0.0
  0
LINE
  5
25B
330
1F
100
AcDbEntity
  8
1
  6
Continuous
 62
   155
420
  5010073
370
    35
100
AcDbLine
 10
720.479691
 20
2288.168656
 30
0.0
 11
721.845717
 21
2288.168656
 31
0.0
  0
LINE
  5
25C
330
1F
100
AcDbEntity
  8
1
  6
Continuous
 62
   155
420
  5010073
370
    35
100
AcDbLine
 10
721.278722
 20
2286.168656
 30
0.0
 11
720.479691
 21
2286.168656
 31
0.0
  0
LINE
  5
25D
330
1F
100
AcDbEntity
  8
1
  6
Continuous
 62
   155
420
  5010073
370
    35
100
AcDbLine
 10
720.479691
 20
2288.168656
 30
0.0
 11
716.698455
 21
2288.168656
 31
0.0
  0
LINE
  5
25E
330
1F
100
AcDbEntity
  8
1
  6
Continuous
 62
   155
420
  5010073
370
    35
100
AcDbLine
 10
720.479691
 20
2286.168656
 30
0.0
 11
716.698455
 21
2286.168656
 31
0.0
  0
LINE
  5
25F
330
1F
100
AcDbEntity
  8
1
  6
Continuous
 62
   155
420
  5010073
370
    35
100
AcDbLine
 10
713.699066
 20
2288.168656
 30
0.0
 11
686.956933
 21
2288.168656
 31
0.0
  0
LINE
  5
260
330
1F
100
AcDbEntity
  8
1
  6
Continuous
 62
   155
420
  5010073
370
    35
100
AcDbLine
 10
713.699066
 20
2286.168656
 30
0.0
 11
686.956933
 21
2286.168656
 31
0.0
  0
LINE
  5
261
330
1F
100
AcDbEntity
  8
1
  6
Continuous
 62
   155
420
  5010073
370
    35
100
AcDbLine
 10
686.956933
 20
2288.168656
 30
0.0
 11
686.956933
 21
2286.168656
 31
0.0
  0
LINE
  5
262
330
1F
100
AcDbEntity
  8
1
  6
Continuous
 62
   155
420
  5010073
370
    35
100
AcDbLine
 10
713.699066
 20
2288.168656
 30
0.0
 11
716.698455
 21
2288.168656
 31
0.0
  0
LINE
  5
263
330
1F
100
AcDbEntity
  8
1
  6
Continuous
 62
   155
420
  5010073
370
    35
100
AcDbLine
 10
716.698455
 20
2286.168656
 30
0.0
 11
713.699066
 21
2286.168656
 31
0.0
  0
LINE
  5
264
330
1F
100
AcDbEntity
  8
1
  6
Continuous
 62
   155
420
  5010073
370
    35
100
AcDbLine
 10
734.178737
 20
2286.168656
 30
0.0
 11
732.884989
 21
2286.168656
 31
0.0
  0
LINE
  5
265
330
1F
100
AcDbEntity
  8
1
  6
Continuous
 62
   155
420
  5010073
370
    35
100
AcDbLine
 10
745.234501
 20
2288.168656
 30
0.0
 11
734.178737
 21
2288.168656
 31
0.0
  0
LINE
  5
266
330
1F
100
AcDbEntity
  8
1
  6
Continuous
 62
   155
420
  5010073
370
    35
100
AcDbLine
 10
745.234501
 20
2286.168656
 30
0.0
 11
734.178737
 21
2286.168656
 31
0.0
  0
LINE
  5
267
330
1F
100
AcDbEntity
  8
1
  6
Continuous
 62
   155
420
  5010073
370
    35
100
AcDbLine
 10
831.992996
 20
2288.168656
 30
0.0
 11
774.679365
 21
2288.168656
 31
0.0
  0
LINE
  5
268
330
1F
100
AcDbEntity
  8
1
  6
Continuous
 62
   155
420
  5010073
370
    35
100
AcDbLine
 10
831.992996
 20
2286.168656
 30
0.0
 11
774.679365
 21
2286.168656
 31
0.0
  0
LINE
  5
269
330
1F
100
AcDbEntity
  8
1
  6
Continuous
 62
   155
420
  5010073
370
    18
100
AcDbLine
 10
831.992996
 20
2286.168656
 30
0.0
 11
831.992996
 21
2288.168656
 31
0.0
  0
LINE
  5
26A
330
1F
100
AcDbEntity
  8
1
  6
Continuous
 62
   155
420
  5010073
370
    35
100
AcDbLine
 10
774.679365
 20
2288.168656
 30
0.0
 11
745.234501
 21
2288.168656
 31
0.0
  0
LINE
  5
26B
330
1F
100
AcDbEntity
  8
1
  6
Continuous
 62
   155
420
  5010073
370
    35
100
AcDbLine
 10
774.679365
 20
2286.168656
 30
0.0
 11
745.234501
 21
2286.168656
 31
0.0
  0
LINE
  5
26C
330
1F
100
AcDbEntity
  8
1
  6
Continuous
 62
   155
420
  5010073
370
    35
100
AcDbLine
 10
760.700811
 20
2176.949781
 30
0.0
 11
760.700811
 21
2250.468531
 31
0.0
  0
LINE
  5
26D
330
1F
100
AcDbEntity
  8
1
  6
Continuous
 62
   155
420
  5010073
370
    35
100
AcDbLine
 10
759.200811
 20
2250.468531
 30
0.0
 11
759.200811
 21
2176.949781
 31
0.0
  0
LINE
  5
26E
330
1F
100
AcDbEntity
  8
1
  6
Continuous
 62
   155
420
  5010073
370
    35
100
AcDbLine
 10
709.950811
 20
1441.063844
 30
0.0
 11
709.950811
 21
1447.063844
 31
0.0
  0
LINE
  5
26F
330
1F
100
AcDbEntity
  8
1
  6
Continuous
 62
   155
420
  5010073
370
    35
100
AcDbLine
 10
809.966224
 20
930.263844
 30
0.0
 11
763.454047
 21
930.263844
 31
0.0
  0
LINE
  5
270
330
1F
100
AcDbEntity
  8
1
  6
Continuous
 62
   155
420
  5010073
370
    35
100
AcDbLine
 10
763.454047
 20
930.263844
 30
0.0
 11
709.966224
 21
930.263844
 31
0.0
  0
LINE
  5
271
330
1F
100
AcDbEntity
  8
1
  6
Continuous
 62
   155
420
  5010073
370
    35
100
AcDbLine
 10
709.966224
 20
927.963844
 30
0.0
 11
809.966224
 21
927.963844
 31
0.0
  0
LINE
  5
272
330
1F
100
AcDbEntity
  8
1
  6
Continuous
 62
   155
420
  5010073
370
    35
100
AcDbLine
 10
709.966224
 20
930.263844
 30
0.0
 11
709.966224
 21
927.963844
 31
0.0
  0
LINE
  5
273
330
1F
100
AcDbEntity
  8
1
  6
Continuous
 62
   155
420
  5010073
370
    35
100
AcDbLine
 10
809.966224
 20
927.963844
 30
0.0
 11
809.966224
 21
930.263844
 31
0.0
  0
LINE
  5
274
330
1F
100
AcDbEntity
  8
1
  6
Continuous
 62
   155
420
  5010073
370
    35
100
AcDbLine
 10
721.215454
 20
2284.471274
 30
0.0
 11
723.57026
 21
2284.471274
 31
0.0
  0
LINE
  5
275
330
1F
100
AcDbEntity
  8
1
  6
Continuous
 62
   155
420
  5010073
370
    18
100
AcDbLine
 10
723.1868
 20
2284.171274
 30
0.0
 11
723.246468
 21
2284.171274
 31
0.0
  0
LINE
  5
276
330
1F
100
AcDbEntity
  8
1
  6
Continuous
 62
   155
420
  5010073
370
    35
100
AcDbLine
 10
835.735961
 20
2283.423287
 30
0.0
 11
835.742011
 21
2284.169963
 31
0.0
  0
LINE
  5
277
330
1F
100
AcDbEntity
  8
1
  6
Continuous
 62
   155
420
  5010073
370
    35
100
AcDbLine
 10
835.460219
 20
2250.471274
 30
0.0
 11
684.453646
 21
2250.471274
 31
0.0
  0
LINE
  5
278
330
1F
100
AcDbEntity
  8
1
  6
Continuous
 62
   155
420
  5010073
370
    35
100
AcDbLine
 10
835.460219
 20
2250.471274
 30
0.0
 11
835.736844
 21
2282.169329
 31
0.0
  0
LINE
  5
279
330
1F
100
AcDbEntity
  8
1
  6
Continuous
 62
   155
420
  5010073
370
    35
100
AcDbLine
 10
684.159574
 20
2284.168656
 30
0.0
 11
684.453646
 21
2250.471274
 31
0.0
  0
LINE
  5
27A
330
1F
100
AcDbEntity
  8
1
  6
Continuous
 62
   155
420
  5010073
370
    18
100
AcDbLine
 10
723.246468
 20
2284.171274
 30
0.0
 11
835.742012
 21
2284.171274
 31
0.0
  0
LINE
  5
27B
330
1F
100
AcDbEntity
  8
1
  6
Continuous
 62
   155
420
  5010073
370
    35
100
AcDbLine
 10
832.019405
 20
2286.168656
 30
0.0
 11
831.992996
 21
2286.168656
 31
0.0
  0
LINE
  5
27C
330
1F
100
AcDbEntity
  8
1
  6
Continuous
 62
   155
420
  5010073
370
    35
100
AcDbLine
 10
832.019405
 20
2284.471281
 30
0.0
 11
832.019405
 21
2286.168656
 31
0.0
  0
LINE
  5
27D
330
1F
100
AcDbEntity
  8
1
  6
Continuous
 62
   155
420
  5010073
370
    35
100
AcDbLine
 10
720.479689
 20
2286.168656
 30
0.0
 11
716.698455
 21
2286.168656
 31
0.0
  0
LINE
  5
27E
330
1F
100
AcDbEntity
  8
1
  6
Continuous
 62
   155
420
  5010073
370
    35
100
AcDbLine
 10
713.699066
 20
2286.168656
 30
0.0
 11
686.956933
 21
2286.168656
 31
0.0
  0
LINE
  5
27F
330
1F
100
AcDbEntity
  8
1
  6
Continuous
 62
   155
420
  5010073
370
    35
100
AcDbLine
 10
686.956933
 20
2286.168656
 30
0.0
 11
686.956933
 21
2284.471281
 31
0.0
  0
LINE
  5
280
330
1F
100
AcDbEntity
  8
1
  6
Continuous
 62
   155
420
  5010073
370
    35
100
AcDbLine
 10
713.699066
 20
2286.168656
 30
0.0
 11
716.698455
 21
2286.168656
 31
0.0
  0
LINE
  5
281
330
1F
100
AcDbEntity
  8
1
  6
Continuous
 62
   155
420
  5010073
370
    35
100
AcDbLine
 10
732.884985
 20
2286.168656
 30
0.0
 11
721.278729
 21
2286.168656
 31
0.0
  0
LINE
  5
282
330
1F
100
AcDbEntity
  8
1
  6
Continuous
 62
   155
420
  5010073
370
    35
100
AcDbLine
 10
732.884989
 20
2286.168656
 30
0.0
 11
734.178737
 21
2286.168656
 31
0.0
  0
LINE
  5
283
330
1F
100
AcDbEntity
  8
1
  6
Continuous
 62
   155
420
  5010073
370
    35
100
AcDbLine
 10
745.133683
 20
2286.168656
 30
0.0
 11
734.178737
 21
2286.168656
 31
0.0
  0
LINE
  5
284
330
1F
100
AcDbEntity
  8
1
  6
Continuous
 62
   155
420
  5010073
370
    35
100
AcDbLine
 10
831.992996
 20
2286.168656
 30
0.0
 11
774.780182
 21
2286.168656
 31
0.0
  0
LINE
  5
285
330
1F
100
AcDbEntity
  8
1
  6
Continuous
 62
   155
420
  5010073
370
    18
100
AcDbLine
 10
831.992996
 20
2284.471281
 30
0.0
 11
831.992996
 21
2286.168656
 31
0.0
  0
LINE
  5
286
330
1F
100
AcDbEntity
  8
1
  6
Continuous
 62
   155
420
  5010073
370
    35
100
AcDbLine
 10
774.577124
 20
2286.168656
 30
0.0
 11
745.336741
 21
2286.168656
 31
0.0
  0
LINE
  5
287
330
1F
100
AcDbEntity
  8
1
  6
Continuous
 62
   155
420
  5010073
370
    35
100
AcDbLine
 10
709.950811
 20
931.262725
 30
0.0
 11
809.950811
 21
931.262725
 31
0.0
  0
LINE
  5
288
330
1F
100
AcDbEntity
  8
1
  6
Continuous
 62
   155
420
  5010073
370
    35
100
AcDbLine
 10
709.950811
 20
1975.262725
 30
0.0
 11
809.950811
 21
1975.262725
 31
0.0
  0
LINE
  5
289
330
1F
100
AcDbEntity
  8
1
  6
Continuous
 62
   155
420
  5010073
370
    35
100
AcDbLine
 10
709.950811
 20
1975.262725
 30
0.0
 11
709.950811
 21
1448.564725
 31
0.0
  0
LINE
  5
28A
330
1F
100
AcDbEntity
  8
1
  6
Continuous
 62
   155
420
  5010073
370
    35
100
AcDbLine
 10
709.950811
 20
1439.576538
 30
0.0
 11
709.950811
 21
931.262725
 31
0.0
  0
LINE
  5
28B
330
1F
100
AcDbEntity
  8
1
  6
Continuous
 62
   155
420
  5010073
370
    35
100
AcDbLine
 10
809.950811
 20
931.262725
 30
0.0
 11
809.950811
 21
1975.262725
 31
0.0
  0
ARC
  5
28C
330
1F
100
AcDbEntity
  8
1
  6
Continuous
 62
   155
420
  5010073
370
    35
100
AcDbCircle
 10
711.388539
 20
931.263844
 30
0.0
 40
0.2
100
AcDbArc
 50
270.0
 51
327.9946170000035
  0
ARC
  5
28D
330
1F
100
AcDbEntity
  8
1
  6
Continuous
 62
   155
420
  5010073
370
    35
100
AcDbCircle
 10
808.543909
 20
931.263844
 30
0.0
 40
0.2
100
AcDbArc
 50
212.0053829999964
 51
270.0
  0
ARC
  5
28E
330
1F
100
AcDbEntity
  8
1
  6
Continuous
 62
   155
420
  5010073
370
    35
100
AcDbCircle
 10
684.459562
 20
2284.171274
 30
0.0
 40
0.3000000000291879
100
AcDbArc
 50
180.0
 51
180.5000000000037
  0
ARC
  5
28F
330
1F
100
AcDbEntity
  8
1
  6
Continuous
 62
   155
420
  5010073
370
    35
100
AcDbCircle
 10
684.459562
 20
2284.171274
 30
0.0
 40
0.2999999999999999
100
AcDbArc
 50
90.0
 51
180.0
  0
ARC
  5
290
330
1F
100
AcDbEntity
  8
1
  6
Continuous
 62
   155
420
  5010073
370
    35
100
AcDbCircle
 10
808.528496
 20
1975.461625
 30
0.0
 40
0.2
100
AcDbArc
 50
90.0
 51
147.9946170000036
  0
ARC
  5
291
330
1F
100
AcDbEntity
  8
1
  6
Continuous
 62
   155
420
  5010073
370
    35
100
AcDbCircle
 10
711.373127
 20
1975.461625
 30
0.0
 40
0.2
100
AcDbArc
 50
32.00538299999645
 51
90.0
  0
SPLINE
  5
292
330
1F
100
AcDbEntity
  8
1
  6
Continuous
 62
   155
420
  5010073
370
    35
100
AcDbSpline
210
0.0
220
0.0
230
1.0
 70
    12
 71
     2
 72
     8
 73
     5
 74
     0
 42
0.0000000001
 43
0.0000000001
 40
1.565954261291286
 40
1.565954261291286
 40
1.565954261291286
 40
1.570796326794897
 40
1.570796326794897
 40
3.141592653589793
 40
3.141592653589793
 40
3.141592653589793
 10
835.7420095446786
 20
2284.169965007215
 30
0.0
 41
0.9981998475259637
 10
835.7420123999999
 20
2284.170619500493
 30
0.0
 41
0.9990971406497035
 10
835.7420123999999
 20
2284.171274
 30
0.0
 41
1.0
 10
835.7420123999999
 20
2284.471274
 30
0.0
 41
0.7071067811865476
 10
835.442061
 20
2284.471274
 30
0.0
 41
1.0
  0
SPLINE
  5
293
330
1F
100
AcDbEntity
  8
1
  6
Continuous
 62
   155
420
  5010073
370
    35
100
AcDbSpline
210
0.0
220
0.0
230
1.0
 70
     8
 71
     3
 72
     9
 73
     5
 74
     0
 42
0.0000000001
 43
0.0000000001
 40
0.0
 40
0.0
 40
0.0
 40
0.0
 40
0.2423846130840712
 40
1.0
 40
1.0
 40
1.0
 40
1.0
 10
757.2007822205501
 20
2250.471635271274
 30
0.0
 10
757.2008757074126
 20
2249.626823594696
 30
0.0
 10
757.2012430246178
 20
2246.141405668211
 30
0.0
 10
757.2009391495653
 20
2242.655987689963
 30
0.0
 10
757.2006700425295
 20
2240.015381410407
 30
0.0
  0
SPLINE
  5
294
330
1F
100
AcDbEntity
  8
1
  6
Continuous
 62
   155
420
  5010073
370
    35
100
AcDbSpline
210
0.0
220
0.0
230
1.0
 70
     8
 71
     3
 72
     9
 73
     5
 74
     0
 42
0.0000000001
 43
0.0000000001
 40
0.0
 40
0.0
 40
0.0
 40
0.0
 40
0.7580346559265674
 40
1.0
 40
1.0
 40
1.0
 40
1.0
 10
762.7008035915757
 20
2240.007880653068
 30
0.0
 10
762.7002468293266
 20
2242.651842781166
 30
0.0
 10
762.6990581038744
 20
2246.139759955893
 30
0.0
 10
762.7009866548625
 20
2249.627677118026
 30
0.0
 10
762.7014209469975
 20
2250.471632190966
 30
0.0
  0
SPLINE
  5
295
330
1F
100
AcDbEntity
  8
1
  6
Continuous
 62
   155
420
  5010073
370
    35
100
AcDbSpline
210
0.0
220
0.0
230
1.0
 70
    24
 71
     2
 72
     6
 73
     3
 74
     0
 42
0.0000000001
 43
0.0000000001
 40
0.0
 40
0.0
 40
0.0
 40
1.0
 40
1.0
 40
1.0
 10
757.2069936417889
 20
1983.728066769737
 30
0.0
 10
757.2071909996491
 20
1981.244857007341
 30
0.0
 10
757.2073883575092
 20
1978.761647244944
 30
0.0
  0
SPLINE
  5
296
330
1F
100
AcDbEntity
  8
1
  6
Continuous
 62
   155
420
  5010073
370
    35
100
AcDbSpline
210
0.0
220
0.0
230
1.0
 70
    24
 71
     2
 72
     6
 73
     3
 74
     0
 42
0.0000000001
 43
0.0000000001
 40
0.0
 40
0.0
 40
0.0
 40
1.0
 40
1.0
 40
1.0
 10
762.7073438501521
 20
1978.761662450254
 30
0.0
 10
762.7070908354027
 20
1981.250017143222
 30
0.0
 10
762.7068378206533
 20
1983.738371836189
 30
0.0
  0
SPLINE
  5
297
330
1F
100
AcDbEntity
  8
1
  6
Continuous
 62
   155
420
  5010073
370
    35
100
AcDbSpline
210
0.0
220
0.0
230
1.0
 70
     8
 71
     3
 72
    21
 73
    17
 74
     0
 42
0.0000000001
 43
0.0000000001
 40
0.0
 40
0.0
 40
0.0
 40
0.0
 40
0.0534768980745554
 40
0.1007969239723543
 40
0.1432526193626448
 40
0.1822262738654228
 40
0.2504274653183302
 40
0.3032113044693734
 40
0.350882475993867
 40
0.3990296524263928
 40
0.4507492502424957
 40
0.518429306830526
 40
0.60616453388137
 40
0.7182058960772946
 40
0.8519439939387576
 40
1.0
 40
1.0
 40
1.0
 40
1.0
 10
756.2527949521957
 20
2062.813183781275
 30
0.0
 10
754.9996843009592
 20
2061.950633203878
 30
0.0
 10
752.8813499685818
 20
2060.118590964479
 30
0.0
 10
750.4366081873563
 20
2056.915626987947
 30
0.0
 10
748.9096916577846
 20
2053.674431296696
 30
0.0
 10
747.8075188729111
 20
2049.691972203599
 30
0.0
 10
747.4474493965761
 20
2045.298036671613
 30
0.0
 10
747.7063253084931
 20
2040.69572066681
 30
0.0
 10
748.2412348912484
 20
2036.67140424938
 30
0.0
 10
748.9666860383842
 20
2032.706753184418
 30
0.0
 10
749.9363316453617
 20
2028.227907627361
 30
0.0
 10
751.2503413512042
 20
2022.705404771947
 30
0.0
 10
752.9735936343563
 20
2015.55147827618
 30
0.0
 10
754.9537935319496
 20
2006.548267190817
 30
0.0
 10
756.7188102540136
 20
1995.722720853298
 30
0.0
 10
757.1663083970343
 20
1987.880555304136
 30
0.0
 10
757.2069936417889
 20
1983.728066769737
 30
0.0
  0
SPLINE
  5
298
330
1F
100
AcDbEntity
  8
1
  6
Continuous
 62
   155
420
  5010073
370
    35
100
AcDbSpline
210
0.0
220
0.0
230
1.0
 70
     8
 71
     3
 72
     9
 73
     5
 74
     0
 42
0.0000000001
 43
0.0000000001
 40
0.0
 40
0.0
 40
0.0
 40
0.0
 40
0.5684877539462632
 40
1.0
 40
1.0
 40
1.0
 40
1.0
 10
762.7068378206533
 20
1983.738371836189
 30
0.0
 10
762.67206865719
 20
1987.789707307805
 30
0.0
 10
762.2917884028961
 20
1994.866832627881
 30
0.0
 10
761.2756530782107
 20
2001.875506333629
 30
0.0
 10
760.7547434925174
 20
2004.878195924955
 30
0.0
  0
SPLINE
  5
299
330
1F
100
AcDbEntity
  8
1
  6
Continuous
 62
   155
420
  5010073
370
    35
100
AcDbSpline
210
0.0
220
0.0
230
1.0
 70
     8
 71
     3
 72
    16
 73
    12
 74
     0
 42
0.0000000001
 43
0.0000000001
 40
0.0
 40
0.0
 40
0.0
 40
0.0
 40
0.1737991228511547
 40
0.3288749183076966
 40
0.4642372112390548
 40
0.5775172257673502
 40
0.6670646858497572
 40
0.7457751288108696
 40
0.8460913166290871
 40
0.9696043588126254
 40
1.0
 40
1.0
 40
1.0
 40
1.0
 10
757.2006700425295
 20
2240.015381410407
 30
0.0
 10
757.1765185219219
 20
2237.033464873976
 30
0.0
 10
757.1278726032272
 20
2231.432850687576
 30
0.0
 10
756.9794698219226
 20
2223.631941021062
 30
0.0
 10
756.9614270985405
 20
2216.94590790792
 30
0.0
 10
757.0662572545766
 20
2211.397244629093
 30
0.0
 10
757.2660774663477
 20
2206.804837113704
 30
0.0
 10
757.5624272366563
 20
2202.438552013402
 30
0.0
 10
758.0420130476487
 20
2197.536883912899
 30
0.0
 10
758.6252542638471
 20
2193.432248035293
 30
0.0
 10
759.067083366197
 20
2190.95362694305
 30
0.0
 10
759.1579258422132
 20
2190.464408724989
 30
0.0
  0
SPLINE
  5
29A
330
1F
100
AcDbEntity
  8
1
  6
Continuous
 62
   155
420
  5010073
370
    35
100
AcDbSpline
210
0.0
220
0.0
230
1.0
 70
     8
 71
     3
 72
    10
 73
     6
 74
     0
 42
0.0000000001
 43
0.0000000001
 40
0.0
 40
0.0
 40
0.0
 40
0.0
 40
0.1609934066684887
 40
0.5606912614401003
 40
1.0
 40
1.0
 40
1.0
 40
1.0
 10
763.3585636666609
 20
2175.157883891687
 30
0.0
 10
763.7229399029591
 20
2174.185805237607
 30
0.0
 10
765.0594096873436
 20
2170.815165926288
 30
0.0
 10
767.8772723802557
 20
2164.913092390843
 30
0.0
 10
770.7804541311175
 20
2160.236760300091
 30
0.0
 10
772.4488941863256
 20
2157.851536151703
 30
0.0
  0
SPLINE
  5
29B
330
1F
100
AcDbEntity
  8
1
  6
Continuous
 62
   155
420
  5010073
370
    35
100
AcDbSpline
210
0.0
220
0.0
230
1.0
 70
     8
 71
     3
 72
    19
 73
    15
 74
     0
 42
0.0000000001
 43
0.0000000001
 40
0.0
 40
0.0
 40
0.0
 40
0.0
 40
0.0844456493664941
 40
0.1601758775750105
 40
0.2591833681947458
 40
0.3410236358578786
 40
0.4058261394627852
 40
0.4577466178093815
 40
0.5149640574449506
 40
0.5863386478405191
 40
0.6714832311318095
 40
0.7695281991040067
 40
0.8790841644243551
 40
1.0
 40
1.0
 40
1.0
 40
1.0
 10
776.9588627880306
 20
2160.999855753582
 30
0.0
 10
775.5930093159088
 20
2162.950053837673
 30
0.0
 10
773.205321904529
 20
2166.739956690481
 30
0.0
 10
769.9606192942579
 20
2173.194687205228
 30
0.0
 10
767.4315378860641
 20
2179.785864703486
 30
0.0
 10
765.6325298117756
 20
2186.196686492945
 30
0.0
 10
764.5389999236762
 20
2191.412810578788
 30
0.0
 10
763.8012715677837
 20
2195.996144401106
 30
0.0
 10
763.2244887650967
 20
2200.770267423089
 30
0.0
 10
762.7694980566413
 20
2206.445442087492
 30
0.0
 10
762.497482328374
 20
2213.246697845456
 30
0.0
 10
762.444514081672
 20
2221.14906915796
 30
0.0
 10
762.6078644113945
 20
2230.166790264602
 30
0.0
 10
762.6656777960449
 20
2236.601438513011
 30
0.0
 10
762.7008035915757
 20
2240.007880653068
 30
0.0
  0
SPLINE
  5
29C
330
1F
100
AcDbEntity
  8
1
  6
Continuous
 62
   155
420
  5010073
370
    35
100
AcDbSpline
210
0.0
220
0.0
230
1.0
 70
     8
 71
     3
 72
    22
 73
    18
 74
     0
 42
0.0000000001
 43
0.0000000001
 40
0.0
 40
0.0
 40
0.0
 40
0.0
 40
0.0712188165176409
 40
0.1327250853947843
 40
0.1845998493851573
 40
0.2443781761610759
 40
0.2933331372497716
 40
0.3945718753568463
 40
0.4964968388277826
 40
0.5978877012915905
 40
0.6960847390747956
 40
0.72612068734566
 40
0.7572483113502781
 40
0.7997370494374647
 40
0.8543597315214688
 40
0.920994320562519
 40
1.0
 40
1.0
 40
1.0
 40
1.0
 10
776.4409381998571
 20
2152.149842686485
 30
0.0
 10
777.7441079970404
 20
2150.272828191258
 30
0.0
 10
779.9507723193074
 20
2146.660097964803
 30
0.0
 10
782.4363851527888
 20
2141.300775476365
 30
0.0
 10
784.3211411714174
 20
2136.099940591517
 30
0.0
 10
785.6487617371434
 20
2131.139541713325
 30
0.0
 10
786.8623220887716
 20
2124.543424760922
 30
0.0
 10
787.4751397540753
 20
2116.488329263466
 30
0.0
 10
786.7902268833194
 20
2106.753924115732
 30
0.0
 10
784.633998237589
 20
2097.333594936505
 30
0.0
 10
781.8857862728349
 20
2090.50147794712
 30
0.0
 10
779.5053566740393
 20
2086.004120312947
 30
0.0
 10
777.8117374193941
 20
2083.159862885898
 30
0.0
 10
775.503883977446
 20
2079.774349381605
 30
0.0
 10
772.2102802421259
 20
2075.706871000905
 30
0.0
 10
767.6849889570921
 20
2071.165412739752
 30
0.0
 10
764.0533805088443
 20
2068.270984364284
 30
0.0
 10
761.974450513375
 20
2066.818227283395
 30
0.0
  0
SPLINE
  5
29D
330
1F
100
AcDbEntity
  8
1
  6
Continuous
 62
   155
420
  5010073
370
    35
100
AcDbSpline
210
0.0
220
0.0
230
1.0
 70
     8
 71
     3
 72
    23
 73
    19
 74
     0
 42
0.0000000001
 43
0.0000000001
 40
0.0
 40
0.0
 40
0.0
 40
0.0
 40
0.0680859462413057
 40
0.1252783822700173
 40
0.1714251500451215
 40
0.2066181425864281
 40
0.2386936426944409
 40
0.2713099921754215
 40
0.3715649221190684
 40
0.4721966913727422
 40
0.5728562017939429
 40
0.6662332862721814
 40
0.696364171663328
 40
0.7357489756759651
 40
0.7856844822663716
 40
0.8462689783807893
 40
0.917577141434087
 40
1.0
 40
1.0
 40
1.0
 40
1.0
 10
765.1409950844746
 20
2062.321166808238
 30
0.0
 10
767.0894265298323
 20
2063.68533726406
 30
0.0
 10
770.5177691829342
 20
2066.37123625843
 30
0.0
 10
774.8401952285373
 20
2070.498460663713
 30
0.0
 10
778.0321842521815
 20
2074.115282385599
 30
0.0
 10
780.4356697420687
 20
2077.247711102546
 30
0.0
 10
782.3918458884042
 20
2080.122176489583
 30
0.0
 10
785.362126920538
 20
2085.034627398673
 30
0.0
 10
788.800555793252
 20
2092.439253279126
 30
0.0
 10
791.6621561666185
 20
2102.576432593346
 30
0.0
 10
792.896614998078
 20
2112.79360341755
 30
0.0
 10
792.713928609221
 20
2120.616712369252
 30
0.0
 10
792.0848755983961
 20
2126.250060592528
 30
0.0
 10
791.4178928659409
 20
2130.354412722397
 30
0.0
 10
790.2487352709804
 20
2135.442335571852
 30
0.0
 10
788.3212507958926
 20
2141.474960152284
 30
0.0
 10
785.3415071885685
 20
2148.336668410064
 30
0.0
 10
782.5978883015931
 20
2152.921073829909
 30
0.0
 10
780.9539465135313
 20
2155.29376649166
 30
0.0
  0
SPLINE
  5
29E
330
1F
100
AcDbEntity
  8
1
  6
Continuous
 62
   155
420
  5010073
370
    35
100
AcDbSpline
210
0.0
220
0.0
230
1.0
 70
     8
 71
     2
 72
     6
 73
     3
 74
     0
 42
0.0000000001
 43
0.0000000001
 40
0.0
 40
0.0
 40
0.0
 40
1.0
 40
1.0
 40
1.0
 10
761.974450513375
 20
2066.818227283395
 30
0.0
 10
761.337650152142
 20
2066.372380410686
 30
0.0
 10
760.700828988912
 20
2065.926563259538
 30
0.0
  0
SPLINE
  5
29F
330
1F
100
AcDbEntity
  8
1
  6
Continuous
 62
   155
420
  5010073
370
    35
100
AcDbSpline
210
0.0
220
0.0
230
1.0
 70
     8
 71
     2
 72
     6
 73
     3
 74
     0
 42
0.0000000001
 43
0.0000000001
 40
0.0
 40
0.0
 40
0.0
 40
1.0
 40
1.0
 40
1.0
 10
759.2008040251992
 20
2064.876507484517
 30
0.0
 10
757.7268552036097
 20
2063.844766028321
 30
0.0
 10
756.2527949521957
 20
2062.813183781275
 30
0.0
  0
SPLINE
  5
2A0
330
1F
100
AcDbEntity
  8
1
  6
Continuous
 62
   155
420
  5010073
370
    35
100
AcDbSpline
210
0.0
220
0.0
230
1.0
 70
     8
 71
     2
 72
     6
 73
     3
 74
     0
 42
0.0000000001
 43
0.0000000001
 40
0.0
 40
0.0
 40
0.0
 40
1.0
 40
1.0
 40
1.0
 10
772.4488941863256
 20
2157.851536151703
 30
0.0
 10
774.4457761042858
 20
2155.001291524538
 30
0.0
 10
776.4409381998571
 20
2152.149842686485
 30
0.0
  0
SPLINE
  5
2A1
330
1F
100
AcDbEntity
  8
1
  6
Continuous
 62
   155
420
  5010073
370
    35
100
AcDbSpline
210
0.0
220
0.0
230
1.0
 70
     8
 71
     2
 72
     6
 73
     3
 74
     0
 42
0.0000000001
 43
0.0000000001
 40
0.0
 40
0.0
 40
0.0
 40
1.0
 40
1.0
 40
1.0
 10
780.9539465135313
 20
2155.293766491661
 30
0.0
 10
778.956410259615
 20
2158.146815053783
 30
0.0
 10
776.9588627880306
 20
2160.999855753583
 30
0.0
  0
SPLINE
  5
2A2
330
1F
100
AcDbEntity
  8
1
  6
Continuous
 62
   155
420
  5010073
370
    35
100
AcDbSpline
210
0.0
220
0.0
230
1.0
 70
     8
 71
     3
 72
     8
 73
     4
 74
     0
 42
0.0000000001
 43
0.0000000001
 40
0.0
 40
0.0
 40
0.0
 40
0.0
 40
1.0
 40
1.0
 40
1.0
 40
1.0
 10
723.2464338252108
 20
2284.168657925334
 30
0.0
 10
723.225833729746
 20
2284.169476518692
 30
0.0
 10
723.2055374306498
 20
2284.170361533765
 30
0.0
 10
723.1868001422388
 20
2284.171276501358
 30
0.0
  0
SPLINE
  5
2A3
330
1F
100
AcDbEntity
  8
1
  6
Continuous
 62
   155
420
  5010073
370
    35
100
AcDbSpline
210
0.0
220
0.0
230
1.0
 70
     8
 71
     3
 72
    13
 73
     9
 74
     0
 42
0.0000000001
 43
0.0000000001
 40
0.0
 40
0.0
 40
0.0
 40
0.0
 40
0.1262959044297042
 40
0.2503308770503113
 40
0.3743366906057765
 40
0.5005466055399548
 40
0.7506221589530437
 40
1.0
 40
1.0
 40
1.0
 40
1.0
 10
835.7368358150328
 20
2282.169328755629
 30
0.0
 10
835.7367885744809
 20
2282.171435608853
 30
0.0
 10
835.736694939071
 20
2282.175611598707
 30
0.0
 10
835.7363175040794
 20
2282.210457372106
 30
0.0
 10
835.7358161043397
 20
2282.266415712111
 30
0.0
 10
835.7350377974691
 20
2282.370287467226
 30
0.0
 10
835.7338959968876
 20
2282.545075163104
 30
0.0
 10
835.7336706738963
 20
2282.737874911377
 30
0.0
 10
835.7335581697835
 20
2282.834140119527
 30
0.0
  0
SPLINE
  5
2A4
330
1F
100
AcDbEntity
  8
1
  6
Continuous
 62
   155
420
  5010073
370
    35
100
AcDbSpline
210
0.0
220
0.0
230
1.0
 70
     8
 71
     3
 72
     8
 73
     4
 74
     0
 42
0.0000000001
 43
0.0000000001
 40
0.0
 40
0.0
 40
0.0
 40
0.0
 40
1.0
 40
1.0
 40
1.0
 40
1.0
 10
835.7335581697737
 20
2282.834140119527
 30
0.0
 10
835.7335640854992
 20
2283.016163604263
 30
0.0
 10
835.7342623460331
 20
2283.212545809795
 30
0.0
 10
835.7359611928589
 20
2283.423286736122
 30
0.0
  0
SPLINE
  5
2A5
330
1F
100
AcDbEntity
  8
1
  6
Continuous
 62
   155
420
  5010073
370
    35
100
AcDbSpline
210
0.0
220
0.0
230
1.0
 70
     8
 71
     3
 72
    10
 73
     6
 74
     0
 42
0.0000000001
 43
0.0000000001
 40
0.0
 40
0.0
 40
0.0
 40
0.0
 40
0.0004466199558643
 40
0.4999861251486631
 40
1.0
 40
1.0
 40
1.0
 40
1.0
 10
835.7352180016253
 20
2282.347763475512
 30
0.0
 10
835.7352183673635
 20
2282.347711349363
 30
0.0
 10
835.7356277993354
 20
2282.289366398764
 30
0.0
 10
835.7364290915016
 20
2282.194384660766
 30
0.0
 10
835.7367001726726
 20
2282.177683386661
 30
0.0
 10
835.7368357775832
 20
2282.169328786549
 30
0.0
  0
POLYLINE
  5
2A6
330
1F
100
AcDbEntity
  8
1
  6
Continuous
 62
   155
420
  5010073
370
    18
100
AcDb2dPolyline
 66
     1
 10
0.0
 20
0.0
 30
0.0
  0
VERTEX
  5
2A7
330
2A6
100
AcDbEntity
  8
1
  6
Continuous
 62
   155
420
  5010073
370
    18
100
AcDbVertex
100
AcDb2dVertex
 10
684.159574
 20
2284.168656
 30
0.0
  0
VERTEX
  5
2A8
330
2A6
100
AcDbEntity
  8
1
  6
Continuous
 62
   155
420
  5010073
370
    18
100
AcDbVertex
100
AcDb2dVertex
 10
723.2464338252108
 20
2284.168657925334
 30
0.0
  0
SEQEND
  5
2A9
330
2A6
100
AcDbEntity
  8
1
  6
Continuous
 62
   155
420
  5010073
370
    18
  0
POLYLINE
  5
2AA
330
1F
100
AcDbEntity
  8
1
  6
Continuous
 62
   155
420
  5010073
370
    35
100
AcDb2dPolyline
 66
     1
 10
0.0
 20
0.0
 30
0.0
  0
VERTEX
  5
2AB
330
2AA
100
AcDbEntity
  8
1
  6
Continuous
 62
   155
420
  5010073
370
    35
100
AcDbVertex
100
AcDb2dVertex
 10
721.215454
 20
2284.471274
 30
0.0
  0
VERTEX
  5
2AC
330
2AA
100
AcDbEntity
  8
1
  6
Continuous
 62
   155
420
  5010073
370
    35
100
AcDbVertex
100
AcDb2dVertex
 10
684.459562
 20
2284.471274
 30
0.0
  0
SEQEND
  5
2AD
330
2AA
100
AcDbEntity
  8
1
  6
Continuous
 62
   155
420
  5010073
370
    35
  0
LINE
  5
2AE
330
1F
100
AcDbEntity
  8
1
  6
Continuous
 62
   155
420
  5010073
370
    35
100
AcDbLine
 10
835.442061
 20
2284.471274
 30
0.0
 11
723.391772
 21
2284.471274
 31
0.0
  0
POLYLINE
  5
2AF
330
1F
100
AcDbEntity
  8
1
  6
Continuous
 62
   155
420
  5010073
370
    35
100
AcDb2dPolyline
 66
     1
 10
0.0
 20
0.0
 30
0.0
  0
VERTEX
  5
2B0
330
2AF
100
AcDbEntity
  8
1
  6
Continuous
 62
   155
420
  5010073
370
    35
100
AcDbVertex
100
AcDb2dVertex
 10
734.178737
 20
2288.168656
 30
0.0
  0
VERTEX
  5
2B1
330
2AF
100
AcDbEntity
  8
1
  6
Continuous
 62
   155
420
  5010073
370
    35
100
AcDbVertex
100
AcDb2dVertex
 10
721.845717
 20
2288.168656
 30
0.0
  0
SEQEND
  5
2B2
330
2AF
100
AcDbEntity
  8
1
  6
Continuous
 62
   155
420
  5010073
370
    35
  0
POLYLINE
  5
2B3
330
1F
100
AcDbEntity
  8
1
  6
Continuous
 62
   155
420
  5010073
370
    35
100
AcDb2dPolyline
 66
     1
 10
0.0
 20
0.0
 30
0.0
  0
VERTEX
  5
2B4
330
2B3
100
AcDbEntity
  8
1
  6
Continuous
 62
   155
420
  5010073
370
    35
100
AcDbVertex
100
AcDb2dVertex
 10
759.200811
 20
2176.949781
 30
0.0
  0
VERTEX
  5
2B5
330
2B3
100
AcDbEntity
  8
1
  6
Continuous
 62
   155
420
  5010073
370
    35
100
AcDbVertex
100
AcDb2dVertex
 10
759.200811
 20
2059.954469
 30
0.0
  0
SEQEND
  5
2B6
330
2B3
100
AcDbEntity
  8
1
  6
Continuous
 62
   155
420
  5010073
370
    35
  0
POLYLINE
  5
2B7
330
1F
100
AcDbEntity
  8
1
  6
Continuous
 62
   155
420
  5010073
370
    35
100
AcDb2dPolyline
 66
     1
 10
0.0
 20
0.0
 30
0.0
  0
VERTEX
  5
2B8
330
2B7
100
AcDbEntity
  8
1
  6
Continuous
 62
   155
420
  5010073
370
    35
100
AcDbVertex
100
AcDb2dVertex
 10
760.700811
 20
2059.954469
 30
0.0
  0
VERTEX
  5
2B9
330
2B7
100
AcDbEntity
  8
1
  6
Continuous
 62
   155
420
  5010073
370
    35
100
AcDbVertex
100
AcDb2dVertex
 10
760.700811
 20
2176.949781
 30
0.0
  0
SEQEND
  5
2BA
330
2B7
100
AcDbEntity
  8
1
  6
Continuous
 62
   155
420
  5010073
370
    35
  0
SPLINE
  5
2BB
330
1F
100
AcDbEntity
  8
1
  6
Continuous
 62
   155
420
  5010073
370
    35
100
AcDbSpline
210
0.0
220
0.0
230
1.0
 70
     8
 71
     3
 72
     9
 73
     5
 74
     0
 42
0.0000000001
 43
0.0000000001
 40
0.0
 40
0.0
 40
0.0
 40
0.0
 40
0.7171562111821561
 40
1.0
 40
1.0
 40
1.0
 40
1.0
 10
760.666278377558
 20
2183.677652966713
 30
0.0
 10
761.0891017755398
 20
2182.057775030828
 30
0.0
 10
761.742851086102
 20
2179.806931410402
 30
0.0
 10
762.4927737878925
 20
2177.572944685835
 30
0.0
 10
763.3585636666609
 20
2175.157883891687
 30
0.0
  0
SPLINE
  5
2BC
330
1F
100
AcDbEntity
  8
1
  6
Continuous
 62
   155
420
  5010073
370
    35
100
AcDbSpline
210
0.0
220
0.0
230
1.0
 70
     8
 71
     3
 72
    18
 73
    14
 74
     0
 42
0.0000000001
 43
0.0000000001
 40
0.0
 40
0.0
 40
0.0
 40
0.0
 40
0.0644763808058443
 40
0.2155111530023211
 40
0.3307975922544288
 40
0.4579889762531094
 40
0.5738340503820099
 40
0.6440262183642004
 40
0.7441838774961091
 40
0.8002327182441445
 40
0.8586027654569574
 40
0.9219102250935823
 40
1.0
 40
1.0
 40
1.0
 40
1.0
 10
759.2415646176037
 20
2012.609489973087
 30
0.0
 10
759.0201960703213
 20
2013.636031591387
 30
0.0
 10
758.2579842404118
 20
2017.05913552907
 30
0.0
 10
756.9947231665594
 20
2022.275287825784
 30
0.0
 10
755.5185495110591
 20
2028.460547197456
 30
0.0
 10
754.2874216509132
 20
2034.094488515169
 30
0.0
 10
753.4411467446791
 20
2039.048775987489
 30
0.0
 10
752.9979593301055
 20
2043.605184432399
 30
0.0
 10
753.0474479723614
 20
2047.247768714535
 30
0.0
 10
753.7166198012135
 20
2050.639793268294
 30
0.0
 10
754.7473085206625
 20
2053.33921145735
 30
0.0
 10
756.623510341434
 20
2056.055864406479
 30
0.0
 10
758.3477434450202
 20
2057.589893561029
 30
0.0
 10
759.2008110000002
 20
2058.165541739052
 30
0.0
  0
POLYLINE
  5
2BD
330
1F
100
AcDbEntity
  8
1
  6
Continuous
 62
   155
420
  5010073
370
    35
100
AcDb2dPolyline
 66
     1
 10
0.0
 20
0.0
 30
0.0
  0
VERTEX
  5
2BE
330
2BD
100
AcDbEntity
  8
1
  6
Continuous
 62
   155
420
  5010073
370
    35
100
AcDbVertex
100
AcDb2dVertex
 10
759.200811
 20
2059.954469
 30
0.0
  0
VERTEX
  5
2BF
330
2BD
100
AcDbEntity
  8
1
  6
Continuous
 62
   155
420
  5010073
370
    35
100
AcDbVertex
100
AcDb2dVertex
 10
759.200811
 20
1978.762281
 30
0.0
  0
SEQEND
  5
2C0
330
2BD
100
AcDbEntity
  8
1
  6
Continuous
 62
   155
420
  5010073
370
    35
  0
POLYLINE
  5
2C1
330
1F
100
AcDbEntity
  8
1
  6
Continuous
 62
   155
420
  5010073
370
    35
100
AcDb2dPolyline
 66
     1
 10
0.0
 20
0.0
 30
0.0
  0
VERTEX
  5
2C2
330
2C1
100
AcDbEntity
  8
1
  6
Continuous
 62
   155
420
  5010073
370
    35
100
AcDbVertex
100
AcDb2dVertex
 10
760.700811
 20
1978.762281
 30
0.0
  0
VERTEX
  5
2C3
330
2C1
100
AcDbEntity
  8
1
  6
Continuous
 62
   155
420
  5010073
370
    35
100
AcDbVertex
100
AcDb2dVertex
 10
760.700811
 20
2059.954469
 30
0.0
  0
SEQEND
  5
2C4
330
2C1
100
AcDbEntity
  8
1
  6
Continuous
 62
   155
420
  5010073
370
    35
  0
SPLINE
  5
2C5
330
1F
100
AcDbEntity
  8
1
  6
Continuous
 62
   155
420
  5010073
370
    35
100
AcDbSpline
210
0.0
220
0.0
230
1.0
 70
     8
 71
     2
 72
     6
 73
     3
 74
     0
 42
0.0000000001
 43
0.0000000001
 40
0.0
 40
0.0
 40
0.0
 40
1.0
 40
1.0
 40
1.0
 10
760.6958246349486
 20
2058.979282189513
 30
0.0
 10
763.4503126667435
 20
2061.137214324854
 30
0.0
 10
765.1409950844746
 20
2062.321166808238
 30
0.0
  0
ENDSEC
  0
SECTION
  2
OBJECTS
  0
DICTIONARY
  5
C
330
0
100
AcDbDictionary
281
     1
  3
ACAD_DETAILVIEWSTYLE
350
301
  3
ACAD_GROUP
350
D
  3
ACAD_LAYOUT
350
1A
  3
ACAD_MATERIAL
350
43
  3
ACAD_MLEADERSTYLE
350
5B
  3
ACAD_MLINESTYLE
350
17
  3
ACAD_PLOTSETTINGS
350
19
  3
ACAD_PLOTSTYLENAME
350
E
  3
ACAD_SCALELIST
350
47
  3
ACAD_SECTIONVIEWSTYLE
350
302
  3
ACAD_TABLESTYLE
350
59
  3
ACAD_VISUALSTYLE
350
2A
  3
AcDbVariableDictionary
350
2C6
  3
ACDB_RECOMPOSE_DATA
350
2FE
  0
SUN
  5
5D
330
29
100
AcDbSun
 90
        1
290
     0
 63
     7
421
 16777215
 40
1.0
291
     1
 91
  2455826
 92
 54000000
292
     0
 70
     2
 71
   256
280
     1
  0
DICTIONARY
  5
301
102
{ACAD_REACTORS
330
C
102
}
330
C
100
AcDbDictionary
281
     1
  0
DICTIONARY
  5
D
102
{ACAD_REACTORS
330
C
102
}
330
C
100
AcDbDictionary
281
     1
  0
DICTIONARY
  5
1A
102
{ACAD_REACTORS
330
C
102
}
330
C
100
AcDbDictionary
281
     1
  3
Layout1
350
1E
  3
Layout2
350
26
  3
Model
350
22
  0
DICTIONARY
  5
43
102
{ACAD_REACTORS
330
C
102
}
330
C
100
AcDbDictionary
281
     1
  3
ByBlock
350
45
  3
ByLayer
350
44
  3
Global
350
46
  0
DICTIONARY
  5
5B
102
{ACAD_REACTORS
330
C
102
}
330
C
100
AcDbDictionary
281
     1
  3
Standard
350
5C
  0
DICTIONARY
  5
17
102
{ACAD_REACTORS
330
C
102
}
330
C
100
AcDbDictionary
281
     1
  3
Standard
350
18
  0
DICTIONARY
  5
19
102
{ACAD_REACTORS
330
C
102
}
330
C
100
AcDbDictionary
281
     1
  0
ACDBDICTIONARYWDFLT
  5
E
102
{ACAD_REACTORS
330
C
102
}
330
C
100
AcDbDictionary
281
     1
  3
Normal
350
F
100
AcDbDictionaryWithDefault
340
F
  0
DICTIONARY
  5
47
102
{ACAD_REACTORS
330
C
102
}
330
C
100
AcDbDictionary
281
     1
  3
A0
350
48
  3
A1
350
49
  3
A2
350
4A
  3
A3
350
4B
  3
A4
350
4C
  3
A5
350
4D
  3
A6
350
4E
  3
A7
350
4F
  3
A8
350
50
  3
A9
350
51
  3
B1
350
52
  3
B2
350
53
  3
B3
350
54
  3
B4
350
55
  3
B5
350
56
  3
B6
350
57
  3
B7
350
58
  0
DICTIONARY
  5
302
102
{ACAD_REACTORS
330
C
102
}
330
C
100
AcDbDictionary
281
     1
  0
DICTIONARY
  5
59
102
{ACAD_REACTORS
330
C
102
}
330
C
100
AcDbDictionary
281
     1
  3
Standard
350
5A
  0
DICTIONARY
  5
2A
102
{ACAD_REACTORS
330
C
102
}
330
C
100
AcDbDictionary
281
     1
  3
2dWireframe
350
2F
  3
Basic
350
32
  3
Brighten
350
36
  3
ColorChange
350
3A
  3
Conceptual
350
34
  3
Dim
350
35
  3
EdgeColorOff
350
3D
  3
Facepattern
350
39
  3
Flat
350
2B
  3
FlatWithEdges
350
2C
  3
Gouraud
350
2D
  3
GouraudWithEdges
350
2E
  3
Hidden
350
31
  3
JitterOff
350
3B
  3
Linepattern
350
38
  3
OverhangOff
350
3C
  3
Realistic
350
33
  3
Shaded
350
42
  3
Shaded with edges
350
41
  3
Shades of Gray
350
3E
  3
Sketchy
350
3F
  3
Thicken
350
37
  3
Wireframe
350
30
  3
X-Ray
350
40
  0
DICTIONARY
  5
2C6
102
{ACAD_REACTORS
330
C
102
}
330
C
100
AcDbDictionary
281
     1
  3
CANNOSCALE
350
2C7
  3
CMLEADERSTYLE
350
300
  3
CTABLESTYLE
350
2FF
  3
XCLIPFRAME
350
2C8
  0
XRECORD
  5
2FE
102
{ACAD_REACTORS
330
C
102
}
330
C
100
AcDbXrecord
280
     1
 90
        1
330
5A
  0
LAYOUT
  5
1E
102
{ACAD_REACTORS
330
1A
102
}
330
1A
100
AcDbPlotSettings
  1

  2
none_device
  4

  6

 40
0.0
 41
0.0
 42
0.0
 43
0.0
 44
0.0
 45
0.0
 46
0.0
 47
0.0
 48
0.0
 49
0.0
140
0.0
141
0.0
142
1.0
143
1.0
 70
   688
 72
     0
 73
     0
 74
     5
  7

 75
    16
 76
     0
 77
     2
 78
   300
147
1.0
148
0.0
149
0.0
100
AcDbLayout
  1
Layout1
 70
     1
 71
     1
 10
0.0
 20
0.0
 11
12.0
 21
9.0
 12
0.0
 22
0.0
 32
0.0
 14
1.000000000000000E+20
 24
1.000000000000000E+20
 34
1.000000000000000E+20
 15
-1.000000000000000E+20
 25
-1.000000000000000E+20
 35
-1.000000000000000E+20
146
0.0
 13
0.0
 23
0.0
 33
0.0
 16
1.0
 26
0.0
 36
0.0
 17
0.0
 27
1.0
 37
0.0
 76
     0
330
1B
  0
LAYOUT
  5
26
102
{ACAD_REACTORS
330
1A
102
}
330
1A
100
AcDbPlotSettings
  1

  2
none_device
  4

  6

 40
0.0
 41
0.0
 42
0.0
 43
0.0
 44
0.0
 45
0.0
 46
0.0
 47
0.0
 48
0.0
 49
0.0
140
0.0
141
0.0
142
1.0
143
1.0
 70
   688
 72
     0
 73
     0
 74
     5
  7

 75
    16
 76
     0
 77
     2
 78
   300
147
1.0
148
0.0
149
0.0
100
AcDbLayout
  1
Layout2
 70
     1
 71
     2
 10
0.0
 20
0.0
 11
0.0
 21
0.0
 12
0.0
 22
0.0
 32
0.0
 14
0.0
 24
0.0
 34
0.0
 15
0.0
 25
0.0
 35
0.0
146
0.0
 13
0.0
 23
0.0
 33
0.0
 16
1.0
 26
0.0
 36
0.0
 17
0.0
 27
1.0
 37
0.0
 76
     0
330
23
  0
LAYOUT
  5
22
102
{ACAD_REACTORS
330
1A
102
}
330
1A
100
AcDbPlotSettings
  1

  2
none_device
  4
Letter_(8.50_x_11.00_Inches)
  6

 40
6.35
 41
6.35
 42
6.35000508
 43
6.35000508
 44
215.9
 45
279.4
 46
0.0
 47
0.0
 48
0.0
 49
0.0
140
0.0
141
0.0
142
1.0
143
1.0
 70
  1712
 72
     0
 73
     0
 74
     0
  7

 75
     0
 76
     0
 77
     2
 78
   300
147
1.0
148
0.0
149
0.0
100
AcDbLayout
  1
Model
 70
     1
 71
     0
 10
0.0
 20
0.0
 11
12.0
 21
9.0
 12
0.0
 22
0.0
 32
0.0
 14
345.9061736246163
 24
638.913730650837
 34
-0.0000000000000041
 15
1534.481375988935
 25
2579.443564801614
 35
0.0000000000000017
146
0.0
 13
0.0
 23
0.0
 33
0.0
 16
1.0
 26
0.0
 36
0.0
 17
0.0
 27
1.0
 37
0.0
 76
     0
330
1F
331
29
  0
MATERIAL
  5
45
102
{ACAD_REACTORS
330
43
102
}
330
43
100
AcDbMaterial
  1
ByBlock
 72
     1
 94
      127
  0
MATERIAL
  5
44
102
{ACAD_REACTORS
330
43
102
}
330
43
100
AcDbMaterial
  1
ByLayer
 72
     1
 94
      127
  0
MATERIAL
  5
46
102
{ACAD_REACTORS
330
43
102
}
330
43
100
AcDbMaterial
  1
Global
 72
     1
 94
      127
  0
MLEADERSTYLE
  5
5C
102
{ACAD_REACTORS
330
5B
102
}
102
{ACAD_XDICTIONARY
360
2FC
102
}
330
5B
100
AcDbMLeaderStyle
170
     2
171
     1
172
     0
 90
        2
 40
0.0
 41
0.0
173
     1
 91
-1056964608
340
14
 92
       -2
290
     1
 42
0.09
291
     1
 43
0.36
  3
Standard
341
0
 44
0.18
300

342
11
174
     1
178
     6
175
     1
176
     0
 93
-1056964608
 45
0.18
292
     0
297
     0
 46
0.18
343
0
 94
-1056964608
 47
1.0
 49
1.0
140
1.0
293
     1
141
0.0
294
     1
177
     0
142
1.0
295
     0
296
     0
143
0.125
1001
ACAD_MLEADERVER
1070
     2
  0
MLINESTYLE
  5
18
102
{ACAD_REACTORS
330
17
102
}
330
17
100
AcDbMlineStyle
  2
Standard
 70
     0
  3

 62
   256
 51
90.0
 52
90.0
 71
     2
 49
0.5
 62
   256
  6
BYLAYER
 49
-0.5
 62
   256
  6
BYLAYER
  0
ACDBPLACEHOLDER
  5
F
102
{ACAD_REACTORS
330
E
102
}
330
E
  0
SCALE
  5
48
102
{ACAD_REACTORS
330
47
102
}
330
47
100
AcDbScale
 70
     0
300
1:1
140
1.0
141
1.0
290
     1
  0
SCALE
  5
49
102
{ACAD_REACTORS
330
47
102
}
330
47
100
AcDbScale
 70
     0
300
1/128" = 1'-0"
140
0.0078125
141
12.0
290
     0
  0
SCALE
  5
4A
102
{ACAD_REACTORS
330
47
102
}
330
47
100
AcDbScale
 70
     0
300
1/64" = 1'-0"
140
0.015625
141
12.0
290
     0
  0
SCALE
  5
4B
102
{ACAD_REACTORS
330
47
102
}
330
47
100
AcDbScale
 70
     0
300
1/32" = 1'-0"
140
0.03125
141
12.0
290
     0
  0
SCALE
  5
4C
102
{ACAD_REACTORS
330
47
102
}
330
47
100
AcDbScale
 70
     0
300
1/16" = 1'-0"
140
0.0625
141
12.0
290
     0
  0
SCALE
  5
4D
102
{ACAD_REACTORS
330
47
102
}
330
47
100
AcDbScale
 70
     0
300
3/32" = 1'-0"
140
0.09375
141
12.0
290
     0
  0
SCALE
  5
4E
102
{ACAD_REACTORS
330
47
102
}
330
47
100
AcDbScale
 70
     0
300
1/8" = 1'-0"
140
0.125
141
12.0
290
     0
  0
SCALE
  5
4F
102
{ACAD_REACTORS
330
47
102
}
330
47
100
AcDbScale
 70
     0
300
3/16" = 1'-0"
140
0.1875
141
12.0
290
     0
  0
SCALE
  5
50
102
{ACAD_REACTORS
330
47
102
}
330
47
100
AcDbScale
 70
     0
300
1/4" = 1'-0"
140
0.25
141
12.0
290
     0
  0
SCALE
  5
51
102
{ACAD_REACTORS
330
47
102
}
330
47
100
AcDbScale
 70
     0
300
3/8" = 1'-0"
140
0.375
141
12.0
290
     0
  0
SCALE
  5
52
102
{ACAD_REACTORS
330
47
102
}
330
47
100
AcDbScale
 70
     0
300
1/2" = 1'-0"
140
0.5
141
12.0
290
     0
  0
SCALE
  5
53
102
{ACAD_REACTORS
330
47
102
}
330
47
100
AcDbScale
 70
     0
300
3/4" = 1'-0"
140
0.75
141
12.0
290
     0
  0
SCALE
  5
54
102
{ACAD_REACTORS
330
47
102
}
330
47
100
AcDbScale
 70
     0
300
1" = 1'-0"
140
1.0
141
12.0
290
     0
  0
SCALE
  5
55
102
{ACAD_REACTORS
330
47
102
}
330
47
100
AcDbScale
 70
     0
300
1-1/2" = 1'-0"
140
1.5
141
12.0
290
     0
  0
SCALE
  5
56
102
{ACAD_REACTORS
330
47
102
}
330
47
100
AcDbScale
 70
     0
300
3" = 1'-0"
140
3.0
141
12.0
290
     0
  0
SCALE
  5
57
102
{ACAD_REACTORS
330
47
102
}
330
47
100
AcDbScale
 70
     0
300
6" = 1'-0"
140
6.0
141
12.0
290
     0
  0
SCALE
  5
58
102
{ACAD_REACTORS
330
47
102
}
330
47
100
AcDbScale
 70
     0
300
1'-0" = 1'-0"
140
12.0
141
12.0
290
     0
  0
TABLESTYLE
  5
5A
102
{ACAD_REACTORS
330
59
102
}
102
{ACAD_XDICTIONARY
360
2F9
102
}
330
59
100
AcDbTableStyle
  3
Standard
 70
     0
 71
     0
 40
0.06
 41
0.06
280
     0
281
     0
  7
Standard
140
0.18
170
     2
 62
     0
 63
   257
283
     0
 90
        4
 91
        0
  1

274
    -2
284
     1
 64
     0
275
    -2
285
     1
 65
     0
276
    -2
286
     1
 66
     0
277
    -2
287
     1
 67
     0
278
    -2
288
     1
 68
     0
279
    -2
289
     1
 69
     0
  7
Standard
140
0.25
170
     5
 62
     0
 63
   257
283
     0
 90
        4
 91
        0
  1

274
    -2
284
     1
 64
     0
275
    -2
285
     1
 65
     0
276
    -2
286
     1
 66
     0
277
    -2
287
     1
 67
     0
278
    -2
288
     1
 68
     0
279
    -2
289
     1
 69
     0
  7
Standard
140
0.18
170
     5
 62
     0
 63
   257
283
     0
 90
        4
 91
        0
  1

274
    -2
284
     1
 64
     0
275
    -2
285
     1
 65
     0
276
    -2
286
     1
 66
     0
277
    -2
287
     1
 67
     0
278
    -2
288
     1
 68
     0
279
    -2
289
     1
 69
     0
  0
VISUALSTYLE
  5
2F
102
{ACAD_REACTORS
330
2A
102
}
102
{ACAD_XDICTIONARY
360
2D1
102
}
330
2A
100
AcDbVisualStyle
  2
2dWireframe
 70
     4
 71
     0
 72
     2
 73
     0
 90
        0
 40
0.6
 41
30.0
 62
     5
 63
     7
421
 16777215
 74
     1
 91
        4
 64
     7
 65
   257
 75
     1
175
     1
 42
1.0
 92
        0
 66
   257
 43
1.0
 76
     1
 77
     6
 78
     2
 67
     7
 79
     5
170
     0
171
     0
290
     0
174
     0
 93
        1
 44
0.0
173
     0
291
     0
 45
0.0
  0
VISUALSTYLE
  5
32
102
{ACAD_REACTORS
330
2A
102
}
102
{ACAD_XDICTIONARY
360
2D7
102
}
330
2A
100
AcDbVisualStyle
  2
Basic
 70
     7
 71
     1
 72
     0
 73
     1
 90
        0
 40
0.6
 41
30.0
 62
     5
 63
     7
421
 16777215
 74
     0
 91
        4
 64
     7
 65
   257
 75
     1
175
     1
 42
1.0
 92
        8
 66
     7
 43
1.0
 76
     1
 77
     6
 78
     2
 67
     7
 79
     5
170
     0
171
     0
290
     0
174
     0
 93
        1
 44
0.0
173
     0
291
     1
 45
0.0
  0
VISUALSTYLE
  5
36
102
{ACAD_REACTORS
330
2A
102
}
102
{ACAD_XDICTIONARY
360
2DF
102
}
330
2A
100
AcDbVisualStyle
  2
Brighten
 70
    12
 71
     2
 72
     2
 73
     0
 90
        0
 40
0.6
 41
30.0
 62
     5
 63
     7
421
 16777215
 74
     1
 91
        4
 64
     7
 65
   257
 75
     1
175
     1
 42
1.0
 92
        8
 66
     7
 43
1.0
 76
     1
 77
     6
 78
     2
 67
     7
 79
     5
170
     0
171
     0
290
     0
174
     0
 93
        1
 44
50.0
173
     0
291
     1
 45
0.0
  0
VISUALSTYLE
  5
3A
102
{ACAD_REACTORS
330
2A
102
}
102
{ACAD_XDICTIONARY
360
2E7
102
}
330
2A
100
AcDbVisualStyle
  2
ColorChange
 70
    16
 71
     2
 72
     2
 73
     3
 90
        0
 40
0.6
 41
30.0
 62
     5
 63
     8
421
  8421504
 74
     1
 91
        4
 64
     7
 65
   257
 75
     1
175
     1
 42
1.0
 92
        8
 66
     8
424
  8421504
 43
1.0
 76
     1
 77
     6
 78
     2
 67
     7
 79
     5
170
     0
171
     0
290
     0
174
     0
 93
        1
 44
0.0
173
     0
291
     1
 45
0.0
  0
VISUALSTYLE
  5
34
102
{ACAD_REACTORS
330
2A
102
}
102
{ACAD_XDICTIONARY
360
2DB
102
}
330
2A
100
AcDbVisualStyle
  2
Conceptual
 70
     9
 71
     3
 72
     2
 73
     0
 90
        0
 40
0.6
 41
30.0
 62
     5
 63
     7
421
 16777215
 74
     2
 91
        2
 64
     7
 65
   257
 75
     1
175
     1
 42
179.0
 92
        8
 66
     7
 43
1.0
 76
     1
 77
     6
 78
     2
 67
     7
 79
     3
170
     0
171
     0
290
     0
174
     0
 93
        1
 44
0.0
173
     0
291
     0
 45
0.0
  0
VISUALSTYLE
  5
35
102
{ACAD_REACTORS
330
2A
102
}
102
{ACAD_XDICTIONARY
360
2DD
102
}
330
2A
100
AcDbVisualStyle
  2
Dim
 70
    11
 71
     2
 72
     2
 73
     0
 90
        0
 40
0.6
 41
30.0
 62
     5
 63
     7
421
 16777215
 74
     1
 91
        4
 64
     7
 65
   257
 75
     1
175
     1
 42
1.0
 92
        8
 66
     7
 43
1.0
 76
     1
 77
     6
 78
     2
 67
     7
 79
     5
170
     0
171
     0
290
     0
174
     0
 93
        1
 44
-50.0
173
     0
291
     1
 45
0.0
  0
VISUALSTYLE
  5
3D
102
{ACAD_REACTORS
330
2A
102
}
102
{ACAD_XDICTIONARY
360
2ED
102
}
330
2A
100
AcDbVisualStyle
  2
EdgeColorOff
 70
    22
 71
     2
 72
     2
 73
     0
 90
        0
 40
0.6
 41
30.0
 62
     5
 63
     7
421
 16777215
 74
     1
 91
        4
 64
     7
 65
   257
 75
     1
175
     1
 42
1.0
 92
        8
 66
     7
 43
1.0
 76
     1
 77
     6
 78
     2
 67
     7
 79
     5
170
     0
171
     0
290
     0
174
     0
 93
        1
 44
0.0
173
     0
291
     1
 45
0.0
  0
VISUALSTYLE
  5
39
102
{ACAD_REACTORS
330
2A
102
}
102
{ACAD_XDICTIONARY
360
2E5
102
}
330
2A
100
AcDbVisualStyle
  2
Facepattern
 70
    15
 71
     2
 72
     2
 73
     0
 90
        0
 40
0.6
 41
30.0
 62
     5
 63
     7
421
 16777215
 74
     1
 91
        4
 64
     7
 65
   257
 75
     1
175
     1
 42
1.0
 92
        8
 66
     7
 43
1.0
 76
     1
 77
     6
 78
     2
 67
     7
 79
     5
170
     0
171
     0
290
     0
174
     0
 93
        1
 44
0.0
173
     0
291
     1
 45
0.0
  0
VISUALSTYLE
  5
2B
102
{ACAD_REACTORS
330
2A
102
}
102
{ACAD_XDICTIONARY
360
2C9
102
}
330
2A
100
AcDbVisualStyle
  2
Flat
 70
     0
 71
     2
 72
     1
 73
     1
 90
        2
 40
0.6
 41
30.0
 62
     5
 63
     7
421
 16777215
 74
     0
 91
        0
 64
     7
 65
   257
 75
     1
175
     1
 42
1.0
 92
        8
 66
     7
 43
1.0
 76
     1
 77
     6
 78
     2
 67
     7
 79
     5
170
     0
171
     0
290
     0
174
     0
 93
       13
 44
0.0
173
     0
291
     1
 45
0.0
  0
VISUALSTYLE
  5
2C
102
{ACAD_REACTORS
330
2A
102
}
102
{ACAD_XDICTIONARY
360
2CB
102
}
330
2A
100
AcDbVisualStyle
  2
FlatWithEdges
 70
     1
 71
     2
 72
     1
 73
     1
 90
        2
 40
0.6
 41
30.0
 62
     5
 63
     7
421
 16777215
 74
     1
 91
        0
 64
     7
 65
   257
 75
     1
175
     1
 42
1.0
 92
        0
 66
   257
 43
1.0
 76
     1
 77
     6
 78
     2
 67
     7
 79
     5
170
     0
171
     0
290
     0
174
     0
 93
       13
 44
0.0
173
     0
291
     1
 45
0.0
  0
VISUALSTYLE
  5
2D
102
{ACAD_REACTORS
330
2A
102
}
102
{ACAD_XDICTIONARY
360
2CD
102
}
330
2A
100
AcDbVisualStyle
  2
Gouraud
 70
     2
 71
     2
 72
     2
 73
     1
 90
        2
 40
0.6
 41
30.0
 62
     5
 63
     7
421
 16777215
 74
     0
 91
        0
 64
     7
 65
   257
 75
     1
175
     1
 42
1.0
 92
        0
 66
     7
 43
1.0
 76
     1
 77
     6
 78
     2
 67
     7
 79
     5
170
     0
171
     0
290
     0
174
     0
 93
       13
 44
0.0
173
     0
291
     1
 45
0.0
  0
VISUALSTYLE
  5
2E
102
{ACAD_REACTORS
330
2A
102
}
102
{ACAD_XDICTIONARY
360
2CF
102
}
330
2A
100
AcDbVisualStyle
  2
GouraudWithEdges
 70
     3
 71
     2
 72
     2
 73
     1
 90
        2
 40
0.6
 41
30.0
 62
     5
 63
     7
421
 16777215
 74
     1
 91
        0
 64
     7
 65
   257
 75
     1
175
     1
 42
1.0
 92
        0
 66
   257
 43
1.0
 76
     1
 77
     6
 78
     2
 67
     7
 79
     5
170
     0
171
     0
290
     0
174
     0
 93
       13
 44
0.0
173
     0
291
     1
 45
0.0
  0
VISUALSTYLE
  5
31
102
{ACAD_REACTORS
330
2A
102
}
102
{ACAD_XDICTIONARY
360
2D5
102
}
330
2A
100
AcDbVisualStyle
  2
Hidden
 70
     6
 71
     1
 72
     2
 73
     2
 90
        0
 40
0.6
 41
30.0
 62
     5
 63
     7
421
 16777215
 74
     2
 91
        2
 64
     7
 65
   257
 75
     2
175
     1
 42
40.0
 92
        0
 66
   257
 43
1.0
 76
     1
 77
     6
 78
     2
 67
     7
 79
     3
170
     0
171
     0
290
     0
174
     0
 93
        1
 44
0.0
173
     0
291
     0
 45
0.0
  0
VISUALSTYLE
  5
3B
102
{ACAD_REACTORS
330
2A
102
}
102
{ACAD_XDICTIONARY
360
2E9
102
}
330
2A
100
AcDbVisualStyle
  2
JitterOff
 70
    20
 71
     2
 72
     2
 73
     0
 90
        0
 40
0.6
 41
30.0
 62
     5
 63
     7
421
 16777215
 74
     1
 91
        4
 64
     7
 65
   257
 75
     1
175
     1
 42
1.0
 92
       10
 66
     7
 43
1.0
 76
     1
 77
     6
 78
     2
 67
     7
 79
     5
170
     0
171
     0
290
     0
174
     0
 93
        1
 44
0.0
173
     0
291
     1
 45
0.0
  0
VISUALSTYLE
  5
38
102
{ACAD_REACTORS
330
2A
102
}
102
{ACAD_XDICTIONARY
360
2E3
102
}
330
2A
100
AcDbVisualStyle
  2
Linepattern
 70
    14
 71
     2
 72
     2
 73
     0
 90
        0
 40
0.6
 41
30.0
 62
     5
 63
     7
421
 16777215
 74
     1
 91
        4
 64
     7
 65
   257
 75
     7
175
     7
 42
1.0
 92
        8
 66
     7
 43
1.0
 76
     1
 77
     6
 78
     2
 67
     7
 79
     5
170
     0
171
     0
290
     0
174
     0
 93
        1
 44
0.0
173
     0
291
     1
 45
0.0
  0
VISUALSTYLE
  5
3C
102
{ACAD_REACTORS
330
2A
102
}
102
{ACAD_XDICTIONARY
360
2EB
102
}
330
2A
100
AcDbVisualStyle
  2
OverhangOff
 70
    21
 71
     2
 72
     2
 73
     0
 90
        0
 40
0.6
 41
30.0
 62
     5
 63
     7
421
 16777215
 74
     1
 91
        4
 64
     7
 65
   257
 75
     1
175
     1
 42
1.0
 92
        9
 66
     7
 43
1.0
 76
     1
 77
     6
 78
     2
 67
     7
 79
     5
170
     0
171
     0
290
     0
174
     0
 93
        1
 44
0.0
173
     0
291
     1
 45
0.0
  0
VISUALSTYLE
  5
33
102
{ACAD_REACTORS
330
2A
102
}
102
{ACAD_XDICTIONARY
360
2D9
102
}
330
2A
100
AcDbVisualStyle
  2
Realistic
 70
     8
 71
     2
 72
     3
 73
     0
 90
        2
 40
0.6
 41
30.0
 62
     5
 63
     7
421
 16777215
 74
     0
 91
        0
 64
     7
 65
   257
 75
     1
175
     1
 42
1.0
 92
        8
 66
   257
 43
1.0
 76
     1
 77
     6
 78
     2
 67
     7
 79
     3
170
     0
171
     0
290
     0
174
     0
 93
       13
 44
0.0
173
     0
291
     0
 45
0.0
  0
VISUALSTYLE
  5
42
102
{ACAD_REACTORS
330
2A
102
}
102
{ACAD_XDICTIONARY
360
2F7
102
}
330
2A
100
AcDbVisualStyle
  2
Shaded
 70
    27
 71
     2
 72
     2
 73
     1
 90
        2
 40
0.6
 41
30.0
 62
     5
 63
     7
421
 16777215
 74
     0
 91
        4
 64
     7
 65
   257
 75
     1
175
     1
 42
1.0
 92
        8
 66
   257
 43
1.0
 76
     1
 77
     6
 78
     2
 67
     8
425
  7895160
 79
     3
170
     0
171
     0
290
     0
174
     0
 93
        5
 44
0.0
173
     0
291
     0
 45
0.0
  0
VISUALSTYLE
  5
41
102
{ACAD_REACTORS
330
2A
102
}
102
{ACAD_XDICTIONARY
360
2F5
102
}
330
2A
100
AcDbVisualStyle
  2
Shaded with edges
 70
    26
 71
     2
 72
     2
 73
     1
 90
        2
 40
0.6
 41
30.0
 62
     5
 63
     7
421
 16777215
 74
     1
 91
       10
 64
     7
 65
   257
 75
     2
175
     1
 42
1.0
 92
        8
 66
   257
 43
1.0
 76
     1
 77
     6
 78
     2
 67
     7
 79
     3
170
     0
171
     0
290
     0
174
     0
 93
        5
 44
0.0
173
     0
291
     0
 45
0.0
  0
VISUALSTYLE
  5
3E
102
{ACAD_REACTORS
330
2A
102
}
102
{ACAD_XDICTIONARY
360
2EF
102
}
330
2A
100
AcDbVisualStyle
  2
Shades of Gray
 70
    23
 71
     2
 72
     2
 73
     3
 90
        0
 40
0.6
 41
30.0
 62
     5
 63
     7
421
 16777215
 74
     2
 91
        2
 64
     7
 65
     7
 75
     1
175
     1
 42
40.0
 92
        8
 66
     7
 43
1.0
 76
     1
 77
     6
 78
     2
 67
     7
 79
     3
170
     0
171
     0
290
     0
174
     0
 93
        1
 44
0.0
173
     0
291
     0
 45
0.0
  0
VISUALSTYLE
  5
3F
102
{ACAD_REACTORS
330
2A
102
}
102
{ACAD_XDICTIONARY
360
2F1
102
}
330
2A
100
AcDbVisualStyle
  2
Sketchy
 70
    24
 71
     1
 72
     2
 73
     2
 90
        0
 40
0.6
 41
30.0
 62
     5
 63
     7
421
 16777215
 74
     2
 91
        2
 64
     7
 65
     7
 75
     1
175
     1
 42
40.0
 92
       11
 66
     7
 43
1.0
 76
     1
 77
     6
 78
     2
 67
     7
 79
     6
170
     0
171
     0
290
     0
174
     0
 93
        1
 44
0.0
173
     0
291
     0
 45
0.0
  0
VISUALSTYLE
  5
37
102
{ACAD_REACTORS
330
2A
102
}
102
{ACAD_XDICTIONARY
360
2E1
102
}
330
2A
100
AcDbVisualStyle
  2
Thicken
 70
    13
 71
     2
 72
     2
 73
     0
 90
        0
 40
0.6
 41
30.0
 62
     5
 63
     7
421
 16777215
 74
     1
 91
        4
 64
     7
 65
   257
 75
     1
175
     1
 42
1.0
 92
       12
 66
     7
 43
1.0
 76
     1
 77
     6
 78
     2
 67
     7
 79
     5
170
     0
171
     0
290
     0
174
     0
 93
        1
 44
0.0
173
     0
291
     1
 45
0.0
  0
VISUALSTYLE
  5
30
102
{ACAD_REACTORS
330
2A
102
}
102
{ACAD_XDICTIONARY
360
2D3
102
}
330
2A
100
AcDbVisualStyle
  2
Wireframe
 70
     5
 71
     0
 72
     2
 73
     0
 90
        0
 40
0.6
 41
30.0
 62
     5
 63
     7
421
 16777215
 74
     1
 91
        4
 64
     7
 65
   257
 75
     1
175
     1
 42
1.0
 92
        0
 66
   257
 43
1.0
 76
     1
 77
     6
 78
     2
 67
     7
 79
     3
170
     0
171
     0
290
     0
174
     0
 93
        1
 44
0.0
173
     0
291
     0
 45
0.0
  0
VISUALSTYLE
  5
40
102
{ACAD_REACTORS
330
2A
102
}
102
{ACAD_XDICTIONARY
360
2F3
102
}
330
2A
100
AcDbVisualStyle
  2
X-Ray
 70
    25
 71
     2
 72
     2
 73
     1
 90
        1
 40
0.5
 41
30.0
 62
     5
 63
     7
421
 16777215
 74
     1
 91
        0
 64
     7
 65
   257
 75
     1
175
     1
 42
1.0
 92
        8
 66
     7
 43
1.0
 76
     1
 77
     6
 78
     2
 67
     7
 79
     3
170
     0
171
     0
290
     0
174
     0
 93
       13
 44
0.0
173
     0
291
     0
 45
0.0
  0
DICTIONARYVAR
  5
2C7
102
{ACAD_REACTORS
330
2C6
102
}
330
2C6
100
DictionaryVariables
280
     0
  1
1:1
  0
DICTIONARYVAR
  5
300
102
{ACAD_REACTORS
330
2C6
102
}
330
2C6
100
DictionaryVariables
280
     0
  1
Standard
  0
DICTIONARYVAR
  5
2FF
102
{ACAD_REACTORS
330
2C6
102
}
330
2C6
100
DictionaryVariables
280
     0
  1
Standard
  0
DICTIONARYVAR
  5
2C8
102
{ACAD_REACTORS
330
2C6
102
}
330
2C6
100
DictionaryVariables
280
     0
  1
2
  0
DICTIONARY
  5
2FC
330
5C
100
AcDbDictionary
280
     1
281
     1
  3
ACAD_XREC_ROUNDTRIP
360
2FD
  0
DICTIONARY
  5
2F9
330
5A
100
AcDbDictionary
280
     1
281
     1
  3
ACAD_ROUNDTRIP_2008_TABLESTYLE_CELLSTYLEMAP
360
2FA
  0
DICTIONARY
  5
2D1
330
2F
100
AcDbDictionary
280
     1
281
     1
  3
ACAD_XREC_ROUNDTRIP
360
2D2
  0
DICTIONARY
  5
2D7
330
32
100
AcDbDictionary
280
     1
281
     1
  3
ACAD_XREC_ROUNDTRIP
360
2D8
  0
DICTIONARY
  5
2DF
330
36
100
AcDbDictionary
280
     1
281
     1
  3
ACAD_XREC_ROUNDTRIP
360
2E0
  0
DICTIONARY
  5
2E7
330
3A
100
AcDbDictionary
280
     1
281
     1
  3
ACAD_XREC_ROUNDTRIP
360
2E8
  0
DICTIONARY
  5
2DB
330
34
100
AcDbDictionary
280
     1
281
     1
  3
ACAD_XREC_ROUNDTRIP
360
2DC
  0
DICTIONARY
  5
2DD
330
35
100
AcDbDictionary
280
     1
281
     1
  3
ACAD_XREC_ROUNDTRIP
360
2DE
  0
DICTIONARY
  5
2ED
330
3D
100
AcDbDictionary
280
     1
281
     1
  3
ACAD_XREC_ROUNDTRIP
360
2EE
  0
DICTIONARY
  5
2E5
330
39
100
AcDbDictionary
280
     1
281
     1
  3
ACAD_XREC_ROUNDTRIP
360
2E6
  0
DICTIONARY
  5
2C9
330
2B
100
AcDbDictionary
280
     1
281
     1
  3
ACAD_XREC_ROUNDTRIP
360
2CA
  0
DICTIONARY
  5
2CB
330
2C
100
AcDbDictionary
280
     1
281
     1
  3
ACAD_XREC_ROUNDTRIP
360
2CC
  0
DICTIONARY
  5
2CD
330
2D
100
AcDbDictionary
280
     1
281
     1
  3
ACAD_XREC_ROUNDTRIP
360
2CE
  0
DICTIONARY
  5
2CF
330
2E
100
AcDbDictionary
280
     1
281
     1
  3
ACAD_XREC_ROUNDTRIP
360
2D0
  0
DICTIONARY
  5
2D5
330
31
100
AcDbDictionary
280
     1
281
     1
  3
ACAD_XREC_ROUNDTRIP
360
2D6
  0
DICTIONARY
  5
2E9
330
3B
100
AcDbDictionary
280
     1
281
     1
  3
ACAD_XREC_ROUNDTRIP
360
2EA
  0
DICTIONARY
  5
2E3
330
38
100
AcDbDictionary
280
     1
281
     1
  3
ACAD_XREC_ROUNDTRIP
360
2E4
  0
DICTIONARY
  5
2EB
330
3C
100
AcDbDictionary
280
     1
281
     1
  3
ACAD_XREC_ROUNDTRIP
360
2EC
  0
DICTIONARY
  5
2D9
330
33
100
AcDbDictionary
280
     1
281
     1
  3
ACAD_XREC_ROUNDTRIP
360
2DA
  0
DICTIONARY
  5
2F7
330
42
100
AcDbDictionary
280
     1
281
     1
  3
ACAD_XREC_ROUNDTRIP
360
2F8
  0
DICTIONARY
  5
2F5
330
41
100
AcDbDictionary
280
     1
281
     1
  3
ACAD_XREC_ROUNDTRIP
360
2F6
  0
DICTIONARY
  5
2EF
330
3E
100
AcDbDictionary
280
     1
281
     1
  3
ACAD_XREC_ROUNDTRIP
360
2F0
  0
DICTIONARY
  5
2F1
330
3F
100
AcDbDictionary
280
     1
281
     1
  3
ACAD_XREC_ROUNDTRIP
360
2F2
  0
DICTIONARY
  5
2E1
330
37
100
AcDbDictionary
280
     1
281
     1
  3
ACAD_XREC_ROUNDTRIP
360
2E2
  0
DICTIONARY
  5
2D3
330
30
100
AcDbDictionary
280
     1
281
     1
  3
ACAD_XREC_ROUNDTRIP
360
2D4
  0
DICTIONARY
  5
2F3
330
40
100
AcDbDictionary
280
     1
281
     1
  3
ACAD_XREC_ROUNDTRIP
360
2F4
  0
XRECORD
  5
2FD
102
{ACAD_REACTORS
330
2FC
102
}
330
2FC
100
AcDbXrecord
280
     1
102
ACAD_ROUNDTRIP_2010_MLEADER_STYLE
  0
CELLSTYLEMAP
  5
2FA
102
{ACAD_REACTORS
330
2F9
102
}
330
2F9
100
AcDbCellStyleMap
 90
        3
300
CELLSTYLE
  1
TABLEFORMAT_BEGIN
 90
        5
170
     1
 91
        0
 92
    32768
 62
   257
 93
        1
300
CONTENTFORMAT
  1
CONTENTFORMAT_BEGIN
 90
        0
 91
        0
 92
        4
 93
        0
300

 40
0.0
140
1.0
 94
        5
 62
     0
340
11
144
0.25
309
CONTENTFORMAT_END
171
     1
301
MARGIN
  1
CELLMARGIN_BEGIN
 40
0.06
 40
0.06
 40
0.06
 40
0.06
 40
0.06
 40
0.06
309
CELLMARGIN_END
 94
        6
 95
        1
302
GRIDFORMAT
  1
GRIDFORMAT_BEGIN
 90
        0
 91
        1
 62
     0
 92
       -2
340
14
 93
        0
 40
0.045
309
GRIDFORMAT_END
 95
        2
302
GRIDFORMAT
  1
GRIDFORMAT_BEGIN
 90
        0
 91
        1
 62
     0
 92
       -2
340
14
 93
        0
 40
0.045
309
GRIDFORMAT_END
 95
        4
302
GRIDFORMAT
  1
GRIDFORMAT_BEGIN
 90
        0
 91
        1
 62
     0
 92
       -2
340
14
 93
        0
 40
0.045
309
GRIDFORMAT_END
 95
        8
302
GRIDFORMAT
  1
GRIDFORMAT_BEGIN
 90
        0
 91
        1
 62
     0
 92
       -2
340
14
 93
        0
 40
0.045
309
GRIDFORMAT_END
 95
       16
302
GRIDFORMAT
  1
GRIDFORMAT_BEGIN
 90
        0
 91
        1
 62
     0
 92
       -2
340
14
 93
        0
 40
0.045
309
GRIDFORMAT_END
 95
       32
302
GRIDFORMAT
  1
GRIDFORMAT_BEGIN
 90
        0
 91
        1
 62
     0
 92
       -2
340
14
 93
        0
 40
0.045
309
GRIDFORMAT_END
309
TABLEFORMAT_END
  1
CELLSTYLE_BEGIN
 90
        1
 91
        1
300
_TITLE
309
CELLSTYLE_END
300
CELLSTYLE
  1
TABLEFORMAT_BEGIN
 90
        5
170
     1
 91
        0
 92
        0
 62
   257
 93
        1
300
CONTENTFORMAT
  1
CONTENTFORMAT_BEGIN
 90
        0
 91
        0
 92
        4
 93
        0
300

 40
0.0
140
1.0
 94
        5
 62
     0
340
11
144
0.18
309
CONTENTFORMAT_END
171
     1
301
MARGIN
  1
CELLMARGIN_BEGIN
 40
0.06
 40
0.06
 40
0.06
 40
0.06
 40
0.06
 40
0.06
309
CELLMARGIN_END
 94
        6
 95
        1
302
GRIDFORMAT
  1
GRIDFORMAT_BEGIN
 90
        0
 91
        1
 62
     0
 92
       -2
340
14
 93
        0
 40
0.045
309
GRIDFORMAT_END
 95
        2
302
GRIDFORMAT
  1
GRIDFORMAT_BEGIN
 90
        0
 91
        1
 62
     0
 92
       -2
340
14
 93
        0
 40
0.045
309
GRIDFORMAT_END
 95
        4
302
GRIDFORMAT
  1
GRIDFORMAT_BEGIN
 90
        0
 91
        1
 62
     0
 92
       -2
340
14
 93
        0
 40
0.045
309
GRIDFORMAT_END
 95
        8
302
GRIDFORMAT
  1
GRIDFORMAT_BEGIN
 90
        0
 91
        1
 62
     0
 92
       -2
340
14
 93
        0
 40
0.045
309
GRIDFORMAT_END
 95
       16
302
GRIDFORMAT
  1
GRIDFORMAT_BEGIN
 90
        0
 91
        1
 62
     0
 92
       -2
340
14
 93
        0
 40
0.045
309
GRIDFORMAT_END
 95
       32
302
GRIDFORMAT
  1
GRIDFORMAT_BEGIN
 90
        0
 91
        1
 62
     0
 92
       -2
340
14
 93
        0
 40
0.045
309
GRIDFORMAT_END
309
TABLEFORMAT_END
  1
CELLSTYLE_BEGIN
 90
        2
 91
        1
300
_HEADER
309
CELLSTYLE_END
300
CELLSTYLE
  1
TABLEFORMAT_BEGIN
 90
        5
170
     1
 91
        0
 92
        0
 62
   257
 93
        1
300
CONTENTFORMAT
  1
CONTENTFORMAT_BEGIN
 90
        0
 91
        0
 92
        4
 93
        0
300

 40
0.0
140
1.0
 94
        2
 62
     0
340
11
144
0.18
309
CONTENTFORMAT_END
171
     1
301
MARGIN
  1
CELLMARGIN_BEGIN
 40
0.06
 40
0.06
 40
0.06
 40
0.06
 40
0.06
 40
0.06
309
CELLMARGIN_END
 94
        6
 95
        1
302
GRIDFORMAT
  1
GRIDFORMAT_BEGIN
 90
        0
 91
        1
 62
     0
 92
       -2
340
14
 93
        0
 40
0.045
309
GRIDFORMAT_END
 95
        2
302
GRIDFORMAT
  1
GRIDFORMAT_BEGIN
 90
        0
 91
        1
 62
     0
 92
       -2
340
14
 93
        0
 40
0.045
309
GRIDFORMAT_END
 95
        4
302
GRIDFORMAT
  1
GRIDFORMAT_BEGIN
 90
        0
 91
        1
 62
     0
 92
       -2
340
14
 93
        0
 40
0.045
309
GRIDFORMAT_END
 95
        8
302
GRIDFORMAT
  1
GRIDFORMAT_BEGIN
 90
        0
 91
        1
 62
     0
 92
       -2
340
14
 93
        0
 40
0.045
309
GRIDFORMAT_END
 95
       16
302
GRIDFORMAT
  1
GRIDFORMAT_BEGIN
 90
        0
 91
        1
 62
     0
 92
       -2
340
14
 93
        0
 40
0.045
309
GRIDFORMAT_END
 95
       32
302
GRIDFORMAT
  1
GRIDFORMAT_BEGIN
 90
        0
 91
        1
 62
     0
 92
       -2
340
14
 93
        0
 40
0.045
309
GRIDFORMAT_END
309
TABLEFORMAT_END
  1
CELLSTYLE_BEGIN
 90
        3
 91
        2
300
_DATA
309
CELLSTYLE_END
  0
XRECORD
  5
2D2
102
{ACAD_REACTORS
330
2D1
102
}
330
2D1
100
AcDbXrecord
280
     1
102
RTVSPropertyOp0
 70
     1
102
RTVSPropertyOp1
 70
     1
102
RTVSPropertyOp2
 70
     1
102
RTVSPropertyOp3
 70
     1
102
RTVSPropertyOp4
 70
     1
102
RTVSPropertyOp5
 70
     1
102
RTVSPropertyOp6
 70
     1
102
RTVSPropertyOp7
 70
     1
102
RTVSPropertyOp8
 70
     1
102
RTVSPropertyOp9
 70
     1
102
RTVSPropertyOp10
 70
     1
102
RTVSPropertyOp11
 70
     1
102
RTVSPropertyOp12
 70
     1
102
RTVSPropertyOp13
 70
     1
102
RTVSPropertyOp14
 70
     1
102
RTVSPropertyOp15
 70
     1
102
RTVSPropertyOp16
 70
     1
102
RTVSPropertyOp17
 70
     1
102
RTVSPropertyOp18
 70
     1
102
RTVSPropertyOp19
 70
     1
102
RTVSPropertyOp20
 70
     1
102
RTVSPropertyOp21
 70
     1
102
RTVSPropertyOp22
 70
     1
102
RTVSPropertyOp23
 70
     1
102
RTVSPropertyOp24
 70
     1
102
RTVSPropertyOp25
 70
     1
102
RTVSPropertyOp26
 70
     1
102
RTVSPropertyOp27
 70
     1
102
RTVSPropertyOp28
 70
     1
102
RTVSPropertyOp29
 70
     1
102
RTVSPropertyOp30
 70
     1
102
RTVSPropertyOp31
 70
     1
102
RTVSPropertyOp32
 70
     1
102
RTVSPropertyOp33
 70
     1
102
RTVSPropertyOp34
 70
     1
102
RTVSPropertyOp35
 70
     1
102
RTVSPropertyOp36
 70
     1
102
RTVSPropertyOp37
 70
     1
102
RTVSPropertyOp38
 70
     1
102
RTVSPropertyOp39
 70
     1
102
RTVSPropertyOp40
 70
     1
102
RTVSPropertyOp41
 70
     1
102
RTVSPropertyOp42
 70
     1
102
RTVSPropertyOp43
 70
     1
102
RTVSPropertyOp44
 70
     1
102
RTVSPropertyOp45
 70
     1
102
RTVSPropertyOp46
 70
     1
102
RTVSPropertyOp47
 70
     1
102
RTVSPropertyOp48
 70
     1
102
RTVSPropertyOp49
 70
     1
102
RTVSPropertyOp50
 70
     1
102
RTVSPropertyOp51
 70
     0
102
RTVSPropertyOp52
 70
     0
102
RTVSPropertyOp53
 70
     1
102
RTVSPropertyOp54
 70
     1
102
RTVSPropertyOp55
 70
     1
102
RTVSPropertyOp56
 70
     1
102
RTVSPropertyOp57
 70
     1
102
RTVSPost2010Prop28
280
     1
102
RTVSPost2010PropOp28
 70
     1
102
RTVSPost2010Prop29
280
     1
102
RTVSPost2010PropOp29
 70
     1
102
RTVSPost2010Prop30
280
     0
102
RTVSPost2010PropOp30
 70
     1
102
RTVSPost2010Prop31
280
     0
102
RTVSPost2010PropOp31
 70
     1
102
RTVSPost2010Prop32
280
     0
102
RTVSPost2010PropOp32
 70
     1
102
RTVSPost2010Prop33
280
     0
102
RTVSPost2010PropOp33
 70
     1
102
RTVSPost2010Prop34
280
     0
102
RTVSPost2010PropOp34
 70
     1
102
RTVSPost2010Prop35
280
     0
102
RTVSPost2010PropOp35
 70
     1
102
RTVSPost2010Prop36
280
     0
102
RTVSPost2010PropOp36
 70
     1
102
RTVSPost2010Prop37
 90
       50
102
RTVSPost2010PropOp37
 70
     1
102
RTVSPost2010Prop38
140
0.0
102
RTVSPost2010PropOp38
 70
     1
102
RTVSPost2010Prop39
140
1.0
102
RTVSPost2010PropOp39
 70
     1
102
RTVSPost2010Prop40
 90
        0
102
RTVSPost2010PropOp40
 70
     1
102
RTVSPost2010Prop41ColorIndex
 90
       18
102
RTVSPost2010Prop41ColorRGB
 90
        0
102
RTVSPost2010PropOp41
 70
     1
102
RTVSPost2010Prop42
 90
       50
102
RTVSPost2010PropOp42
 70
     1
102
RTVSPost2010Prop43
 90
        3
102
RTVSPost2010PropOp43
 70
     1
102
RTVSPost2010Prop44ColorIndex
 90
        5
102
RTVSPost2010Prop44ColorRGB
 90
      255
102
RTVSPost2010PropOp44
 70
     1
102
RTVSPost2010Prop45
280
     0
102
RTVSPost2010PropOp45
 70
     1
102
RTVSPost2010Prop46
 90
       50
102
RTVSPost2010PropOp46
 70
     1
102
RTVSPost2010Prop47
 90
       50
102
RTVSPost2010PropOp47
 70
     1
102
RTVSPost2010Prop48
 90
       50
102
RTVSPost2010PropOp48
 70
     1
102
RTVSPost2010Prop49
280
     0
102
RTVSPost2010PropOp49
 70
     1
102
RTVSPost2010Prop50
 90
       50
102
RTVSPost2010PropOp50
 70
     1
102
RTVSPost2010Prop51ColorIndex
 90
      256
102
RTVSPost2010Prop51ColorRGB
 90
-16777216
102
RTVSPost2010PropOp51
 70
     0
102
RTVSPost2010Prop52
140
1.0
102
RTVSPost2010PropOp52
 70
     0
102
RTVSPost2010Prop53
 90
        2
102
RTVSPost2010PropOp53
 70
     1
102
RTVSPost2010Prop54
  1
strokes_ogs.tif
102
RTVSPost2010PropOp54
 70
     1
102
RTVSPost2010Prop55
280
     0
102
RTVSPost2010PropOp55
 70
     1
102
RTVSPost2010Prop56
140
1.0
102
RTVSPost2010PropOp56
 70
     1
102
RTVSPost2010Prop57
140
1.0
102
RTVSPost2010PropOp57
 70
     1
  0
XRECORD
  5
2D8
102
{ACAD_REACTORS
330
2D7
102
}
330
2D7
100
AcDbXrecord
280
     1
102
RTVSPropertyOp0
 70
     1
102
RTVSPropertyOp1
 70
     1
102
RTVSPropertyOp2
 70
     1
102
RTVSPropertyOp3
 70
     1
102
RTVSPropertyOp4
 70
     1
102
RTVSPropertyOp5
 70
     1
102
RTVSPropertyOp6
 70
     1
102
RTVSPropertyOp7
 70
     1
102
RTVSPropertyOp8
 70
     1
102
RTVSPropertyOp9
 70
     1
102
RTVSPropertyOp10
 70
     1
102
RTVSPropertyOp11
 70
     1
102
RTVSPropertyOp12
 70
     1
102
RTVSPropertyOp13
 70
     1
102
RTVSPropertyOp14
 70
     1
102
RTVSPropertyOp15
 70
     1
102
RTVSPropertyOp16
 70
     1
102
RTVSPropertyOp17
 70
     1
102
RTVSPropertyOp18
 70
     1
102
RTVSPropertyOp19
 70
     1
102
RTVSPropertyOp20
 70
     1
102
RTVSPropertyOp21
 70
     1
102
RTVSPropertyOp22
 70
     1
102
RTVSPropertyOp23
 70
     1
102
RTVSPropertyOp24
 70
     1
102
RTVSPropertyOp25
 70
     1
102
RTVSPropertyOp26
 70
     1
102
RTVSPropertyOp27
 70
     1
102
RTVSPropertyOp28
 70
     1
102
RTVSPropertyOp29
 70
     1
102
RTVSPropertyOp30
 70
     1
102
RTVSPropertyOp31
 70
     1
102
RTVSPropertyOp32
 70
     1
102
RTVSPropertyOp33
 70
     1
102
RTVSPropertyOp34
 70
     1
102
RTVSPropertyOp35
 70
     1
102
RTVSPropertyOp36
 70
     1
102
RTVSPropertyOp37
 70
     1
102
RTVSPropertyOp38
 70
     1
102
RTVSPropertyOp39
 70
     1
102
RTVSPropertyOp40
 70
     1
102
RTVSPropertyOp41
 70
     1
102
RTVSPropertyOp42
 70
     1
102
RTVSPropertyOp43
 70
     1
102
RTVSPropertyOp44
 70
     1
102
RTVSPropertyOp45
 70
     1
102
RTVSPropertyOp46
 70
     1
102
RTVSPropertyOp47
 70
     1
102
RTVSPropertyOp48
 70
     1
102
RTVSPropertyOp49
 70
     1
102
RTVSPropertyOp50
 70
     1
102
RTVSPropertyOp51
 70
     0
102
RTVSPropertyOp52
 70
     0
102
RTVSPropertyOp53
 70
     1
102
RTVSPropertyOp54
 70
     1
102
RTVSPropertyOp55
 70
     1
102
RTVSPropertyOp56
 70
     1
102
RTVSPropertyOp57
 70
     1
102
RTVSPost2010Prop28
280
     0
102
RTVSPost2010PropOp28
 70
     1
102
RTVSPost2010Prop29
280
     1
102
RTVSPost2010PropOp29
 70
     1
102
RTVSPost2010Prop30
280
     1
102
RTVSPost2010PropOp30
 70
     1
102
RTVSPost2010Prop31
280
     0
102
RTVSPost2010PropOp31
 70
     1
102
RTVSPost2010Prop32
280
     0
102
RTVSPost2010PropOp32
 70
     1
102
RTVSPost2010Prop33
280
     0
102
RTVSPost2010PropOp33
 70
     1
102
RTVSPost2010Prop34
280
     0
102
RTVSPost2010PropOp34
 70
     1
102
RTVSPost2010Prop35
280
     0
102
RTVSPost2010PropOp35
 70
     1
102
RTVSPost2010Prop36
280
     0
102
RTVSPost2010PropOp36
 70
     1
102
RTVSPost2010Prop37
 90
       50
102
RTVSPost2010PropOp37
 70
     1
102
RTVSPost2010Prop38
140
0.0
102
RTVSPost2010PropOp38
 70
     1
102
RTVSPost2010Prop39
140
1.0
102
RTVSPost2010PropOp39
 70
     1
102
RTVSPost2010Prop40
 90
        0
102
RTVSPost2010PropOp40
 70
     1
102
RTVSPost2010Prop41ColorIndex
 90
       18
102
RTVSPost2010Prop41ColorRGB
 90
        0
102
RTVSPost2010PropOp41
 70
     1
102
RTVSPost2010Prop42
 90
       50
102
RTVSPost2010PropOp42
 70
     1
102
RTVSPost2010Prop43
 90
        3
102
RTVSPost2010PropOp43
 70
     1
102
RTVSPost2010Prop44ColorIndex
 90
        5
102
RTVSPost2010Prop44ColorRGB
 90
      255
102
RTVSPost2010PropOp44
 70
     1
102
RTVSPost2010Prop45
280
     0
102
RTVSPost2010PropOp45
 70
     1
102
RTVSPost2010Prop46
 90
       50
102
RTVSPost2010PropOp46
 70
     1
102
RTVSPost2010Prop47
 90
       50
102
RTVSPost2010PropOp47
 70
     1
102
RTVSPost2010Prop48
 90
       50
102
RTVSPost2010PropOp48
 70
     1
102
RTVSPost2010Prop49
280
     0
102
RTVSPost2010PropOp49
 70
     1
102
RTVSPost2010Prop50
 90
       50
102
RTVSPost2010PropOp50
 70
     1
102
RTVSPost2010Prop51ColorIndex
 90
      256
102
RTVSPost2010Prop51ColorRGB
 90
-16777216
102
RTVSPost2010PropOp51
 70
     0
102
RTVSPost2010Prop52
140
1.0
102
RTVSPost2010PropOp52
 70
     0
102
RTVSPost2010Prop53
 90
        2
102
RTVSPost2010PropOp53
 70
     1
102
RTVSPost2010Prop54
  1
strokes_ogs.tif
102
RTVSPost2010PropOp54
 70
     1
102
RTVSPost2010Prop55
280
     0
102
RTVSPost2010PropOp55
 70
     1
102
RTVSPost2010Prop56
140
1.0
102
RTVSPost2010PropOp56
 70
     1
102
RTVSPost2010Prop57
140
1.0
102
RTVSPost2010PropOp57
 70
     1
  0
XRECORD
  5
2E0
102
{ACAD_REACTORS
330
2DF
102
}
330
2DF
100
AcDbXrecord
280
     1
102
RTVSPropertyOp0
 70
     1
102
RTVSPropertyOp1
 70
     1
102
RTVSPropertyOp2
 70
     1
102
RTVSPropertyOp3
 70
     1
102
RTVSPropertyOp4
 70
     1
102
RTVSPropertyOp5
 70
     1
102
RTVSPropertyOp6
 70
     1
102
RTVSPropertyOp7
 70
     1
102
RTVSPropertyOp8
 70
     1
102
RTVSPropertyOp9
 70
     1
102
RTVSPropertyOp10
 70
     1
102
RTVSPropertyOp11
 70
     1
102
RTVSPropertyOp12
 70
     1
102
RTVSPropertyOp13
 70
     1
102
RTVSPropertyOp14
 70
     1
102
RTVSPropertyOp15
 70
     1
102
RTVSPropertyOp16
 70
     1
102
RTVSPropertyOp17
 70
     1
102
RTVSPropertyOp18
 70
     1
102
RTVSPropertyOp19
 70
     1
102
RTVSPropertyOp20
 70
     1
102
RTVSPropertyOp21
 70
     1
102
RTVSPropertyOp22
 70
     1
102
RTVSPropertyOp23
 70
     1
102
RTVSPropertyOp24
 70
     1
102
RTVSPropertyOp25
 70
     1
102
RTVSPropertyOp26
 70
     1
102
RTVSPropertyOp27
 70
     1
102
RTVSPropertyOp28
 70
     1
102
RTVSPropertyOp29
 70
     1
102
RTVSPropertyOp30
 70
     1
102
RTVSPropertyOp31
 70
     1
102
RTVSPropertyOp32
 70
     1
102
RTVSPropertyOp33
 70
     1
102
RTVSPropertyOp34
 70
     1
102
RTVSPropertyOp35
 70
     1
102
RTVSPropertyOp36
 70
     1
102
RTVSPropertyOp37
 70
     1
102
RTVSPropertyOp38
 70
     1
102
RTVSPropertyOp39
 70
     1
102
RTVSPropertyOp40
 70
     1
102
RTVSPropertyOp41
 70
     1
102
RTVSPropertyOp42
 70
     1
102
RTVSPropertyOp43
 70
     1
102
RTVSPropertyOp44
 70
     1
102
RTVSPropertyOp45
 70
     1
102
RTVSPropertyOp46
 70
     1
102
RTVSPropertyOp47
 70
     1
102
RTVSPropertyOp48
 70
     1
102
RTVSPropertyOp49
 70
     1
102
RTVSPropertyOp50
 70
     1
102
RTVSPropertyOp51
 70
     0
102
RTVSPropertyOp52
 70
     0
102
RTVSPropertyOp53
 70
     1
102
RTVSPropertyOp54
 70
     1
102
RTVSPropertyOp55
 70
     1
102
RTVSPropertyOp56
 70
     1
102
RTVSPropertyOp57
 70
     1
102
RTVSPost2010Prop28
280
     0
102
RTVSPost2010PropOp28
 70
     1
102
RTVSPost2010Prop29
280
     1
102
RTVSPost2010PropOp29
 70
     1
102
RTVSPost2010Prop30
280
     1
102
RTVSPost2010PropOp30
 70
     1
102
RTVSPost2010Prop31
280
     0
102
RTVSPost2010PropOp31
 70
     1
102
RTVSPost2010Prop32
280
     0
102
RTVSPost2010PropOp32
 70
     1
102
RTVSPost2010Prop33
280
     0
102
RTVSPost2010PropOp33
 70
     1
102
RTVSPost2010Prop34
280
     0
102
RTVSPost2010PropOp34
 70
     1
102
RTVSPost2010Prop35
280
     0
102
RTVSPost2010PropOp35
 70
     1
102
RTVSPost2010Prop36
280
     0
102
RTVSPost2010PropOp36
 70
     1
102
RTVSPost2010Prop37
 90
       50
102
RTVSPost2010PropOp37
 70
     1
102
RTVSPost2010Prop38
140
0.0
102
RTVSPost2010PropOp38
 70
     1
102
RTVSPost2010Prop39
140
1.0
102
RTVSPost2010PropOp39
 70
     1
102
RTVSPost2010Prop40
 90
        0
102
RTVSPost2010PropOp40
 70
     1
102
RTVSPost2010Prop41ColorIndex
 90
       18
102
RTVSPost2010Prop41ColorRGB
 90
        0
102
RTVSPost2010PropOp41
 70
     1
102
RTVSPost2010Prop42
 90
       50
102
RTVSPost2010PropOp42
 70
     1
102
RTVSPost2010Prop43
 90
        3
102
RTVSPost2010PropOp43
 70
     1
102
RTVSPost2010Prop44ColorIndex
 90
        5
102
RTVSPost2010Prop44ColorRGB
 90
      255
102
RTVSPost2010PropOp44
 70
     1
102
RTVSPost2010Prop45
280
     0
102
RTVSPost2010PropOp45
 70
     1
102
RTVSPost2010Prop46
 90
       50
102
RTVSPost2010PropOp46
 70
     1
102
RTVSPost2010Prop47
 90
       50
102
RTVSPost2010PropOp47
 70
     1
102
RTVSPost2010Prop48
 90
       50
102
RTVSPost2010PropOp48
 70
     1
102
RTVSPost2010Prop49
280
     0
102
RTVSPost2010PropOp49
 70
     1
102
RTVSPost2010Prop50
 90
       50
102
RTVSPost2010PropOp50
 70
     1
102
RTVSPost2010Prop51ColorIndex
 90
      256
102
RTVSPost2010Prop51ColorRGB
 90
-16777216
102
RTVSPost2010PropOp51
 70
     0
102
RTVSPost2010Prop52
140
1.0
102
RTVSPost2010PropOp52
 70
     0
102
RTVSPost2010Prop53
 90
        2
102
RTVSPost2010PropOp53
 70
     1
102
RTVSPost2010Prop54
  1
strokes_ogs.tif
102
RTVSPost2010PropOp54
 70
     1
102
RTVSPost2010Prop55
280
     0
102
RTVSPost2010PropOp55
 70
     1
102
RTVSPost2010Prop56
140
1.0
102
RTVSPost2010PropOp56
 70
     1
102
RTVSPost2010Prop57
140
1.0
102
RTVSPost2010PropOp57
 70
     1
  0
XRECORD
  5
2E8
102
{ACAD_REACTORS
330
2E7
102
}
330
2E7
100
AcDbXrecord
280
     1
102
RTVSPropertyOp0
 70
     1
102
RTVSPropertyOp1
 70
     1
102
RTVSPropertyOp2
 70
     1
102
RTVSPropertyOp3
 70
     1
102
RTVSPropertyOp4
 70
     1
102
RTVSPropertyOp5
 70
     1
102
RTVSPropertyOp6
 70
     1
102
RTVSPropertyOp7
 70
     1
102
RTVSPropertyOp8
 70
     1
102
RTVSPropertyOp9
 70
     1
102
RTVSPropertyOp10
 70
     1
102
RTVSPropertyOp11
 70
     1
102
RTVSPropertyOp12
 70
     1
102
RTVSPropertyOp13
 70
     1
102
RTVSPropertyOp14
 70
     1
102
RTVSPropertyOp15
 70
     1
102
RTVSPropertyOp16
 70
     1
102
RTVSPropertyOp17
 70
     1
102
RTVSPropertyOp18
 70
     1
102
RTVSPropertyOp19
 70
     1
102
RTVSPropertyOp20
 70
     1
102
RTVSPropertyOp21
 70
     1
102
RTVSPropertyOp22
 70
     1
102
RTVSPropertyOp23
 70
     1
102
RTVSPropertyOp24
 70
     1
102
RTVSPropertyOp25
 70
     1
102
RTVSPropertyOp26
 70
     1
102
RTVSPropertyOp27
 70
     1
102
RTVSPropertyOp28
 70
     1
102
RTVSPropertyOp29
 70
     1
102
RTVSPropertyOp30
 70
     1
102
RTVSPropertyOp31
 70
     1
102
RTVSPropertyOp32
 70
     1
102
RTVSPropertyOp33
 70
     1
102
RTVSPropertyOp34
 70
     1
102
RTVSPropertyOp35
 70
     1
102
RTVSPropertyOp36
 70
     1
102
RTVSPropertyOp37
 70
     1
102
RTVSPropertyOp38
 70
     1
102
RTVSPropertyOp39
 70
     1
102
RTVSPropertyOp40
 70
     1
102
RTVSPropertyOp41
 70
     1
102
RTVSPropertyOp42
 70
     1
102
RTVSPropertyOp43
 70
     1
102
RTVSPropertyOp44
 70
     1
102
RTVSPropertyOp45
 70
     1
102
RTVSPropertyOp46
 70
     1
102
RTVSPropertyOp47
 70
     1
102
RTVSPropertyOp48
 70
     1
102
RTVSPropertyOp49
 70
     1
102
RTVSPropertyOp50
 70
     1
102
RTVSPropertyOp51
 70
     0
102
RTVSPropertyOp52
 70
     0
102
RTVSPropertyOp53
 70
     1
102
RTVSPropertyOp54
 70
     1
102
RTVSPropertyOp55
 70
     1
102
RTVSPropertyOp56
 70
     1
102
RTVSPropertyOp57
 70
     1
102
RTVSPost2010Prop28
280
     0
102
RTVSPost2010PropOp28
 70
     1
102
RTVSPost2010Prop29
280
     1
102
RTVSPost2010PropOp29
 70
     1
102
RTVSPost2010Prop30
280
     1
102
RTVSPost2010PropOp30
 70
     1
102
RTVSPost2010Prop31
280
     0
102
RTVSPost2010PropOp31
 70
     1
102
RTVSPost2010Prop32
280
     0
102
RTVSPost2010PropOp32
 70
     1
102
RTVSPost2010Prop33
280
     0
102
RTVSPost2010PropOp33
 70
     1
102
RTVSPost2010Prop34
280
     0
102
RTVSPost2010PropOp34
 70
     1
102
RTVSPost2010Prop35
280
     0
102
RTVSPost2010PropOp35
 70
     1
102
RTVSPost2010Prop36
280
     0
102
RTVSPost2010PropOp36
 70
     1
102
RTVSPost2010Prop37
 90
       50
102
RTVSPost2010PropOp37
 70
     1
102
RTVSPost2010Prop38
140
0.0
102
RTVSPost2010PropOp38
 70
     1
102
RTVSPost2010Prop39
140
1.0
102
RTVSPost2010PropOp39
 70
     1
102
RTVSPost2010Prop40
 90
        0
102
RTVSPost2010PropOp40
 70
     1
102
RTVSPost2010Prop41ColorIndex
 90
       18
102
RTVSPost2010Prop41ColorRGB
 90
        0
102
RTVSPost2010PropOp41
 70
     1
102
RTVSPost2010Prop42
 90
       50
102
RTVSPost2010PropOp42
 70
     1
102
RTVSPost2010Prop43
 90
        3
102
RTVSPost2010PropOp43
 70
     1
102
RTVSPost2010Prop44ColorIndex
 90
        5
102
RTVSPost2010Prop44ColorRGB
 90
      255
102
RTVSPost2010PropOp44
 70
     1
102
RTVSPost2010Prop45
280
     0
102
RTVSPost2010PropOp45
 70
     1
102
RTVSPost2010Prop46
 90
       50
102
RTVSPost2010PropOp46
 70
     1
102
RTVSPost2010Prop47
 90
       50
102
RTVSPost2010PropOp47
 70
     1
102
RTVSPost2010Prop48
 90
       50
102
RTVSPost2010PropOp48
 70
     1
102
RTVSPost2010Prop49
280
     0
102
RTVSPost2010PropOp49
 70
     1
102
RTVSPost2010Prop50
 90
       50
102
RTVSPost2010PropOp50
 70
     1
102
RTVSPost2010Prop51ColorIndex
 90
      256
102
RTVSPost2010Prop51ColorRGB
 90
-16777216
102
RTVSPost2010PropOp51
 70
     0
102
RTVSPost2010Prop52
140
1.0
102
RTVSPost2010PropOp52
 70
     0
102
RTVSPost2010Prop53
 90
        2
102
RTVSPost2010PropOp53
 70
     1
102
RTVSPost2010Prop54
  1
strokes_ogs.tif
102
RTVSPost2010PropOp54
 70
     1
102
RTVSPost2010Prop55
280
     0
102
RTVSPost2010PropOp55
 70
     1
102
RTVSPost2010Prop56
140
1.0
102
RTVSPost2010PropOp56
 70
     1
102
RTVSPost2010Prop57
140
1.0
102
RTVSPost2010PropOp57
 70
     1
  0
XRECORD
  5
2DC
102
{ACAD_REACTORS
330
2DB
102
}
330
2DB
100
AcDbXrecord
280
     1
102
RTVSPropertyOp0
 70
     1
102
RTVSPropertyOp1
 70
     1
102
RTVSPropertyOp2
 70
     1
102
RTVSPropertyOp3
 70
     1
102
RTVSPropertyOp4
 70
     1
102
RTVSPropertyOp5
 70
     1
102
RTVSPropertyOp6
 70
     1
102
RTVSPropertyOp7
 70
     1
102
RTVSPropertyOp8
 70
     1
102
RTVSPropertyOp9
 70
     1
102
RTVSPropertyOp10
 70
     1
102
RTVSPropertyOp11
 70
     1
102
RTVSPropertyOp12
 70
     1
102
RTVSPropertyOp13
 70
     1
102
RTVSPropertyOp14
 70
     1
102
RTVSPropertyOp15
 70
     1
102
RTVSPropertyOp16
 70
     1
102
RTVSPropertyOp17
 70
     1
102
RTVSPropertyOp18
 70
     1
102
RTVSPropertyOp19
 70
     1
102
RTVSPropertyOp20
 70
     1
102
RTVSPropertyOp21
 70
     1
102
RTVSPropertyOp22
 70
     1
102
RTVSPropertyOp23
 70
     1
102
RTVSPropertyOp24
 70
     1
102
RTVSPropertyOp25
 70
     1
102
RTVSPropertyOp26
 70
     1
102
RTVSPropertyOp27
 70
     1
102
RTVSPropertyOp28
 70
     1
102
RTVSPropertyOp29
 70
     1
102
RTVSPropertyOp30
 70
     1
102
RTVSPropertyOp31
 70
     1
102
RTVSPropertyOp32
 70
     1
102
RTVSPropertyOp33
 70
     1
102
RTVSPropertyOp34
 70
     1
102
RTVSPropertyOp35
 70
     1
102
RTVSPropertyOp36
 70
     1
102
RTVSPropertyOp37
 70
     1
102
RTVSPropertyOp38
 70
     1
102
RTVSPropertyOp39
 70
     1
102
RTVSPropertyOp40
 70
     1
102
RTVSPropertyOp41
 70
     1
102
RTVSPropertyOp42
 70
     1
102
RTVSPropertyOp43
 70
     1
102
RTVSPropertyOp44
 70
     1
102
RTVSPropertyOp45
 70
     1
102
RTVSPropertyOp46
 70
     1
102
RTVSPropertyOp47
 70
     1
102
RTVSPropertyOp48
 70
     1
102
RTVSPropertyOp49
 70
     1
102
RTVSPropertyOp50
 70
     1
102
RTVSPropertyOp51
 70
     0
102
RTVSPropertyOp52
 70
     0
102
RTVSPropertyOp53
 70
     1
102
RTVSPropertyOp54
 70
     1
102
RTVSPropertyOp55
 70
     1
102
RTVSPropertyOp56
 70
     1
102
RTVSPropertyOp57
 70
     1
102
RTVSPost2010Prop28
280
     0
102
RTVSPost2010PropOp28
 70
     1
102
RTVSPost2010Prop29
280
     1
102
RTVSPost2010PropOp29
 70
     1
102
RTVSPost2010Prop30
280
     1
102
RTVSPost2010PropOp30
 70
     1
102
RTVSPost2010Prop31
280
     0
102
RTVSPost2010PropOp31
 70
     1
102
RTVSPost2010Prop32
280
     0
102
RTVSPost2010PropOp32
 70
     1
102
RTVSPost2010Prop33
280
     0
102
RTVSPost2010PropOp33
 70
     1
102
RTVSPost2010Prop34
280
     0
102
RTVSPost2010PropOp34
 70
     1
102
RTVSPost2010Prop35
280
     0
102
RTVSPost2010PropOp35
 70
     1
102
RTVSPost2010Prop36
280
     0
102
RTVSPost2010PropOp36
 70
     1
102
RTVSPost2010Prop37
 90
       50
102
RTVSPost2010PropOp37
 70
     1
102
RTVSPost2010Prop38
140
0.0
102
RTVSPost2010PropOp38
 70
     1
102
RTVSPost2010Prop39
140
1.0
102
RTVSPost2010PropOp39
 70
     1
102
RTVSPost2010Prop40
 90
        0
102
RTVSPost2010PropOp40
 70
     1
102
RTVSPost2010Prop41ColorIndex
 90
       18
102
RTVSPost2010Prop41ColorRGB
 90
        0
102
RTVSPost2010PropOp41
 70
     1
102
RTVSPost2010Prop42
 90
       50
102
RTVSPost2010PropOp42
 70
     1
102
RTVSPost2010Prop43
 90
        3
102
RTVSPost2010PropOp43
 70
     1
102
RTVSPost2010Prop44ColorIndex
 90
        5
102
RTVSPost2010Prop44ColorRGB
 90
      255
102
RTVSPost2010PropOp44
 70
     1
102
RTVSPost2010Prop45
280
     0
102
RTVSPost2010PropOp45
 70
     1
102
RTVSPost2010Prop46
 90
       50
102
RTVSPost2010PropOp46
 70
     1
102
RTVSPost2010Prop47
 90
       50
102
RTVSPost2010PropOp47
 70
     1
102
RTVSPost2010Prop48
 90
       50
102
RTVSPost2010PropOp48
 70
     1
102
RTVSPost2010Prop49
280
     0
102
RTVSPost2010PropOp49
 70
     1
102
RTVSPost2010Prop50
 90
       50
102
RTVSPost2010PropOp50
 70
     1
102
RTVSPost2010Prop51ColorIndex
 90
      256
102
RTVSPost2010Prop51ColorRGB
 90
-16777216
102
RTVSPost2010PropOp51
 70
     0
102
RTVSPost2010Prop52
140
1.0
102
RTVSPost2010PropOp52
 70
     0
102
RTVSPost2010Prop53
 90
        2
102
RTVSPost2010PropOp53
 70
     1
102
RTVSPost2010Prop54
  1
strokes_ogs.tif
102
RTVSPost2010PropOp54
 70
     1
102
RTVSPost2010Prop55
280
     0
102
RTVSPost2010PropOp55
 70
     1
102
RTVSPost2010Prop56
140
1.0
102
RTVSPost2010PropOp56
 70
     1
102
RTVSPost2010Prop57
140
1.0
102
RTVSPost2010PropOp57
 70
     1
  0
XRECORD
  5
2DE
102
{ACAD_REACTORS
330
2DD
102
}
330
2DD
100
AcDbXrecord
280
     1
102
RTVSPropertyOp0
 70
     1
102
RTVSPropertyOp1
 70
     1
102
RTVSPropertyOp2
 70
     1
102
RTVSPropertyOp3
 70
     1
102
RTVSPropertyOp4
 70
     1
102
RTVSPropertyOp5
 70
     1
102
RTVSPropertyOp6
 70
     1
102
RTVSPropertyOp7
 70
     1
102
RTVSPropertyOp8
 70
     1
102
RTVSPropertyOp9
 70
     1
102
RTVSPropertyOp10
 70
     1
102
RTVSPropertyOp11
 70
     1
102
RTVSPropertyOp12
 70
     1
102
RTVSPropertyOp13
 70
     1
102
RTVSPropertyOp14
 70
     1
102
RTVSPropertyOp15
 70
     1
102
RTVSPropertyOp16
 70
     1
102
RTVSPropertyOp17
 70
     1
102
RTVSPropertyOp18
 70
     1
102
RTVSPropertyOp19
 70
     1
102
RTVSPropertyOp20
 70
     1
102
RTVSPropertyOp21
 70
     1
102
RTVSPropertyOp22
 70
     1
102
RTVSPropertyOp23
 70
     1
102
RTVSPropertyOp24
 70
     1
102
RTVSPropertyOp25
 70
     1
102
RTVSPropertyOp26
 70
     1
102
RTVSPropertyOp27
 70
     1
102
RTVSPropertyOp28
 70
     1
102
RTVSPropertyOp29
 70
     1
102
RTVSPropertyOp30
 70
     1
102
RTVSPropertyOp31
 70
     1
102
RTVSPropertyOp32
 70
     1
102
RTVSPropertyOp33
 70
     1
102
RTVSPropertyOp34
 70
     1
102
RTVSPropertyOp35
 70
     1
102
RTVSPropertyOp36
 70
     1
102
RTVSPropertyOp37
 70
     1
102
RTVSPropertyOp38
 70
     1
102
RTVSPropertyOp39
 70
     1
102
RTVSPropertyOp40
 70
     1
102
RTVSPropertyOp41
 70
     1
102
RTVSPropertyOp42
 70
     1
102
RTVSPropertyOp43
 70
     1
102
RTVSPropertyOp44
 70
     1
102
RTVSPropertyOp45
 70
     1
102
RTVSPropertyOp46
 70
     1
102
RTVSPropertyOp47
 70
     1
102
RTVSPropertyOp48
 70
     1
102
RTVSPropertyOp49
 70
     1
102
RTVSPropertyOp50
 70
     1
102
RTVSPropertyOp51
 70
     0
102
RTVSPropertyOp52
 70
     0
102
RTVSPropertyOp53
 70
     1
102
RTVSPropertyOp54
 70
     1
102
RTVSPropertyOp55
 70
     1
102
RTVSPropertyOp56
 70
     1
102
RTVSPropertyOp57
 70
     1
102
RTVSPost2010Prop28
280
     0
102
RTVSPost2010PropOp28
 70
     1
102
RTVSPost2010Prop29
280
     1
102
RTVSPost2010PropOp29
 70
     1
102
RTVSPost2010Prop30
280
     1
102
RTVSPost2010PropOp30
 70
     1
102
RTVSPost2010Prop31
280
     0
102
RTVSPost2010PropOp31
 70
     1
102
RTVSPost2010Prop32
280
     0
102
RTVSPost2010PropOp32
 70
     1
102
RTVSPost2010Prop33
280
     0
102
RTVSPost2010PropOp33
 70
     1
102
RTVSPost2010Prop34
280
     0
102
RTVSPost2010PropOp34
 70
     1
102
RTVSPost2010Prop35
280
     0
102
RTVSPost2010PropOp35
 70
     1
102
RTVSPost2010Prop36
280
     0
102
RTVSPost2010PropOp36
 70
     1
102
RTVSPost2010Prop37
 90
       50
102
RTVSPost2010PropOp37
 70
     1
102
RTVSPost2010Prop38
140
0.0
102
RTVSPost2010PropOp38
 70
     1
102
RTVSPost2010Prop39
140
1.0
102
RTVSPost2010PropOp39
 70
     1
102
RTVSPost2010Prop40
 90
        0
102
RTVSPost2010PropOp40
 70
     1
102
RTVSPost2010Prop41ColorIndex
 90
       18
102
RTVSPost2010Prop41ColorRGB
 90
        0
102
RTVSPost2010PropOp41
 70
     1
102
RTVSPost2010Prop42
 90
       50
102
RTVSPost2010PropOp42
 70
     1
102
RTVSPost2010Prop43
 90
        3
102
RTVSPost2010PropOp43
 70
     1
102
RTVSPost2010Prop44ColorIndex
 90
        5
102
RTVSPost2010Prop44ColorRGB
 90
      255
102
RTVSPost2010PropOp44
 70
     1
102
RTVSPost2010Prop45
280
     0
102
RTVSPost2010PropOp45
 70
     1
102
RTVSPost2010Prop46
 90
       50
102
RTVSPost2010PropOp46
 70
     1
102
RTVSPost2010Prop47
 90
       50
102
RTVSPost2010PropOp47
 70
     1
102
RTVSPost2010Prop48
 90
       50
102
RTVSPost2010PropOp48
 70
     1
102
RTVSPost2010Prop49
280
     0
102
RTVSPost2010PropOp49
 70
     1
102
RTVSPost2010Prop50
 90
       50
102
RTVSPost2010PropOp50
 70
     1
102
RTVSPost2010Prop51ColorIndex
 90
      256
102
RTVSPost2010Prop51ColorRGB
 90
-16777216
102
RTVSPost2010PropOp51
 70
     0
102
RTVSPost2010Prop52
140
1.0
102
RTVSPost2010PropOp52
 70
     0
102
RTVSPost2010Prop53
 90
        2
102
RTVSPost2010PropOp53
 70
     1
102
RTVSPost2010Prop54
  1
strokes_ogs.tif
102
RTVSPost2010PropOp54
 70
     1
102
RTVSPost2010Prop55
280
     0
102
RTVSPost2010PropOp55
 70
     1
102
RTVSPost2010Prop56
140
1.0
102
RTVSPost2010PropOp56
 70
     1
102
RTVSPost2010Prop57
140
1.0
102
RTVSPost2010PropOp57
 70
     1
  0
XRECORD
  5
2EE
102
{ACAD_REACTORS
330
2ED
102
}
330
2ED
100
AcDbXrecord
280
     1
102
RTVSPropertyOp0
 70
     0
102
RTVSPropertyOp1
 70
     0
102
RTVSPropertyOp2
 70
     0
102
RTVSPropertyOp3
 70
     0
102
RTVSPropertyOp4
 70
     0
102
RTVSPropertyOp5
 70
     0
102
RTVSPropertyOp6
 70
     0
102
RTVSPropertyOp7
 70
     0
102
RTVSPropertyOp8
 70
     0
102
RTVSPropertyOp9
 70
     0
102
RTVSPropertyOp10
 70
     0
102
RTVSPropertyOp11
 70
     0
102
RTVSPropertyOp12
 70
     0
102
RTVSPropertyOp13
 70
     0
102
RTVSPropertyOp14
 70
     2
102
RTVSPropertyOp15
 70
     0
102
RTVSPropertyOp16
 70
     0
102
RTVSPropertyOp17
 70
     0
102
RTVSPropertyOp18
 70
     0
102
RTVSPropertyOp19
 70
     0
102
RTVSPropertyOp20
 70
     0
102
RTVSPropertyOp21
 70
     0
102
RTVSPropertyOp22
 70
     0
102
RTVSPropertyOp23
 70
     0
102
RTVSPropertyOp24
 70
     0
102
RTVSPropertyOp25
 70
     0
102
RTVSPropertyOp26
 70
     0
102
RTVSPropertyOp27
 70
     0
102
RTVSPropertyOp28
 70
     0
102
RTVSPropertyOp29
 70
     0
102
RTVSPropertyOp30
 70
     0
102
RTVSPropertyOp31
 70
     0
102
RTVSPropertyOp32
 70
     0
102
RTVSPropertyOp33
 70
     0
102
RTVSPropertyOp34
 70
     0
102
RTVSPropertyOp35
 70
     0
102
RTVSPropertyOp36
 70
     0
102
RTVSPropertyOp37
 70
     0
102
RTVSPropertyOp38
 70
     0
102
RTVSPropertyOp39
 70
     0
102
RTVSPropertyOp40
 70
     0
102
RTVSPropertyOp41
 70
     0
102
RTVSPropertyOp42
 70
     0
102
RTVSPropertyOp43
 70
     0
102
RTVSPropertyOp44
 70
     0
102
RTVSPropertyOp45
 70
     0
102
RTVSPropertyOp46
 70
     0
102
RTVSPropertyOp47
 70
     0
102
RTVSPropertyOp48
 70
     0
102
RTVSPropertyOp49
 70
     0
102
RTVSPropertyOp50
 70
     0
102
RTVSPropertyOp51
 70
     0
102
RTVSPropertyOp52
 70
     0
102
RTVSPropertyOp53
 70
     0
102
RTVSPropertyOp54
 70
     0
102
RTVSPropertyOp55
 70
     0
102
RTVSPropertyOp56
 70
     0
102
RTVSPropertyOp57
 70
     0
102
RTVSPost2010Prop28
280
     0
102
RTVSPost2010PropOp28
 70
     0
102
RTVSPost2010Prop29
280
     1
102
RTVSPost2010PropOp29
 70
     0
102
RTVSPost2010Prop30
280
     1
102
RTVSPost2010PropOp30
 70
     0
102
RTVSPost2010Prop31
280
     0
102
RTVSPost2010PropOp31
 70
     0
102
RTVSPost2010Prop32
280
     0
102
RTVSPost2010PropOp32
 70
     0
102
RTVSPost2010Prop33
280
     0
102
RTVSPost2010PropOp33
 70
     0
102
RTVSPost2010Prop34
280
     0
102
RTVSPost2010PropOp34
 70
     0
102
RTVSPost2010Prop35
280
     0
102
RTVSPost2010PropOp35
 70
     0
102
RTVSPost2010Prop36
280
     0
102
RTVSPost2010PropOp36
 70
     0
102
RTVSPost2010Prop37
 90
       50
102
RTVSPost2010PropOp37
 70
     0
102
RTVSPost2010Prop38
140
0.0
102
RTVSPost2010PropOp38
 70
     0
102
RTVSPost2010Prop39
140
1.0
102
RTVSPost2010PropOp39
 70
     0
102
RTVSPost2010Prop40
 90
        0
102
RTVSPost2010PropOp40
 70
     0
102
RTVSPost2010Prop41ColorIndex
 90
       18
102
RTVSPost2010Prop41ColorRGB
 90
        0
102
RTVSPost2010PropOp41
 70
     0
102
RTVSPost2010Prop42
 90
       50
102
RTVSPost2010PropOp42
 70
     0
102
RTVSPost2010Prop43
 90
        3
102
RTVSPost2010PropOp43
 70
     0
102
RTVSPost2010Prop44ColorIndex
 90
        5
102
RTVSPost2010Prop44ColorRGB
 90
      255
102
RTVSPost2010PropOp44
 70
     0
102
RTVSPost2010Prop45
280
     0
102
RTVSPost2010PropOp45
 70
     0
102
RTVSPost2010Prop46
 90
       50
102
RTVSPost2010PropOp46
 70
     0
102
RTVSPost2010Prop47
 90
       50
102
RTVSPost2010PropOp47
 70
     0
102
RTVSPost2010Prop48
 90
       50
102
RTVSPost2010PropOp48
 70
     0
102
RTVSPost2010Prop49
280
     0
102
RTVSPost2010PropOp49
 70
     0
102
RTVSPost2010Prop50
 90
       50
102
RTVSPost2010PropOp50
 70
     0
102
RTVSPost2010Prop51ColorIndex
 90
      256
102
RTVSPost2010Prop51ColorRGB
 90
-16777216
102
RTVSPost2010PropOp51
 70
     0
102
RTVSPost2010Prop52
140
1.0
102
RTVSPost2010PropOp52
 70
     0
102
RTVSPost2010Prop53
 90
        2
102
RTVSPost2010PropOp53
 70
     0
102
RTVSPost2010Prop54
  1
strokes_ogs.tif
102
RTVSPost2010PropOp54
 70
     0
102
RTVSPost2010Prop55
280
     0
102
RTVSPost2010PropOp55
 70
     0
102
RTVSPost2010Prop56
140
1.0
102
RTVSPost2010PropOp56
 70
     0
102
RTVSPost2010Prop57
140
1.0
102
RTVSPost2010PropOp57
 70
     0
  0
XRECORD
  5
2E6
102
{ACAD_REACTORS
330
2E5
102
}
330
2E5
100
AcDbXrecord
280
     1
102
RTVSPropertyOp0
 70
     1
102
RTVSPropertyOp1
 70
     1
102
RTVSPropertyOp2
 70
     1
102
RTVSPropertyOp3
 70
     1
102
RTVSPropertyOp4
 70
     1
102
RTVSPropertyOp5
 70
     1
102
RTVSPropertyOp6
 70
     1
102
RTVSPropertyOp7
 70
     1
102
RTVSPropertyOp8
 70
     1
102
RTVSPropertyOp9
 70
     1
102
RTVSPropertyOp10
 70
     1
102
RTVSPropertyOp11
 70
     1
102
RTVSPropertyOp12
 70
     1
102
RTVSPropertyOp13
 70
     1
102
RTVSPropertyOp14
 70
     1
102
RTVSPropertyOp15
 70
     1
102
RTVSPropertyOp16
 70
     1
102
RTVSPropertyOp17
 70
     1
102
RTVSPropertyOp18
 70
     1
102
RTVSPropertyOp19
 70
     1
102
RTVSPropertyOp20
 70
     1
102
RTVSPropertyOp21
 70
     1
102
RTVSPropertyOp22
 70
     1
102
RTVSPropertyOp23
 70
     1
102
RTVSPropertyOp24
 70
     1
102
RTVSPropertyOp25
 70
     1
102
RTVSPropertyOp26
 70
     1
102
RTVSPropertyOp27
 70
     1
102
RTVSPropertyOp28
 70
     1
102
RTVSPropertyOp29
 70
     1
102
RTVSPropertyOp30
 70
     1
102
RTVSPropertyOp31
 70
     1
102
RTVSPropertyOp32
 70
     1
102
RTVSPropertyOp33
 70
     1
102
RTVSPropertyOp34
 70
     1
102
RTVSPropertyOp35
 70
     1
102
RTVSPropertyOp36
 70
     1
102
RTVSPropertyOp37
 70
     1
102
RTVSPropertyOp38
 70
     1
102
RTVSPropertyOp39
 70
     1
102
RTVSPropertyOp40
 70
     1
102
RTVSPropertyOp41
 70
     1
102
RTVSPropertyOp42
 70
     1
102
RTVSPropertyOp43
 70
     1
102
RTVSPropertyOp44
 70
     1
102
RTVSPropertyOp45
 70
     1
102
RTVSPropertyOp46
 70
     1
102
RTVSPropertyOp47
 70
     1
102
RTVSPropertyOp48
 70
     1
102
RTVSPropertyOp49
 70
     1
102
RTVSPropertyOp50
 70
     1
102
RTVSPropertyOp51
 70
     0
102
RTVSPropertyOp52
 70
     0
102
RTVSPropertyOp53
 70
     1
102
RTVSPropertyOp54
 70
     1
102
RTVSPropertyOp55
 70
     1
102
RTVSPropertyOp56
 70
     1
102
RTVSPropertyOp57
 70
     1
102
RTVSPost2010Prop28
280
     0
102
RTVSPost2010PropOp28
 70
     1
102
RTVSPost2010Prop29
280
     1
102
RTVSPost2010PropOp29
 70
     1
102
RTVSPost2010Prop30
280
     1
102
RTVSPost2010PropOp30
 70
     1
102
RTVSPost2010Prop31
280
     0
102
RTVSPost2010PropOp31
 70
     1
102
RTVSPost2010Prop32
280
     0
102
RTVSPost2010PropOp32
 70
     1
102
RTVSPost2010Prop33
280
     0
102
RTVSPost2010PropOp33
 70
     1
102
RTVSPost2010Prop34
280
     0
102
RTVSPost2010PropOp34
 70
     1
102
RTVSPost2010Prop35
280
     0
102
RTVSPost2010PropOp35
 70
     1
102
RTVSPost2010Prop36
280
     0
102
RTVSPost2010PropOp36
 70
     1
102
RTVSPost2010Prop37
 90
       50
102
RTVSPost2010PropOp37
 70
     1
102
RTVSPost2010Prop38
140
0.0
102
RTVSPost2010PropOp38
 70
     1
102
RTVSPost2010Prop39
140
1.0
102
RTVSPost2010PropOp39
 70
     1
102
RTVSPost2010Prop40
 90
        0
102
RTVSPost2010PropOp40
 70
     1
102
RTVSPost2010Prop41ColorIndex
 90
       18
102
RTVSPost2010Prop41ColorRGB
 90
        0
102
RTVSPost2010PropOp41
 70
     1
102
RTVSPost2010Prop42
 90
       50
102
RTVSPost2010PropOp42
 70
     1
102
RTVSPost2010Prop43
 90
        3
102
RTVSPost2010PropOp43
 70
     1
102
RTVSPost2010Prop44ColorIndex
 90
        5
102
RTVSPost2010Prop44ColorRGB
 90
      255
102
RTVSPost2010PropOp44
 70
     1
102
RTVSPost2010Prop45
280
     0
102
RTVSPost2010PropOp45
 70
     1
102
RTVSPost2010Prop46
 90
       50
102
RTVSPost2010PropOp46
 70
     1
102
RTVSPost2010Prop47
 90
       50
102
RTVSPost2010PropOp47
 70
     1
102
RTVSPost2010Prop48
 90
       50
102
RTVSPost2010PropOp48
 70
     1
102
RTVSPost2010Prop49
280
     0
102
RTVSPost2010PropOp49
 70
     1
102
RTVSPost2010Prop50
 90
       50
102
RTVSPost2010PropOp50
 70
     1
102
RTVSPost2010Prop51ColorIndex
 90
      256
102
RTVSPost2010Prop51ColorRGB
 90
-16777216
102
RTVSPost2010PropOp51
 70
     0
102
RTVSPost2010Prop52
140
1.0
102
RTVSPost2010PropOp52
 70
     0
102
RTVSPost2010Prop53
 90
        2
102
RTVSPost2010PropOp53
 70
     1
102
RTVSPost2010Prop54
  1
strokes_ogs.tif
102
RTVSPost2010PropOp54
 70
     1
102
RTVSPost2010Prop55
280
     0
102
RTVSPost2010PropOp55
 70
     1
102
RTVSPost2010Prop56
140
1.0
102
RTVSPost2010PropOp56
 70
     1
102
RTVSPost2010Prop57
140
1.0
102
RTVSPost2010PropOp57
 70
     1
  0
XRECORD
  5
2CA
102
{ACAD_REACTORS
330
2C9
102
}
330
2C9
100
AcDbXrecord
280
     1
102
RTVSPropertyOp0
 70
     1
102
RTVSPropertyOp1
 70
     1
102
RTVSPropertyOp2
 70
     1
102
RTVSPropertyOp3
 70
     1
102
RTVSPropertyOp4
 70
     1
102
RTVSPropertyOp5
 70
     1
102
RTVSPropertyOp6
 70
     1
102
RTVSPropertyOp7
 70
     1
102
RTVSPropertyOp8
 70
     1
102
RTVSPropertyOp9
 70
     1
102
RTVSPropertyOp10
 70
     1
102
RTVSPropertyOp11
 70
     1
102
RTVSPropertyOp12
 70
     1
102
RTVSPropertyOp13
 70
     1
102
RTVSPropertyOp14
 70
     1
102
RTVSPropertyOp15
 70
     1
102
RTVSPropertyOp16
 70
     1
102
RTVSPropertyOp17
 70
     1
102
RTVSPropertyOp18
 70
     1
102
RTVSPropertyOp19
 70
     1
102
RTVSPropertyOp20
 70
     1
102
RTVSPropertyOp21
 70
     1
102
RTVSPropertyOp22
 70
     1
102
RTVSPropertyOp23
 70
     1
102
RTVSPropertyOp24
 70
     1
102
RTVSPropertyOp25
 70
     1
102
RTVSPropertyOp26
 70
     1
102
RTVSPropertyOp27
 70
     1
102
RTVSPropertyOp28
 70
     1
102
RTVSPropertyOp29
 70
     1
102
RTVSPropertyOp30
 70
     1
102
RTVSPropertyOp31
 70
     1
102
RTVSPropertyOp32
 70
     1
102
RTVSPropertyOp33
 70
     1
102
RTVSPropertyOp34
 70
     1
102
RTVSPropertyOp35
 70
     1
102
RTVSPropertyOp36
 70
     1
102
RTVSPropertyOp37
 70
     1
102
RTVSPropertyOp38
 70
     1
102
RTVSPropertyOp39
 70
     1
102
RTVSPropertyOp40
 70
     1
102
RTVSPropertyOp41
 70
     1
102
RTVSPropertyOp42
 70
     1
102
RTVSPropertyOp43
 70
     1
102
RTVSPropertyOp44
 70
     1
102
RTVSPropertyOp45
 70
     1
102
RTVSPropertyOp46
 70
     1
102
RTVSPropertyOp47
 70
     1
102
RTVSPropertyOp48
 70
     1
102
RTVSPropertyOp49
 70
     1
102
RTVSPropertyOp50
 70
     1
102
RTVSPropertyOp51
 70
     0
102
RTVSPropertyOp52
 70
     0
102
RTVSPropertyOp53
 70
     1
102
RTVSPropertyOp54
 70
     1
102
RTVSPropertyOp55
 70
     1
102
RTVSPropertyOp56
 70
     1
102
RTVSPropertyOp57
 70
     1
102
RTVSPost2010Prop28
280
     0
102
RTVSPost2010PropOp28
 70
     1
102
RTVSPost2010Prop29
280
     1
102
RTVSPost2010PropOp29
 70
     1
102
RTVSPost2010Prop30
280
     1
102
RTVSPost2010PropOp30
 70
     1
102
RTVSPost2010Prop31
280
     0
102
RTVSPost2010PropOp31
 70
     1
102
RTVSPost2010Prop32
280
     0
102
RTVSPost2010PropOp32
 70
     1
102
RTVSPost2010Prop33
280
     0
102
RTVSPost2010PropOp33
 70
     1
102
RTVSPost2010Prop34
280
     0
102
RTVSPost2010PropOp34
 70
     1
102
RTVSPost2010Prop35
280
     0
102
RTVSPost2010PropOp35
 70
     1
102
RTVSPost2010Prop36
280
     0
102
RTVSPost2010PropOp36
 70
     1
102
RTVSPost2010Prop37
 90
       50
102
RTVSPost2010PropOp37
 70
     1
102
RTVSPost2010Prop38
140
0.0
102
RTVSPost2010PropOp38
 70
     1
102
RTVSPost2010Prop39
140
1.0
102
RTVSPost2010PropOp39
 70
     1
102
RTVSPost2010Prop40
 90
        0
102
RTVSPost2010PropOp40
 70
     1
102
RTVSPost2010Prop41ColorIndex
 90
       18
102
RTVSPost2010Prop41ColorRGB
 90
        0
102
RTVSPost2010PropOp41
 70
     1
102
RTVSPost2010Prop42
 90
       50
102
RTVSPost2010PropOp42
 70
     1
102
RTVSPost2010Prop43
 90
        3
102
RTVSPost2010PropOp43
 70
     1
102
RTVSPost2010Prop44ColorIndex
 90
        5
102
RTVSPost2010Prop44ColorRGB
 90
      255
102
RTVSPost2010PropOp44
 70
     1
102
RTVSPost2010Prop45
280
     0
102
RTVSPost2010PropOp45
 70
     1
102
RTVSPost2010Prop46
 90
       50
102
RTVSPost2010PropOp46
 70
     1
102
RTVSPost2010Prop47
 90
       50
102
RTVSPost2010PropOp47
 70
     1
102
RTVSPost2010Prop48
 90
       50
102
RTVSPost2010PropOp48
 70
     1
102
RTVSPost2010Prop49
280
     0
102
RTVSPost2010PropOp49
 70
     1
102
RTVSPost2010Prop50
 90
       50
102
RTVSPost2010PropOp50
 70
     1
102
RTVSPost2010Prop51ColorIndex
 90
      256
102
RTVSPost2010Prop51ColorRGB
 90
-16777216
102
RTVSPost2010PropOp51
 70
     0
102
RTVSPost2010Prop52
140
1.0
102
RTVSPost2010PropOp52
 70
     0
102
RTVSPost2010Prop53
 90
        2
102
RTVSPost2010PropOp53
 70
     1
102
RTVSPost2010Prop54
  1
strokes_ogs.tif
102
RTVSPost2010PropOp54
 70
     1
102
RTVSPost2010Prop55
280
     0
102
RTVSPost2010PropOp55
 70
     1
102
RTVSPost2010Prop56
140
1.0
102
RTVSPost2010PropOp56
 70
     1
102
RTVSPost2010Prop57
140
1.0
102
RTVSPost2010PropOp57
 70
     1
  0
XRECORD
  5
2CC
102
{ACAD_REACTORS
330
2CB
102
}
330
2CB
100
AcDbXrecord
280
     1
102
RTVSPropertyOp0
 70
     1
102
RTVSPropertyOp1
 70
     1
102
RTVSPropertyOp2
 70
     1
102
RTVSPropertyOp3
 70
     1
102
RTVSPropertyOp4
 70
     1
102
RTVSPropertyOp5
 70
     1
102
RTVSPropertyOp6
 70
     1
102
RTVSPropertyOp7
 70
     1
102
RTVSPropertyOp8
 70
     1
102
RTVSPropertyOp9
 70
     1
102
RTVSPropertyOp10
 70
     1
102
RTVSPropertyOp11
 70
     1
102
RTVSPropertyOp12
 70
     1
102
RTVSPropertyOp13
 70
     1
102
RTVSPropertyOp14
 70
     1
102
RTVSPropertyOp15
 70
     1
102
RTVSPropertyOp16
 70
     1
102
RTVSPropertyOp17
 70
     1
102
RTVSPropertyOp18
 70
     1
102
RTVSPropertyOp19
 70
     1
102
RTVSPropertyOp20
 70
     1
102
RTVSPropertyOp21
 70
     1
102
RTVSPropertyOp22
 70
     1
102
RTVSPropertyOp23
 70
     1
102
RTVSPropertyOp24
 70
     1
102
RTVSPropertyOp25
 70
     1
102
RTVSPropertyOp26
 70
     1
102
RTVSPropertyOp27
 70
     1
102
RTVSPropertyOp28
 70
     1
102
RTVSPropertyOp29
 70
     1
102
RTVSPropertyOp30
 70
     1
102
RTVSPropertyOp31
 70
     1
102
RTVSPropertyOp32
 70
     1
102
RTVSPropertyOp33
 70
     1
102
RTVSPropertyOp34
 70
     1
102
RTVSPropertyOp35
 70
     1
102
RTVSPropertyOp36
 70
     1
102
RTVSPropertyOp37
 70
     1
102
RTVSPropertyOp38
 70
     1
102
RTVSPropertyOp39
 70
     1
102
RTVSPropertyOp40
 70
     1
102
RTVSPropertyOp41
 70
     1
102
RTVSPropertyOp42
 70
     1
102
RTVSPropertyOp43
 70
     1
102
RTVSPropertyOp44
 70
     1
102
RTVSPropertyOp45
 70
     1
102
RTVSPropertyOp46
 70
     1
102
RTVSPropertyOp47
 70
     1
102
RTVSPropertyOp48
 70
     1
102
RTVSPropertyOp49
 70
     1
102
RTVSPropertyOp50
 70
     1
102
RTVSPropertyOp51
 70
     0
102
RTVSPropertyOp52
 70
     0
102
RTVSPropertyOp53
 70
     1
102
RTVSPropertyOp54
 70
     1
102
RTVSPropertyOp55
 70
     1
102
RTVSPropertyOp56
 70
     1
102
RTVSPropertyOp57
 70
     1
102
RTVSPost2010Prop28
280
     0
102
RTVSPost2010PropOp28
 70
     1
102
RTVSPost2010Prop29
280
     1
102
RTVSPost2010PropOp29
 70
     1
102
RTVSPost2010Prop30
280
     1
102
RTVSPost2010PropOp30
 70
     1
102
RTVSPost2010Prop31
280
     0
102
RTVSPost2010PropOp31
 70
     1
102
RTVSPost2010Prop32
280
     0
102
RTVSPost2010PropOp32
 70
     1
102
RTVSPost2010Prop33
280
     0
102
RTVSPost2010PropOp33
 70
     1
102
RTVSPost2010Prop34
280
     0
102
RTVSPost2010PropOp34
 70
     1
102
RTVSPost2010Prop35
280
     0
102
RTVSPost2010PropOp35
 70
     1
102
RTVSPost2010Prop36
280
     0
102
RTVSPost2010PropOp36
 70
     1
102
RTVSPost2010Prop37
 90
       50
102
RTVSPost2010PropOp37
 70
     1
102
RTVSPost2010Prop38
140
0.0
102
RTVSPost2010PropOp38
 70
     1
102
RTVSPost2010Prop39
140
1.0
102
RTVSPost2010PropOp39
 70
     1
102
RTVSPost2010Prop40
 90
        0
102
RTVSPost2010PropOp40
 70
     1
102
RTVSPost2010Prop41ColorIndex
 90
       18
102
RTVSPost2010Prop41ColorRGB
 90
        0
102
RTVSPost2010PropOp41
 70
     1
102
RTVSPost2010Prop42
 90
       50
102
RTVSPost2010PropOp42
 70
     1
102
RTVSPost2010Prop43
 90
        3
102
RTVSPost2010PropOp43
 70
     1
102
RTVSPost2010Prop44ColorIndex
 90
        5
102
RTVSPost2010Prop44ColorRGB
 90
      255
102
RTVSPost2010PropOp44
 70
     1
102
RTVSPost2010Prop45
280
     0
102
RTVSPost2010PropOp45
 70
     1
102
RTVSPost2010Prop46
 90
       50
102
RTVSPost2010PropOp46
 70
     1
102
RTVSPost2010Prop47
 90
       50
102
RTVSPost2010PropOp47
 70
     1
102
RTVSPost2010Prop48
 90
       50
102
RTVSPost2010PropOp48
 70
     1
102
RTVSPost2010Prop49
280
     0
102
RTVSPost2010PropOp49
 70
     1
102
RTVSPost2010Prop50
 90
       50
102
RTVSPost2010PropOp50
 70
     1
102
RTVSPost2010Prop51ColorIndex
 90
      256
102
RTVSPost2010Prop51ColorRGB
 90
-16777216
102
RTVSPost2010PropOp51
 70
     0
102
RTVSPost2010Prop52
140
1.0
102
RTVSPost2010PropOp52
 70
     0
102
RTVSPost2010Prop53
 90
        2
102
RTVSPost2010PropOp53
 70
     1
102
RTVSPost2010Prop54
  1
strokes_ogs.tif
102
RTVSPost2010PropOp54
 70
     1
102
RTVSPost2010Prop55
280
     0
102
RTVSPost2010PropOp55
 70
     1
102
RTVSPost2010Prop56
140
1.0
102
RTVSPost2010PropOp56
 70
     1
102
RTVSPost2010Prop57
140
1.0
102
RTVSPost2010PropOp57
 70
     1
  0
XRECORD
  5
2CE
102
{ACAD_REACTORS
330
2CD
102
}
330
2CD
100
AcDbXrecord
280
     1
102
RTVSPropertyOp0
 70
     1
102
RTVSPropertyOp1
 70
     1
102
RTVSPropertyOp2
 70
     1
102
RTVSPropertyOp3
 70
     1
102
RTVSPropertyOp4
 70
     1
102
RTVSPropertyOp5
 70
     1
102
RTVSPropertyOp6
 70
     1
102
RTVSPropertyOp7
 70
     1
102
RTVSPropertyOp8
 70
     1
102
RTVSPropertyOp9
 70
     1
102
RTVSPropertyOp10
 70
     1
102
RTVSPropertyOp11
 70
     1
102
RTVSPropertyOp12
 70
     1
102
RTVSPropertyOp13
 70
     1
102
RTVSPropertyOp14
 70
     1
102
RTVSPropertyOp15
 70
     1
102
RTVSPropertyOp16
 70
     1
102
RTVSPropertyOp17
 70
     1
102
RTVSPropertyOp18
 70
     1
102
RTVSPropertyOp19
 70
     1
102
RTVSPropertyOp20
 70
     1
102
RTVSPropertyOp21
 70
     1
102
RTVSPropertyOp22
 70
     1
102
RTVSPropertyOp23
 70
     1
102
RTVSPropertyOp24
 70
     1
102
RTVSPropertyOp25
 70
     1
102
RTVSPropertyOp26
 70
     1
102
RTVSPropertyOp27
 70
     1
102
RTVSPropertyOp28
 70
     1
102
RTVSPropertyOp29
 70
     1
102
RTVSPropertyOp30
 70
     1
102
RTVSPropertyOp31
 70
     1
102
RTVSPropertyOp32
 70
     1
102
RTVSPropertyOp33
 70
     1
102
RTVSPropertyOp34
 70
     1
102
RTVSPropertyOp35
 70
     1
102
RTVSPropertyOp36
 70
     1
102
RTVSPropertyOp37
 70
     1
102
RTVSPropertyOp38
 70
     1
102
RTVSPropertyOp39
 70
     1
102
RTVSPropertyOp40
 70
     1
102
RTVSPropertyOp41
 70
     1
102
RTVSPropertyOp42
 70
     1
102
RTVSPropertyOp43
 70
     1
102
RTVSPropertyOp44
 70
     1
102
RTVSPropertyOp45
 70
     1
102
RTVSPropertyOp46
 70
     1
102
RTVSPropertyOp47
 70
     1
102
RTVSPropertyOp48
 70
     1
102
RTVSPropertyOp49
 70
     1
102
RTVSPropertyOp50
 70
     1
102
RTVSPropertyOp51
 70
     0
102
RTVSPropertyOp52
 70
     0
102
RTVSPropertyOp53
 70
     1
102
RTVSPropertyOp54
 70
     1
102
RTVSPropertyOp55
 70
     1
102
RTVSPropertyOp56
 70
     1
102
RTVSPropertyOp57
 70
     1
102
RTVSPost2010Prop28
280
     0
102
RTVSPost2010PropOp28
 70
     1
102
RTVSPost2010Prop29
280
     1
102
RTVSPost2010PropOp29
 70
     1
102
RTVSPost2010Prop30
280
     1
102
RTVSPost2010PropOp30
 70
     1
102
RTVSPost2010Prop31
280
     0
102
RTVSPost2010PropOp31
 70
     1
102
RTVSPost2010Prop32
280
     0
102
RTVSPost2010PropOp32
 70
     1
102
RTVSPost2010Prop33
280
     0
102
RTVSPost2010PropOp33
 70
     1
102
RTVSPost2010Prop34
280
     0
102
RTVSPost2010PropOp34
 70
     1
102
RTVSPost2010Prop35
280
     0
102
RTVSPost2010PropOp35
 70
     1
102
RTVSPost2010Prop36
280
     0
102
RTVSPost2010PropOp36
 70
     1
102
RTVSPost2010Prop37
 90
       50
102
RTVSPost2010PropOp37
 70
     1
102
RTVSPost2010Prop38
140
0.0
102
RTVSPost2010PropOp38
 70
     1
102
RTVSPost2010Prop39
140
1.0
102
RTVSPost2010PropOp39
 70
     1
102
RTVSPost2010Prop40
 90
        0
102
RTVSPost2010PropOp40
 70
     1
102
RTVSPost2010Prop41ColorIndex
 90
       18
102
RTVSPost2010Prop41ColorRGB
 90
        0
102
RTVSPost2010PropOp41
 70
     1
102
RTVSPost2010Prop42
 90
       50
102
RTVSPost2010PropOp42
 70
     1
102
RTVSPost2010Prop43
 90
        3
102
RTVSPost2010PropOp43
 70
     1
102
RTVSPost2010Prop44ColorIndex
 90
        5
102
RTVSPost2010Prop44ColorRGB
 90
      255
102
RTVSPost2010PropOp44
 70
     1
102
RTVSPost2010Prop45
280
     0
102
RTVSPost2010PropOp45
 70
     1
102
RTVSPost2010Prop46
 90
       50
102
RTVSPost2010PropOp46
 70
     1
102
RTVSPost2010Prop47
 90
       50
102
RTVSPost2010PropOp47
 70
     1
102
RTVSPost2010Prop48
 90
       50
102
RTVSPost2010PropOp48
 70
     1
102
RTVSPost2010Prop49
280
     0
102
RTVSPost2010PropOp49
 70
     1
102
RTVSPost2010Prop50
 90
       50
102
RTVSPost2010PropOp50
 70
     1
102
RTVSPost2010Prop51ColorIndex
 90
      256
102
RTVSPost2010Prop51ColorRGB
 90
-16777216
102
RTVSPost2010PropOp51
 70
     0
102
RTVSPost2010Prop52
140
1.0
102
RTVSPost2010PropOp52
 70
     0
102
RTVSPost2010Prop53
 90
        2
102
RTVSPost2010PropOp53
 70
     1
102
RTVSPost2010Prop54
  1
strokes_ogs.tif
102
RTVSPost2010PropOp54
 70
     1
102
RTVSPost2010Prop55
280
     0
102
RTVSPost2010PropOp55
 70
     1
102
RTVSPost2010Prop56
140
1.0
102
RTVSPost2010PropOp56
 70
     1
102
RTVSPost2010Prop57
140
1.0
102
RTVSPost2010PropOp57
 70
     1
  0
XRECORD
  5
2D0
102
{ACAD_REACTORS
330
2CF
102
}
330
2CF
100
AcDbXrecord
280
     1
102
RTVSPropertyOp0
 70
     1
102
RTVSPropertyOp1
 70
     1
102
RTVSPropertyOp2
 70
     1
102
RTVSPropertyOp3
 70
     1
102
RTVSPropertyOp4
 70
     1
102
RTVSPropertyOp5
 70
     1
102
RTVSPropertyOp6
 70
     1
102
RTVSPropertyOp7
 70
     1
102
RTVSPropertyOp8
 70
     1
102
RTVSPropertyOp9
 70
     1
102
RTVSPropertyOp10
 70
     1
102
RTVSPropertyOp11
 70
     1
102
RTVSPropertyOp12
 70
     1
102
RTVSPropertyOp13
 70
     1
102
RTVSPropertyOp14
 70
     1
102
RTVSPropertyOp15
 70
     1
102
RTVSPropertyOp16
 70
     1
102
RTVSPropertyOp17
 70
     1
102
RTVSPropertyOp18
 70
     1
102
RTVSPropertyOp19
 70
     1
102
RTVSPropertyOp20
 70
     1
102
RTVSPropertyOp21
 70
     1
102
RTVSPropertyOp22
 70
     1
102
RTVSPropertyOp23
 70
     1
102
RTVSPropertyOp24
 70
     1
102
RTVSPropertyOp25
 70
     1
102
RTVSPropertyOp26
 70
     1
102
RTVSPropertyOp27
 70
     1
102
RTVSPropertyOp28
 70
     1
102
RTVSPropertyOp29
 70
     1
102
RTVSPropertyOp30
 70
     1
102
RTVSPropertyOp31
 70
     1
102
RTVSPropertyOp32
 70
     1
102
RTVSPropertyOp33
 70
     1
102
RTVSPropertyOp34
 70
     1
102
RTVSPropertyOp35
 70
     1
102
RTVSPropertyOp36
 70
     1
102
RTVSPropertyOp37
 70
     1
102
RTVSPropertyOp38
 70
     1
102
RTVSPropertyOp39
 70
     1
102
RTVSPropertyOp40
 70
     1
102
RTVSPropertyOp41
 70
     1
102
RTVSPropertyOp42
 70
     1
102
RTVSPropertyOp43
 70
     1
102
RTVSPropertyOp44
 70
     1
102
RTVSPropertyOp45
 70
     1
102
RTVSPropertyOp46
 70
     1
102
RTVSPropertyOp47
 70
     1
102
RTVSPropertyOp48
 70
     1
102
RTVSPropertyOp49
 70
     1
102
RTVSPropertyOp50
 70
     1
102
RTVSPropertyOp51
 70
     0
102
RTVSPropertyOp52
 70
     0
102
RTVSPropertyOp53
 70
     1
102
RTVSPropertyOp54
 70
     1
102
RTVSPropertyOp55
 70
     1
102
RTVSPropertyOp56
 70
     1
102
RTVSPropertyOp57
 70
     1
102
RTVSPost2010Prop28
280
     0
102
RTVSPost2010PropOp28
 70
     1
102
RTVSPost2010Prop29
280
     1
102
RTVSPost2010PropOp29
 70
     1
102
RTVSPost2010Prop30
280
     1
102
RTVSPost2010PropOp30
 70
     1
102
RTVSPost2010Prop31
280
     0
102
RTVSPost2010PropOp31
 70
     1
102
RTVSPost2010Prop32
280
     0
102
RTVSPost2010PropOp32
 70
     1
102
RTVSPost2010Prop33
280
     0
102
RTVSPost2010PropOp33
 70
     1
102
RTVSPost2010Prop34
280
     0
102
RTVSPost2010PropOp34
 70
     1
102
RTVSPost2010Prop35
280
     0
102
RTVSPost2010PropOp35
 70
     1
102
RTVSPost2010Prop36
280
     0
102
RTVSPost2010PropOp36
 70
     1
102
RTVSPost2010Prop37
 90
       50
102
RTVSPost2010PropOp37
 70
     1
102
RTVSPost2010Prop38
140
0.0
102
RTVSPost2010PropOp38
 70
     1
102
RTVSPost2010Prop39
140
1.0
102
RTVSPost2010PropOp39
 70
     1
102
RTVSPost2010Prop40
 90
        0
102
RTVSPost2010PropOp40
 70
     1
102
RTVSPost2010Prop41ColorIndex
 90
       18
102
RTVSPost2010Prop41ColorRGB
 90
        0
102
RTVSPost2010PropOp41
 70
     1
102
RTVSPost2010Prop42
 90
       50
102
RTVSPost2010PropOp42
 70
     1
102
RTVSPost2010Prop43
 90
        3
102
RTVSPost2010PropOp43
 70
     1
102
RTVSPost2010Prop44ColorIndex
 90
        5
102
RTVSPost2010Prop44ColorRGB
 90
      255
102
RTVSPost2010PropOp44
 70
     1
102
RTVSPost2010Prop45
280
     0
102
RTVSPost2010PropOp45
 70
     1
102
RTVSPost2010Prop46
 90
       50
102
RTVSPost2010PropOp46
 70
     1
102
RTVSPost2010Prop47
 90
       50
102
RTVSPost2010PropOp47
 70
     1
102
RTVSPost2010Prop48
 90
       50
102
RTVSPost2010PropOp48
 70
     1
102
RTVSPost2010Prop49
280
     0
102
RTVSPost2010PropOp49
 70
     1
102
RTVSPost2010Prop50
 90
       50
102
RTVSPost2010PropOp50
 70
     1
102
RTVSPost2010Prop51ColorIndex
 90
      256
102
RTVSPost2010Prop51ColorRGB
 90
-16777216
102
RTVSPost2010PropOp51
 70
     0
102
RTVSPost2010Prop52
140
1.0
102
RTVSPost2010PropOp52
 70
     0
102
RTVSPost2010Prop53
 90
        2
102
RTVSPost2010PropOp53
 70
     1
102
RTVSPost2010Prop54
  1
strokes_ogs.tif
102
RTVSPost2010PropOp54
 70
     1
102
RTVSPost2010Prop55
280
     0
102
RTVSPost2010PropOp55
 70
     1
102
RTVSPost2010Prop56
140
1.0
102
RTVSPost2010PropOp56
 70
     1
102
RTVSPost2010Prop57
140
1.0
102
RTVSPost2010PropOp57
 70
     1
  0
XRECORD
  5
2D6
102
{ACAD_REACTORS
330
2D5
102
}
330
2D5
100
AcDbXrecord
280
     1
102
RTVSPropertyOp0
 70
     1
102
RTVSPropertyOp1
 70
     1
102
RTVSPropertyOp2
 70
     1
102
RTVSPropertyOp3
 70
     1
102
RTVSPropertyOp4
 70
     1
102
RTVSPropertyOp5
 70
     1
102
RTVSPropertyOp6
 70
     1
102
RTVSPropertyOp7
 70
     1
102
RTVSPropertyOp8
 70
     1
102
RTVSPropertyOp9
 70
     1
102
RTVSPropertyOp10
 70
     1
102
RTVSPropertyOp11
 70
     1
102
RTVSPropertyOp12
 70
     1
102
RTVSPropertyOp13
 70
     1
102
RTVSPropertyOp14
 70
     1
102
RTVSPropertyOp15
 70
     1
102
RTVSPropertyOp16
 70
     1
102
RTVSPropertyOp17
 70
     1
102
RTVSPropertyOp18
 70
     1
102
RTVSPropertyOp19
 70
     1
102
RTVSPropertyOp20
 70
     1
102
RTVSPropertyOp21
 70
     1
102
RTVSPropertyOp22
 70
     1
102
RTVSPropertyOp23
 70
     1
102
RTVSPropertyOp24
 70
     1
102
RTVSPropertyOp25
 70
     1
102
RTVSPropertyOp26
 70
     1
102
RTVSPropertyOp27
 70
     1
102
RTVSPropertyOp28
 70
     1
102
RTVSPropertyOp29
 70
     1
102
RTVSPropertyOp30
 70
     1
102
RTVSPropertyOp31
 70
     1
102
RTVSPropertyOp32
 70
     1
102
RTVSPropertyOp33
 70
     1
102
RTVSPropertyOp34
 70
     1
102
RTVSPropertyOp35
 70
     1
102
RTVSPropertyOp36
 70
     1
102
RTVSPropertyOp37
 70
     1
102
RTVSPropertyOp38
 70
     1
102
RTVSPropertyOp39
 70
     1
102
RTVSPropertyOp40
 70
     1
102
RTVSPropertyOp41
 70
     1
102
RTVSPropertyOp42
 70
     1
102
RTVSPropertyOp43
 70
     1
102
RTVSPropertyOp44
 70
     1
102
RTVSPropertyOp45
 70
     1
102
RTVSPropertyOp46
 70
     1
102
RTVSPropertyOp47
 70
     1
102
RTVSPropertyOp48
 70
     1
102
RTVSPropertyOp49
 70
     1
102
RTVSPropertyOp50
 70
     1
102
RTVSPropertyOp51
 70
     0
102
RTVSPropertyOp52
 70
     0
102
RTVSPropertyOp53
 70
     1
102
RTVSPropertyOp54
 70
     1
102
RTVSPropertyOp55
 70
     1
102
RTVSPropertyOp56
 70
     1
102
RTVSPropertyOp57
 70
     1
102
RTVSPost2010Prop28
280
     0
102
RTVSPost2010PropOp28
 70
     1
102
RTVSPost2010Prop29
280
     1
102
RTVSPost2010PropOp29
 70
     1
102
RTVSPost2010Prop30
280
     1
102
RTVSPost2010PropOp30
 70
     1
102
RTVSPost2010Prop31
280
     0
102
RTVSPost2010PropOp31
 70
     1
102
RTVSPost2010Prop32
280
     0
102
RTVSPost2010PropOp32
 70
     1
102
RTVSPost2010Prop33
280
     0
102
RTVSPost2010PropOp33
 70
     1
102
RTVSPost2010Prop34
280
     0
102
RTVSPost2010PropOp34
 70
     1
102
RTVSPost2010Prop35
280
     0
102
RTVSPost2010PropOp35
 70
     1
102
RTVSPost2010Prop36
280
     0
102
RTVSPost2010PropOp36
 70
     1
102
RTVSPost2010Prop37
 90
       50
102
RTVSPost2010PropOp37
 70
     1
102
RTVSPost2010Prop38
140
0.0
102
RTVSPost2010PropOp38
 70
     1
102
RTVSPost2010Prop39
140
1.0
102
RTVSPost2010PropOp39
 70
     1
102
RTVSPost2010Prop40
 90
        0
102
RTVSPost2010PropOp40
 70
     1
102
RTVSPost2010Prop41ColorIndex
 90
       18
102
RTVSPost2010Prop41ColorRGB
 90
        0
102
RTVSPost2010PropOp41
 70
     1
102
RTVSPost2010Prop42
 90
       50
102
RTVSPost2010PropOp42
 70
     1
102
RTVSPost2010Prop43
 90
        3
102
RTVSPost2010PropOp43
 70
     1
102
RTVSPost2010Prop44ColorIndex
 90
        5
102
RTVSPost2010Prop44ColorRGB
 90
      255
102
RTVSPost2010PropOp44
 70
     1
102
RTVSPost2010Prop45
280
     0
102
RTVSPost2010PropOp45
 70
     1
102
RTVSPost2010Prop46
 90
       50
102
RTVSPost2010PropOp46
 70
     1
102
RTVSPost2010Prop47
 90
       50
102
RTVSPost2010PropOp47
 70
     1
102
RTVSPost2010Prop48
 90
       50
102
RTVSPost2010PropOp48
 70
     1
102
RTVSPost2010Prop49
280
     0
102
RTVSPost2010PropOp49
 70
     1
102
RTVSPost2010Prop50
 90
       50
102
RTVSPost2010PropOp50
 70
     1
102
RTVSPost2010Prop51ColorIndex
 90
      256
102
RTVSPost2010Prop51ColorRGB
 90
-16777216
102
RTVSPost2010PropOp51
 70
     0
102
RTVSPost2010Prop52
140
1.0
102
RTVSPost2010PropOp52
 70
     0
102
RTVSPost2010Prop53
 90
        2
102
RTVSPost2010PropOp53
 70
     1
102
RTVSPost2010Prop54
  1
strokes_ogs.tif
102
RTVSPost2010PropOp54
 70
     1
102
RTVSPost2010Prop55
280
     0
102
RTVSPost2010PropOp55
 70
     1
102
RTVSPost2010Prop56
140
1.0
102
RTVSPost2010PropOp56
 70
     1
102
RTVSPost2010Prop57
140
1.0
102
RTVSPost2010PropOp57
 70
     1
  0
XRECORD
  5
2EA
102
{ACAD_REACTORS
330
2E9
102
}
330
2E9
100
AcDbXrecord
280
     1
102
RTVSPropertyOp0
 70
     0
102
RTVSPropertyOp1
 70
     0
102
RTVSPropertyOp2
 70
     0
102
RTVSPropertyOp3
 70
     0
102
RTVSPropertyOp4
 70
     0
102
RTVSPropertyOp5
 70
     0
102
RTVSPropertyOp6
 70
     0
102
RTVSPropertyOp7
 70
     0
102
RTVSPropertyOp8
 70
     0
102
RTVSPropertyOp9
 70
     0
102
RTVSPropertyOp10
 70
     0
102
RTVSPropertyOp11
 70
     0
102
RTVSPropertyOp12
 70
     0
102
RTVSPropertyOp13
 70
     0
102
RTVSPropertyOp14
 70
     2
102
RTVSPropertyOp15
 70
     0
102
RTVSPropertyOp16
 70
     0
102
RTVSPropertyOp17
 70
     0
102
RTVSPropertyOp18
 70
     0
102
RTVSPropertyOp19
 70
     0
102
RTVSPropertyOp20
 70
     0
102
RTVSPropertyOp21
 70
     0
102
RTVSPropertyOp22
 70
     0
102
RTVSPropertyOp23
 70
     0
102
RTVSPropertyOp24
 70
     0
102
RTVSPropertyOp25
 70
     0
102
RTVSPropertyOp26
 70
     0
102
RTVSPropertyOp27
 70
     0
102
RTVSPropertyOp28
 70
     0
102
RTVSPropertyOp29
 70
     0
102
RTVSPropertyOp30
 70
     0
102
RTVSPropertyOp31
 70
     0
102
RTVSPropertyOp32
 70
     0
102
RTVSPropertyOp33
 70
     0
102
RTVSPropertyOp34
 70
     0
102
RTVSPropertyOp35
 70
     0
102
RTVSPropertyOp36
 70
     0
102
RTVSPropertyOp37
 70
     0
102
RTVSPropertyOp38
 70
     0
102
RTVSPropertyOp39
 70
     0
102
RTVSPropertyOp40
 70
     0
102
RTVSPropertyOp41
 70
     0
102
RTVSPropertyOp42
 70
     0
102
RTVSPropertyOp43
 70
     0
102
RTVSPropertyOp44
 70
     0
102
RTVSPropertyOp45
 70
     0
102
RTVSPropertyOp46
 70
     0
102
RTVSPropertyOp47
 70
     0
102
RTVSPropertyOp48
 70
     0
102
RTVSPropertyOp49
 70
     0
102
RTVSPropertyOp50
 70
     0
102
RTVSPropertyOp51
 70
     0
102
RTVSPropertyOp52
 70
     0
102
RTVSPropertyOp53
 70
     0
102
RTVSPropertyOp54
 70
     0
102
RTVSPropertyOp55
 70
     0
102
RTVSPropertyOp56
 70
     0
102
RTVSPropertyOp57
 70
     0
102
RTVSPost2010Prop28
280
     0
102
RTVSPost2010PropOp28
 70
     0
102
RTVSPost2010Prop29
280
     1
102
RTVSPost2010PropOp29
 70
     0
102
RTVSPost2010Prop30
280
     1
102
RTVSPost2010PropOp30
 70
     0
102
RTVSPost2010Prop31
280
     0
102
RTVSPost2010PropOp31
 70
     0
102
RTVSPost2010Prop32
280
     0
102
RTVSPost2010PropOp32
 70
     0
102
RTVSPost2010Prop33
280
     0
102
RTVSPost2010PropOp33
 70
     0
102
RTVSPost2010Prop34
280
     0
102
RTVSPost2010PropOp34
 70
     0
102
RTVSPost2010Prop35
280
     0
102
RTVSPost2010PropOp35
 70
     0
102
RTVSPost2010Prop36
280
     0
102
RTVSPost2010PropOp36
 70
     0
102
RTVSPost2010Prop37
 90
       50
102
RTVSPost2010PropOp37
 70
     0
102
RTVSPost2010Prop38
140
0.0
102
RTVSPost2010PropOp38
 70
     0
102
RTVSPost2010Prop39
140
1.0
102
RTVSPost2010PropOp39
 70
     0
102
RTVSPost2010Prop40
 90
        0
102
RTVSPost2010PropOp40
 70
     0
102
RTVSPost2010Prop41ColorIndex
 90
       18
102
RTVSPost2010Prop41ColorRGB
 90
        0
102
RTVSPost2010PropOp41
 70
     0
102
RTVSPost2010Prop42
 90
       50
102
RTVSPost2010PropOp42
 70
     0
102
RTVSPost2010Prop43
 90
        3
102
RTVSPost2010PropOp43
 70
     0
102
RTVSPost2010Prop44ColorIndex
 90
        5
102
RTVSPost2010Prop44ColorRGB
 90
      255
102
RTVSPost2010PropOp44
 70
     0
102
RTVSPost2010Prop45
280
     0
102
RTVSPost2010PropOp45
 70
     0
102
RTVSPost2010Prop46
 90
       50
102
RTVSPost2010PropOp46
 70
     0
102
RTVSPost2010Prop47
 90
       50
102
RTVSPost2010PropOp47
 70
     0
102
RTVSPost2010Prop48
 90
       50
102
RTVSPost2010PropOp48
 70
     0
102
RTVSPost2010Prop49
280
     0
102
RTVSPost2010PropOp49
 70
     0
102
RTVSPost2010Prop50
 90
       50
102
RTVSPost2010PropOp50
 70
     0
102
RTVSPost2010Prop51ColorIndex
 90
      256
102
RTVSPost2010Prop51ColorRGB
 90
-16777216
102
RTVSPost2010PropOp51
 70
     0
102
RTVSPost2010Prop52
140
1.0
102
RTVSPost2010PropOp52
 70
     0
102
RTVSPost2010Prop53
 90
        2
102
RTVSPost2010PropOp53
 70
     0
102
RTVSPost2010Prop54
  1
strokes_ogs.tif
102
RTVSPost2010PropOp54
 70
     0
102
RTVSPost2010Prop55
280
     0
102
RTVSPost2010PropOp55
 70
     0
102
RTVSPost2010Prop56
140
1.0
102
RTVSPost2010PropOp56
 70
     0
102
RTVSPost2010Prop57
140
1.0
102
RTVSPost2010PropOp57
 70
     0
  0
XRECORD
  5
2E4
102
{ACAD_REACTORS
330
2E3
102
}
330
2E3
100
AcDbXrecord
280
     1
102
RTVSPropertyOp0
 70
     1
102
RTVSPropertyOp1
 70
     1
102
RTVSPropertyOp2
 70
     1
102
RTVSPropertyOp3
 70
     1
102
RTVSPropertyOp4
 70
     1
102
RTVSPropertyOp5
 70
     1
102
RTVSPropertyOp6
 70
     1
102
RTVSPropertyOp7
 70
     1
102
RTVSPropertyOp8
 70
     1
102
RTVSPropertyOp9
 70
     1
102
RTVSPropertyOp10
 70
     1
102
RTVSPropertyOp11
 70
     1
102
RTVSPropertyOp12
 70
     1
102
RTVSPropertyOp13
 70
     1
102
RTVSPropertyOp14
 70
     1
102
RTVSPropertyOp15
 70
     1
102
RTVSPropertyOp16
 70
     1
102
RTVSPropertyOp17
 70
     1
102
RTVSPropertyOp18
 70
     1
102
RTVSPropertyOp19
 70
     1
102
RTVSPropertyOp20
 70
     1
102
RTVSPropertyOp21
 70
     1
102
RTVSPropertyOp22
 70
     1
102
RTVSPropertyOp23
 70
     1
102
RTVSPropertyOp24
 70
     1
102
RTVSPropertyOp25
 70
     1
102
RTVSPropertyOp26
 70
     1
102
RTVSPropertyOp27
 70
     1
102
RTVSPropertyOp28
 70
     1
102
RTVSPropertyOp29
 70
     1
102
RTVSPropertyOp30
 70
     1
102
RTVSPropertyOp31
 70
     1
102
RTVSPropertyOp32
 70
     1
102
RTVSPropertyOp33
 70
     1
102
RTVSPropertyOp34
 70
     1
102
RTVSPropertyOp35
 70
     1
102
RTVSPropertyOp36
 70
     1
102
RTVSPropertyOp37
 70
     1
102
RTVSPropertyOp38
 70
     1
102
RTVSPropertyOp39
 70
     1
102
RTVSPropertyOp40
 70
     1
102
RTVSPropertyOp41
 70
     1
102
RTVSPropertyOp42
 70
     1
102
RTVSPropertyOp43
 70
     1
102
RTVSPropertyOp44
 70
     1
102
RTVSPropertyOp45
 70
     1
102
RTVSPropertyOp46
 70
     1
102
RTVSPropertyOp47
 70
     1
102
RTVSPropertyOp48
 70
     1
102
RTVSPropertyOp49
 70
     1
102
RTVSPropertyOp50
 70
     1
102
RTVSPropertyOp51
 70
     0
102
RTVSPropertyOp52
 70
     0
102
RTVSPropertyOp53
 70
     1
102
RTVSPropertyOp54
 70
     1
102
RTVSPropertyOp55
 70
     1
102
RTVSPropertyOp56
 70
     1
102
RTVSPropertyOp57
 70
     1
102
RTVSPost2010Prop28
280
     0
102
RTVSPost2010PropOp28
 70
     1
102
RTVSPost2010Prop29
280
     1
102
RTVSPost2010PropOp29
 70
     1
102
RTVSPost2010Prop30
280
     1
102
RTVSPost2010PropOp30
 70
     1
102
RTVSPost2010Prop31
280
     0
102
RTVSPost2010PropOp31
 70
     1
102
RTVSPost2010Prop32
280
     0
102
RTVSPost2010PropOp32
 70
     1
102
RTVSPost2010Prop33
280
     0
102
RTVSPost2010PropOp33
 70
     1
102
RTVSPost2010Prop34
280
     0
102
RTVSPost2010PropOp34
 70
     1
102
RTVSPost2010Prop35
280
     0
102
RTVSPost2010PropOp35
 70
     1
102
RTVSPost2010Prop36
280
     0
102
RTVSPost2010PropOp36
 70
     1
102
RTVSPost2010Prop37
 90
       50
102
RTVSPost2010PropOp37
 70
     1
102
RTVSPost2010Prop38
140
0.0
102
RTVSPost2010PropOp38
 70
     1
102
RTVSPost2010Prop39
140
1.0
102
RTVSPost2010PropOp39
 70
     1
102
RTVSPost2010Prop40
 90
        0
102
RTVSPost2010PropOp40
 70
     1
102
RTVSPost2010Prop41ColorIndex
 90
       18
102
RTVSPost2010Prop41ColorRGB
 90
        0
102
RTVSPost2010PropOp41
 70
     1
102
RTVSPost2010Prop42
 90
       50
102
RTVSPost2010PropOp42
 70
     1
102
RTVSPost2010Prop43
 90
        3
102
RTVSPost2010PropOp43
 70
     1
102
RTVSPost2010Prop44ColorIndex
 90
        5
102
RTVSPost2010Prop44ColorRGB
 90
      255
102
RTVSPost2010PropOp44
 70
     1
102
RTVSPost2010Prop45
280
     0
102
RTVSPost2010PropOp45
 70
     1
102
RTVSPost2010Prop46
 90
       50
102
RTVSPost2010PropOp46
 70
     1
102
RTVSPost2010Prop47
 90
       50
102
RTVSPost2010PropOp47
 70
     1
102
RTVSPost2010Prop48
 90
       50
102
RTVSPost2010PropOp48
 70
     1
102
RTVSPost2010Prop49
280
     0
102
RTVSPost2010PropOp49
 70
     1
102
RTVSPost2010Prop50
 90
       50
102
RTVSPost2010PropOp50
 70
     1
102
RTVSPost2010Prop51ColorIndex
 90
      256
102
RTVSPost2010Prop51ColorRGB
 90
-16777216
102
RTVSPost2010PropOp51
 70
     0
102
RTVSPost2010Prop52
140
1.0
102
RTVSPost2010PropOp52
 70
     0
102
RTVSPost2010Prop53
 90
        2
102
RTVSPost2010PropOp53
 70
     1
102
RTVSPost2010Prop54
  1
strokes_ogs.tif
102
RTVSPost2010PropOp54
 70
     1
102
RTVSPost2010Prop55
280
     0
102
RTVSPost2010PropOp55
 70
     1
102
RTVSPost2010Prop56
140
1.0
102
RTVSPost2010PropOp56
 70
     1
102
RTVSPost2010Prop57
140
1.0
102
RTVSPost2010PropOp57
 70
     1
  0
XRECORD
  5
2EC
102
{ACAD_REACTORS
330
2EB
102
}
330
2EB
100
AcDbXrecord
280
     1
102
RTVSPropertyOp0
 70
     0
102
RTVSPropertyOp1
 70
     0
102
RTVSPropertyOp2
 70
     0
102
RTVSPropertyOp3
 70
     0
102
RTVSPropertyOp4
 70
     0
102
RTVSPropertyOp5
 70
     0
102
RTVSPropertyOp6
 70
     0
102
RTVSPropertyOp7
 70
     0
102
RTVSPropertyOp8
 70
     0
102
RTVSPropertyOp9
 70
     0
102
RTVSPropertyOp10
 70
     0
102
RTVSPropertyOp11
 70
     0
102
RTVSPropertyOp12
 70
     0
102
RTVSPropertyOp13
 70
     0
102
RTVSPropertyOp14
 70
     2
102
RTVSPropertyOp15
 70
     0
102
RTVSPropertyOp16
 70
     0
102
RTVSPropertyOp17
 70
     0
102
RTVSPropertyOp18
 70
     0
102
RTVSPropertyOp19
 70
     0
102
RTVSPropertyOp20
 70
     0
102
RTVSPropertyOp21
 70
     0
102
RTVSPropertyOp22
 70
     0
102
RTVSPropertyOp23
 70
     0
102
RTVSPropertyOp24
 70
     0
102
RTVSPropertyOp25
 70
     0
102
RTVSPropertyOp26
 70
     0
102
RTVSPropertyOp27
 70
     0
102
RTVSPropertyOp28
 70
     0
102
RTVSPropertyOp29
 70
     0
102
RTVSPropertyOp30
 70
     0
102
RTVSPropertyOp31
 70
     0
102
RTVSPropertyOp32
 70
     0
102
RTVSPropertyOp33
 70
     0
102
RTVSPropertyOp34
 70
     0
102
RTVSPropertyOp35
 70
     0
102
RTVSPropertyOp36
 70
     0
102
RTVSPropertyOp37
 70
     0
102
RTVSPropertyOp38
 70
     0
102
RTVSPropertyOp39
 70
     0
102
RTVSPropertyOp40
 70
     0
102
RTVSPropertyOp41
 70
     0
102
RTVSPropertyOp42
 70
     0
102
RTVSPropertyOp43
 70
     0
102
RTVSPropertyOp44
 70
     0
102
RTVSPropertyOp45
 70
     0
102
RTVSPropertyOp46
 70
     0
102
RTVSPropertyOp47
 70
     0
102
RTVSPropertyOp48
 70
     0
102
RTVSPropertyOp49
 70
     0
102
RTVSPropertyOp50
 70
     0
102
RTVSPropertyOp51
 70
     0
102
RTVSPropertyOp52
 70
     0
102
RTVSPropertyOp53
 70
     0
102
RTVSPropertyOp54
 70
     0
102
RTVSPropertyOp55
 70
     0
102
RTVSPropertyOp56
 70
     0
102
RTVSPropertyOp57
 70
     0
102
RTVSPost2010Prop28
280
     0
102
RTVSPost2010PropOp28
 70
     0
102
RTVSPost2010Prop29
280
     1
102
RTVSPost2010PropOp29
 70
     0
102
RTVSPost2010Prop30
280
     1
102
RTVSPost2010PropOp30
 70
     0
102
RTVSPost2010Prop31
280
     0
102
RTVSPost2010PropOp31
 70
     0
102
RTVSPost2010Prop32
280
     0
102
RTVSPost2010PropOp32
 70
     0
102
RTVSPost2010Prop33
280
     0
102
RTVSPost2010PropOp33
 70
     0
102
RTVSPost2010Prop34
280
     0
102
RTVSPost2010PropOp34
 70
     0
102
RTVSPost2010Prop35
280
     0
102
RTVSPost2010PropOp35
 70
     0
102
RTVSPost2010Prop36
280
     0
102
RTVSPost2010PropOp36
 70
     0
102
RTVSPost2010Prop37
 90
       50
102
RTVSPost2010PropOp37
 70
     0
102
RTVSPost2010Prop38
140
0.0
102
RTVSPost2010PropOp38
 70
     0
102
RTVSPost2010Prop39
140
1.0
102
RTVSPost2010PropOp39
 70
     0
102
RTVSPost2010Prop40
 90
        0
102
RTVSPost2010PropOp40
 70
     0
102
RTVSPost2010Prop41ColorIndex
 90
       18
102
RTVSPost2010Prop41ColorRGB
 90
        0
102
RTVSPost2010PropOp41
 70
     0
102
RTVSPost2010Prop42
 90
       50
102
RTVSPost2010PropOp42
 70
     0
102
RTVSPost2010Prop43
 90
        3
102
RTVSPost2010PropOp43
 70
     0
102
RTVSPost2010Prop44ColorIndex
 90
        5
102
RTVSPost2010Prop44ColorRGB
 90
      255
102
RTVSPost2010PropOp44
 70
     0
102
RTVSPost2010Prop45
280
     0
102
RTVSPost2010PropOp45
 70
     0
102
RTVSPost2010Prop46
 90
       50
102
RTVSPost2010PropOp46
 70
     0
102
RTVSPost2010Prop47
 90
       50
102
RTVSPost2010PropOp47
 70
     0
102
RTVSPost2010Prop48
 90
       50
102
RTVSPost2010PropOp48
 70
     0
102
RTVSPost2010Prop49
280
     0
102
RTVSPost2010PropOp49
 70
     0
102
RTVSPost2010Prop50
 90
       50
102
RTVSPost2010PropOp50
 70
     0
102
RTVSPost2010Prop51ColorIndex
 90
      256
102
RTVSPost2010Prop51ColorRGB
 90
-16777216
102
RTVSPost2010PropOp51
 70
     0
102
RTVSPost2010Prop52
140
1.0
102
RTVSPost2010PropOp52
 70
     0
102
RTVSPost2010Prop53
 90
        2
102
RTVSPost2010PropOp53
 70
     0
102
RTVSPost2010Prop54
  1
strokes_ogs.tif
102
RTVSPost2010PropOp54
 70
     0
102
RTVSPost2010Prop55
280
     0
102
RTVSPost2010PropOp55
 70
     0
102
RTVSPost2010Prop56
140
1.0
102
RTVSPost2010PropOp56
 70
     0
102
RTVSPost2010Prop57
140
1.0
102
RTVSPost2010PropOp57
 70
     0
  0
XRECORD
  5
2DA
102
{ACAD_REACTORS
330
2D9
102
}
330
2D9
100
AcDbXrecord
280
     1
102
RTVSPropertyOp0
 70
     1
102
RTVSPropertyOp1
 70
     1
102
RTVSPropertyOp2
 70
     1
102
RTVSPropertyOp3
 70
     1
102
RTVSPropertyOp4
 70
     1
102
RTVSPropertyOp5
 70
     1
102
RTVSPropertyOp6
 70
     1
102
RTVSPropertyOp7
 70
     1
102
RTVSPropertyOp8
 70
     1
102
RTVSPropertyOp9
 70
     1
102
RTVSPropertyOp10
 70
     1
102
RTVSPropertyOp11
 70
     1
102
RTVSPropertyOp12
 70
     1
102
RTVSPropertyOp13
 70
     1
102
RTVSPropertyOp14
 70
     1
102
RTVSPropertyOp15
 70
     1
102
RTVSPropertyOp16
 70
     1
102
RTVSPropertyOp17
 70
     1
102
RTVSPropertyOp18
 70
     1
102
RTVSPropertyOp19
 70
     1
102
RTVSPropertyOp20
 70
     1
102
RTVSPropertyOp21
 70
     1
102
RTVSPropertyOp22
 70
     1
102
RTVSPropertyOp23
 70
     1
102
RTVSPropertyOp24
 70
     1
102
RTVSPropertyOp25
 70
     1
102
RTVSPropertyOp26
 70
     1
102
RTVSPropertyOp27
 70
     1
102
RTVSPropertyOp28
 70
     1
102
RTVSPropertyOp29
 70
     1
102
RTVSPropertyOp30
 70
     1
102
RTVSPropertyOp31
 70
     1
102
RTVSPropertyOp32
 70
     1
102
RTVSPropertyOp33
 70
     1
102
RTVSPropertyOp34
 70
     1
102
RTVSPropertyOp35
 70
     1
102
RTVSPropertyOp36
 70
     1
102
RTVSPropertyOp37
 70
     1
102
RTVSPropertyOp38
 70
     1
102
RTVSPropertyOp39
 70
     1
102
RTVSPropertyOp40
 70
     1
102
RTVSPropertyOp41
 70
     1
102
RTVSPropertyOp42
 70
     1
102
RTVSPropertyOp43
 70
     1
102
RTVSPropertyOp44
 70
     1
102
RTVSPropertyOp45
 70
     1
102
RTVSPropertyOp46
 70
     1
102
RTVSPropertyOp47
 70
     1
102
RTVSPropertyOp48
 70
     1
102
RTVSPropertyOp49
 70
     1
102
RTVSPropertyOp50
 70
     1
102
RTVSPropertyOp51
 70
     0
102
RTVSPropertyOp52
 70
     0
102
RTVSPropertyOp53
 70
     1
102
RTVSPropertyOp54
 70
     1
102
RTVSPropertyOp55
 70
     1
102
RTVSPropertyOp56
 70
     1
102
RTVSPropertyOp57
 70
     1
102
RTVSPost2010Prop28
280
     0
102
RTVSPost2010PropOp28
 70
     1
102
RTVSPost2010Prop29
280
     1
102
RTVSPost2010PropOp29
 70
     1
102
RTVSPost2010Prop30
280
     1
102
RTVSPost2010PropOp30
 70
     1
102
RTVSPost2010Prop31
280
     0
102
RTVSPost2010PropOp31
 70
     1
102
RTVSPost2010Prop32
280
     0
102
RTVSPost2010PropOp32
 70
     1
102
RTVSPost2010Prop33
280
     0
102
RTVSPost2010PropOp33
 70
     1
102
RTVSPost2010Prop34
280
     0
102
RTVSPost2010PropOp34
 70
     1
102
RTVSPost2010Prop35
280
     0
102
RTVSPost2010PropOp35
 70
     1
102
RTVSPost2010Prop36
280
     0
102
RTVSPost2010PropOp36
 70
     1
102
RTVSPost2010Prop37
 90
       50
102
RTVSPost2010PropOp37
 70
     1
102
RTVSPost2010Prop38
140
0.0
102
RTVSPost2010PropOp38
 70
     1
102
RTVSPost2010Prop39
140
1.0
102
RTVSPost2010PropOp39
 70
     1
102
RTVSPost2010Prop40
 90
        0
102
RTVSPost2010PropOp40
 70
     1
102
RTVSPost2010Prop41ColorIndex
 90
       18
102
RTVSPost2010Prop41ColorRGB
 90
        0
102
RTVSPost2010PropOp41
 70
     1
102
RTVSPost2010Prop42
 90
       50
102
RTVSPost2010PropOp42
 70
     1
102
RTVSPost2010Prop43
 90
        3
102
RTVSPost2010PropOp43
 70
     1
102
RTVSPost2010Prop44ColorIndex
 90
        5
102
RTVSPost2010Prop44ColorRGB
 90
      255
102
RTVSPost2010PropOp44
 70
     1
102
RTVSPost2010Prop45
280
     0
102
RTVSPost2010PropOp45
 70
     1
102
RTVSPost2010Prop46
 90
       50
102
RTVSPost2010PropOp46
 70
     1
102
RTVSPost2010Prop47
 90
       50
102
RTVSPost2010PropOp47
 70
     1
102
RTVSPost2010Prop48
 90
       50
102
RTVSPost2010PropOp48
 70
     1
102
RTVSPost2010Prop49
280
     0
102
RTVSPost2010PropOp49
 70
     1
102
RTVSPost2010Prop50
 90
       50
102
RTVSPost2010PropOp50
 70
     1
102
RTVSPost2010Prop51ColorIndex
 90
      256
102
RTVSPost2010Prop51ColorRGB
 90
-16777216
102
RTVSPost2010PropOp51
 70
     0
102
RTVSPost2010Prop52
140
1.0
102
RTVSPost2010PropOp52
 70
     0
102
RTVSPost2010Prop53
 90
        2
102
RTVSPost2010PropOp53
 70
     1
102
RTVSPost2010Prop54
  1
strokes_ogs.tif
102
RTVSPost2010PropOp54
 70
     1
102
RTVSPost2010Prop55
280
     0
102
RTVSPost2010PropOp55
 70
     1
102
RTVSPost2010Prop56
140
1.0
102
RTVSPost2010PropOp56
 70
     1
102
RTVSPost2010Prop57
140
1.0
102
RTVSPost2010PropOp57
 70
     1
  0
XRECORD
  5
2F8
102
{ACAD_REACTORS
330
2F7
102
}
330
2F7
100
AcDbXrecord
280
     1
102
RTVSPropertyOp0
 70
     1
102
RTVSPropertyOp1
 70
     1
102
RTVSPropertyOp2
 70
     1
102
RTVSPropertyOp3
 70
     1
102
RTVSPropertyOp4
 70
     1
102
RTVSPropertyOp5
 70
     1
102
RTVSPropertyOp6
 70
     1
102
RTVSPropertyOp7
 70
     1
102
RTVSPropertyOp8
 70
     1
102
RTVSPropertyOp9
 70
     1
102
RTVSPropertyOp10
 70
     1
102
RTVSPropertyOp11
 70
     1
102
RTVSPropertyOp12
 70
     1
102
RTVSPropertyOp13
 70
     1
102
RTVSPropertyOp14
 70
     1
102
RTVSPropertyOp15
 70
     1
102
RTVSPropertyOp16
 70
     1
102
RTVSPropertyOp17
 70
     1
102
RTVSPropertyOp18
 70
     1
102
RTVSPropertyOp19
 70
     1
102
RTVSPropertyOp20
 70
     1
102
RTVSPropertyOp21
 70
     1
102
RTVSPropertyOp22
 70
     1
102
RTVSPropertyOp23
 70
     1
102
RTVSPropertyOp24
 70
     1
102
RTVSPropertyOp25
 70
     1
102
RTVSPropertyOp26
 70
     1
102
RTVSPropertyOp27
 70
     1
102
RTVSPropertyOp28
 70
     1
102
RTVSPropertyOp29
 70
     1
102
RTVSPropertyOp30
 70
     1
102
RTVSPropertyOp31
 70
     1
102
RTVSPropertyOp32
 70
     1
102
RTVSPropertyOp33
 70
     1
102
RTVSPropertyOp34
 70
     1
102
RTVSPropertyOp35
 70
     1
102
RTVSPropertyOp36
 70
     1
102
RTVSPropertyOp37
 70
     1
102
RTVSPropertyOp38
 70
     1
102
RTVSPropertyOp39
 70
     1
102
RTVSPropertyOp40
 70
     1
102
RTVSPropertyOp41
 70
     1
102
RTVSPropertyOp42
 70
     1
102
RTVSPropertyOp43
 70
     1
102
RTVSPropertyOp44
 70
     1
102
RTVSPropertyOp45
 70
     1
102
RTVSPropertyOp46
 70
     1
102
RTVSPropertyOp47
 70
     1
102
RTVSPropertyOp48
 70
     1
102
RTVSPropertyOp49
 70
     1
102
RTVSPropertyOp50
 70
     1
102
RTVSPropertyOp51
 70
     0
102
RTVSPropertyOp52
 70
     0
102
RTVSPropertyOp53
 70
     1
102
RTVSPropertyOp54
 70
     1
102
RTVSPropertyOp55
 70
     1
102
RTVSPropertyOp56
 70
     1
102
RTVSPropertyOp57
 70
     1
102
RTVSPost2010Prop28
280
     0
102
RTVSPost2010PropOp28
 70
     1
102
RTVSPost2010Prop29
280
     1
102
RTVSPost2010PropOp29
 70
     1
102
RTVSPost2010Prop30
280
     1
102
RTVSPost2010PropOp30
 70
     1
102
RTVSPost2010Prop31
280
     0
102
RTVSPost2010PropOp31
 70
     1
102
RTVSPost2010Prop32
280
     0
102
RTVSPost2010PropOp32
 70
     1
102
RTVSPost2010Prop33
280
     0
102
RTVSPost2010PropOp33
 70
     1
102
RTVSPost2010Prop34
280
     0
102
RTVSPost2010PropOp34
 70
     1
102
RTVSPost2010Prop35
280
     0
102
RTVSPost2010PropOp35
 70
     1
102
RTVSPost2010Prop36
280
     0
102
RTVSPost2010PropOp36
 70
     1
102
RTVSPost2010Prop37
 90
       50
102
RTVSPost2010PropOp37
 70
     1
102
RTVSPost2010Prop38
140
0.0
102
RTVSPost2010PropOp38
 70
     1
102
RTVSPost2010Prop39
140
1.0
102
RTVSPost2010PropOp39
 70
     1
102
RTVSPost2010Prop40
 90
        0
102
RTVSPost2010PropOp40
 70
     1
102
RTVSPost2010Prop41ColorIndex
 90
       18
102
RTVSPost2010Prop41ColorRGB
 90
        0
102
RTVSPost2010PropOp41
 70
     1
102
RTVSPost2010Prop42
 90
       50
102
RTVSPost2010PropOp42
 70
     1
102
RTVSPost2010Prop43
 90
        3
102
RTVSPost2010PropOp43
 70
     1
102
RTVSPost2010Prop44ColorIndex
 90
        5
102
RTVSPost2010Prop44ColorRGB
 90
      255
102
RTVSPost2010PropOp44
 70
     1
102
RTVSPost2010Prop45
280
     0
102
RTVSPost2010PropOp45
 70
     1
102
RTVSPost2010Prop46
 90
       50
102
RTVSPost2010PropOp46
 70
     1
102
RTVSPost2010Prop47
 90
       50
102
RTVSPost2010PropOp47
 70
     1
102
RTVSPost2010Prop48
 90
       50
102
RTVSPost2010PropOp48
 70
     1
102
RTVSPost2010Prop49
280
     0
102
RTVSPost2010PropOp49
 70
     1
102
RTVSPost2010Prop50
 90
       50
102
RTVSPost2010PropOp50
 70
     1
102
RTVSPost2010Prop51ColorIndex
 90
      256
102
RTVSPost2010Prop51ColorRGB
 90
-16777216
102
RTVSPost2010PropOp51
 70
     0
102
RTVSPost2010Prop52
140
1.0
102
RTVSPost2010PropOp52
 70
     0
102
RTVSPost2010Prop53
 90
        2
102
RTVSPost2010PropOp53
 70
     1
102
RTVSPost2010Prop54
  1
strokes_ogs.tif
102
RTVSPost2010PropOp54
 70
     1
102
RTVSPost2010Prop55
280
     0
102
RTVSPost2010PropOp55
 70
     1
102
RTVSPost2010Prop56
140
1.0
102
RTVSPost2010PropOp56
 70
     1
102
RTVSPost2010Prop57
140
1.0
102
RTVSPost2010PropOp57
 70
     1
  0
XRECORD
  5
2F6
102
{ACAD_REACTORS
330
2F5
102
}
330
2F5
100
AcDbXrecord
280
     1
102
RTVSPropertyOp0
 70
     1
102
RTVSPropertyOp1
 70
     1
102
RTVSPropertyOp2
 70
     1
102
RTVSPropertyOp3
 70
     1
102
RTVSPropertyOp4
 70
     1
102
RTVSPropertyOp5
 70
     1
102
RTVSPropertyOp6
 70
     1
102
RTVSPropertyOp7
 70
     1
102
RTVSPropertyOp8
 70
     1
102
RTVSPropertyOp9
 70
     1
102
RTVSPropertyOp10
 70
     1
102
RTVSPropertyOp11
 70
     1
102
RTVSPropertyOp12
 70
     1
102
RTVSPropertyOp13
 70
     1
102
RTVSPropertyOp14
 70
     1
102
RTVSPropertyOp15
 70
     1
102
RTVSPropertyOp16
 70
     1
102
RTVSPropertyOp17
 70
     1
102
RTVSPropertyOp18
 70
     1
102
RTVSPropertyOp19
 70
     1
102
RTVSPropertyOp20
 70
     1
102
RTVSPropertyOp21
 70
     1
102
RTVSPropertyOp22
 70
     1
102
RTVSPropertyOp23
 70
     1
102
RTVSPropertyOp24
 70
     1
102
RTVSPropertyOp25
 70
     1
102
RTVSPropertyOp26
 70
     1
102
RTVSPropertyOp27
 70
     1
102
RTVSPropertyOp28
 70
     1
102
RTVSPropertyOp29
 70
     1
102
RTVSPropertyOp30
 70
     1
102
RTVSPropertyOp31
 70
     1
102
RTVSPropertyOp32
 70
     1
102
RTVSPropertyOp33
 70
     1
102
RTVSPropertyOp34
 70
     1
102
RTVSPropertyOp35
 70
     1
102
RTVSPropertyOp36
 70
     1
102
RTVSPropertyOp37
 70
     1
102
RTVSPropertyOp38
 70
     1
102
RTVSPropertyOp39
 70
     1
102
RTVSPropertyOp40
 70
     1
102
RTVSPropertyOp41
 70
     1
102
RTVSPropertyOp42
 70
     1
102
RTVSPropertyOp43
 70
     1
102
RTVSPropertyOp44
 70
     1
102
RTVSPropertyOp45
 70
     1
102
RTVSPropertyOp46
 70
     1
102
RTVSPropertyOp47
 70
     1
102
RTVSPropertyOp48
 70
     1
102
RTVSPropertyOp49
 70
     1
102
RTVSPropertyOp50
 70
     1
102
RTVSPropertyOp51
 70
     0
102
RTVSPropertyOp52
 70
     0
102
RTVSPropertyOp53
 70
     1
102
RTVSPropertyOp54
 70
     1
102
RTVSPropertyOp55
 70
     1
102
RTVSPropertyOp56
 70
     1
102
RTVSPropertyOp57
 70
     1
102
RTVSPost2010Prop28
280
     0
102
RTVSPost2010PropOp28
 70
     1
102
RTVSPost2010Prop29
280
     1
102
RTVSPost2010PropOp29
 70
     1
102
RTVSPost2010Prop30
280
     1
102
RTVSPost2010PropOp30
 70
     1
102
RTVSPost2010Prop31
280
     0
102
RTVSPost2010PropOp31
 70
     1
102
RTVSPost2010Prop32
280
     0
102
RTVSPost2010PropOp32
 70
     1
102
RTVSPost2010Prop33
280
     0
102
RTVSPost2010PropOp33
 70
     1
102
RTVSPost2010Prop34
280
     0
102
RTVSPost2010PropOp34
 70
     1
102
RTVSPost2010Prop35
280
     0
102
RTVSPost2010PropOp35
 70
     1
102
RTVSPost2010Prop36
280
     0
102
RTVSPost2010PropOp36
 70
     1
102
RTVSPost2010Prop37
 90
       50
102
RTVSPost2010PropOp37
 70
     1
102
RTVSPost2010Prop38
140
0.0
102
RTVSPost2010PropOp38
 70
     1
102
RTVSPost2010Prop39
140
1.0
102
RTVSPost2010PropOp39
 70
     1
102
RTVSPost2010Prop40
 90
        0
102
RTVSPost2010PropOp40
 70
     1
102
RTVSPost2010Prop41ColorIndex
 90
       18
102
RTVSPost2010Prop41ColorRGB
 90
        0
102
RTVSPost2010PropOp41
 70
     1
102
RTVSPost2010Prop42
 90
       50
102
RTVSPost2010PropOp42
 70
     1
102
RTVSPost2010Prop43
 90
        3
102
RTVSPost2010PropOp43
 70
     1
102
RTVSPost2010Prop44ColorIndex
 90
        5
102
RTVSPost2010Prop44ColorRGB
 90
      255
102
RTVSPost2010PropOp44
 70
     1
102
RTVSPost2010Prop45
280
     0
102
RTVSPost2010PropOp45
 70
     1
102
RTVSPost2010Prop46
 90
       50
102
RTVSPost2010PropOp46
 70
     1
102
RTVSPost2010Prop47
 90
       50
102
RTVSPost2010PropOp47
 70
     1
102
RTVSPost2010Prop48
 90
       50
102
RTVSPost2010PropOp48
 70
     1
102
RTVSPost2010Prop49
280
     0
102
RTVSPost2010PropOp49
 70
     1
102
RTVSPost2010Prop50
 90
       50
102
RTVSPost2010PropOp50
 70
     1
102
RTVSPost2010Prop51ColorIndex
 90
      256
102
RTVSPost2010Prop51ColorRGB
 90
-16777216
102
RTVSPost2010PropOp51
 70
     0
102
RTVSPost2010Prop52
140
1.0
102
RTVSPost2010PropOp52
 70
     0
102
RTVSPost2010Prop53
 90
        2
102
RTVSPost2010PropOp53
 70
     1
102
RTVSPost2010Prop54
  1
strokes_ogs.tif
102
RTVSPost2010PropOp54
 70
     1
102
RTVSPost2010Prop55
280
     0
102
RTVSPost2010PropOp55
 70
     1
102
RTVSPost2010Prop56
140
1.0
102
RTVSPost2010PropOp56
 70
     1
102
RTVSPost2010Prop57
140
1.0
102
RTVSPost2010PropOp57
 70
     1
  0
XRECORD
  5
2F0
102
{ACAD_REACTORS
330
2EF
102
}
330
2EF
100
AcDbXrecord
280
     1
102
RTVSPropertyOp0
 70
     1
102
RTVSPropertyOp1
 70
     1
102
RTVSPropertyOp2
 70
     1
102
RTVSPropertyOp3
 70
     1
102
RTVSPropertyOp4
 70
     1
102
RTVSPropertyOp5
 70
     1
102
RTVSPropertyOp6
 70
     1
102
RTVSPropertyOp7
 70
     1
102
RTVSPropertyOp8
 70
     1
102
RTVSPropertyOp9
 70
     1
102
RTVSPropertyOp10
 70
     1
102
RTVSPropertyOp11
 70
     1
102
RTVSPropertyOp12
 70
     1
102
RTVSPropertyOp13
 70
     1
102
RTVSPropertyOp14
 70
     1
102
RTVSPropertyOp15
 70
     1
102
RTVSPropertyOp16
 70
     1
102
RTVSPropertyOp17
 70
     1
102
RTVSPropertyOp18
 70
     1
102
RTVSPropertyOp19
 70
     1
102
RTVSPropertyOp20
 70
     1
102
RTVSPropertyOp21
 70
     1
102
RTVSPropertyOp22
 70
     1
102
RTVSPropertyOp23
 70
     1
102
RTVSPropertyOp24
 70
     1
102
RTVSPropertyOp25
 70
     1
102
RTVSPropertyOp26
 70
     1
102
RTVSPropertyOp27
 70
     1
102
RTVSPropertyOp28
 70
     1
102
RTVSPropertyOp29
 70
     1
102
RTVSPropertyOp30
 70
     1
102
RTVSPropertyOp31
 70
     1
102
RTVSPropertyOp32
 70
     1
102
RTVSPropertyOp33
 70
     1
102
RTVSPropertyOp34
 70
     1
102
RTVSPropertyOp35
 70
     1
102
RTVSPropertyOp36
 70
     1
102
RTVSPropertyOp37
 70
     1
102
RTVSPropertyOp38
 70
     1
102
RTVSPropertyOp39
 70
     1
102
RTVSPropertyOp40
 70
     1
102
RTVSPropertyOp41
 70
     1
102
RTVSPropertyOp42
 70
     1
102
RTVSPropertyOp43
 70
     1
102
RTVSPropertyOp44
 70
     1
102
RTVSPropertyOp45
 70
     1
102
RTVSPropertyOp46
 70
     1
102
RTVSPropertyOp47
 70
     1
102
RTVSPropertyOp48
 70
     1
102
RTVSPropertyOp49
 70
     1
102
RTVSPropertyOp50
 70
     1
102
RTVSPropertyOp51
 70
     0
102
RTVSPropertyOp52
 70
     0
102
RTVSPropertyOp53
 70
     1
102
RTVSPropertyOp54
 70
     1
102
RTVSPropertyOp55
 70
     1
102
RTVSPropertyOp56
 70
     1
102
RTVSPropertyOp57
 70
     1
102
RTVSPost2010Prop28
280
     0
102
RTVSPost2010PropOp28
 70
     1
102
RTVSPost2010Prop29
280
     1
102
RTVSPost2010PropOp29
 70
     1
102
RTVSPost2010Prop30
280
     1
102
RTVSPost2010PropOp30
 70
     1
102
RTVSPost2010Prop31
280
     0
102
RTVSPost2010PropOp31
 70
     1
102
RTVSPost2010Prop32
280
     0
102
RTVSPost2010PropOp32
 70
     1
102
RTVSPost2010Prop33
280
     0
102
RTVSPost2010PropOp33
 70
     1
102
RTVSPost2010Prop34
280
     0
102
RTVSPost2010PropOp34
 70
     1
102
RTVSPost2010Prop35
280
     0
102
RTVSPost2010PropOp35
 70
     1
102
RTVSPost2010Prop36
280
     0
102
RTVSPost2010PropOp36
 70
     1
102
RTVSPost2010Prop37
 90
       50
102
RTVSPost2010PropOp37
 70
     1
102
RTVSPost2010Prop38
140
0.0
102
RTVSPost2010PropOp38
 70
     1
102
RTVSPost2010Prop39
140
1.0
102
RTVSPost2010PropOp39
 70
     1
102
RTVSPost2010Prop40
 90
        0
102
RTVSPost2010PropOp40
 70
     1
102
RTVSPost2010Prop41ColorIndex
 90
       18
102
RTVSPost2010Prop41ColorRGB
 90
        0
102
RTVSPost2010PropOp41
 70
     1
102
RTVSPost2010Prop42
 90
       50
102
RTVSPost2010PropOp42
 70
     1
102
RTVSPost2010Prop43
 90
        3
102
RTVSPost2010PropOp43
 70
     1
102
RTVSPost2010Prop44ColorIndex
 90
        5
102
RTVSPost2010Prop44ColorRGB
 90
      255
102
RTVSPost2010PropOp44
 70
     1
102
RTVSPost2010Prop45
280
     0
102
RTVSPost2010PropOp45
 70
     1
102
RTVSPost2010Prop46
 90
       50
102
RTVSPost2010PropOp46
 70
     1
102
RTVSPost2010Prop47
 90
       50
102
RTVSPost2010PropOp47
 70
     1
102
RTVSPost2010Prop48
 90
       50
102
RTVSPost2010PropOp48
 70
     1
102
RTVSPost2010Prop49
280
     0
102
RTVSPost2010PropOp49
 70
     1
102
RTVSPost2010Prop50
 90
       50
102
RTVSPost2010PropOp50
 70
     1
102
RTVSPost2010Prop51ColorIndex
 90
      256
102
RTVSPost2010Prop51ColorRGB
 90
-16777216
102
RTVSPost2010PropOp51
 70
     0
102
RTVSPost2010Prop52
140
1.0
102
RTVSPost2010PropOp52
 70
     0
102
RTVSPost2010Prop53
 90
        2
102
RTVSPost2010PropOp53
 70
     1
102
RTVSPost2010Prop54
  1
strokes_ogs.tif
102
RTVSPost2010PropOp54
 70
     1
102
RTVSPost2010Prop55
280
     0
102
RTVSPost2010PropOp55
 70
     1
102
RTVSPost2010Prop56
140
1.0
102
RTVSPost2010PropOp56
 70
     1
102
RTVSPost2010Prop57
140
1.0
102
RTVSPost2010PropOp57
 70
     1
  0
XRECORD
  5
2F2
102
{ACAD_REACTORS
330
2F1
102
}
330
2F1
100
AcDbXrecord
280
     1
102
RTVSPropertyOp0
 70
     1
102
RTVSPropertyOp1
 70
     1
102
RTVSPropertyOp2
 70
     1
102
RTVSPropertyOp3
 70
     1
102
RTVSPropertyOp4
 70
     1
102
RTVSPropertyOp5
 70
     1
102
RTVSPropertyOp6
 70
     1
102
RTVSPropertyOp7
 70
     1
102
RTVSPropertyOp8
 70
     1
102
RTVSPropertyOp9
 70
     1
102
RTVSPropertyOp10
 70
     1
102
RTVSPropertyOp11
 70
     1
102
RTVSPropertyOp12
 70
     1
102
RTVSPropertyOp13
 70
     1
102
RTVSPropertyOp14
 70
     1
102
RTVSPropertyOp15
 70
     1
102
RTVSPropertyOp16
 70
     1
102
RTVSPropertyOp17
 70
     1
102
RTVSPropertyOp18
 70
     1
102
RTVSPropertyOp19
 70
     1
102
RTVSPropertyOp20
 70
     1
102
RTVSPropertyOp21
 70
     1
102
RTVSPropertyOp22
 70
     1
102
RTVSPropertyOp23
 70
     1
102
RTVSPropertyOp24
 70
     1
102
RTVSPropertyOp25
 70
     1
102
RTVSPropertyOp26
 70
     1
102
RTVSPropertyOp27
 70
     1
102
RTVSPropertyOp28
 70
     1
102
RTVSPropertyOp29
 70
     1
102
RTVSPropertyOp30
 70
     1
102
RTVSPropertyOp31
 70
     1
102
RTVSPropertyOp32
 70
     1
102
RTVSPropertyOp33
 70
     1
102
RTVSPropertyOp34
 70
     1
102
RTVSPropertyOp35
 70
     1
102
RTVSPropertyOp36
 70
     1
102
RTVSPropertyOp37
 70
     1
102
RTVSPropertyOp38
 70
     1
102
RTVSPropertyOp39
 70
     1
102
RTVSPropertyOp40
 70
     1
102
RTVSPropertyOp41
 70
     1
102
RTVSPropertyOp42
 70
     1
102
RTVSPropertyOp43
 70
     1
102
RTVSPropertyOp44
 70
     1
102
RTVSPropertyOp45
 70
     1
102
RTVSPropertyOp46
 70
     1
102
RTVSPropertyOp47
 70
     1
102
RTVSPropertyOp48
 70
     1
102
RTVSPropertyOp49
 70
     1
102
RTVSPropertyOp50
 70
     1
102
RTVSPropertyOp51
 70
     0
102
RTVSPropertyOp52
 70
     0
102
RTVSPropertyOp53
 70
     1
102
RTVSPropertyOp54
 70
     1
102
RTVSPropertyOp55
 70
     1
102
RTVSPropertyOp56
 70
     1
102
RTVSPropertyOp57
 70
     1
102
RTVSPost2010Prop28
280
     0
102
RTVSPost2010PropOp28
 70
     1
102
RTVSPost2010Prop29
280
     1
102
RTVSPost2010PropOp29
 70
     1
102
RTVSPost2010Prop30
280
     1
102
RTVSPost2010PropOp30
 70
     1
102
RTVSPost2010Prop31
280
     0
102
RTVSPost2010PropOp31
 70
     1
102
RTVSPost2010Prop32
280
     0
102
RTVSPost2010PropOp32
 70
     1
102
RTVSPost2010Prop33
280
     0
102
RTVSPost2010PropOp33
 70
     1
102
RTVSPost2010Prop34
280
     0
102
RTVSPost2010PropOp34
 70
     1
102
RTVSPost2010Prop35
280
     0
102
RTVSPost2010PropOp35
 70
     1
102
RTVSPost2010Prop36
280
     0
102
RTVSPost2010PropOp36
 70
     1
102
RTVSPost2010Prop37
 90
       50
102
RTVSPost2010PropOp37
 70
     1
102
RTVSPost2010Prop38
140
0.0
102
RTVSPost2010PropOp38
 70
     1
102
RTVSPost2010Prop39
140
1.0
102
RTVSPost2010PropOp39
 70
     1
102
RTVSPost2010Prop40
 90
        0
102
RTVSPost2010PropOp40
 70
     1
102
RTVSPost2010Prop41ColorIndex
 90
       18
102
RTVSPost2010Prop41ColorRGB
 90
        0
102
RTVSPost2010PropOp41
 70
     1
102
RTVSPost2010Prop42
 90
       50
102
RTVSPost2010PropOp42
 70
     1
102
RTVSPost2010Prop43
 90
        3
102
RTVSPost2010PropOp43
 70
     1
102
RTVSPost2010Prop44ColorIndex
 90
        5
102
RTVSPost2010Prop44ColorRGB
 90
      255
102
RTVSPost2010PropOp44
 70
     1
102
RTVSPost2010Prop45
280
     0
102
RTVSPost2010PropOp45
 70
     1
102
RTVSPost2010Prop46
 90
       50
102
RTVSPost2010PropOp46
 70
     1
102
RTVSPost2010Prop47
 90
       50
102
RTVSPost2010PropOp47
 70
     1
102
RTVSPost2010Prop48
 90
       50
102
RTVSPost2010PropOp48
 70
     1
102
RTVSPost2010Prop49
280
     0
102
RTVSPost2010PropOp49
 70
     1
102
RTVSPost2010Prop50
 90
       50
102
RTVSPost2010PropOp50
 70
     1
102
RTVSPost2010Prop51ColorIndex
 90
      256
102
RTVSPost2010Prop51ColorRGB
 90
-16777216
102
RTVSPost2010PropOp51
 70
     0
102
RTVSPost2010Prop52
140
1.0
102
RTVSPost2010PropOp52
 70
     0
102
RTVSPost2010Prop53
 90
        2
102
RTVSPost2010PropOp53
 70
     1
102
RTVSPost2010Prop54
  1
strokes_ogs.tif
102
RTVSPost2010PropOp54
 70
     1
102
RTVSPost2010Prop55
280
     0
102
RTVSPost2010PropOp55
 70
     1
102
RTVSPost2010Prop56
140
1.0
102
RTVSPost2010PropOp56
 70
     1
102
RTVSPost2010Prop57
140
1.0
102
RTVSPost2010PropOp57
 70
     1
  0
XRECORD
  5
2E2
102
{ACAD_REACTORS
330
2E1
102
}
330
2E1
100
AcDbXrecord
280
     1
102
RTVSPropertyOp0
 70
     1
102
RTVSPropertyOp1
 70
     1
102
RTVSPropertyOp2
 70
     1
102
RTVSPropertyOp3
 70
     1
102
RTVSPropertyOp4
 70
     1
102
RTVSPropertyOp5
 70
     1
102
RTVSPropertyOp6
 70
     1
102
RTVSPropertyOp7
 70
     1
102
RTVSPropertyOp8
 70
     1
102
RTVSPropertyOp9
 70
     1
102
RTVSPropertyOp10
 70
     1
102
RTVSPropertyOp11
 70
     1
102
RTVSPropertyOp12
 70
     1
102
RTVSPropertyOp13
 70
     1
102
RTVSPropertyOp14
 70
     1
102
RTVSPropertyOp15
 70
     1
102
RTVSPropertyOp16
 70
     1
102
RTVSPropertyOp17
 70
     1
102
RTVSPropertyOp18
 70
     1
102
RTVSPropertyOp19
 70
     1
102
RTVSPropertyOp20
 70
     1
102
RTVSPropertyOp21
 70
     1
102
RTVSPropertyOp22
 70
     1
102
RTVSPropertyOp23
 70
     1
102
RTVSPropertyOp24
 70
     1
102
RTVSPropertyOp25
 70
     1
102
RTVSPropertyOp26
 70
     1
102
RTVSPropertyOp27
 70
     1
102
RTVSPropertyOp28
 70
     1
102
RTVSPropertyOp29
 70
     1
102
RTVSPropertyOp30
 70
     1
102
RTVSPropertyOp31
 70
     1
102
RTVSPropertyOp32
 70
     1
102
RTVSPropertyOp33
 70
     1
102
RTVSPropertyOp34
 70
     1
102
RTVSPropertyOp35
 70
     1
102
RTVSPropertyOp36
 70
     1
102
RTVSPropertyOp37
 70
     1
102
RTVSPropertyOp38
 70
     1
102
RTVSPropertyOp39
 70
     1
102
RTVSPropertyOp40
 70
     1
102
RTVSPropertyOp41
 70
     1
102
RTVSPropertyOp42
 70
     1
102
RTVSPropertyOp43
 70
     1
102
RTVSPropertyOp44
 70
     1
102
RTVSPropertyOp45
 70
     1
102
RTVSPropertyOp46
 70
     1
102
RTVSPropertyOp47
 70
     1
102
RTVSPropertyOp48
 70
     1
102
RTVSPropertyOp49
 70
     1
102
RTVSPropertyOp50
 70
     1
102
RTVSPropertyOp51
 70
     0
102
RTVSPropertyOp52
 70
     0
102
RTVSPropertyOp53
 70
     1
102
RTVSPropertyOp54
 70
     1
102
RTVSPropertyOp55
 70
     1
102
RTVSPropertyOp56
 70
     1
102
RTVSPropertyOp57
 70
     1
102
RTVSPost2010Prop28
280
     0
102
RTVSPost2010PropOp28
 70
     1
102
RTVSPost2010Prop29
280
     1
102
RTVSPost2010PropOp29
 70
     1
102
RTVSPost2010Prop30
280
     1
102
RTVSPost2010PropOp30
 70
     1
102
RTVSPost2010Prop31
280
     0
102
RTVSPost2010PropOp31
 70
     1
102
RTVSPost2010Prop32
280
     0
102
RTVSPost2010PropOp32
 70
     1
102
RTVSPost2010Prop33
280
     0
102
RTVSPost2010PropOp33
 70
     1
102
RTVSPost2010Prop34
280
     0
102
RTVSPost2010PropOp34
 70
     1
102
RTVSPost2010Prop35
280
     0
102
RTVSPost2010PropOp35
 70
     1
102
RTVSPost2010Prop36
280
     0
102
RTVSPost2010PropOp36
 70
     1
102
RTVSPost2010Prop37
 90
       50
102
RTVSPost2010PropOp37
 70
     1
102
RTVSPost2010Prop38
140
0.0
102
RTVSPost2010PropOp38
 70
     1
102
RTVSPost2010Prop39
140
1.0
102
RTVSPost2010PropOp39
 70
     1
102
RTVSPost2010Prop40
 90
        0
102
RTVSPost2010PropOp40
 70
     1
102
RTVSPost2010Prop41ColorIndex
 90
       18
102
RTVSPost2010Prop41ColorRGB
 90
        0
102
RTVSPost2010PropOp41
 70
     1
102
RTVSPost2010Prop42
 90
       50
102
RTVSPost2010PropOp42
 70
     1
102
RTVSPost2010Prop43
 90
        3
102
RTVSPost2010PropOp43
 70
     1
102
RTVSPost2010Prop44ColorIndex
 90
        5
102
RTVSPost2010Prop44ColorRGB
 90
      255
102
RTVSPost2010PropOp44
 70
     1
102
RTVSPost2010Prop45
280
     0
102
RTVSPost2010PropOp45
 70
     1
102
RTVSPost2010Prop46
 90
       50
102
RTVSPost2010PropOp46
 70
     1
102
RTVSPost2010Prop47
 90
       50
102
RTVSPost2010PropOp47
 70
     1
102
RTVSPost2010Prop48
 90
       50
102
RTVSPost2010PropOp48
 70
     1
102
RTVSPost2010Prop49
280
     0
102
RTVSPost2010PropOp49
 70
     1
102
RTVSPost2010Prop50
 90
       50
102
RTVSPost2010PropOp50
 70
     1
102
RTVSPost2010Prop51ColorIndex
 90
      256
102
RTVSPost2010Prop51ColorRGB
 90
-16777216
102
RTVSPost2010PropOp51
 70
     0
102
RTVSPost2010Prop52
140
1.0
102
RTVSPost2010PropOp52
 70
     0
102
RTVSPost2010Prop53
 90
        2
102
RTVSPost2010PropOp53
 70
     1
102
RTVSPost2010Prop54
  1
strokes_ogs.tif
102
RTVSPost2010PropOp54
 70
     1
102
RTVSPost2010Prop55
280
     0
102
RTVSPost2010PropOp55
 70
     1
102
RTVSPost2010Prop56
140
1.0
102
RTVSPost2010PropOp56
 70
     1
102
RTVSPost2010Prop57
140
1.0
102
RTVSPost2010PropOp57
 70
     1
  0
XRECORD
  5
2D4
102
{ACAD_REACTORS
330
2D3
102
}
330
2D3
100
AcDbXrecord
280
     1
102
RTVSPropertyOp0
 70
     1
102
RTVSPropertyOp1
 70
     1
102
RTVSPropertyOp2
 70
     1
102
RTVSPropertyOp3
 70
     1
102
RTVSPropertyOp4
 70
     1
102
RTVSPropertyOp5
 70
     1
102
RTVSPropertyOp6
 70
     1
102
RTVSPropertyOp7
 70
     1
102
RTVSPropertyOp8
 70
     1
102
RTVSPropertyOp9
 70
     1
102
RTVSPropertyOp10
 70
     1
102
RTVSPropertyOp11
 70
     1
102
RTVSPropertyOp12
 70
     1
102
RTVSPropertyOp13
 70
     1
102
RTVSPropertyOp14
 70
     1
102
RTVSPropertyOp15
 70
     1
102
RTVSPropertyOp16
 70
     1
102
RTVSPropertyOp17
 70
     1
102
RTVSPropertyOp18
 70
     1
102
RTVSPropertyOp19
 70
     1
102
RTVSPropertyOp20
 70
     1
102
RTVSPropertyOp21
 70
     1
102
RTVSPropertyOp22
 70
     1
102
RTVSPropertyOp23
 70
     1
102
RTVSPropertyOp24
 70
     1
102
RTVSPropertyOp25
 70
     1
102
RTVSPropertyOp26
 70
     1
102
RTVSPropertyOp27
 70
     1
102
RTVSPropertyOp28
 70
     1
102
RTVSPropertyOp29
 70
     1
102
RTVSPropertyOp30
 70
     1
102
RTVSPropertyOp31
 70
     1
102
RTVSPropertyOp32
 70
     1
102
RTVSPropertyOp33
 70
     1
102
RTVSPropertyOp34
 70
     1
102
RTVSPropertyOp35
 70
     1
102
RTVSPropertyOp36
 70
     1
102
RTVSPropertyOp37
 70
     1
102
RTVSPropertyOp38
 70
     1
102
RTVSPropertyOp39
 70
     1
102
RTVSPropertyOp40
 70
     1
102
RTVSPropertyOp41
 70
     1
102
RTVSPropertyOp42
 70
     1
102
RTVSPropertyOp43
 70
     1
102
RTVSPropertyOp44
 70
     1
102
RTVSPropertyOp45
 70
     1
102
RTVSPropertyOp46
 70
     1
102
RTVSPropertyOp47
 70
     1
102
RTVSPropertyOp48
 70
     1
102
RTVSPropertyOp49
 70
     1
102
RTVSPropertyOp50
 70
     1
102
RTVSPropertyOp51
 70
     0
102
RTVSPropertyOp52
 70
     0
102
RTVSPropertyOp53
 70
     1
102
RTVSPropertyOp54
 70
     1
102
RTVSPropertyOp55
 70
     1
102
RTVSPropertyOp56
 70
     1
102
RTVSPropertyOp57
 70
     1
102
RTVSPost2010Prop28
280
     0
102
RTVSPost2010PropOp28
 70
     1
102
RTVSPost2010Prop29
280
     1
102
RTVSPost2010PropOp29
 70
     1
102
RTVSPost2010Prop30
280
     1
102
RTVSPost2010PropOp30
 70
     1
102
RTVSPost2010Prop31
280
     0
102
RTVSPost2010PropOp31
 70
     1
102
RTVSPost2010Prop32
280
     0
102
RTVSPost2010PropOp32
 70
     1
102
RTVSPost2010Prop33
280
     0
102
RTVSPost2010PropOp33
 70
     1
102
RTVSPost2010Prop34
280
     0
102
RTVSPost2010PropOp34
 70
     1
102
RTVSPost2010Prop35
280
     0
102
RTVSPost2010PropOp35
 70
     1
102
RTVSPost2010Prop36
280
     0
102
RTVSPost2010PropOp36
 70
     1
102
RTVSPost2010Prop37
 90
       50
102
RTVSPost2010PropOp37
 70
     1
102
RTVSPost2010Prop38
140
0.0
102
RTVSPost2010PropOp38
 70
     1
102
RTVSPost2010Prop39
140
1.0
102
RTVSPost2010PropOp39
 70
     1
102
RTVSPost2010Prop40
 90
        0
102
RTVSPost2010PropOp40
 70
     1
102
RTVSPost2010Prop41ColorIndex
 90
       18
102
RTVSPost2010Prop41ColorRGB
 90
        0
102
RTVSPost2010PropOp41
 70
     1
102
RTVSPost2010Prop42
 90
       50
102
RTVSPost2010PropOp42
 70
     1
102
RTVSPost2010Prop43
 90
        3
102
RTVSPost2010PropOp43
 70
     1
102
RTVSPost2010Prop44ColorIndex
 90
        5
102
RTVSPost2010Prop44ColorRGB
 90
      255
102
RTVSPost2010PropOp44
 70
     1
102
RTVSPost2010Prop45
280
     0
102
RTVSPost2010PropOp45
 70
     1
102
RTVSPost2010Prop46
 90
       50
102
RTVSPost2010PropOp46
 70
     1
102
RTVSPost2010Prop47
 90
       50
102
RTVSPost2010PropOp47
 70
     1
102
RTVSPost2010Prop48
 90
       50
102
RTVSPost2010PropOp48
 70
     1
102
RTVSPost2010Prop49
280
     0
102
RTVSPost2010PropOp49
 70
     1
102
RTVSPost2010Prop50
 90
       50
102
RTVSPost2010PropOp50
 70
     1
102
RTVSPost2010Prop51ColorIndex
 90
      256
102
RTVSPost2010Prop51ColorRGB
 90
-16777216
102
RTVSPost2010PropOp51
 70
     0
102
RTVSPost2010Prop52
140
1.0
102
RTVSPost2010PropOp52
 70
     0
102
RTVSPost2010Prop53
 90
        2
102
RTVSPost2010PropOp53
 70
     1
102
RTVSPost2010Prop54
  1
strokes_ogs.tif
102
RTVSPost2010PropOp54
 70
     1
102
RTVSPost2010Prop55
280
     0
102
RTVSPost2010PropOp55
 70
     1
102
RTVSPost2010Prop56
140
1.0
102
RTVSPost2010PropOp56
 70
     1
102
RTVSPost2010Prop57
140
1.0
102
RTVSPost2010PropOp57
 70
     1
  0
XRECORD
  5
2F4
102
{ACAD_REACTORS
330
2F3
102
}
330
2F3
100
AcDbXrecord
280
     1
102
RTVSPropertyOp0
 70
     1
102
RTVSPropertyOp1
 70
     1
102
RTVSPropertyOp2
 70
     1
102
RTVSPropertyOp3
 70
     1
102
RTVSPropertyOp4
 70
     1
102
RTVSPropertyOp5
 70
     1
102
RTVSPropertyOp6
 70
     1
102
RTVSPropertyOp7
 70
     1
102
RTVSPropertyOp8
 70
     1
102
RTVSPropertyOp9
 70
     1
102
RTVSPropertyOp10
 70
     1
102
RTVSPropertyOp11
 70
     1
102
RTVSPropertyOp12
 70
     1
102
RTVSPropertyOp13
 70
     1
102
RTVSPropertyOp14
 70
     1
102
RTVSPropertyOp15
 70
     1
102
RTVSPropertyOp16
 70
     1
102
RTVSPropertyOp17
 70
     1
102
RTVSPropertyOp18
 70
     1
102
RTVSPropertyOp19
 70
     1
102
RTVSPropertyOp20
 70
     1
102
RTVSPropertyOp21
 70
     1
102
RTVSPropertyOp22
 70
     1
102
RTVSPropertyOp23
 70
     1
102
RTVSPropertyOp24
 70
     1
102
RTVSPropertyOp25
 70
     1
102
RTVSPropertyOp26
 70
     1
102
RTVSPropertyOp27
 70
     1
102
RTVSPropertyOp28
 70
     1
102
RTVSPropertyOp29
 70
     1
102
RTVSPropertyOp30
 70
     1
102
RTVSPropertyOp31
 70
     1
102
RTVSPropertyOp32
 70
     1
102
RTVSPropertyOp33
 70
     1
102
RTVSPropertyOp34
 70
     1
102
RTVSPropertyOp35
 70
     1
102
RTVSPropertyOp36
 70
     1
102
RTVSPropertyOp37
 70
     1
102
RTVSPropertyOp38
 70
     1
102
RTVSPropertyOp39
 70
     1
102
RTVSPropertyOp40
 70
     1
102
RTVSPropertyOp41
 70
     1
102
RTVSPropertyOp42
 70
     1
102
RTVSPropertyOp43
 70
     1
102
RTVSPropertyOp44
 70
     1
102
RTVSPropertyOp45
 70
     1
102
RTVSPropertyOp46
 70
     1
102
RTVSPropertyOp47
 70
     1
102
RTVSPropertyOp48
 70
     1
102
RTVSPropertyOp49
 70
     1
102
RTVSPropertyOp50
 70
     1
102
RTVSPropertyOp51
 70
     0
102
RTVSPropertyOp52
 70
     0
102
RTVSPropertyOp53
 70
     1
102
RTVSPropertyOp54
 70
     1
102
RTVSPropertyOp55
 70
     1
102
RTVSPropertyOp56
 70
     1
102
RTVSPropertyOp57
 70
     1
102
RTVSPost2010Prop28
280
     0
102
RTVSPost2010PropOp28
 70
     1
102
RTVSPost2010Prop29
280
     1
102
RTVSPost2010PropOp29
 70
     1
102
RTVSPost2010Prop30
280
     1
102
RTVSPost2010PropOp30
 70
     1
102
RTVSPost2010Prop31
280
     0
102
RTVSPost2010PropOp31
 70
     1
102
RTVSPost2010Prop32
280
     0
102
RTVSPost2010PropOp32
 70
     1
102
RTVSPost2010Prop33
280
     0
102
RTVSPost2010PropOp33
 70
     1
102
RTVSPost2010Prop34
280
     0
102
RTVSPost2010PropOp34
 70
     1
102
RTVSPost2010Prop35
280
     0
102
RTVSPost2010PropOp35
 70
     1
102
RTVSPost2010Prop36
280
     0
102
RTVSPost2010PropOp36
 70
     1
102
RTVSPost2010Prop37
 90
       50
102
RTVSPost2010PropOp37
 70
     1
102
RTVSPost2010Prop38
140
0.0
102
RTVSPost2010PropOp38
 70
     1
102
RTVSPost2010Prop39
140
1.0
102
RTVSPost2010PropOp39
 70
     1
102
RTVSPost2010Prop40
 90
        0
102
RTVSPost2010PropOp40
 70
     1
102
RTVSPost2010Prop41ColorIndex
 90
       18
102
RTVSPost2010Prop41ColorRGB
 90
        0
102
RTVSPost2010PropOp41
 70
     1
102
RTVSPost2010Prop42
 90
       50
102
RTVSPost2010PropOp42
 70
     1
102
RTVSPost2010Prop43
 90
        3
102
RTVSPost2010PropOp43
 70
     1
102
RTVSPost2010Prop44ColorIndex
 90
        5
102
RTVSPost2010Prop44ColorRGB
 90
      255
102
RTVSPost2010PropOp44
 70
     1
102
RTVSPost2010Prop45
280
     0
102
RTVSPost2010PropOp45
 70
     1
102
RTVSPost2010Prop46
 90
       50
102
RTVSPost2010PropOp46
 70
     1
102
RTVSPost2010Prop47
 90
       50
102
RTVSPost2010PropOp47
 70
     1
102
RTVSPost2010Prop48
 90
       50
102
RTVSPost2010PropOp48
 70
     1
102
RTVSPost2010Prop49
280
     0
102
RTVSPost2010PropOp49
 70
     1
102
RTVSPost2010Prop50
 90
       50
102
RTVSPost2010PropOp50
 70
     1
102
RTVSPost2010Prop51ColorIndex
 90
      256
102
RTVSPost2010Prop51ColorRGB
 90
-16777216
102
RTVSPost2010PropOp51
 70
     0
102
RTVSPost2010Prop52
140
1.0
102
RTVSPost2010PropOp52
 70
     0
102
RTVSPost2010Prop53
 90
        2
102
RTVSPost2010PropOp53
 70
     1
102
RTVSPost2010Prop54
  1
strokes_ogs.tif
102
RTVSPost2010PropOp54
 70
     1
102
RTVSPost2010Prop55
280
     0
102
RTVSPost2010PropOp55
 70
     1
102
RTVSPost2010Prop56
140
1.0
102
RTVSPost2010PropOp56
 70
     1
102
RTVSPost2010Prop57
140
1.0
102
RTVSPost2010PropOp57
 70
     1
  0
ENDSEC
  0
EOF
