  0
SECTION
  2
HEADER
  9
$ACADVER
  1
AC1021
  9
$ACADMAINTVER
 70
    25
  9
$DWGCODEPAGE
  3
ANSI_1252
  9
$LASTSAVEDBY
  1
noseda_d
  9
$INSBASE
 10
0.0
 20
0.0
 30
0.0
  9
$EXTMIN
 10
5556.33921925757
 20
-4475.36024973016
 30
0.0
  9
$EXTMAX
 10
6821.870224362271
 20
-1975.402064552955
 30
0.0
  9
$LIMMIN
 10
0.0
 20
0.0
  9
$LIMMAX
 10
12.0
 20
9.0
  9
$ORTHOMODE
 70
     0
  9
$REGENMODE
 70
     1
  9
$FILLMODE
 70
     1
  9
$QTEXTMODE
 70
     0
  9
$MIRRTEXT
 70
     1
  9
$LTSCALE
 40
1.0
  9
$ATTMODE
 70
     1
  9
$TEXTSIZE
 40
0.2
  9
$TRACEWID
 40
0.05
  9
$TEXTSTYLE
  7
Standard
  9
$CLAYER
  8
0
  9
$CELTYPE
  6
ByLayer
  9
$CECOLOR
 62
   256
  9
$CELTSCALE
 40
1.0
  9
$DISPSILH
 70
     0
  9
$DIMSCALE
 40
1.0
  9
$DIMASZ
 40
0.18
  9
$DIMEXO
 40
0.0625
  9
$DIMDLI
 40
0.38
  9
$DIMRND
 40
0.0
  9
$DIMDLE
 40
0.0
  9
$DIMEXE
 40
0.18
  9
$DIMTP
 40
0.0
  9
$DIMTM
 40
0.0
  9
$DIMTXT
 40
0.18
  9
$DIMCEN
 40
0.09
  9
$DIMTSZ
 40
0.0
  9
$DIMTOL
 70
     0
  9
$DIMLIM
 70
     0
  9
$DIMTIH
 70
     1
  9
$DIMTOH
 70
     1
  9
$DIMSE1
 70
     0
  9
$DIMSE2
 70
     0
  9
$DIMTAD
 70
     0
  9
$DIMZIN
 70
     0
  9
$DIMBLK
  1

  9
$DIMASO
 70
     1
  9
$DIMSHO
 70
     1
  9
$DIMPOST
  1

  9
$DIMAPOST
  1

  9
$DIMALT
 70
     0
  9
$DIMALTD
 70
     2
  9
$DIMALTF
 40
25.4
  9
$DIMLFAC
 40
1.0
  9
$DIMTOFL
 70
     0
  9
$DIMTVP
 40
0.0
  9
$DIMTIX
 70
     0
  9
$DIMSOXD
 70
     0
  9
$DIMSAH
 70
     0
  9
$DIMBLK1
  1

  9
$DIMBLK2
  1

  9
$DIMSTYLE
  2
STANDARD_ACAD
  9
$DIMCLRD
 70
     0
  9
$DIMCLRE
 70
     0
  9
$DIMCLRT
 70
     0
  9
$DIMTFAC
 40
1.0
  9
$DIMGAP
 40
0.09
  9
$DIMJUST
 70
     0
  9
$DIMSD1
 70
     0
  9
$DIMSD2
 70
     0
  9
$DIMTOLJ
 70
     1
  9
$DIMTZIN
 70
     0
  9
$DIMALTZ
 70
     0
  9
$DIMALTTZ
 70
     0
  9
$DIMUPT
 70
     0
  9
$DIMDEC
 70
     4
  9
$DIMTDEC
 70
     4
  9
$DIMALTU
 70
     2
  9
$DIMALTTD
 70
     2
  9
$DIMTXSTY
  7
Standard
  9
$DIMAUNIT
 70
     0
  9
$DIMADEC
 70
     0
  9
$DIMALTRND
 40
0.0
  9
$DIMAZIN
 70
     0
  9
$DIMDSEP
 70
    46
  9
$DIMATFIT
 70
     3
  9
$DIMFRAC
 70
     0
  9
$DIMLDRBLK
  1

  9
$DIMLUNIT
 70
     2
  9
$DIMLWD
 70
    -2
  9
$DIMLWE
 70
    -2
  9
$DIMTMOVE
 70
     2
  9
$DIMFXL
 40
1.0
  9
$DIMFXLON
 70
     0
  9
$DIMJOGANG
 40
0.7853981633974483
  9
$DIMTFILL
 70
     0
  9
$DIMTFILLCLR
 70
     0
  9
$DIMARCSYM
 70
     0
  9
$DIMLTYPE
  6

  9
$DIMLTEX1
  6

  9
$DIMLTEX2
  6

  9
$LUNITS
 70
     2
  9
$LUPREC
 70
     3
  9
$SKETCHINC
 40
0.1
  9
$FILLETRAD
 40
0.0
  9
$AUNITS
 70
     0
  9
$AUPREC
 70
     0
  9
$MENU
  1
.
  9
$ELEVATION
 40
0.0
  9
$PELEVATION
 40
0.0
  9
$THICKNESS
 40
0.0
  9
$LIMCHECK
 70
     0
  9
$CHAMFERA
 40
0.0
  9
$CHAMFERB
 40
0.0
  9
$CHAMFERC
 40
0.0
  9
$CHAMFERD
 40
0.0
  9
$SKPOLY
 70
     0
  9
$TDCREATE
 40
2460725.697200533
  9
$TDUCREATE
 40
2460725.655533866
  9
$TDUPDATE
 40
2460725.697215185
  9
$TDUUPDATE
 40
2460725.655548519
  9
$TDINDWG
 40
0.0000000116
  9
$TDUSRTIMER
 40
0.0000000116
  9
$USRTIMER
 70
     1
  9
$ANGBASE
 50
0.0
  9
$ANGDIR
 70
     0
  9
$PDMODE
 70
     0
  9
$PDSIZE
 40
0.0
  9
$PLINEWID
 40
0.0
  9
$SPLFRAME
 70
     0
  9
$SPLINETYPE
 70
     6
  9
$SPLINESEGS
 70
     8
  9
$HANDSEED
  5
1BC
  9
$SURFTAB1
 70
     6
  9
$SURFTAB2
 70
     6
  9
$SURFTYPE
 70
     6
  9
$SURFU
 70
     6
  9
$SURFV
 70
     6
  9
$UCSBASE
  2

  9
$UCSNAME
  2

  9
$UCSORG
 10
0.0
 20
0.0
 30
0.0
  9
$UCSXDIR
 10
1.0
 20
0.0
 30
0.0
  9
$UCSYDIR
 10
0.0
 20
1.0
 30
0.0
  9
$UCSORTHOREF
  2

  9
$UCSORTHOVIEW
 70
     0
  9
$UCSORGTOP
 10
0.0
 20
0.0
 30
0.0
  9
$UCSORGBOTTOM
 10
0.0
 20
0.0
 30
0.0
  9
$UCSORGLEFT
 10
0.0
 20
0.0
 30
0.0
  9
$UCSORGRIGHT
 10
0.0
 20
0.0
 30
0.0
  9
$UCSORGFRONT
 10
0.0
 20
0.0
 30
0.0
  9
$UCSORGBACK
 10
0.0
 20
0.0
 30
0.0
  9
$PUCSBASE
  2

  9
$PUCSNAME
  2

  9
$PUCSORG
 10
0.0
 20
0.0
 30
0.0
  9
$PUCSXDIR
 10
1.0
 20
0.0
 30
0.0
  9
$PUCSYDIR
 10
0.0
 20
1.0
 30
0.0
  9
$PUCSORTHOREF
  2

  9
$PUCSORTHOVIEW
 70
     0
  9
$PUCSORGTOP
 10
0.0
 20
0.0
 30
0.0
  9
$PUCSORGBOTTOM
 10
0.0
 20
0.0
 30
0.0
  9
$PUCSORGLEFT
 10
0.0
 20
0.0
 30
0.0
  9
$PUCSORGRIGHT
 10
0.0
 20
0.0
 30
0.0
  9
$PUCSORGFRONT
 10
0.0
 20
0.0
 30
0.0
  9
$PUCSORGBACK
 10
0.0
 20
0.0
 30
0.0
  9
$USERI1
 70
     0
  9
$USERI2
 70
     0
  9
$USERI3
 70
     0
  9
$USERI4
 70
     0
  9
$USERI5
 70
     0
  9
$USERR1
 40
0.0
  9
$USERR2
 40
0.0
  9
$USERR3
 40
0.0
  9
$USERR4
 40
0.0
  9
$USERR5
 40
0.0
  9
$WORLDVIEW
 70
     1
  9
$SHADEDGE
 70
     3
  9
$SHADEDIF
 70
    70
  9
$TILEMODE
 70
     1
  9
$MAXACTVP
 70
    64
  9
$PINSBASE
 10
0.0
 20
0.0
 30
0.0
  9
$PLIMCHECK
 70
     0
  9
$PEXTMIN
 10
1.000000000000000E+20
 20
1.000000000000000E+20
 30
1.000000000000000E+20
  9
$PEXTMAX
 10
-1.000000000000000E+20
 20
-1.000000000000000E+20
 30
-1.000000000000000E+20
  9
$PLIMMIN
 10
0.0
 20
0.0
  9
$PLIMMAX
 10
12.0
 20
9.0
  9
$UNITMODE
 70
     0
  9
$VISRETAIN
 70
     1
  9
$PLINEGEN
 70
     0
  9
$PSLTSCALE
 70
     1
  9
$TREEDEPTH
 70
  3020
  9
$CMLSTYLE
  2
Standard
  9
$CMLJUST
 70
     0
  9
$CMLSCALE
 40
1.0
  9
$PROXYGRAPHICS
 70
     1
  9
$MEASUREMENT
 70
     1
  9
$CELWEIGHT
370
    -1
  9
$ENDCAPS
280
     0
  9
$JOINSTYLE
280
     0
  9
$LWDISPLAY
290
     0
  9
$INSUNITS
 70
     4
  9
$HYPERLINKBASE
  1

  9
$STYLESHEET
  1

  9
$XEDIT
290
     1
  9
$CEPSNTYPE
380
     0
  9
$PSTYLEMODE
290
     1
  9
$FINGERPRINTGUID
  2
{4c85598e-a0a1-fd46-99e0-aba79a165da6}
  9
$VERSIONGUID
  2
{FAEB1C32-E019-11D5-929B-00C0DF256EC4}
  9
$EXTNAMES
290
     1
  9
$PSVPSCALE
 40
0.0
  9
$OLESTARTUP
290
     0
  9
$SORTENTS
280
   127
  9
$INDEXCTL
280
     0
  9
$HIDETEXT
280
     1
  9
$XCLIPFRAME
290
     0
  9
$HALOGAP
280
     0
  9
$OBSCOLOR
 70
   257
  9
$OBSLTYPE
280
     0
  9
$INTERSECTIONDISPLAY
280
     0
  9
$INTERSECTIONCOLOR
 70
   257
  9
$DIMASSOC
280
     2
  9
$PROJECTNAME
  1

  9
$CAMERADISPLAY
290
     0
  9
$LENSLENGTH
 40
50.0
  9
$CAMERAHEIGHT
 40
0.0
  9
$STEPSPERSEC
 40
2.0
  9
$STEPSIZE
 40
6.0
  9
$3DDWFPREC
 40
2.0
  9
$PSOLWIDTH
 40
0.25
  9
$PSOLHEIGHT
 40
4.0
  9
$LOFTANG1
 40
1.570796326794897
  9
$LOFTANG2
 40
1.570796326794897
  9
$LOFTMAG1
 40
0.0
  9
$LOFTMAG2
 40
0.0
  9
$LOFTPARAM
 70
     7
  9
$LOFTNORMALS
280
     1
  9
$LATITUDE
 40
37.795
  9
$LONGITUDE
 40
-122.394
  9
$NORTHDIRECTION
 40
0.0
  9
$TIMEZONE
 70
 -8000
  9
$LIGHTGLYPHDISPLAY
280
     1
  9
$TILEMODELIGHTSYNCH
280
     1
  9
$CMATERIAL
347
44
  9
$SOLIDHIST
280
     0
  9
$SHOWHIST
280
     1
  9
$DWFFRAME
280
     2
  9
$DGNFRAME
280
     2
  9
$REALWORLDSCALE
290
     1
  9
$INTERFERECOLOR
 62
   256
  9
$CSHADOW
280
     0
  9
$SHADOWPLANELOCATION
 40
0.0
  0
ENDSEC
  0
SECTION
  2
CLASSES
  0
CLASS
  1
ACDBDICTIONARYWDFLT
  2
AcDbDictionaryWithDefault
  3
ObjectDBX Classes
 90
        0
 91
        3
280
     0
281
     0
  0
CLASS
  1
VISUALSTYLE
  2
AcDbVisualStyle
  3
ObjectDBX Classes
 90
     4095
 91
        3
280
     0
281
     0
  0
CLASS
  1
MATERIAL
  2
AcDbMaterial
  3
ObjectDBX Classes
 90
     1153
 91
        3
280
     0
281
     0
  0
CLASS
  1
SCALE
  2
AcDbScale
  3
ObjectDBX Classes
 90
     1153
 91
        3
280
     0
281
     0
  0
CLASS
  1
TABLESTYLE
  2
AcDbTableStyle
  3
ObjectDBX Classes
 90
     4095
 91
        3
280
     0
281
     0
  0
CLASS
  1
MLEADERSTYLE
  2
AcDbMLeaderStyle
  3
ACDB_MLEADERSTYLE_CLASS
 90
     4095
 91
        3
280
     0
281
     0
  0
CLASS
  1
SUN
  2
AcDbSun
  3
SCENEOE
 90
     1153
 91
        3
280
     0
281
     0
  0
CLASS
  1
DICTIONARYVAR
  2
AcDbDictionaryVar
  3
ObjectDBX Classes
 90
        0
 91
        3
280
     0
281
     0
  0
CLASS
  1
CELLSTYLEMAP
  2
AcDbCellStyleMap
  3
ObjectDBX Classes
 90
     1152
 91
        3
280
     0
281
     0
  0
ENDSEC
  0
SECTION
  2
TABLES
  0
TABLE
  2
VPORT
  5
8
330
0
100
AcDbSymbolTable
 70
     1
  0
VPORT
  5
29
330
8
100
AcDbSymbolTableRecord
100
AcDbViewportTableRecord
  2
*Active
 70
     0
 10
0.0
 20
0.0
 11
1.0
 21
1.0
 12
10.42990654205607
 22
4.5
 13
0.0
 23
0.0
 14
0.5
 24
0.5
 15
0.5
 25
0.5
 16
0.0
 26
0.0
 36
1.0
 17
0.0
 27
0.0
 37
0.0
 40
9.0
 41
1.972972972850329
 42
50.0
 43
0.0
 44
0.0
 50
0.0
 51
0.0
 71
     0
 72
   100
 73
     1
 74
     3
 75
     0
 76
     0
 77
     0
 78
     0
281
     0
 65
     1
110
0.0
120
0.0
130
0.0
111
1.0
121
0.0
131
0.0
112
0.0
122
1.0
132
0.0
 79
     0
146
0.0
348
2F
 60
     3
 61
     5
292
     1
282
     1
141
0.0
142
0.0
 63
   250
361
5D
  0
ENDTAB
  0
TABLE
  2
LTYPE
  5
5
330
0
100
AcDbSymbolTable
 70
     1
  0
LTYPE
  5
14
330
5
100
AcDbSymbolTableRecord
100
AcDbLinetypeTableRecord
  2
ByBlock
 70
     0
  3

 72
    65
 73
     0
 40
0.0
  0
LTYPE
  5
15
330
5
100
AcDbSymbolTableRecord
100
AcDbLinetypeTableRecord
  2
ByLayer
 70
     0
  3

 72
    65
 73
     0
 40
0.0
  0
LTYPE
  5
16
330
5
100
AcDbSymbolTableRecord
100
AcDbLinetypeTableRecord
  2
Continuous
 70
     0
  3
Solid line
 72
    65
 73
     0
 40
0.0
  0
ENDTAB
  0
TABLE
  2
LAYER
  5
2
330
0
100
AcDbSymbolTable
 70
     2
  0
LAYER
  5
10
330
2
100
AcDbSymbolTableRecord
100
AcDbLayerTableRecord
  2
0
 70
     0
 62
     7
  6
Continuous
370
    -3
390
F
347
46
  0
LAYER
  5
5F
330
2
100
AcDbSymbolTableRecord
100
AcDbLayerTableRecord
  2
Make2D$Visibile$Curve
 70
     0
 62
    18
420
        0
  6
Continuous
370
    -3
390
F
347
46
  0
ENDTAB
  0
TABLE
  2
STYLE
  5
3
330
0
100
AcDbSymbolTable
 70
     1
  0
STYLE
  5
11
330
3
100
AcDbSymbolTableRecord
100
AcDbTextStyleTableRecord
  2
Standard
 70
     0
 40
0.0
 41
1.0
 50
0.0
 71
     0
 42
0.2
  3
txt
  4

  0
ENDTAB
  0
TABLE
  2
VIEW
  5
6
330
0
100
AcDbSymbolTable
 70
     0
  0
ENDTAB
  0
TABLE
  2
UCS
  5
7
330
0
100
AcDbSymbolTable
 70
     0
  0
ENDTAB
  0
TABLE
  2
APPID
  5
9
330
0
100
AcDbSymbolTable
 70
     3
  0
APPID
  5
12
330
9
100
AcDbSymbolTableRecord
100
AcDbRegAppTableRecord
  2
ACAD
 70
     0
  0
APPID
  5
5E
330
9
100
AcDbSymbolTableRecord
100
AcDbRegAppTableRecord
  2
Rhino
 70
     0
  0
APPID
  5
1B4
330
9
100
AcDbSymbolTableRecord
100
AcDbRegAppTableRecord
  2
ACAD_MLEADERVER
 70
     0
  0
ENDTAB
  0
TABLE
  2
DIMSTYLE
  5
A
330
0
100
AcDbSymbolTable
 70
     1
100
AcDbDimStyleTable
  0
DIMSTYLE
105
27
330
A
100
AcDbSymbolTableRecord
100
AcDbDimStyleTableRecord
  2
STANDARD_ACAD
 70
     0
178
     0
340
11
  0
ENDTAB
  0
TABLE
  2
BLOCK_RECORD
  5
1
330
0
100
AcDbSymbolTable
 70
     1
  0
BLOCK_RECORD
  5
1F
330
1
100
AcDbSymbolTableRecord
100
AcDbBlockTableRecord
  2
*Model_Space
340
22
 70
     0
280
     1
281
     0
  0
BLOCK_RECORD
  5
1B
330
1
100
AcDbSymbolTableRecord
100
AcDbBlockTableRecord
  2
*Paper_Space
340
1E
 70
     0
280
     1
281
     0
  0
BLOCK_RECORD
  5
23
330
1
100
AcDbSymbolTableRecord
100
AcDbBlockTableRecord
  2
*Paper_Space0
340
26
 70
     0
280
     1
281
     0
  0
ENDTAB
  0
ENDSEC
  0
SECTION
  2
BLOCKS
  0
BLOCK
  5
20
330
1F
100
AcDbEntity
  8
0
100
AcDbBlockBegin
  2
*Model_Space
 70
     0
 10
0.0
 20
0.0
 30
0.0
  3
*Model_Space
  1

  0
ENDBLK
  5
21
330
1F
100
AcDbEntity
  8
0
100
AcDbBlockEnd
  0
BLOCK
  5
1C
330
1B
100
AcDbEntity
 67
     1
  8
0
100
AcDbBlockBegin
  2
*Paper_Space
 70
     0
 10
0.0
 20
0.0
 30
0.0
  3
*Paper_Space
  1

  0
ENDBLK
  5
1D
330
1B
100
AcDbEntity
 67
     1
  8
0
100
AcDbBlockEnd
  0
BLOCK
  5
24
330
23
100
AcDbEntity
  8
0
100
AcDbBlockBegin
  2
*Paper_Space0
 70
     0
 10
0.0
 20
0.0
 30
0.0
  3
*Paper_Space0
  1

  0
ENDBLK
  5
25
330
23
100
AcDbEntity
  8
0
100
AcDbBlockEnd
  0
ENDSEC
  0
SECTION
  2
ENTITIES
  0
SPLINE
  5
60
330
1F
100
AcDbEntity
  8
Make2D$Visibile$Curve
370
    -3
100
AcDbSpline
210
0.0
220
0.0
230
1.0
 70
    28
 71
     2
 72
     6
 73
     3
 74
     0
 42
0.0000000001
 43
0.0000000001
 40
0.0
 40
0.0
 40
0.0
 40
59.07500118074563
 40
59.07500118074563
 40
59.07500118074563
 10
6145.937186287828
 20
-2859.875988371998
 30
0.0
 41
1.0
 10
6145.931281884266
 20
-2830.338488371757
 30
0.0
 41
1.0
 10
6145.925377480705
 20
-2800.800988371515
 30
0.0
 41
1.0
  0
SPLINE
  5
61
330
1F
100
AcDbEntity
  8
Make2D$Visibile$Curve
370
    -3
100
AcDbSpline
210
0.0
220
0.0
230
1.0
 70
    28
 71
     2
 72
     6
 73
     3
 74
     0
 42
0.0000000001
 43
0.0000000001
 40
0.0
 40
0.0
 40
0.0
 40
59.07500118074563
 40
59.07500118074563
 40
59.07500118074563
 10
6151.425377480705
 20
-2800.800988371514
 30
0.0
 41
1.0
 10
6151.431281884266
 20
-2830.338488371756
 30
0.0
 41
1.0
 10
6151.437186287828
 20
-2859.875988371997
 30
0.0
 41
1.0
  0
SPLINE
  5
62
330
1F
100
AcDbEntity
  8
Make2D$Visibile$Curve
370
    -3
100
AcDbSpline
210
0.0
220
0.0
230
1.0
 70
    12
 71
     3
 72
    14
 73
    10
 74
     0
 42
0.0000000001
 43
0.0000000001
 40
0.0
 40
0.0
 40
0.0
 40
0.0
 40
9.047040141545459
 40
9.047040141545459
 40
9.047040141545459
 40
19.93796886786424
 40
19.93796886786424
 40
19.93796886786424
 40
41.76591154295681
 40
41.76591154295681
 40
41.76591154295681
 40
41.76591154295681
 10
6146.08274647899
 20
-2901.639630529007
 30
0.0
 41
0.585786437626905
 10
6146.120887943986
 20
-2898.630876367018
 30
0.0
 41
0.585786437626905
 10
6146.128545305249
 20
-2895.614354394707
 30
0.0
 41
0.585786437626905
 10
6146.123660651627
 20
-2892.593278615939
 30
0.0
 41
0.585786437626905
 10
6146.11779906728
 20
-2888.96798768142
 30
0.0
 41
0.585786437626905
 10
6146.093876981504
 20
-2885.336139265606
 30
0.0
 41
0.5857864376269051
 10
6146.069070733948
 20
-2881.702702757627
 30
0.0
 41
0.5857864376269052
 10
6146.019458238839
 20
-2874.435829741668
 30
0.0
 41
0.5857864376269052
 10
6145.96630909662
 20
-2867.162604357051
 30
0.0
 41
0.5857864376269053
 10
6145.937186287828
 20
-2859.875988371999
 30
0.0
 41
0.5857864376269051
  0
SPLINE
  5
63
330
1F
100
AcDbEntity
  8
Make2D$Visibile$Curve
370
    -3
100
AcDbSpline
210
0.0
220
0.0
230
1.0
 70
    28
 71
     2
 72
     6
 73
     3
 74
     0
 42
0.0000000001
 43
0.0000000001
 40
1.95730141258995
 40
1.95730141258995
 40
1.95730141258995
 40
10.56630619085613
 40
10.56630619085613
 40
10.56630619085613
 10
6145.925377480706
 20
-2800.800988371518
 30
0.0
 41
0.8844057506029908
 10
6145.925377480706
 20
-2796.496485982385
 30
0.0
 41
0.8844057506029908
 10
6145.925377480706
 20
-2792.191983593252
 30
0.0
 41
0.8844057506029908
  0
SPLINE
  5
64
330
1F
100
AcDbEntity
  8
Make2D$Visibile$Curve
370
    -3
100
AcDbSpline
210
0.0
220
0.0
230
1.0
 70
    28
 71
     2
 72
     6
 73
     3
 74
     0
 42
0.0000000001
 43
0.0000000001
 40
7.81571785035192
 40
7.81571785035192
 40
7.81571785035192
 40
26.28101634670262
 40
26.28101634670262
 40
26.28101634670262
 10
6132.269356553704
 20
-2573.822939869613
 30
0.0
 41
0.8844057506030274
 10
6132.269356553696
 20
-2564.590290621437
 30
0.0
 41
0.8844057506030274
 10
6132.269356553687
 20
-2555.357641373262
 30
0.0
 41
0.8844057506030274
  0
SPLINE
  5
65
330
1F
100
AcDbEntity
  8
Make2D$Visibile$Curve
370
    -3
100
AcDbSpline
210
0.0
220
0.0
230
1.0
 70
     8
 71
     3
 72
     8
 73
     4
 74
     0
 42
0.0000000001
 43
0.0000000001
 40
0.0000000000102036
 40
0.0000000000102036
 40
0.0000000000102036
 40
0.0000000000102036
 40
2.317426963940251
 40
2.317426963940251
 40
2.317426963940251
 40
2.317426963940251
 10
6137.769356553638
 20
-2573.8229398696
 30
0.0
 10
6137.769356553638
 20
-2574.584496498013
 30
0.0
 10
6137.803226901488
 20
-2575.342730425906
 30
0.0
 10
6137.870163078891
 20
-2576.095605631693
 30
0.0
  0
SPLINE
  5
66
330
1F
100
AcDbEntity
  8
Make2D$Visibile$Curve
370
    -3
100
AcDbSpline
210
0.0
220
0.0
230
1.0
 70
    12
 71
     3
 72
     8
 73
     4
 74
     0
 42
0.0000000001
 43
0.0000000001
 40
46.46825105494774
 40
46.46825105494774
 40
46.46825105494774
 40
46.46825105494774
 40
49.24535032297097
 40
49.24535032297097
 40
49.24535032297097
 40
49.24535032297097
 10
6132.391830614293
 20
-2576.582793445237
 30
0.0
 41
0.9107590973927759
 10
6132.310345539004
 20
-2575.666512756153
 30
0.0
 41
0.9107590973927759
 10
6132.269356553638
 20
-2574.745673470154
 30
0.0
 41
0.9107590973927759
 10
6132.269356553638
 20
-2573.82293986959
 30
0.0
 41
0.9107590973927759
  0
SPLINE
  5
67
330
1F
100
AcDbEntity
  8
Make2D$Visibile$Curve
370
    -3
100
AcDbSpline
210
0.0
220
0.0
230
1.0
 70
     8
 71
     3
 72
     8
 73
     4
 74
     0
 42
0.0000000001
 43
0.0000000001
 40
1.935784510019891
 40
1.935784510019891
 40
1.935784510019891
 40
1.935784510019891
 40
4.224844089367157
 40
4.224844089367157
 40
4.224844089367157
 40
4.224844089367157
 10
6137.870171032207
 20
-2576.095604924585
 30
0.0
 10
6137.936287850755
 20
-2576.839264262543
 30
0.0
 10
6138.041026294916
 20
-2577.576664493611
 30
0.0
 10
6138.183275177714
 20
-2578.304993499463
 30
0.0
  0
SPLINE
  5
68
330
1F
100
AcDbEntity
  8
Make2D$Visibile$Curve
370
    -3
100
AcDbSpline
210
0.0
220
0.0
230
1.0
 70
    12
 71
     3
 72
     8
 73
     4
 74
     0
 42
0.0000000001
 43
0.0000000001
 40
37.34131786621387
 40
37.34131786621387
 40
37.34131786621387
 40
37.34131786621387
 40
40.16658082701299
 40
40.16658082701299
 40
40.16658082701299
 40
40.16658082701299
 10
6132.785296756449
 20
-2579.359179599673
 30
0.0
 41
0.9107590973927759
 10
6132.606115913072
 20
-2578.441678924189
 30
0.0
 41
0.9107590973927759
 10
6132.474729044852
 20
-2577.514965329709
 30
0.0
 41
0.9107590973927759
 10
6132.391830760364
 20
-2576.582793432772
 30
0.0
 41
0.9107590973927759
  0
SPLINE
  5
69
330
1F
100
AcDbEntity
  8
Make2D$Visibile$Curve
370
    -3
100
AcDbSpline
210
0.0
220
0.0
230
1.0
 70
     8
 71
     3
 72
     8
 73
     4
 74
     0
 42
0.0000000001
 43
0.0000000001
 40
4.019889919195436
 40
4.019889919195436
 40
4.019889919195436
 40
4.019889919195436
 40
6.146781901441039
 40
6.146781901441039
 40
6.146781901441039
 40
6.146781901441039
 10
6138.183277435223
 20
-2578.304993058552
 30
0.0
 10
6138.31544874741
 20
-2578.98172385963
 30
0.0
 10
6138.481655027374
 20
-2579.650223915613
 30
0.0
 10
6138.680911708262
 20
-2580.308001550006
 30
0.0
  0
SPLINE
  5
6A
330
1F
100
AcDbEntity
  8
Make2D$Visibile$Curve
370
    -3
100
AcDbSpline
210
0.0
220
0.0
230
1.0
 70
    12
 71
     3
 72
     8
 73
     4
 74
     0
 42
0.0000000001
 43
0.0000000001
 40
33.26012097745237
 40
33.26012097745237
 40
33.26012097745237
 40
33.26012097745237
 40
35.89977735127782
 40
35.89977735127782
 40
35.89977735127782
 40
35.89977735127782
 10
6133.417099851898
 20
-2581.902446690766
 30
0.0
 41
0.9107590973927762
 10
6133.163511594505
 20
-2581.065264808194
 30
0.0
 41
0.9107590973927762
 10
6132.952706258204
 20
-2580.21640476379
 30
0.0
 41
0.9107590973927762
 10
6132.785296759719
 20
-2579.359179599371
 30
0.0
 41
0.9107590973927762
  0
SPLINE
  5
6B
330
1F
100
AcDbEntity
  8
Make2D$Visibile$Curve
370
    -3
100
AcDbSpline
210
0.0
220
0.0
230
1.0
 70
     8
 71
     3
 72
     8
 73
     4
 74
     0
 42
0.0000000001
 43
0.0000000001
 40
6.382164945719073
 40
6.382164945719073
 40
6.382164945719073
 40
6.382164945719073
 40
8.522775551980109
 40
8.522775551980109
 40
8.522775551980109
 40
8.522775551980109
 10
6138.680911544948
 20
-2580.308001599478
 30
0.0
 10
6138.881453447445
 20
-2580.970021952495
 30
0.0
 10
6139.114238761712
 20
-2581.621581692504
 30
0.0
 10
6139.37833641957
 20
-2582.260324533893
 30
0.0
  0
SPLINE
  5
6C
330
1F
100
AcDbEntity
  8
Make2D$Visibile$Curve
370
    -3
100
AcDbSpline
210
0.0
220
0.0
230
1.0
 70
    12
 71
     3
 72
    11
 73
     7
 74
     0
 42
0.0000000001
 43
0.0000000001
 40
31.63909437530594
 40
31.63909437530594
 40
31.63909437530594
 40
31.63909437530594
 40
32.04395128810685
 40
32.04395128810685
 40
32.04395128810685
 40
34.2632197412924
 40
34.2632197412924
 40
34.2632197412924
 40
34.2632197412924
 10
6134.295697177181
 20
-2584.361925521104
 30
0.0
 41
0.9107590973927759
 10
6134.244352623791
 20
-2584.237750364942
 30
0.0
 41
0.9107590973927759
 10
6134.193928093092
 20
-2584.11314297445
 30
0.0
 41
0.9107590973927759
 10
6134.144429833733
 20
-2583.988112907849
 30
0.0
 41
0.9107590973927759
 10
6133.872859705574
 20
-2583.302140680735
 30
0.0
 41
0.9107590973927759
 10
6133.63030195248
 20
-2582.606300192338
 30
0.0
 41
0.9107590973927759
 10
6133.417099800399
 20
-2581.902446705978
 30
0.0
 41
0.9107590973927759
  0
SPLINE
  5
6D
330
1F
100
AcDbEntity
  8
Make2D$Visibile$Curve
370
    -3
100
AcDbSpline
210
0.0
220
0.0
230
1.0
 70
     8
 71
     3
 72
     8
 73
     4
 74
     0
 42
0.0000000001
 43
0.0000000001
 40
9.309050588221043
 40
9.309050588221043
 40
9.309050588221043
 40
9.309050588221043
 40
11.14370080580872
 40
11.14370080580872
 40
11.14370080580872
 40
11.14370080580872
 10
6139.378335998649
 20
-2582.260324707929
 30
0.0
 10
6139.604685818752
 20
-2582.807771165479
 30
0.0
 10
6139.852093896885
 20
-2583.346597969362
 30
0.0
 10
6140.120068895883
 20
-2583.875561676053
 30
0.0
  0
SPLINE
  5
6E
330
1F
100
AcDbEntity
  8
Make2D$Visibile$Curve
370
    -3
100
AcDbSpline
210
0.0
220
0.0
230
1.0
 70
    12
 71
     3
 72
     8
 73
     4
 74
     0
 42
0.0000000001
 43
0.0000000001
 40
31.74248121942188
 40
31.74248121942188
 40
31.74248121942188
 40
31.74248121942188
 40
33.95609340677756
 40
33.95609340677756
 40
33.95609340677756
 40
33.95609340677756
 10
6135.213893392935
 20
-2586.361284661811
 30
0.0
 41
0.9107590973927762
 10
6134.882791729298
 20
-2585.707775861285
 30
0.0
 41
0.9107590973927762
 10
6134.576430736756
 20
-2585.040870680979
 30
0.0
 41
0.9107590973927762
 10
6134.295697160251
 20
-2584.361925526957
 30
0.0
 41
0.9107590973927762
  0
SPLINE
  5
6F
330
1F
100
AcDbEntity
  8
Make2D$Visibile$Curve
370
    -3
100
AcDbSpline
210
0.0
220
0.0
230
1.0
 70
     8
 71
     3
 72
     8
 73
     4
 74
     0
 42
0.0000000001
 43
0.0000000001
 40
14.95308009789586
 40
14.95308009789586
 40
14.95308009789586
 40
14.95308009789586
 40
16.83656887985221
 40
16.83656887985221
 40
16.83656887985221
 40
16.83656887985221
 10
6140.120050975244
 20
-2583.875570754719
 30
0.0
 10
6140.39515949472
 20
-2584.418615526624
 30
0.0
 10
6140.686422293386
 20
-2584.953913333136
 30
0.0
 10
6140.993544109987
 20
-2585.480716946637
 30
0.0
  0
SPLINE
  5
70
330
1F
100
AcDbEntity
  8
Make2D$Visibile$Curve
370
    -3
100
AcDbSpline
210
0.0
220
0.0
230
1.0
 70
    12
 71
     3
 72
     8
 73
     4
 74
     0
 42
0.0000000001
 43
0.0000000001
 40
38.34001039406083
 40
38.34001039406083
 40
38.34001039406083
 40
38.34001039406083
 40
40.50854609255735
 40
40.50854609255735
 40
40.50854609255735
 40
40.50854609255735
 10
6136.242274761265
 20
-2588.250882798043
 30
0.0
 41
0.9107590973927764
 10
6135.881216801013
 20
-2587.631613080676
 30
0.0
 41
0.9107590973927764
 10
6135.538252205156
 20
-2587.001486115273
 30
0.0
 41
0.9107590973927764
 10
6135.213892870323
 20
-2586.361284922576
 30
0.0
 41
0.9107590973927765
  0
SPLINE
  5
71
330
1F
100
AcDbEntity
  8
Make2D$Visibile$Curve
370
    -3
100
AcDbSpline
210
0.0
220
0.0
230
1.0
 70
     8
 71
     3
 72
     8
 73
     4
 74
     0
 42
0.0000000001
 43
0.0000000001
 40
21.30050923603547
 40
21.30050923603547
 40
21.30050923603547
 40
21.30050923603547
 40
23.18638141441334
 40
23.18638141441334
 40
23.18638141441334
 40
23.18638141441334
 10
6140.993510146355
 20
-2585.480736747135
 30
0.0
 10
6141.301020600034
 20
-2586.008206986728
 30
0.0
 10
6141.621098247953
 20
-2586.528946155501
 30
0.0
 10
6141.953557915559
 20
-2587.042485625949
 30
0.0
  0
SPLINE
  5
72
330
1F
100
AcDbEntity
  8
Make2D$Visibile$Curve
370
    -3
100
AcDbSpline
210
0.0
220
0.0
230
1.0
 70
    12
 71
     3
 72
     8
 73
     4
 74
     0
 42
0.0000000001
 43
0.0000000001
 40
44.86660380369766
 40
44.86660380369766
 40
44.86660380369766
 40
44.86660380369766
 40
46.97479453706563
 40
46.97479453706563
 40
46.97479453706563
 40
46.97479453706563
 10
6137.336864217226
 20
-2590.031389052808
 30
0.0
 41
0.9107590973927762
 10
6136.958252843647
 20
-2589.446581686459
 30
0.0
 41
0.9107590973927762
 10
6136.59328519065
 20
-2588.852919880475
 30
0.0
 41
0.9107590973927762
 10
6136.242274577368
 20
-2588.250882902284
 30
0.0
 41
0.9107590973927762
  0
SPLINE
  5
73
330
1F
100
AcDbEntity
  8
Make2D$Visibile$Curve
370
    -3
100
AcDbSpline
210
0.0
220
0.0
230
1.0
 70
     8
 71
     3
 72
     8
 73
     4
 74
     0
 42
0.0000000001
 43
0.0000000001
 40
49.27563659516642
 40
49.27563659516642
 40
49.27563659516642
 40
49.27563659516642
 40
51.22637911799732
 40
51.22637911799732
 40
51.22637911799732
 40
51.22637911799732
 10
6141.953335044546
 20
-2587.042629910153
 30
0.0
 10
6142.297230680456
 20
-2587.573834143219
 30
0.0
 10
6142.647360328151
 20
-2588.101413523081
 30
0.0
 10
6143.003678609579
 20
-2588.625253209967
 30
0.0
  0
SPLINE
  5
74
330
1F
100
AcDbEntity
  8
Make2D$Visibile$Curve
370
    -3
100
AcDbSpline
210
0.0
220
0.0
230
1.0
 70
    12
 71
     3
 72
     8
 73
     4
 74
     0
 42
0.0000000001
 43
0.0000000001
 40
87.5220483551342
 40
87.5220483551342
 40
87.5220483551342
 40
87.5220483551342
 40
89.6013874817247
 40
89.6013874817247
 40
89.6013874817247
 40
89.6013874817247
 10
6138.455999696551
 20
-2591.718632333167
 30
0.0
 41
0.9033859174052852
 10
6138.076192244729
 20
-2591.16026015027
 30
0.0
 41
0.9033859174052852
 10
6137.702981393035
 20
-2590.597901746861
 30
0.0
 41
0.9033859174052852
 10
6137.336415510924
 20
-2590.031679533167
 30
0.0
 41
0.9033859174052852
  0
SPLINE
  5
75
330
1F
100
AcDbEntity
  8
Make2D$Visibile$Curve
370
    -3
100
AcDbSpline
210
0.0
220
0.0
230
1.0
 70
     8
 71
     3
 72
     8
 73
     4
 74
     0
 42
0.0000000001
 43
0.0000000001
 40
113.9127353051232
 40
113.9127353051232
 40
113.9127353051232
 40
113.9127353051232
 40
115.9248276464311
 40
115.9248276464311
 40
115.9248276464311
 40
115.9248276464311
 10
6143.003151317283
 20
-2588.625611876788
 30
0.0
 10
6143.370675620193
 20
-2589.165926044742
 30
0.0
 10
6143.741160743571
 20
-2589.704451035968
 30
0.0
 10
6144.114596617345
 20
-2590.2411613658
 30
0.0
  0
SPLINE
  5
76
330
1F
100
AcDbEntity
  8
Make2D$Visibile$Curve
370
    -3
100
AcDbSpline
210
0.0
220
0.0
230
1.0
 70
    12
 71
     3
 72
     8
 73
     4
 74
     0
 42
0.0000000001
 43
0.0000000001
 40
185.9284193718216
 40
185.9284193718216
 40
185.9284193718216
 40
185.9284193718216
 40
188.0001601181605
 40
188.0001601181605
 40
188.0001601181605
 40
188.0001601181605
 10
6139.599866460258
 20
-2593.382433395391
 30
0.0
 41
0.9033859174052851
 10
6139.215360092807
 20
-2592.829812306257
 30
0.0
 41
0.9033859174052851
 10
6138.833891950659
 20
-2592.275322760164
 30
0.0
 41
0.9033859174052851
 10
6138.455472402406
 20
-2591.718990997271
 30
0.0
 41
0.9033859174052851
  0
SPLINE
  5
77
330
1F
100
AcDbEntity
  8
Make2D$Visibile$Curve
370
    -3
100
AcDbSpline
210
0.0
220
0.0
230
1.0
 70
    12
 71
     3
 72
     8
 73
     4
 74
     0
 42
0.0000000001
 43
0.0000000001
 40
151.3756843023191
 40
151.3756843023191
 40
151.3756843023191
 40
151.3756843023191
 40
153.4544844151925
 40
153.4544844151925
 40
153.4544844151925
 40
153.4544844151925
 10
6144.116347405504
 20
-2590.239943186295
 30
0.0
 41
0.9033859174052846
 10
6144.502163961757
 20
-2590.794447307867
 30
0.0
 41
0.9033859174052846
 10
6144.884223318281
 20
-2591.351262043457
 30
0.0
 41
0.9033859174052846
 10
6145.262509672383
 20
-2591.91034740064
 30
0.0
 41
0.9033859174052846
  0
SPLINE
  5
78
330
1F
100
AcDbEntity
  8
Make2D$Visibile$Curve
370
    -3
100
AcDbSpline
210
0.0
220
0.0
230
1.0
 70
     8
 71
     3
 72
     8
 73
     4
 74
     0
 42
0.0000000001
 43
0.0000000001
 40
91.7375453742906
 40
91.7375453742906
 40
91.7375453742906
 40
91.7375453742906
 40
93.74283220431451
 40
93.74283220431451
 40
93.74283220431451
 40
93.74283220431451
 10
6140.707247405328
 20
-2594.992548381424
 30
0.0
 10
6140.342338515024
 20
-2594.453234142163
 30
0.0
 10
6139.973790048225
 20
-2593.916110227778
 30
0.0
 10
6139.601617248791
 20
-2593.381215216429
 30
0.0
  0
SPLINE
  5
79
330
1F
100
AcDbEntity
  8
Make2D$Visibile$Curve
370
    -3
100
AcDbSpline
210
0.0
220
0.0
230
1.0
 70
    12
 71
     3
 72
     8
 73
     4
 74
     0
 42
0.0000000001
 43
0.0000000001
 40
84.41557065041658
 40
84.41557065041658
 40
84.41557065041658
 40
84.41557065041658
 40
86.60148968403942
 40
86.60148968403942
 40
86.60148968403942
 40
86.60148968403942
 10
6145.262148348106
 20
-2591.910591875168
 30
0.0
 41
0.9033859174052847
 10
6145.659927498287
 20
-2592.498486457723
 30
0.0
 41
0.9033859174052847
 10
6146.050122849904
 20
-2593.090945027989
 30
0.0
 41
0.9033859174052847
 10
6146.4326736861
 20
-2593.687813927742
 30
0.0
 41
0.9033859174052847
  0
SPLINE
  5
7A
330
1F
100
AcDbEntity
  8
Make2D$Visibile$Curve
370
    -3
100
AcDbSpline
210
0.0
220
0.0
230
1.0
 70
     8
 71
     3
 72
     8
 73
     4
 74
     0
 42
0.0000000001
 43
0.0000000001
 40
46.90653996898583
 40
46.90653996898583
 40
46.90653996898583
 40
46.90653996898583
 40
48.95193704847104
 40
48.95193704847104
 40
48.95193704847104
 40
48.95193704847104
 10
6141.802164115511
 20
-2596.655766064315
 30
0.0
 10
6141.444205587168
 20
-2596.09726692436
 30
0.0
 10
6141.079093971658
 20
-2595.542894595599
 30
0.0
 10
6140.706886082658
 20
-2594.992792858327
 30
0.0
  0
SPLINE
  5
7B
330
1F
100
AcDbEntity
  8
Make2D$Visibile$Curve
370
    -3
100
AcDbSpline
210
0.0
220
0.0
230
1.0
 70
    12
 71
     3
 72
     8
 73
     4
 74
     0
 42
0.0000000001
 43
0.0000000001
 40
49.5204768785318
 40
49.5204768785318
 40
49.5204768785318
 40
49.5204768785318
 40
51.72061867957844
 40
51.72061867957844
 40
51.72061867957844
 40
51.72061867957844
 10
6146.432246538864
 20
-2593.688087693529
 30
0.0
 41
0.9107590973927764
 10
6146.824585654197
 20
-2594.300203200329
 30
0.0
 41
0.9107590973927764
 10
6147.203369265961
 20
-2594.921049775124
 30
0.0
 41
0.9107590973927764
 10
6147.568302345006
 20
-2595.550176127693
 30
0.0
 41
0.9107590973927764
  0
SPLINE
  5
7C
330
1F
100
AcDbEntity
  8
Make2D$Visibile$Curve
370
    -3
100
AcDbSpline
210
0.0
220
0.0
230
1.0
 70
     8
 71
     3
 72
     8
 73
     4
 74
     0
 42
0.0000000001
 43
0.0000000001
 40
23.5970004939438
 40
23.5970004939438
 40
23.5970004939438
 40
23.5970004939438
 40
25.5902227494088
 40
25.5902227494088
 40
25.5902227494088
 40
25.5902227494088
 10
6142.810935146922
 20
-2598.309743781961
 30
0.0
 10
6142.487186493933
 20
-2597.751571310576
 30
0.0
 10
6142.150810056281
 20
-2597.200135194337
 30
0.0
 10
6141.801982480801
 20
-2596.655882479364
 30
0.0
  0
SPLINE
  5
7D
330
1F
100
AcDbEntity
  8
Make2D$Visibile$Curve
370
    -3
100
AcDbSpline
210
0.0
220
0.0
230
1.0
 70
    12
 71
     3
 72
     8
 73
     4
 74
     0
 42
0.0000000001
 43
0.0000000001
 40
44.02336529081223
 40
44.02336529081223
 40
44.02336529081223
 40
44.02336529081223
 40
46.5829366100437
 40
46.5829366100437
 40
46.5829366100437
 40
46.5829366100437
 10
6147.568302167728
 20
-2595.550176228428
 30
0.0
 41
0.9107590973927763
 10
6147.992853095577
 20
-2596.282080766566
 30
0.0
 41
0.9107590973927763
 10
6148.395380840986
 20
-2597.027150650736
 30
0.0
 41
0.9107590973927763
 10
6148.775244230458
 20
-2597.78440511233
 30
0.0
 41
0.9107590973927763
  0
SPLINE
  5
7E
330
1F
100
AcDbEntity
  8
Make2D$Visibile$Curve
370
    -3
100
AcDbSpline
210
0.0
220
0.0
230
1.0
 70
     8
 71
     3
 72
     8
 73
     4
 74
     0
 42
0.0000000001
 43
0.0000000001
 40
17.36936583115696
 40
17.36936583115696
 40
17.36936583115696
 40
17.36936583115696
 40
19.64297109929307
 40
19.64297109929307
 40
19.64297109929307
 40
19.64297109929307
 10
6143.859183479703
 20
-2600.250459798862
 30
0.0
 10
6143.529747325573
 20
-2599.593669385187
 30
0.0
 10
6143.180195179521
 20
-2598.946450640954
 30
0.0
 10
6142.810905382305
 20
-2598.309761045901
 30
0.0
  0
SPLINE
  5
7F
330
1F
100
AcDbEntity
  8
Make2D$Visibile$Curve
370
    -3
100
AcDbSpline
210
0.0
220
0.0
230
1.0
 70
    12
 71
     3
 72
     8
 73
     4
 74
     0
 42
0.0000000001
 43
0.0000000001
 40
38.97396223127174
 40
38.97396223127174
 40
38.97396223127174
 40
38.97396223127174
 40
41.56366426415504
 40
41.56366426415504
 40
41.56366426415504
 40
41.56366426415504
 10
6148.775243773252
 20
-2597.784405339221
 30
0.0
 41
0.9107590973927762
 10
6149.159578831685
 20
-2598.55057403493
 30
0.0
 41
0.9107590973927762
 10
6149.516183191486
 20
-2599.331651022945
 30
0.0
 41
0.9107590973927762
 10
6149.844108154939
 20
-2600.126185131395
 30
0.0
 41
0.9107590973927762
  0
SPLINE
  5
80
330
1F
100
AcDbEntity
  8
Make2D$Visibile$Curve
370
    -3
100
AcDbSpline
210
0.0
220
0.0
230
1.0
 70
     8
 71
     3
 72
     8
 73
     4
 74
     0
 42
0.0000000001
 43
0.0000000001
 40
11.86319352924068
 40
11.86319352924068
 40
11.86319352924068
 40
11.86319352924068
 40
14.10301077263113
 40
14.10301077263113
 40
14.10301077263113
 40
14.10301077263113
 10
6144.760109105328
 20
-2602.224490406695
 30
0.0
 10
6144.484205589163
 20
-2601.555967595953
 30
0.0
 10
6144.183709287293
 20
-2600.897496979027
 30
0.0
 10
6143.859168880735
 20
-2600.250467121485
 30
0.0
  0
SPLINE
  5
81
330
1F
100
AcDbEntity
  8
Make2D$Visibile$Curve
370
    -3
100
AcDbSpline
210
0.0
220
0.0
230
1.0
 70
    12
 71
     3
 72
    11
 73
     7
 74
     0
 42
0.0000000001
 43
0.0000000001
 40
40.16078699771944
 40
40.16078699771944
 40
40.16078699771944
 40
40.16078699771944
 40
40.65237750731352
 40
40.65237750731352
 40
40.65237750731352
 40
43.37299393576694
 40
43.37299393576694
 40
43.37299393576694
 40
43.37299393576694
 10
6149.844108145522
 20
-2600.126185134834
 30
0.0
 41
0.9107590973927764
 10
6149.90635654239
 20
-2600.277007670523
 30
0.0
 41
0.9107590973927764
 10
6149.967535419026
 20
-2600.428332052986
 30
0.0
 41
0.9107590973927764
 10
6150.027637824994
 20
-2600.580147650514
 30
0.0
 41
0.9107590973927764
 10
6150.360557508855
 20
-2601.421085711475
 30
0.0
 41
0.9107590973927764
 10
6150.659108869154
 20
-2602.273713804631
 30
0.0
 41
0.9107590973927764
 10
6150.922899014261
 20
-2603.135908205301
 30
0.0
 41
0.9107590973927764
  0
SPLINE
  5
82
330
1F
100
AcDbEntity
  8
Make2D$Visibile$Curve
370
    -3
100
AcDbSpline
210
0.0
220
0.0
230
1.0
 70
     8
 71
     3
 72
     8
 73
     4
 74
     0
 42
0.0000000001
 43
0.0000000001
 40
8.62354412693217
 40
8.62354412693217
 40
8.62354412693217
 40
8.62354412693217
 40
11.3881783839746
 40
11.3881783839746
 40
11.3881783839746
 40
11.3881783839746
 10
6145.66355079453
 20
-2604.745015726902
 30
0.0
 10
6145.402180535554
 20
-2603.890776121392
 30
0.0
 10
6145.100660001926
 20
-2603.049656519259
 30
0.0
 10
6144.760108863399
 20
-2602.224490506541
 30
0.0
  0
SPLINE
  5
83
330
1F
100
AcDbEntity
  8
Make2D$Visibile$Curve
370
    -3
100
AcDbSpline
210
0.0
220
0.0
230
1.0
 70
    12
 71
     3
 72
     8
 73
     4
 74
     0
 42
0.0000000001
 43
0.0000000001
 40
44.72764456755267
 40
44.72764456755267
 40
44.72764456755267
 40
44.72764456755267
 40
47.93919453678799
 40
47.93919453678799
 40
47.93919453678799
 40
47.93919453678799
 10
6150.922899083543
 20
-2603.135908184412
 30
0.0
 41
0.9107590973927762
 10
6151.234289996083
 20
-2604.153685027891
 30
0.0
 41
0.9107590973927762
 10
6151.498709556882
 20
-2605.18438841588
 30
0.0
 41
0.9107590973927762
 10
6151.715550048606
 20
-2606.224733411238
 30
0.0
 41
0.9107590973927762
  0
SPLINE
  5
84
330
1F
100
AcDbEntity
  8
Make2D$Visibile$Curve
370
    -3
100
AcDbSpline
210
0.0
220
0.0
230
1.0
 70
     8
 71
     3
 72
     8
 73
     4
 74
     0
 42
0.0000000001
 43
0.0000000001
 40
6.176386503886185
 40
6.176386503886185
 40
6.176386503886185
 40
6.176386503886185
 40
8.945154038757208
 40
8.945154038757208
 40
8.945154038757208
 40
8.945154038757208
 10
6146.331321095428
 20
-2607.346978991978
 30
0.0
 10
6146.148250461286
 20
-2606.468735293506
 30
0.0
 10
6145.925311993779
 20
-2605.600532412592
 30
0.0
 10
6145.663550972102
 20
-2604.745015672571
 30
0.0
  0
SPLINE
  5
85
330
1F
100
AcDbEntity
  8
Make2D$Visibile$Curve
370
    -3
100
AcDbSpline
210
0.0
220
0.0
230
1.0
 70
    12
 71
     3
 72
     8
 73
     4
 74
     0
 42
0.0000000001
 43
0.0000000001
 40
50.33300832814513
 40
50.33300832814513
 40
50.33300832814513
 40
50.33300832814513
 40
52.39208471606496
 40
52.39208471606496
 40
52.39208471606496
 40
52.39208471606496
 10
6151.7155500654
 20
-2606.224733408063
 30
0.0
 41
0.9107590973927757
 10
6151.854576747433
 20
-2606.89174772691
 30
0.0
 41
0.9107590973927757
 10
6151.974975296277
 20
-2607.562536923028
 30
0.0
 41
0.9107590973927758
 10
6152.076600416945
 20
-2608.236315623216
 30
0.0
 41
0.9107590973927759
  0
SPLINE
  5
86
330
1F
100
AcDbEntity
  8
Make2D$Visibile$Curve
370
    -3
100
AcDbSpline
210
0.0
220
0.0
230
1.0
 70
     8
 71
     3
 72
     8
 73
     4
 74
     0
 42
0.0000000001
 43
0.0000000001
 40
4.75768622276461
 40
4.75768622276461
 40
4.75768622276461
 40
4.75768622276461
 40
6.542507320823225
 40
6.542507320823225
 40
6.542507320823225
 40
6.542507320823225
 10
6146.638192359308
 20
-2609.056581134719
 30
0.0
 10
6146.551709165959
 20
-2608.483195619831
 30
0.0
 10
6146.449336703299
 20
-2607.913117496592
 30
0.0
 10
6146.331324509728
 20
-2607.346978280264
 30
0.0
  0
SPLINE
  5
87
330
1F
100
AcDbEntity
  8
Make2D$Visibile$Curve
370
    -3
100
AcDbSpline
210
0.0
220
0.0
230
1.0
 70
    12
 71
     3
 72
     8
 73
     4
 74
     0
 42
0.0000000001
 43
0.0000000001
 40
57.49040867206172
 40
57.49040867206172
 40
57.49040867206172
 40
57.49040867206172
 40
59.53402312968063
 40
59.53402312968063
 40
59.53402312968063
 40
59.53402312968063
 10
6152.076600428708
 20
-2608.236315621868
 30
0.0
 41
0.9107590973927762
 10
6152.177462430253
 20
-2608.905034811195
 30
0.0
 41
0.9107590973927762
 10
6152.261471832874
 20
-2609.576437629359
 30
0.0
 41
0.9107590973927762
 10
6152.3285106668
 20
-2610.24988640609
 30
0.0
 41
0.9107590973927762
  0
SPLINE
  5
88
330
1F
100
AcDbEntity
  8
Make2D$Visibile$Curve
370
    -3
100
AcDbSpline
210
0.0
220
0.0
230
1.0
 70
     8
 71
     3
 72
     8
 73
     4
 74
     0
 42
0.0000000001
 43
0.0000000001
 40
3.507799018940379
 40
3.507799018940379
 40
3.507799018940379
 40
3.507799018940379
 40
5.302440029108779
 40
5.302440029108779
 40
5.302440029108779
 40
5.302440029108779
 10
6146.855631746511
 20
-2610.794684622378
 30
0.0
 10
6146.797705311498
 20
-2610.212660562235
 30
0.0
 10
6146.7251604697
 20
-2609.633119989215
 30
0.0
 10
6146.638201454225
 20
-2609.05657976294
 30
0.0
  0
SPLINE
  5
89
330
1F
100
AcDbEntity
  8
Make2D$Visibile$Curve
370
    -3
100
AcDbSpline
210
0.0
220
0.0
230
1.0
 70
    12
 71
     3
 72
     8
 73
     4
 74
     0
 42
0.0000000001
 43
0.0000000001
 40
63.13190543756481
 40
63.13190543756481
 40
63.13190543756481
 40
63.13190543756481
 40
65.41014875620387
 40
65.41014875620387
 40
65.41014875620387
 40
65.41014875620387
 10
6152.328510740767
 20
-2610.249886398891
 30
0.0
 41
0.9107590973927763
 10
6152.403246351927
 20
-2611.00065431908
 30
0.0
 41
0.9107590973927763
 10
6152.458092868726
 20
-2611.753820053025
 30
0.0
 41
0.9107590973927763
 10
6152.492904943917
 20
-2612.508597945045
 30
0.0
 41
0.9107590973927763
  0
SPLINE
  5
8A
330
1F
100
AcDbEntity
  8
Make2D$Visibile$Curve
370
    -3
100
AcDbSpline
210
0.0
220
0.0
230
1.0
 70
     8
 71
     3
 72
     8
 73
     4
 74
     0
 42
0.0000000001
 43
0.0000000001
 40
1.73970075094231
 40
1.73970075094231
 40
1.73970075094231
 40
1.73970075094231
 40
3.753388012454556
 40
3.753388012454556
 40
3.753388012454556
 40
3.753388012454556
 10
6146.998773525791
 20
-2612.76200315003
 30
0.0
 10
6146.968429758596
 20
-2612.103733146487
 30
0.0
 10
6146.920633532806
 20
-2611.447747557424
 30
0.0
 10
6146.855636843423
 20
-2610.794684115104
 30
0.0
  0
SPLINE
  5
8B
330
1F
100
AcDbEntity
  8
Make2D$Visibile$Curve
370
    -3
100
AcDbSpline
210
0.0
220
0.0
230
1.0
 70
    12
 71
     3
 72
     8
 73
     4
 74
     0
 42
0.0000000001
 43
0.0000000001
 40
74.75783086915082
 40
74.75783086915082
 40
74.75783086915082
 40
74.75783086915082
 40
77.01296337812978
 40
77.01296337812978
 40
77.01296337812978
 40
77.01296337812978
 10
6152.492905117105
 20
-2612.508597937216
 30
0.0
 41
0.9107590973927759
 10
6152.52736405387
 20
-2613.255719259779
 30
0.0
 41
0.9107590973927759
 10
6152.54464748196
 20
-2614.004222684007
 30
0.0
 41
0.9107590973927759
 10
6152.54464748196
 20
-2614.753524865512
 30
0.0
 41
0.9107590973927759
  0
SPLINE
  5
8C
330
1F
100
AcDbEntity
  8
Make2D$Visibile$Curve
370
    -3
100
AcDbSpline
210
0.0
220
0.0
230
1.0
 70
     8
 71
     3
 72
     8
 73
     4
 74
     0
 42
0.0000000001
 43
0.0000000001
 40
0.0
 40
0.0
 40
0.0
 40
0.0
 40
2.025144627197318
 40
2.025144627197318
 40
2.025144627197318
 40
2.025144627197318
 10
6147.044647481961
 20
-2614.753524865512
 30
0.0
 10
6147.044647481961
 20
-2614.088018535447
 30
0.0
 10
6147.029294696034
 20
-2613.424018322411
 30
0.0
 10
6146.99877828056
 20
-2612.762002930853
 30
0.0
  0
SPLINE
  5
8D
330
1F
100
AcDbEntity
  8
Make2D$Visibile$Curve
370
    -3
100
AcDbSpline
210
0.0
220
0.0
230
1.0
 70
    28
 71
     2
 72
     6
 73
     3
 74
     0
 42
0.0000000001
 43
0.0000000001
 40
2.596400934769545
 40
2.596400934769545
 40
2.596400934769545
 40
17.59640093476977
 40
17.59640093476977
 40
17.59640093476977
 10
6152.544647481961
 20
-2614.753524865504
 30
0.0
 41
0.8844057506030862
 10
6152.544647481959
 20
-2622.253524865504
 30
0.0
 41
0.8844057506030862
 10
6152.544647481958
 20
-2629.753524865504
 30
0.0
 41
0.8844057506030862
  0
SPLINE
  5
8E
330
1F
100
AcDbEntity
  8
Make2D$Visibile$Curve
370
    -3
100
AcDbSpline
210
0.0
220
0.0
230
1.0
 70
    28
 71
     2
 72
     6
 73
     3
 74
     0
 42
0.0000000001
 43
0.0000000001
 40
2.596400934764096
 40
2.596400934764096
 40
2.596400934764096
 40
17.59640093476412
 40
17.59640093476412
 40
17.59640093476412
 10
6147.044647481948
 20
-2629.753524865502
 30
0.0
 41
0.8844057506030785
 10
6147.044647481953
 20
-2622.253524865502
 30
0.0
 41
0.8844057506030785
 10
6147.044647481958
 20
-2614.753524865502
 30
0.0
 41
0.8844057506030785
  0
SPLINE
  5
8F
330
1F
100
AcDbEntity
  8
Make2D$Visibile$Curve
370
    -3
100
AcDbSpline
210
0.0
220
0.0
230
1.0
 70
     8
 71
     3
 72
     8
 73
     4
 74
     0
 42
0.0000000001
 43
0.0000000001
 40
3.31572561777546
 40
3.31572561777546
 40
3.31572561777546
 40
3.31572561777546
 40
9.846674645946466
 40
9.846674645946466
 40
9.846674645946466
 40
9.846674645946466
 10
6152.544646861938
 20
-2629.753524865493
 30
0.0
 10
6152.544646321175
 20
-2631.930521258448
 30
0.0
 10
6152.536431987531
 20
-2634.107556421762
 30
0.0
 10
6152.520005096844
 20
-2636.284444416121
 30
0.0
  0
SPLINE
  5
90
330
1F
100
AcDbEntity
  8
Make2D$Visibile$Curve
370
    -3
100
AcDbSpline
210
0.0
220
0.0
230
1.0
 70
     8
 71
     3
 72
     8
 73
     4
 74
     0
 42
0.0000000001
 43
0.0000000001
 40
3.321810810287776
 40
3.321810810287776
 40
3.321810810287776
 40
3.321810810287776
 40
9.811256817083002
 40
9.811256817083002
 40
9.811256817083002
 40
9.811256817083002
 10
6147.020161697069
 20
-2636.242940996547
 30
0.0
 10
6147.036484548241
 20
-2634.079840296085
 30
0.0
 10
6147.044646328529
 20
-2631.916639998469
 30
0.0
 10
6147.044646865851
 20
-2629.753524865499
 30
0.0
  0
SPLINE
  5
91
330
1F
100
AcDbEntity
  8
Make2D$Visibile$Curve
370
    -3
100
AcDbSpline
210
0.0
220
0.0
230
1.0
 70
     8
 71
     3
 72
     8
 73
     4
 74
     0
 42
0.0000000001
 43
0.0000000001
 40
3.343460494567774
 40
3.343460494567774
 40
3.343460494567774
 40
3.343460494567774
 40
9.873340581905664
 40
9.873340581905664
 40
9.873340581905664
 40
9.873340581905664
 10
6152.520005183192
 20
-2636.284444416663
 30
0.0
 10
6152.50357963407
 20
-2638.461021419968
 30
0.0
 10
6152.479366966057
 20
-2640.637574410996
 30
0.0
 10
6152.447369495622
 20
-2642.813936252412
 30
0.0
  0
SPLINE
  5
92
330
1F
100
AcDbEntity
  8
Make2D$Visibile$Curve
370
    -3
100
AcDbSpline
210
0.0
220
0.0
230
1.0
 70
     8
 71
     3
 72
     8
 73
     4
 74
     0
 42
0.0000000001
 43
0.0000000001
 40
3.349058682815715
 40
3.349058682815715
 40
3.349058682815715
 40
3.349058682815715
 40
9.83958539889139
 40
9.83958539889139
 40
9.83958539889139
 40
9.83958539889139
 10
6146.947963851349
 20
-2642.73308130021
 30
0.0
 10
6146.979769100558
 20
-2640.569793708997
 30
0.0
 10
6147.00383554381
 20
-2638.406358227923
 30
0.0
 10
6147.020161782641
 20
-2636.242940997193
 30
0.0
  0
SPLINE
  5
93
330
1F
100
AcDbEntity
  8
Make2D$Visibile$Curve
370
    -3
100
AcDbSpline
210
0.0
220
0.0
230
1.0
 70
     8
 71
     3
 72
     8
 73
     4
 74
     0
 42
0.0000000001
 43
0.0000000001
 40
3.361356079540267
 40
3.361356079540267
 40
3.361356079540267
 40
3.361356079540267
 40
9.867907872824018
 40
9.867907872824018
 40
9.867907872824018
 40
9.867907872824018
 10
6152.447369936673
 20
-2642.813936257494
 30
0.0
 10
6152.41548573106
 20
-2644.982556620963
 30
0.0
 10
6152.379135363005
 20
-2647.151122737712
 30
0.0
 10
6152.338319844498
 20
-2649.319579427146
 30
0.0
  0
SPLINE
  5
94
330
1F
100
AcDbEntity
  8
Make2D$Visibile$Curve
370
    -3
100
AcDbSpline
210
0.0
220
0.0
230
1.0
 70
     8
 71
     3
 72
     8
 73
     4
 74
     0
 42
0.0000000001
 43
0.0000000001
 40
3.364488976738164
 40
3.364488976738164
 40
3.364488976738164
 40
3.364488976738164
 40
9.848387661443212
 40
9.848387661443212
 40
9.848387661443212
 40
9.848387661443212
 10
6146.83929386597
 20
-2649.216074434962
 30
0.0
 10
6146.879967544542
 20
-2647.055153451598
 30
0.0
 10
6146.916191297555
 20
-2644.894137411696
 30
0.0
 10
6146.947964289431
 20
-2642.73308130665
 30
0.0
  0
SPLINE
  5
95
330
1F
100
AcDbEntity
  8
Make2D$Visibile$Curve
370
    -3
100
AcDbSpline
210
0.0
220
0.0
230
1.0
 70
     8
 71
     3
 72
     8
 73
     4
 74
     0
 42
0.0000000001
 43
0.0000000001
 40
3.360243425389107
 40
3.360243425389107
 40
3.360243425389107
 40
3.360243425389107
 40
9.853420620997623
 40
9.853420620997623
 40
9.853420620997623
 40
9.853420620997623
 10
6152.338319950676
 20
-2649.319579426523
 30
0.0
 10
6152.2975880556
 20
-2651.48358865069
 30
0.0
 10
6152.257669204727
 20
-2653.647613556504
 30
0.0
 10
6152.218563431344
 20
-2655.811652311039
 30
0.0
  0
SPLINE
  5
96
330
1F
100
AcDbEntity
  8
Make2D$Visibile$Curve
370
    -3
100
AcDbSpline
210
0.0
220
0.0
230
1.0
 70
     8
 71
     3
 72
     8
 73
     4
 74
     0
 42
0.0000000001
 43
0.0000000001
 40
3.359670280079548
 40
3.359670280079548
 40
3.359670280079548
 40
3.359670280079548
 40
9.85698034385859
 40
9.85698034385859
 40
9.85698034385859
 40
9.85698034385859
 10
6146.719461228092
 20
-2655.71227948693
 30
0.0
 10
6146.758591900497
 20
-2653.546862868103
 30
0.0
 10
6146.798536159832
 20
-2651.381460573271
 30
0.0
 10
6146.83929397174
 20
-2649.216074436509
 30
0.0
  0
SPLINE
  5
97
330
1F
100
AcDbEntity
  8
Make2D$Visibile$Curve
370
    -3
100
AcDbSpline
210
0.0
220
0.0
230
1.0
 70
     8
 71
     3
 72
     8
 73
     4
 74
     0
 42
0.0000000001
 43
0.0000000001
 40
2.526030278888121
 40
2.526030278888121
 40
2.526030278888121
 40
2.526030278888121
 40
13.88257509832393
 40
13.88257509832393
 40
13.88257509832393
 40
13.88257509832393
 10
6152.218563441546
 20
-2655.811652311388
 30
0.0
 10
6152.150167613588
 20
-2659.596548209509
 30
0.0
 10
6152.087917192493
 20
-2663.381569701954
 30
0.0
 10
6152.031813110479
 20
-2667.166656911618
 30
0.0
  0
SPLINE
  5
98
330
1F
100
AcDbEntity
  8
Make2D$Visibile$Curve
370
    -3
100
AcDbSpline
210
0.0
220
0.0
230
1.0
 70
     8
 71
     3
 72
     8
 73
     4
 74
     0
 42
0.0000000001
 43
0.0000000001
 40
2.518275854393958
 40
2.518275854393958
 40
2.518275854393958
 40
2.518275854393958
 40
13.89268167111838
 40
13.89268167111838
 40
13.89268167111838
 40
13.89268167111838
 10
6146.532417195259
 20
-2667.085142695233
 30
0.0
 10
6146.588609675523
 20
-2663.294091657719
 30
0.0
 10
6146.650958036255
 20
-2659.503117264957
 30
0.0
 10
6146.719461238325
 20
-2655.712279486484
 30
0.0
  0
SPLINE
  5
99
330
1F
100
AcDbEntity
  8
Make2D$Visibile$Curve
370
    -3
100
AcDbSpline
210
0.0
220
0.0
230
1.0
 70
     8
 71
     3
 72
     8
 73
     4
 74
     0
 42
0.0000000001
 43
0.0000000001
 40
2.508741367280957
 40
2.508741367280957
 40
2.508741367280957
 40
2.508741367280957
 40
13.86512198836312
 40
13.86512198836312
 40
13.86512198836312
 40
13.86512198836312
 10
6152.031813110966
 20
-2667.166656911676
 30
0.0
 10
6151.975709734289
 20
-2670.951700175854
 30
0.0
 10
6151.925864810505
 20
-2674.736851295976
 30
0.0
 10
6151.882279101958
 20
-2678.522048175558
 30
0.0
  0
SPLINE
  5
9A
330
1F
100
AcDbEntity
  8
Make2D$Visibile$Curve
370
    -3
100
AcDbSpline
210
0.0
220
0.0
230
1.0
 70
     8
 71
     3
 72
     8
 73
     4
 74
     0
 42
0.0000000001
 43
0.0000000001
 40
2.500814538627115
 40
2.500814538627115
 40
2.500814538627115
 40
2.500814538627115
 40
13.875383873983
 40
13.875383873983
 40
13.875383873983
 40
13.875383873983
 10
6146.382643688191
 20
-2678.45872112417
 30
0.0
 10
6146.426299334011
 20
-2674.667450548486
 30
0.0
 10
6146.476224128094
 20
-2670.876237007348
 30
0.0
 10
6146.53241719575
 20
-2667.085142695224
 30
0.0
  0
SPLINE
  5
9B
330
1F
100
AcDbEntity
  8
Make2D$Visibile$Curve
370
    -3
100
AcDbSpline
210
0.0
220
0.0
230
1.0
 70
     8
 71
     3
 72
     8
 73
     4
 74
     0
 42
0.0000000001
 43
0.0000000001
 40
1.864736776294763
 40
1.864736776294763
 40
1.864736776294763
 40
1.864736776294763
 40
19.74927181663081
 40
19.74927181663081
 40
19.74927181663081
 40
19.74927181663081
 10
6151.882279096232
 20
-2678.52204817539
 30
0.0
 10
6151.813638306995
 20
-2684.483157723172
 30
0.0
 10
6151.7566887575
 20
-2690.444437341701
 30
0.0
 10
6151.711431640178
 20
-2696.405749439536
 30
0.0
  0
SPLINE
  5
9C
330
1F
100
AcDbEntity
  8
Make2D$Visibile$Curve
370
    -3
100
AcDbSpline
210
0.0
220
0.0
230
1.0
 70
     8
 71
     3
 72
     8
 73
     4
 74
     0
 42
0.0000000001
 43
0.0000000001
 40
1.85281837896623
 40
1.85281837896623
 40
1.85281837896623
 40
1.85281837896623
 40
19.75892773219624
 40
19.75892773219624
 40
19.75892773219624
 40
19.75892773219624
 10
6146.211590130743
 20
-2696.363995744938
 30
0.0
 10
6146.256902000238
 20
-2690.395471636743
 30
0.0
 10
6146.313920330341
 20
-2684.427000844832
 30
0.0
 10
6146.38264368245
 20
-2678.458721124273
 30
0.0
  0
SPLINE
  5
9D
330
1F
100
AcDbEntity
  8
Make2D$Visibile$Curve
370
    -3
100
AcDbSpline
210
0.0
220
0.0
230
1.0
 70
     8
 71
     3
 72
     8
 73
     4
 74
     0
 42
0.0000000001
 43
0.0000000001
 40
1.83989214389847
 40
1.83989214389847
 40
1.83989214389847
 40
1.83989214389847
 40
19.72892954454187
 40
19.72892954454187
 40
19.72892954454187
 40
19.72892954454187
 10
6151.711431635921
 20
-2696.405749439547
 30
0.0
 10
6151.666162969296
 20
-2702.368587684015
 30
0.0
 10
6151.627719899981
 20
-2708.331489837581
 30
0.0
 10
6151.596102705994
 20
-2714.294409018367
 30
0.0
  0
SPLINE
  5
9E
330
1F
100
AcDbEntity
  8
Make2D$Visibile$Curve
370
    -3
100
AcDbSpline
210
0.0
220
0.0
230
1.0
 70
     8
 71
     3
 72
     8
 73
     4
 74
     0
 42
0.0000000001
 43
0.0000000001
 40
1.832919503813887
 40
1.832919503813887
 40
1.832919503813887
 40
1.832919503813887
 40
19.73454861345762
 40
19.73454861345762
 40
19.73454861345762
 40
19.73454861345762
 10
6146.096180018932
 20
-2714.265246776734
 30
0.0
 10
6146.127819505076
 20
-2708.298123354036
 30
0.0
 10
6146.166289649845
 20
-2702.33102403862
 30
0.0
 10
6146.211590126478
 20
-2696.363995745048
 30
0.0
  0
SPLINE
  5
9F
330
1F
100
AcDbEntity
  8
Make2D$Visibile$Curve
370
    -3
100
AcDbSpline
210
0.0
220
0.0
230
1.0
 70
     8
 71
     3
 72
     8
 73
     4
 74
     0
 42
0.0000000001
 43
0.0000000001
 40
1.902587760726698
 40
1.902587760726698
 40
1.902587760726698
 40
1.902587760726698
 40
18.74335901829096
 40
18.74335901829096
 40
18.74335901829096
 40
18.74335901829096
 10
6151.596102705437
 20
-2714.294409018338
 30
0.0
 10
6151.566338191481
 20
-2719.907919268798
 30
0.0
 10
6151.541510505697
 20
-2725.521462381699
 30
0.0
 10
6151.521619752789
 20
-2731.135012305602
 30
0.0
  0
SPLINE
  5
A0
330
1F
100
AcDbEntity
  8
Make2D$Visibile$Curve
370
    -3
100
AcDbSpline
210
0.0
220
0.0
230
1.0
 70
     8
 71
     3
 72
     8
 73
     4
 74
     0
 42
0.0000000001
 43
0.0000000001
 40
1.897328851539371
 40
1.897328851539371
 40
1.897328851539371
 40
1.897328851539371
 40
18.74777416155631
 40
18.74777416155631
 40
18.74777416155631
 40
18.74777416155631
 10
6146.021654279541
 20
-2731.115524024505
 30
0.0
 10
6146.041556472696
 20
-2725.498745444916
 30
0.0
 10
6146.066398427584
 20
-2719.881977673564
 30
0.0
 10
6146.096180018372
 20
-2714.265246776756
 30
0.0
  0
SPLINE
  5
A1
330
1F
100
AcDbEntity
  8
Make2D$Visibile$Curve
370
    -3
100
AcDbSpline
210
0.0
220
0.0
230
1.0
 70
     8
 71
     3
 72
     8
 73
     4
 74
     0
 42
0.0000000001
 43
0.0000000001
 40
1.891584234867525
 40
1.891584234867525
 40
1.891584234867525
 40
1.891584234867525
 40
18.73382385241723
 40
18.73382385241723
 40
18.73382385241723
 40
18.73382385241723
 10
6151.521619752381
 20
-2731.135012305553
 30
0.0
 10
6151.501727252623
 20
-2736.74905632154
 30
0.0
 10
6151.485274977292
 20
-2742.363115775144
 30
0.0
 10
6151.472262959905
 20
-2747.977178017136
 30
0.0
  0
SPLINE
  5
A2
330
1F
100
AcDbEntity
  8
Make2D$Visibile$Curve
370
    -3
100
AcDbSpline
210
0.0
220
0.0
230
1.0
 70
     8
 71
     3
 72
     8
 73
     4
 74
     0
 42
0.0000000001
 43
0.0000000001
 40
1.887915746983313
 40
1.887915746983313
 40
1.887915746983313
 40
1.887915746983313
 40
18.73689605963853
 40
18.73689605963853
 40
18.73689605963853
 40
18.73689605963853
 10
6145.972277732803
 20
-2747.964430403163
 30
0.0
 10
6145.985294962423
 20
-2742.34811933267
 30
0.0
 10
6146.001753824748
 20
-2736.731812988369
 30
0.0
 10
6146.021654279136
 20
-2731.115524024526
 30
0.0
  0
SPLINE
  5
A3
330
1F
100
AcDbEntity
  8
Make2D$Visibile$Curve
370
    -3
100
AcDbSpline
210
0.0
220
0.0
230
1.0
 70
     8
 71
     3
 72
     8
 73
     4
 74
     0
 42
0.0000000001
 43
0.0000000001
 40
1.555527293160724
 40
1.555527293160724
 40
1.555527293160724
 40
1.555527293160724
 40
23.66240631477565
 40
23.66240631477565
 40
23.66240631477565
 40
23.66240631477565
 10
6151.472262959755
 20
-2747.977178017153
 30
0.0
 10
6151.455183572093
 20
-2755.346116694842
 30
0.0
 10
6151.443099554956
 20
-2762.715072273943
 30
0.0
 10
6151.436010935778
 20
-2770.084024435786
 30
0.0
  0
SPLINE
  5
A4
330
1F
100
AcDbEntity
  8
Make2D$Visibile$Curve
370
    -3
100
AcDbSpline
210
0.0
220
0.0
230
1.0
 70
     8
 71
     3
 72
     8
 73
     4
 74
     0
 42
0.0000000001
 43
0.0000000001
 40
1.551156342554703
 40
1.551156342554703
 40
1.551156342554703
 40
1.551156342554703
 40
23.66549222390106
 40
23.66549222390106
 40
23.66549222390106
 40
23.66549222390106
 10
6145.936013480521
 20
-2770.07873367246
 30
0.0
 10
6145.943104493548
 20
-2762.707292994924
 30
0.0
 10
6145.955192590666
 20
-2755.335851796658
 30
0.0
 10
6145.972277732652
 20
-2747.964430403169
 30
0.0
  0
SPLINE
  5
A5
330
1F
100
AcDbEntity
  8
Make2D$Visibile$Curve
370
    -3
100
AcDbSpline
210
0.0
220
0.0
230
1.0
 70
    12
 71
     2
 72
     6
 73
     3
 74
     0
 42
0.0000000001
 43
0.0000000001
 40
1.5465368499609
 40
1.5465368499609
 40
1.5465368499609
 40
23.65450039702401
 40
23.65450039702401
 40
23.65450039702401
 10
6151.436010935626
 20
-2770.084024435804
 30
0.0
 41
0.9978542953379269
 10
6151.425377480471
 20
-2781.138001457225
 30
0.0
 41
0.9978541799309396
 10
6151.425377480468
 20
-2792.191983593248
 30
0.0
 41
0.9978542953741871
  0
SPLINE
  5
A6
330
1F
100
AcDbEntity
  8
Make2D$Visibile$Curve
370
    -3
100
AcDbSpline
210
0.0
220
0.0
230
1.0
 70
    12
 71
     2
 72
     6
 73
     3
 74
     0
 42
0.0000000001
 43
0.0000000001
 40
1.54343357328434
 40
1.54343357328434
 40
1.54343357328434
 40
23.65668788472924
 40
23.65668788472924
 40
23.65668788472924
 10
6145.925377480469
 20
-2792.191983593246
 30
0.0
 41
0.9978542953740533
 10
6145.925377480477
 20
-2781.135356074945
 30
0.0
 41
0.9978541799308055
 10
6145.936013480376
 20
-2770.078733672472
 30
0.0
 41
0.997854295337793
  0
SPLINE
  5
A7
330
1F
100
AcDbEntity
  8
Make2D$Visibile$Curve
370
    -3
100
AcDbSpline
210
0.0
220
0.0
230
1.0
 70
    28
 71
     2
 72
     6
 73
     3
 74
     0
 42
0.0000000001
 43
0.0000000001
 40
1.957301412597335
 40
1.957301412597335
 40
1.957301412597335
 40
10.5663061908634
 40
10.5663061908634
 40
10.5663061908634
 10
6151.425377480705
 20
-2792.191983593251
 30
0.0
 41
0.8844057506029952
 10
6151.425377480705
 20
-2796.496485982384
 30
0.0
 41
0.8844057506029952
 10
6151.425377480705
 20
-2800.800988371517
 30
0.0
 41
0.8844057506029952
  0
SPLINE
  5
A8
330
1F
100
AcDbEntity
  8
Make2D$Visibile$Curve
370
    -3
100
AcDbSpline
210
0.0
220
0.0
230
1.0
 70
    24
 71
     2
 72
     6
 73
     3
 74
     0
 42
0.0000000001
 43
0.0000000001
 40
0.0
 40
0.0
 40
0.0
 40
731.8434515660615
 40
731.8434515660615
 40
731.8434515660615
 10
5557.761137299817
 20
-4473.938331687925
 30
0.0
 10
5923.682863083927
 20
-4473.938331689005
 30
0.0
 10
6289.604588868037
 20
-4473.938331690084
 30
0.0
  0
SPLINE
  5
A9
330
1F
100
AcDbEntity
  8
Make2D$Visibile$Curve
370
    -3
100
AcDbSpline
210
0.0
220
0.0
230
1.0
 70
    28
 71
     2
 72
     8
 73
     5
 74
     0
 42
0.0000000001
 43
0.0000000001
 40
79.28364898898121
 40
79.28364898898121
 40
79.28364898898121
 40
81.12148867621494
 40
81.12148867621494
 40
82.08343283519963
 40
82.08343283519963
 40
82.08343283519963
 10
5571.041940492811
 20
-4460.657528495012
 30
0.0
 41
0.9176299571792208
 10
5571.676339989903
 20
-4460.023128997923
 30
0.0
 41
0.9504233855294575
 10
5572.331185390006
 20
-4459.368283597822
 30
0.0
 41
1.0
 10
5572.672011396647
 20
-4459.027457591185
 30
0.0
 41
0.9735685947657428
 10
5573.009921589553
 20
-4458.689547398282
 30
0.0
 41
0.9519076597082121
  0
SPLINE
  5
AA
330
1F
100
AcDbEntity
  8
Make2D$Visibile$Curve
370
    -3
100
AcDbSpline
210
0.0
220
0.0
230
1.0
 70
     8
 71
     3
 72
     8
 73
     4
 74
     0
 42
0.0000000001
 43
0.0000000001
 40
59.53106633884985
 40
59.53106633884985
 40
59.53106633884985
 40
59.53106633884985
 40
79.28364898898121
 40
79.28364898898121
 40
79.28364898898121
 40
79.28364898898121
 10
5557.761137299864
 20
-4473.938331687876
 30
0.0
 10
5561.621903746976
 20
-4470.034412182619
 30
0.0
 10
5566.091458174858
 20
-4465.607607995284
 30
0.0
 10
5571.04194049281
 20
-4460.657528495012
 30
0.0
  0
SPLINE
  5
AB
330
1F
100
AcDbEntity
  8
Make2D$Visibile$Curve
370
    -3
100
AcDbSpline
210
0.0
220
0.0
230
1.0
 70
    24
 71
     2
 72
     6
 73
     3
 74
     0
 42
0.0000000001
 43
0.0000000001
 40
-665.9051050717496
 40
-665.9051050717496
 40
-665.9051050717496
 40
0.0
 40
0.0
 40
0.0
 10
6256.635415620863
 20
-4440.969158442919
 30
0.0
 10
5923.682863083955
 20
-4440.969158441885
 30
0.0
 10
5590.730310547048
 20
-4440.969158440852
 30
0.0
  0
SPLINE
  5
AC
330
1F
100
AcDbEntity
  8
Make2D$Visibile$Curve
370
    -3
100
AcDbSpline
210
0.0
220
0.0
230
1.0
 70
    28
 71
     2
 72
     6
 73
     3
 74
     0
 42
0.0000000001
 43
0.0000000001
 40
353.8695146360313
 40
353.8695146360313
 40
353.8695146360313
 40
1088.556802228509
 40
1088.556802228509
 40
1088.556802228509
 10
6291.026506881942
 20
-4475.360249703987
 30
0.0
 41
1.0
 10
5923.682863085703
 20
-4475.360249703987
 30
0.0
 41
1.0
 10
5556.339219289463
 20
-4475.360249703987
 30
0.0
 41
1.0
  0
SPLINE
  5
AD
330
1F
100
AcDbEntity
  8
Make2D$Visibile$Curve
370
    -3
100
AcDbSpline
210
0.0
220
0.0
230
1.0
 70
    28
 71
     2
 72
     8
 73
     5
 74
     0
 42
0.0000000001
 43
0.0000000001
 40
0.0
 40
0.0
 40
0.0
 40
15.32536830164657
 40
15.32536830164657
 40
30.65073660329316
 40
30.65073660329316
 40
30.65073660329316
 10
6211.795323262358
 20
-2555.357641373262
 30
0.0
 41
0.8535533909026438
 10
6211.795323262356
 20
-2555.357641373262
 30
0.0
 41
0.8535601215800142
 10
6206.377090488143
 20
-2555.357641373261
 30
0.0
 41
1.0
 10
6200.958857713928
 20
-2555.357641373261
 30
0.0
 41
0.8535601215800138
 10
6193.296027685669
 20
-2555.357641373262
 30
0.0
 41
0.8535533909026436
  0
SPLINE
  5
AE
330
1F
100
AcDbEntity
  8
Make2D$Visibile$Curve
370
    -3
100
AcDbSpline
210
0.0
220
0.0
230
1.0
 70
    28
 71
     2
 72
     8
 73
     5
 74
     0
 42
0.0000000001
 43
0.0000000001
 40
0.0
 40
0.0
 40
0.0
 40
15.32536830164657
 40
15.32536830164657
 40
30.65073660329316
 40
30.65073660329316
 40
30.65073660329316
 10
5834.994771152586
 20
-2555.357641373262
 30
0.0
 41
0.8535533909026436
 10
5827.331941124326
 20
-2555.357641373262
 30
0.0
 41
0.8535601215800139
 10
5821.913708350114
 20
-2555.357641373261
 30
0.0
 41
1.0
 10
5816.495475575898
 20
-2555.357641373261
 30
0.0
 41
0.8535601215800138
 10
5816.495475575898
 20
-2555.357641373262
 30
0.0
 41
0.8535533909026436
  0
SPLINE
  5
AF
330
1F
100
AcDbEntity
  8
Make2D$Visibile$Curve
370
    -3
100
AcDbSpline
210
0.0
220
0.0
230
1.0
 70
    24
 71
     2
 72
     6
 73
     3
 74
     0
 42
0.0000000001
 43
0.0000000001
 40
0.0
 40
0.0
 40
0.0
 40
359.1218867267
 40
359.1218867267
 40
359.1218867267
 10
6193.706342782479
 20
-2506.357641373261
 30
0.0
 10
6014.145399419129
 20
-2506.357641373261
 30
0.0
 10
5834.584456055779
 20
-2506.357641373261
 30
0.0
  0
SPLINE
  5
B0
330
1F
100
AcDbEntity
  8
Make2D$Visibile$Curve
370
    -3
100
AcDbSpline
210
0.0
220
0.0
230
1.0
 70
    12
 71
     2
 72
     6
 73
     3
 74
     0
 42
0.0000000001
 43
0.0000000001
 40
0.0
 40
0.0
 40
0.0
 40
3.124139361069496
 40
3.124139361069496
 40
3.124139361069496
 10
6211.795323262358
 20
-2555.357641373261
 30
0.0
 41
1.0
 10
6213.777945683548
 20
-2555.357641373261
 30
0.0
 41
0.7101853756233036
 10
6213.795247108485
 20
-2553.375094444259
 30
0.0
 41
1.0
  0
SPLINE
  5
B1
330
1F
100
AcDbEntity
  8
Make2D$Visibile$Curve
370
    -3
100
AcDbSpline
210
0.0
220
0.0
230
1.0
 70
    12
 71
     2
 72
     6
 73
     3
 74
     0
 42
0.0000000001
 43
0.0000000001
 40
0.0
 40
0.0
 40
0.0
 40
3.124139361069496
 40
3.124139361069496
 40
3.124139361069496
 10
5814.495551729772
 20
-2553.375094444259
 30
0.0
 41
1.0
 10
5814.512853154709
 20
-2555.357641373262
 30
0.0
 41
0.7101853756232539
 10
5816.4954755759
 20
-2555.357641373261
 30
0.0
 41
1.0
  0
SPLINE
  5
B2
330
1F
100
AcDbEntity
  8
Make2D$Visibile$Curve
370
    -3
100
AcDbSpline
210
0.0
220
0.0
230
1.0
 70
    28
 71
     2
 72
     8
 73
     5
 74
     0
 42
0.0000000001
 43
0.0000000001
 40
599.2586494288724
 40
599.2586494288724
 40
599.2586494288724
 40
616.2408143036699
 40
616.2408143036699
 40
633.2229791784677
 40
633.2229791784677
 40
633.2229791784677
 10
6214.205562205293
 20
-2506.357641373261
 30
0.0
 41
0.8535533909026436
 10
6214.205562205293
 20
-2506.357641373262
 30
0.0
 41
0.853560121580014
 10
6208.201574536569
 20
-2506.357641373261
 30
0.0
 41
1.0
 10
6202.197586867845
 20
-2506.357641373261
 30
0.0
 41
0.8535601215800124
 10
6193.706342782478
 20
-2506.357641373261
 30
0.0
 41
0.8535533909026437
  0
SPLINE
  5
B3
330
1F
100
AcDbEntity
  8
Make2D$Visibile$Curve
370
    -3
100
AcDbSpline
210
0.0
220
0.0
230
1.0
 70
    28
 71
     2
 72
     8
 73
     5
 74
     0
 42
0.0000000001
 43
0.0000000001
 40
992.3448659051676
 40
992.3448659051676
 40
992.3448659051676
 40
1009.327030779965
 40
1009.327030779965
 40
1026.309195654763
 40
1026.309195654763
 40
1026.309195654763
 10
5834.584456055778
 20
-2506.357641373261
 30
0.0
 41
0.8535533909026436
 10
5826.09321197041
 20
-2506.357641373261
 30
0.0
 41
0.8535601215800128
 10
5820.089224301687
 20
-2506.357641373261
 30
0.0
 41
1.0
 10
5814.085236632962
 20
-2506.357641373261
 30
0.0
 41
0.8535601215800137
 10
5814.085236632962
 20
-2506.357641373261
 30
0.0
 41
0.8535533909026436
  0
SPLINE
  5
B4
330
1F
100
AcDbEntity
  8
Make2D$Visibile$Curve
370
    -3
100
AcDbSpline
210
0.0
220
0.0
230
1.0
 70
    24
 71
     2
 72
     6
 73
     3
 74
     0
 42
0.0000000001
 43
0.0000000001
 40
-47.02103370025732
 40
-47.02103370025732
 40
-47.02103370025732
 40
0.0
 40
0.0
 40
0.0
 10
6214.205562205295
 20
-2506.357641373261
 30
0.0
 10
6214.00040465689
 20
-2529.86636790876
 30
0.0
 10
6213.795247108485
 20
-2553.375094444259
 30
0.0
  0
SPLINE
  5
B5
330
1F
100
AcDbEntity
  8
Make2D$Visibile$Curve
370
    -3
100
AcDbSpline
210
0.0
220
0.0
230
1.0
 70
    24
 71
     2
 72
     6
 73
     3
 74
     0
 42
0.0000000001
 43
0.0000000001
 40
-47.02103370025732
 40
-47.02103370025732
 40
-47.02103370025732
 40
0.0
 40
0.0
 40
0.0
 10
5814.495551729771
 20
-2553.375094444259
 30
0.0
 10
5814.290394181367
 20
-2529.86636790876
 30
0.0
 10
5814.085236632963
 20
-2506.357641373261
 30
0.0
  0
SPLINE
  5
B6
330
1F
100
AcDbEntity
  8
Make2D$Visibile$Curve
370
    -3
100
AcDbSpline
210
0.0
220
0.0
230
1.0
 70
    28
 71
     2
 72
     8
 73
     5
 74
     0
 42
0.0000000001
 43
0.0000000001
 40
79.28364898898121
 40
79.28364898898121
 40
79.28364898898121
 40
81.12148867621494
 40
81.12148867621494
 40
82.08343283519963
 40
82.08343283519963
 40
82.08343283519963
 10
5571.041940492811
 20
-3020.062970907245
 30
0.0
 41
0.9176299571792208
 10
5571.676339989903
 20
-3020.697370404335
 30
0.0
 41
0.9504233855294575
 10
5572.331185390006
 20
-3021.352215804435
 30
0.0
 41
1.0
 10
5572.672011396647
 20
-3021.693041811073
 30
0.0
 41
0.9735685947657428
 10
5573.009921589553
 20
-3022.030952003977
 30
0.0
 41
0.9519076597082121
  0
SPLINE
  5
B7
330
1F
100
AcDbEntity
  8
Make2D$Visibile$Curve
370
    -3
100
AcDbSpline
210
0.0
220
0.0
230
1.0
 70
    28
 71
     2
 72
     6
 73
     3
 74
     0
 42
0.0000000001
 43
0.0000000001
 40
105.8155296888498
 40
105.8155296888498
 40
105.8155296888498
 40
106.9771622342258
 40
106.9771622342258
 40
106.9771622342258
 10
5589.886977361371
 20
-3038.90800777569
 30
0.0
 41
1.0
 10
5590.364478739182
 20
-3039.385509153497
 30
0.0
 41
0.7480427112823684
 10
5590.406378463546
 20
-3039.42740887786
 30
0.0
 41
0.9666826813460645
  0
SPLINE
  5
B8
330
1F
100
AcDbEntity
  8
Make2D$Visibile$Curve
370
    -3
100
AcDbSpline
210
0.0
220
0.0
230
1.0
 70
    24
 71
     2
 72
     6
 73
     3
 74
     0
 42
0.0000000001
 43
0.0000000001
 40
-666.5529692387948
 40
-666.5529692387948
 40
-666.5529692387948
 40
0.0
 40
0.0
 40
0.0
 10
6256.959347704375
 20
-3039.427408875825
 30
0.0
 10
5923.682863083961
 20
-3039.427408876843
 30
0.0
 10
5590.406378463546
 20
-3039.427408877861
 30
0.0
  0
SPLINE
  5
B9
330
1F
100
AcDbEntity
  8
Make2D$Visibile$Curve
370
    -3
100
AcDbSpline
210
0.0
220
0.0
230
1.0
 70
    24
 71
     3
 72
    10
 73
     6
 74
     0
 42
0.0000000001
 43
0.0000000001
 40
0.0
 40
0.0
 40
0.0
 40
0.0
 40
1.723599080539327
 40
1.723599080539327
 40
3.490591248578049
 40
3.490591248578049
 40
3.490591248578049
 40
3.490591248578049
 10
6289.603682348828
 20
-3006.783074231383
 30
0.0
 10
6289.970109820738
 20
-3006.416646759473
 30
0.0
 10
6290.317652642266
 20
-3006.069103937945
 30
0.0
 10
6290.852083533907
 20
-3005.534673046306
 30
0.0
 10
6291.026506881942
 20
-3005.36024969827
 30
0.0
 10
6291.026506881942
 20
-3005.360249698269
 30
0.0
  0
SPLINE
  5
BA
330
1F
100
AcDbEntity
  8
Make2D$Visibile$Curve
370
    -3
100
AcDbSpline
210
0.0
220
0.0
230
1.0
 70
    28
 71
     2
 72
     6
 73
     3
 74
     0
 42
0.0000000001
 43
0.0000000001
 40
55.66433319437041
 40
55.66433319437041
 40
55.66433319437041
 40
59.53106633884985
 40
59.53106633884985
 40
59.53106633884985
 10
5556.339219286604
 20
-3005.360249701129
 30
0.0
 41
1.0
 10
5556.339219286604
 20
-3005.360249701129
 30
0.0
 41
0.8124502160555558
 10
5557.761137299865
 20
-3006.782167714381
 30
0.0
 41
0.8650898199030568
  0
SPLINE
  5
BB
330
1F
100
AcDbEntity
  8
Make2D$Visibile$Curve
370
    -3
100
AcDbSpline
210
0.0
220
0.0
230
1.0
 70
    28
 71
     2
 72
     6
 73
     3
 74
     0
 42
0.0000000001
 43
0.0000000001
 40
68.24631384483737
 40
68.24631384483737
 40
68.24631384483737
 40
526.4030704806257
 40
526.4030704806257
 40
526.4030704806257
 10
5691.959852098592
 20
-3005.36024969827
 30
0.0
 41
1.0
 10
5691.959852096623
 20
-2776.281871380376
 30
0.0
 41
1.0
 10
5691.959852094654
 20
-2547.203493062481
 30
0.0
 41
1.0
  0
SPLINE
  5
BC
330
1F
100
AcDbEntity
  8
Make2D$Visibile$Curve
370
    -3
100
AcDbSpline
210
0.0
220
0.0
230
1.0
 70
    28
 71
     2
 72
     6
 73
     3
 74
     0
 42
0.0000000001
 43
0.0000000001
 40
54.0812301157205
 40
54.0812301157205
 40
54.0812301157205
 40
504.0838384407282
 40
504.0838384407282
 40
504.0838384407282
 10
6154.631165360531
 20
-3005.360249698269
 30
0.0
 41
1.0
 10
6154.63116536053
 20
-2780.358945535765
 30
0.0
 41
1.0
 10
6154.631165360529
 20
-2555.357641373261
 30
0.0
 41
1.0
  0
SPLINE
  5
BD
330
1F
100
AcDbEntity
  8
Make2D$Visibile$Curve
370
    -3
100
AcDbSpline
210
0.0
220
0.0
230
1.0
 70
    28
 71
     2
 72
     6
 73
     3
 74
     0
 42
0.0000000001
 43
0.0000000001
 40
70.92391368867331
 40
70.92391368867331
 40
70.92391368867331
 40
520.926522013681
 40
520.926522013681
 40
520.926522013681
 10
6155.43116536053
 20
-2555.357641373262
 30
0.0
 41
1.0
 10
6155.43116536053
 20
-2780.358945535765
 30
0.0
 41
1.0
 10
6155.43116536053
 20
-3005.360249698269
 30
0.0
 41
1.0
  0
SPLINE
  5
BE
330
1F
100
AcDbEntity
  8
Make2D$Visibile$Curve
370
    -3
100
AcDbSpline
210
0.0
220
0.0
230
1.0
 70
    24
 71
     2
 72
     6
 73
     3
 74
     0
 42
0.0000000001
 43
0.0000000001
 40
0.0
 40
0.0
 40
0.0
 40
572.4123606501744
 40
572.4123606501744
 40
572.4123606501744
 10
5557.761137299817
 20
-3006.782167714333
 30
0.0
 10
5843.967317625749
 20
-3006.782167713488
 30
0.0
 10
6130.173497951681
 20
-3006.782167712643
 30
0.0
  0
SPLINE
  5
BF
330
1F
100
AcDbEntity
  8
Make2D$Visibile$Curve
370
    -3
100
AcDbSpline
210
0.0
220
0.0
230
1.0
 70
    24
 71
     3
 72
     8
 73
     4
 74
     0
 42
0.0000000001
 43
0.0000000001
 40
122.6287674854782
 40
122.6287674854782
 40
122.6287674854782
 40
122.6287674854782
 40
123.704974398867
 40
123.704974398867
 40
123.704974398867
 40
123.704974398867
 10
6256.959941370799
 20
-3039.426815211851
 30
0.0
 10
6256.990266258045
 20
-3039.396490324606
 30
0.0
 10
6257.281254041497
 20
-3039.105502541152
 30
0.0
 10
6257.479342472971
 20
-3038.907414109677
 30
0.0
  0
SPLINE
  5
C0
330
1F
100
AcDbEntity
  8
Make2D$Visibile$Curve
370
    -3
100
AcDbSpline
210
0.0
220
0.0
230
1.0
 70
    24
 71
     2
 72
     6
 73
     3
 74
     0
 42
0.0000000001
 43
0.0000000001
 40
0.0
 40
0.0
 40
0.0
 40
1467.156757639798
 40
1467.156757639798
 40
1467.156757639798
 10
6289.60518253433
 20
-3006.781574048126
 30
0.0
 10
6289.604406128832
 20
-3740.359467936255
 30
0.0
 10
6289.603629723334
 20
-4473.937361824385
 30
0.0
  0
SPLINE
  5
C1
330
1F
100
AcDbEntity
  8
Make2D$Visibile$Curve
370
    -3
100
AcDbSpline
210
0.0
220
0.0
230
1.0
 70
    24
 71
     3
 72
     8
 73
     4
 74
     0
 42
0.0000000001
 43
0.0000000001
 40
150.4741043166794
 40
150.4741043166794
 40
150.4741043166794
 40
150.4741043166794
 40
170.2277512668168
 40
170.2277512668168
 40
170.2277512668168
 40
170.2277512668168
 10
6276.322981027038
 20
-3020.063775555498
 30
0.0
 10
6280.872319125717
 20
-3015.514437456791
 30
0.0
 10
6285.39088500012
 20
-3010.99587158236
 30
0.0
 10
6289.603984481771
 20
-3006.782772100685
 30
0.0
  0
SPLINE
  5
C2
330
1F
100
AcDbEntity
  8
Make2D$Visibile$Curve
370
    -3
100
AcDbSpline
210
0.0
220
0.0
230
1.0
 70
    24
 71
     2
 72
     6
 73
     3
 74
     0
 42
0.0000000001
 43
0.0000000001
 40
-1401.218166176234
 40
-1401.218166176234
 40
-1401.218166176234
 40
0.0
 40
0.0
 40
0.0
 10
6256.635170651599
 20
-4440.968913471587
 30
0.0
 10
6256.635589969449
 20
-3740.35983038347
 30
0.0
 10
6256.636009287299
 20
-3039.750747295353
 30
0.0
  0
SPLINE
  5
C3
330
1F
100
AcDbEntity
  8
Make2D$Visibile$Curve
370
    -3
100
AcDbSpline
210
0.0
220
0.0
230
1.0
 70
    28
 71
     2
 72
     6
 73
     3
 74
     0
 42
0.0000000001
 43
0.0000000001
 40
106.9771622342258
 40
106.9771622342258
 40
106.9771622342258
 40
110.7079544776843
 40
110.7079544776843
 40
110.7079544776843
 10
6256.959088922131
 20
-4441.29283174215
 30
0.0
 41
0.9666826813460645
 10
6256.794386057961
 20
-4441.128128877964
 30
0.0
 41
0.9833413406730322
 10
6256.635170651599
 20
-4440.968913471587
 30
0.0
 41
1.0
  0
SPLINE
  5
C4
330
1F
100
AcDbEntity
  8
Make2D$Visibile$Curve
370
    -3
100
AcDbSpline
210
0.0
220
0.0
230
1.0
 70
    28
 71
     2
 72
     6
 73
     3
 74
     0
 42
0.0000000001
 43
0.0000000001
 40
105.8155296888498
 40
105.8155296888498
 40
105.8155296888498
 40
106.9771622342258
 40
106.9771622342258
 40
106.9771622342258
 10
6257.478748806551
 20
-4441.812491626568
 30
0.0
 41
1.0
 10
6257.001082933218
 20
-4441.334825753236
 30
0.0
 41
0.7480427112823684
 10
6256.959088922131
 20
-4441.29283174215
 30
0.0
 41
0.9666826813460645
  0
SPLINE
  5
C5
330
1F
100
AcDbEntity
  8
Make2D$Visibile$Curve
370
    -3
100
AcDbSpline
210
0.0
220
0.0
230
1.0
 70
    24
 71
     2
 72
     8
 73
     5
 74
     0
 42
0.0000000001
 43
0.0000000001
 40
82.08343283519963
 40
82.08343283519963
 40
82.08343283519963
 40
83.28853347329219
 40
83.28853347329219
 40
105.8155296888498
 40
105.8155296888498
 40
105.8155296888498
 10
6274.355804578369
 20
-4458.689547398281
 30
0.0
 10
6273.931571438798
 20
-4458.265314258712
 30
0.0
 10
6273.507338299226
 20
-4457.841081119143
 30
0.0
 10
6265.493043552889
 20
-4449.826786372855
 30
0.0
 10
6257.478748806551
 20
-4441.812491626568
 30
0.0
  0
SPLINE
  5
C6
330
1F
100
AcDbEntity
  8
Make2D$Visibile$Curve
370
    -3
100
AcDbSpline
210
0.0
220
0.0
230
1.0
 70
     8
 71
     3
 72
     8
 73
     4
 74
     0
 42
0.0000000001
 43
0.0000000001
 40
59.53106633884985
 40
59.53106633884985
 40
59.53106633884985
 40
59.53106633884985
 40
79.28364898898121
 40
79.28364898898121
 40
79.28364898898121
 40
79.28364898898121
 10
6289.605164274572
 20
-4473.938907094393
 30
0.0
 10
6285.744222811659
 20
-4470.034812573331
 30
0.0
 10
6281.274474799348
 20
-4465.60781480157
 30
0.0
 10
6276.323785675112
 20
-4460.657528495012
 30
0.0
  0
SPLINE
  5
C7
330
1F
100
AcDbEntity
  8
Make2D$Visibile$Curve
370
    -3
100
AcDbSpline
210
0.0
220
0.0
230
1.0
 70
    24
 71
     3
 72
    11
 73
     7
 74
     0
 42
0.0000000001
 43
0.0000000001
 40
0.0
 40
0.0
 40
0.0
 40
0.0
 40
1.834058467390153
 40
1.834058467390153
 40
1.834058467390153
 40
2.794984024571598
 40
2.794984024571598
 40
2.794984024571598
 40
2.794984024571598
 10
6276.323785675112
 20
-4460.657528495012
 30
0.0
 10
6275.898706282175
 20
-4460.232449102068
 30
0.0
 10
6275.465765568312
 20
-4459.7995083882
 30
0.0
 10
6275.034653988506
 20
-4459.368396808388
 30
0.0
 10
6274.808325191853
 20
-4459.142068011732
 30
0.0
 10
6274.581750709572
 20
-4458.915493529447
 30
0.0
 10
6274.355804578369
 20
-4458.689547398281
 30
0.0
  0
SPLINE
  5
C8
330
1F
100
AcDbEntity
  8
Make2D$Visibile$Curve
370
    -3
100
AcDbSpline
210
0.0
220
0.0
230
1.0
 70
    24
 71
     2
 72
     6
 73
     3
 74
     0
 42
0.0000000001
 43
0.0000000001
 40
0.0
 40
0.0
 40
0.0
 40
1470.000000000286
 40
1470.000000000286
 40
1470.000000000286
 10
6291.026506881614
 20
-3005.360249700843
 30
0.0
 10
6291.026506881614
 20
-3740.360249700986
 30
0.0
 10
6291.026506881614
 20
-4475.360249701129
 30
0.0
  0
SPLINE
  5
C9
330
1F
100
AcDbEntity
  8
Make2D$Visibile$Curve
370
    -3
100
AcDbSpline
210
0.0
220
0.0
230
1.0
 70
    28
 71
     2
 72
     6
 73
     3
 74
     0
 42
0.0000000001
 43
0.0000000001
 40
55.66492726749691
 40
55.66492726749691
 40
55.66492726749691
 40
59.53106633884985
 40
59.53106633884985
 40
59.53106633884985
 10
6291.026506910353
 20
-4475.36024973016
 30
0.0
 41
0.9999423765120965
 10
6291.026506910351
 20
-4475.360249730161
 30
0.0
 41
0.8124583034442808
 10
6289.605164274575
 20
-4473.938907094391
 30
0.0
 41
0.8650898199030568
  0
SPLINE
  5
CA
330
1F
100
AcDbEntity
  8
Make2D$Visibile$Curve
370
    -3
100
AcDbSpline
210
0.0
220
0.0
230
1.0
 70
    24
 71
     3
 72
    11
 73
     7
 74
     0
 42
0.0000000001
 43
0.0000000001
 40
147.6771375047926
 40
147.6771375047926
 40
147.6771375047926
 40
147.6771375047926
 40
148.638735639893
 40
148.638735639893
 40
148.638735639893
 40
150.4741043166794
 40
150.4741043166794
 40
150.4741043166794
 40
150.4741043166794
 10
6274.356398244686
 20
-3022.03035833786
 30
0.0
 10
6274.581753035191
 20
-3021.805003547354
 30
0.0
 10
6274.808327542546
 20
-3021.578429039999
 30
0.0
 10
6275.03465398852
 20
-3021.352102594022
 30
0.0
 10
6275.465766798948
 20
-3020.920989783592
 30
0.0
 10
6275.898707465086
 20
-3020.488049117452
 30
0.0
 10
6276.322981027038
 20
-3020.063775555498
 30
0.0
  0
SPLINE
  5
CB
330
1F
100
AcDbEntity
  8
Make2D$Visibile$Curve
370
    -3
100
AcDbSpline
210
0.0
220
0.0
230
1.0
 70
    24
 71
     3
 72
     8
 73
     4
 74
     0
 42
0.0000000001
 43
0.0000000001
 40
118.8979752420234
 40
118.8979752420234
 40
118.8979752420234
 40
118.8979752420234
 40
122.6287674854782
 40
122.6287674854782
 40
122.6287674854782
 40
122.6287674854782
 10
6256.636009287299
 20
-3039.750747295353
 30
0.0
 10
6256.743986648466
 20
-3039.642769934186
 30
0.0
 10
6256.851964009634
 20
-3039.534792573018
 30
0.0
 10
6256.959941370799
 20
-3039.426815211851
 30
0.0
  0
SPLINE
  5
CC
330
1F
100
AcDbEntity
  8
Make2D$Visibile$Curve
370
    -3
100
AcDbSpline
210
0.0
220
0.0
230
1.0
 70
    24
 71
     3
 72
    11
 73
     7
 74
     0
 42
0.0000000001
 43
0.0000000001
 40
0.0
 40
0.0
 40
0.0
 40
0.0
 40
22.76706246783718
 40
22.76706246783718
 40
22.76706246783718
 40
23.97216310593054
 40
23.97216310593054
 40
23.97216310593054
 40
23.97216310593054
 10
6257.478748806549
 20
-3038.908007773652
 30
0.0
 10
6262.821611971477
 20
-3033.565144608726
 30
0.0
 10
6268.164475135688
 20
-3028.222281444517
 30
0.0
 10
6273.507338299899
 20
-3022.879418280308
 30
0.0
 10
6273.790160392945
 20
-3022.596596187261
 30
0.0
 10
6274.072982485993
 20
-3022.313774094215
 30
0.0
 10
6274.355804578333
 20
-3022.030952001873
 30
0.0
  0
SPLINE
  5
CD
330
1F
100
AcDbEntity
  8
Make2D$Visibile$Curve
370
    -3
100
AcDbSpline
210
0.0
220
0.0
230
1.0
 70
    24
 71
     2
 72
     6
 73
     3
 74
     0
 42
0.0000000001
 43
0.0000000001
 40
0.0
 40
0.0
 40
0.0
 40
1467.156757639798
 40
1467.156757639798
 40
1467.156757639798
 10
5557.760543633593
 20
-3006.781574048126
 30
0.0
 10
5557.76132003909
 20
-3740.359467936255
 30
0.0
 10
5557.762096444588
 20
-4473.937361824385
 30
0.0
  0
SPLINE
  5
CE
330
1F
100
AcDbEntity
  8
Make2D$Visibile$Curve
370
    -3
100
AcDbSpline
210
0.0
220
0.0
230
1.0
 70
    24
 71
     3
 72
     8
 73
     4
 74
     0
 42
0.0000000001
 43
0.0000000001
 40
150.4741043166794
 40
150.4741043166794
 40
150.4741043166794
 40
150.4741043166794
 40
170.2277512668168
 40
170.2277512668168
 40
170.2277512668168
 40
170.2277512668168
 10
5571.042745140884
 20
-3020.063775555498
 30
0.0
 10
5566.493407042205
 20
-3015.514437456791
 30
0.0
 10
5561.974841167801
 20
-3010.99587158236
 30
0.0
 10
5557.761741686151
 20
-3006.782772100685
 30
0.0
  0
SPLINE
  5
CF
330
1F
100
AcDbEntity
  8
Make2D$Visibile$Curve
370
    -3
100
AcDbSpline
210
0.0
220
0.0
230
1.0
 70
    24
 71
     2
 72
     6
 73
     3
 74
     0
 42
0.0000000001
 43
0.0000000001
 40
-1401.218166176234
 40
-1401.218166176234
 40
-1401.218166176234
 40
0.0
 40
0.0
 40
0.0
 10
5590.730555516323
 20
-4440.968913471587
 30
0.0
 10
5590.730136198473
 20
-3740.35983038347
 30
0.0
 10
5590.729716880623
 20
-3039.750747295353
 30
0.0
  0
SPLINE
  5
D0
330
1F
100
AcDbEntity
  8
Make2D$Visibile$Curve
370
    -3
100
AcDbSpline
210
0.0
220
0.0
230
1.0
 70
    28
 71
     2
 72
     6
 73
     3
 74
     0
 42
0.0000000001
 43
0.0000000001
 40
106.9771622342258
 40
106.9771622342258
 40
106.9771622342258
 40
110.7079544776843
 40
110.7079544776843
 40
110.7079544776843
 10
5590.406637245791
 20
-4441.29283174215
 30
0.0
 41
0.9666826813460645
 10
5590.571340109962
 20
-4441.128128877964
 30
0.0
 41
0.9833413406730322
 10
5590.730555516323
 20
-4440.968913471587
 30
0.0
 41
1.0
  0
SPLINE
  5
D1
330
1F
100
AcDbEntity
  8
Make2D$Visibile$Curve
370
    -3
100
AcDbSpline
210
0.0
220
0.0
230
1.0
 70
    28
 71
     2
 72
     6
 73
     3
 74
     0
 42
0.0000000001
 43
0.0000000001
 40
105.8155296888498
 40
105.8155296888498
 40
105.8155296888498
 40
106.9771622342258
 40
106.9771622342258
 40
106.9771622342258
 10
5589.886977361371
 20
-4441.812491626568
 30
0.0
 41
1.0
 10
5590.364643234706
 20
-4441.334825753236
 30
0.0
 41
0.7480427112823684
 10
5590.406637245791
 20
-4441.29283174215
 30
0.0
 41
0.9666826813460645
  0
SPLINE
  5
D2
330
1F
100
AcDbEntity
  8
Make2D$Visibile$Curve
370
    -3
100
AcDbSpline
210
0.0
220
0.0
230
1.0
 70
    24
 71
     2
 72
     6
 73
     3
 74
     0
 42
0.0000000001
 43
0.0000000001
 40
1922.647489512732
 40
1922.647489512732
 40
1922.647489512732
 40
3392.647489513018
 40
3392.647489513018
 40
3392.647489513018
 10
5556.339219286309
 20
-4475.360249701129
 30
0.0
 10
5556.339219286309
 20
-3740.360249700986
 30
0.0
 10
5556.339219286309
 20
-3005.360249700843
 30
0.0
  0
SPLINE
  5
D3
330
1F
100
AcDbEntity
  8
Make2D$Visibile$Curve
370
    -3
100
AcDbSpline
210
0.0
220
0.0
230
1.0
 70
     8
 71
     3
 72
    14
 73
    10
 74
     0
 42
0.0000000001
 43
0.0000000001
 40
10.90276118456791
 40
10.90276118456791
 40
10.90276118456791
 40
10.90276118456791
 40
13.72308882099558
 40
13.72308882099558
 40
13.72308882099558
 40
15.03951008079629
 40
15.03951008079629
 40
15.03951008079629
 40
16.35212136693698
 40
16.35212136693698
 40
16.35212136693698
 40
16.35212136693698
 10
5686.359852099179
 20
-2512.247008049857
 30
0.0
 10
5686.359852099179
 20
-2512.247008049857
 30
0.0
 10
5686.583698599389
 20
-2513.012913980152
 30
0.0
 10
5686.584056385439
 20
-2513.871665765647
 30
0.0
 10
5686.584235278466
 20
-2514.301041658395
 30
0.0
 10
5686.530456939098
 20
-2514.716063431626
 30
0.0
 10
5686.470992622954
 20
-2515.020584722006
 30
0.0
 10
5686.411528306812
 20
-2515.325106012386
 30
0.0
 10
5686.359916529584
 20
-2515.496743245262
 30
0.0
 10
5686.359852181948
 20
-2515.496841150601
 30
0.0
  0
SPLINE
  5
D4
330
1F
100
AcDbEntity
  8
Make2D$Visibile$Curve
370
    -3
100
AcDbSpline
210
0.0
220
0.0
230
1.0
 70
    28
 71
     2
 72
     6
 73
     3
 74
     0
 42
0.0000000001
 43
0.0000000001
 40
1.296400934759731
 40
1.296400934759731
 40
1.296400934759731
 40
3.296400934759732
 40
3.296400934759732
 40
3.296400934759732
 10
5684.359852099179
 20
-2508.247008049857
 30
0.0
 41
1.0
 10
5684.359852099179
 20
-2507.247008049857
 30
0.0
 41
1.0
 10
5684.359852099179
 20
-2506.247008049857
 30
0.0
 41
1.0
  0
SPLINE
  5
D5
330
1F
100
AcDbEntity
  8
Make2D$Visibile$Curve
370
    -3
100
AcDbSpline
210
0.0
220
0.0
230
1.0
 70
    28
 71
     2
 72
     6
 73
     3
 74
     0
 42
0.0000000001
 43
0.0000000001
 40
1.29640093475962
 40
1.29640093475962
 40
1.29640093475962
 40
3.296400934759615
 40
3.296400934759615
 40
3.296400934759615
 10
5700.359852099179
 20
-2506.247008049857
 30
0.0
 41
1.0
 10
5700.359852099179
 20
-2507.247008049857
 30
0.0
 41
1.0
 10
5700.359852099179
 20
-2508.247008049857
 30
0.0
 41
1.0
  0
SPLINE
  5
D6
330
1F
100
AcDbEntity
  8
Make2D$Visibile$Curve
370
    -3
100
AcDbSpline
210
0.0
220
0.0
230
1.0
 70
    28
 71
     2
 72
     6
 73
     3
 74
     0
 42
0.0000000001
 43
0.0000000001
 40
1.296400934758935
 40
1.296400934758935
 40
1.296400934758935
 40
3.296400934758935
 40
3.296400934758935
 40
3.296400934758935
 10
5686.359852099178
 20
-2537.247008049857
 30
0.0
 41
1.0
 10
5686.359852099178
 20
-2536.247008049857
 30
0.0
 41
1.0
 10
5686.359852099179
 20
-2535.247008049857
 30
0.0
 41
1.0
  0
SPLINE
  5
D7
330
1F
100
AcDbEntity
  8
Make2D$Visibile$Curve
370
    -3
100
AcDbSpline
210
0.0
220
0.0
230
1.0
 70
    28
 71
     2
 72
     6
 73
     3
 74
     0
 42
0.0000000001
 43
0.0000000001
 40
1.29640093476053
 40
1.29640093476053
 40
1.29640093476053
 40
3.296400934760411
 40
3.296400934760411
 40
3.296400934760411
 10
5698.359852099179
 20
-2535.247008049857
 30
0.0
 41
1.0
 10
5698.359852099179
 20
-2536.247008049857
 30
0.0
 41
1.0
 10
5698.359852099179
 20
-2537.247008049857
 30
0.0
 41
1.0
  0
SPLINE
  5
D8
330
1F
100
AcDbEntity
  8
Make2D$Visibile$Curve
370
    -3
100
AcDbSpline
210
0.0
220
0.0
230
1.0
 70
    28
 71
     2
 72
     6
 73
     3
 74
     0
 42
0.0000000001
 43
0.0000000001
 40
2.096400934758719
 40
2.096400934758719
 40
2.096400934758719
 40
12.09640093475878
 40
12.09640093475878
 40
12.09640093475878
 10
5689.359852099175
 20
-2547.247008049857
 30
0.0
 41
1.0
 10
5689.359852099176
 20
-2542.247008049857
 30
0.0
 41
1.0
 10
5689.359852099178
 20
-2537.247008049857
 30
0.0
 41
1.0
  0
SPLINE
  5
D9
330
1F
100
AcDbEntity
  8
Make2D$Visibile$Curve
370
    -3
100
AcDbSpline
210
0.0
220
0.0
230
1.0
 70
    28
 71
     2
 72
     6
 73
     3
 74
     0
 42
0.0000000001
 43
0.0000000001
 40
2.096400934760506
 40
2.096400934760506
 40
2.096400934760506
 40
12.09640093476039
 40
12.09640093476039
 40
12.09640093476039
 10
5695.359852099177
 20
-2537.247008049859
 30
0.0
 41
1.0
 10
5695.359852099175
 20
-2542.247008049859
 30
0.0
 41
1.0
 10
5695.359852099171
 20
-2547.247008049859
 30
0.0
 41
1.0
  0
SPLINE
  5
DA
330
1F
100
AcDbEntity
  8
Make2D$Visibile$Curve
370
    -3
100
AcDbSpline
210
0.0
220
0.0
230
1.0
 70
    28
 71
     2
 72
     6
 73
     3
 74
     0
 42
0.0000000001
 43
0.0000000001
 40
3.776400934759749
 40
3.776400934759749
 40
3.776400934759749
 40
23.32656796016931
 40
23.32656796016931
 40
23.32656796016931
 10
5686.359852099179
 20
-2535.047008049857
 30
0.0
 41
1.0
 10
5686.359852099179
 20
-2525.271924537152
 30
0.0
 41
1.0
 10
5686.359852099179
 20
-2515.496841024447
 30
0.0
 41
1.0
  0
SPLINE
  5
DB
330
1F
100
AcDbEntity
  8
Make2D$Visibile$Curve
370
    -3
100
AcDbSpline
210
0.0
220
0.0
230
1.0
 70
    28
 71
     2
 72
     6
 73
     3
 74
     0
 42
0.0000000001
 43
0.0000000001
 40
26.57640093475993
 40
26.57640093475993
 40
26.57640093475993
 40
30.57640093475982
 40
30.57640093475982
 40
30.57640093475982
 10
5686.359852099179
 20
-2512.247008049857
 30
0.0
 41
1.0
 10
5686.359852099179
 20
-2510.247008049857
 30
0.0
 41
1.0
 10
5686.359852099179
 20
-2508.247008049857
 30
0.0
 41
1.0
  0
SPLINE
  5
DC
330
1F
100
AcDbEntity
  8
Make2D$Visibile$Curve
370
    -3
100
AcDbSpline
210
0.0
220
0.0
230
1.0
 70
    28
 71
     2
 72
     6
 73
     3
 74
     0
 42
0.0000000001
 43
0.0000000001
 40
3.776400934759624
 40
3.776400934759624
 40
3.776400934759624
 40
30.57640093475971
 40
30.57640093475971
 40
30.57640093475971
 10
5698.359852099179
 20
-2508.247008049857
 30
0.0
 41
1.0
 10
5698.359852099179
 20
-2521.647008049857
 30
0.0
 41
1.0
 10
5698.359852099179
 20
-2535.047008049857
 30
0.0
 41
1.0
  0
SPLINE
  5
DD
330
1F
100
AcDbEntity
  8
Make2D$Visibile$Curve
370
    -3
100
AcDbSpline
210
0.0
220
0.0
230
1.0
 70
    28
 71
     2
 72
     8
 73
     5
 74
     0
 42
0.0000000001
 43
0.0000000001
 40
-50.26548245743669
 40
-50.26548245743669
 40
-50.26548245743669
 40
-37.69911184307752
 40
-37.69911184307752
 40
-25.13274122871834
 40
-25.13274122871834
 40
-25.13274122871834
 10
5684.359852099179
 20
-2506.247008049857
 30
0.0
 41
1.0
 10
5684.359852099178
 20
-2506.247008049856
 30
0.0
 41
0.7071067811865476
 10
5692.359852099179
 20
-2506.247008049857
 30
0.0
 41
1.0
 10
5700.359852099178
 20
-2506.247008049856
 30
0.0
 41
0.7071067811865476
 10
5700.359852099179
 20
-2506.247008049857
 30
0.0
 41
1.0
  0
SPLINE
  5
DE
330
1F
100
AcDbEntity
  8
Make2D$Visibile$Curve
370
    -3
100
AcDbSpline
210
0.0
220
0.0
230
1.0
 70
    24
 71
     3
 72
     8
 73
     4
 74
     0
 42
0.0000000001
 43
0.0000000001
 40
118.8979752420234
 40
118.8979752420234
 40
118.8979752420234
 40
118.8979752420234
 40
122.6287674854782
 40
122.6287674854782
 40
122.6287674854782
 40
122.6287674854782
 10
5590.729716880623
 20
-3039.750747295353
 30
0.0
 10
5590.621739519455
 20
-3039.642769934186
 30
0.0
 10
5590.513762158289
 20
-3039.534792573018
 30
0.0
 10
5590.405784797123
 20
-3039.426815211851
 30
0.0
  0
SPLINE
  5
DF
330
1F
100
AcDbEntity
  8
Make2D$Visibile$Curve
370
    -3
100
AcDbSpline
210
0.0
220
0.0
230
1.0
 70
    28
 71
     2
 72
     6
 73
     3
 74
     0
 42
0.0000000001
 43
0.0000000001
 40
74.04268906834272
 40
74.04268906834272
 40
74.04268906834272
 40
74.24331534203924
 40
74.24331534203924
 40
74.24331534203924
 10
5692.759852094549
 20
-2535.045950653331
 30
0.0
 41
1.0
 10
5692.75985209455
 20
-2535.14626379018
 30
0.0
 41
1.0
 10
5692.759852094551
 20
-2535.246576927028
 30
0.0
 41
1.0
  0
SPLINE
  5
E0
330
1F
100
AcDbEntity
  8
Make2D$Visibile$Curve
370
    -3
100
AcDbSpline
210
0.0
220
0.0
230
1.0
 70
    28
 71
     2
 72
     6
 73
     3
 74
     0
 42
0.0000000001
 43
0.0000000001
 40
538.3595554932499
 40
538.3595554932499
 40
538.3595554932499
 40
538.5595554932497
 40
538.5595554932497
 40
538.5595554932497
 10
5691.959852094552
 20
-2535.247008049857
 30
0.0
 41
1.0
 10
5691.959852094551
 20
-2535.147008049857
 30
0.0
 41
1.0
 10
5691.95985209455
 20
-2535.047008049857
 30
0.0
 41
1.0
  0
SPLINE
  5
E1
330
1F
100
AcDbEntity
  8
Make2D$Visibile$Curve
370
    -3
100
AcDbSpline
210
0.0
220
0.0
230
1.0
 70
    24
 71
     2
 72
     8
 73
     5
 74
     0
 42
0.0000000001
 43
0.0000000001
 40
82.08343283519963
 40
82.08343283519963
 40
82.08343283519963
 40
83.28853347329219
 40
83.28853347329219
 40
105.8155296888498
 40
105.8155296888498
 40
105.8155296888498
 10
5573.009921589553
 20
-3022.030952003976
 30
0.0
 10
5573.434154729124
 20
-3022.455185143545
 30
0.0
 10
5573.858387868696
 20
-3022.879418283114
 30
0.0
 10
5581.872682615033
 20
-3030.893713029402
 30
0.0
 10
5589.886977361371
 20
-3038.90800777569
 30
0.0
  0
SPLINE
  5
E2
330
1F
100
AcDbEntity
  8
Make2D$Visibile$Curve
370
    -3
100
AcDbSpline
210
0.0
220
0.0
230
1.0
 70
    24
 71
     2
 72
     8
 73
     5
 74
     0
 42
0.0000000001
 43
0.0000000001
 40
82.08343283519963
 40
82.08343283519963
 40
82.08343283519963
 40
83.28853347329219
 40
83.28853347329219
 40
105.8155296888498
 40
105.8155296888498
 40
105.8155296888498
 10
5573.009921589553
 20
-4458.689547398281
 30
0.0
 10
5573.434154729124
 20
-4458.265314258712
 30
0.0
 10
5573.858387868696
 20
-4457.841081119143
 30
0.0
 10
5581.872682615033
 20
-4449.826786372855
 30
0.0
 10
5589.886977361371
 20
-4441.812491626568
 30
0.0
  0
SPLINE
  5
E3
330
1F
100
AcDbEntity
  8
Make2D$Visibile$Curve
370
    -3
100
AcDbSpline
210
0.0
220
0.0
230
1.0
 70
    28
 71
     2
 72
     6
 73
     3
 74
     0
 42
0.0000000001
 43
0.0000000001
 40
55.66492726749748
 40
55.66492726749748
 40
55.66492726749748
 40
59.53106633884985
 40
59.53106633884985
 40
59.53106633884985
 10
5556.33921925757
 20
-4475.36024973016
 30
0.0
 41
0.999942376512042
 10
5556.339219257571
 20
-4475.36024973016
 30
0.0
 41
0.8124583034442885
 10
5557.760561893349
 20
-4473.938907094391
 30
0.0
 41
0.8650898199030568
  0
SPLINE
  5
E4
330
1F
100
AcDbEntity
  8
Make2D$Visibile$Curve
370
    -3
100
AcDbSpline
210
0.0
220
0.0
230
1.0
 70
    28
 71
     2
 72
     6
 73
     3
 74
     0
 42
0.0000000001
 43
0.0000000001
 40
56.54358850992706
 40
56.54358850992706
 40
56.54358850992706
 40
75.00888700627306
 40
75.00888700627306
 40
75.00888700627306
 10
6137.769356553692
 20
-2555.357641373261
 30
0.0
 41
0.8844057506030174
 10
6137.7693565537
 20
-2564.590290621434
 30
0.0
 41
0.8844057506030174
 10
6137.769356553709
 20
-2573.822939869607
 30
0.0
 41
0.8844057506030174
  0
SPLINE
  5
E5
330
1F
100
AcDbEntity
  8
Make2D$Visibile$Curve
370
    -3
100
AcDbSpline
210
0.0
220
0.0
230
1.0
 70
    24
 71
     2
 72
     6
 73
     3
 74
     0
 42
0.0000000001
 43
0.0000000001
 40
578.2944649593659
 40
578.2944649593659
 40
578.2944649593659
 40
731.8434515660615
 40
731.8434515660615
 40
731.8434515660615
 10
6136.05560226089
 20
-3006.782167712626
 30
0.0
 10
6212.830095564464
 20
-3006.782167712399
 30
0.0
 10
6289.604588868037
 20
-3006.782167712173
 30
0.0
  0
SPLINE
  5
E6
330
1F
100
AcDbEntity
  8
Make2D$Visibile$Curve
370
    -3
100
AcDbSpline
210
0.0
220
0.0
230
1.0
 70
    12
 71
     3
 72
    27
 73
    23
 74
     0
 42
0.0000000001
 43
0.0000000001
 40
42.224117373368
 40
42.224117373368
 40
42.224117373368
 40
42.224117373368
 40
44.02511052654372
 40
55.03138815817965
 40
66.03766578981558
 40
77.04394342145152
 40
88.05022105308744
 40
99.05649868472337
 40
110.0627763163593
 40
115.5659151321773
 40
121.0690539479952
 40
126.5721927638132
 40
129.3237621717222
 40
132.0753315796312
 40
134.8269009875401
 40
137.5784703954491
 40
143.0816092112671
 40
145.8331786191761
 40
148.5847480270851
 40
151.336317434994
 40
154.087886842903
 40
155.0653513622236
 40
155.0653513622236
 40
155.0653513622236
 40
155.0653513622236
 10
6146.082328752294
 20
-2901.672486547006
 30
0.0
 41
0.5857864376269049
 10
6146.074795672633
 20
-2902.263274157732
 30
0.0
 41
0.5857864376269049
 10
6146.012849917571
 20
-2906.462365793754
 30
0.0
 41
0.585786437626905
 10
6145.774141064736
 20
-2914.239569136707
 30
0.0
 41
0.585786437626905
 10
6144.8271576284
 20
-2924.881916880429
 30
0.0
 41
0.585786437626905
 10
6143.072725625801
 20
-2935.311056092827
 30
0.0
 41
0.585786437626905
 10
6140.843890820373
 20
-2945.648022754797
 30
0.0
 41
0.585786437626905
 10
6138.729162175738
 20
-2956.118298889482
 30
0.0
 41
0.585786437626905
 10
6137.168402019937
 20
-2964.905798439947
 30
0.0
 41
0.585786437626905
 10
6135.843960781403
 20
-2971.899765262937
 30
0.0
 41
0.585786437626905
 10
6134.881278489204
 20
-2977.261724231622
 30
0.0
 41
0.585786437626905
 10
6134.331993704628
 20
-2981.935277937403
 30
0.0
 41
0.585786437626905
 10
6134.193487757714
 20
-2985.701807342331
 30
0.0
 41
0.585786437626905
 10
6134.152565472389
 20
-2988.432480507861
 30
0.0
 41
0.585786437626905
 10
6134.063069875831
 20
-2991.063254377912
 30
0.0
 41
0.585786437626905
 10
6133.779561776936
 20
-2994.466825684852
 30
0.0
 41
0.585786437626905
 10
6133.150100104351
 20
-2997.768498335696
 30
0.0
 41
0.585786437626905
 10
6132.225600121003
 20
-3001.089772881409
 30
0.0
 41
0.585786437626905
 10
6131.407493005911
 20
-3003.550372387549
 30
0.0
 41
0.585786437626905
 10
6130.500631127973
 20
-3005.922284272169
 30
0.0
 41
0.585786437626905
 10
6129.834813988443
 20
-3007.507412410306
 30
0.0
 41
0.585786437626905
 10
6129.523050489531
 20
-3008.251189309875
 30
0.0
 41
0.5857864376269051
 10
6129.446101413659
 20
-3008.436261285324
 30
0.0
 41
0.5857864376269051
  0
SPLINE
  5
E7
330
1F
100
AcDbEntity
  8
Make2D$Visibile$Curve
370
    -3
100
AcDbSpline
210
0.0
220
0.0
230
1.0
 70
     8
 71
     3
 72
   110
 73
   106
 74
     0
 42
0.0000000001
 43
0.0000000001
 40
0.0
 40
0.0
 40
0.0
 40
0.0
 40
21.80031518602384
 40
21.80031518602384
 40
21.80031518602384
 40
32.26186201095608
 40
32.26186201095608
 40
32.26186201095608
 40
32.72342622139688
 40
32.72342622139688
 40
32.72342622139688
 40
35.21716160499028
 40
35.21716160499028
 40
35.21716160499028
 40
43.68626658105362
 40
43.68626658105362
 40
43.68626658105362
 40
54.7130938748363
 40
54.7130938748363
 40
54.7130938748363
 40
65.79501450507364
 40
65.79501450507364
 40
65.79501450507364
 40
76.85547908755797
 40
76.85547908755797
 40
76.85547908755797
 40
87.81304268319677
 40
87.81304268319677
 40
87.81304268319677
 40
98.69171806302387
 40
98.69171806302387
 40
98.69171806302387
 40
109.5796456950225
 40
109.5796456950225
 40
109.5796456950225
 40
115.0174028903837
 40
115.0174028903837
 40
115.0174028903837
 40
120.3700106027455
 40
120.3700106027455
 40
120.3700106027455
 40
125.6237813567668
 40
125.6237813567668
 40
125.6237813567668
 40
128.0408044864971
 40
128.0408044864971
 40
128.0408044864971
 40
128.2605809557824
 40
128.2605809557824
 40
128.2605809557824
 40
130.9839595721757
 40
130.9839595721757
 40
130.9839595721757
 40
131.3623957693744
 40
131.3623957693744
 40
131.3623957693744
 40
133.7995970420898
 40
133.7995970420898
 40
133.7995970420898
 40
136.6773333809916
 40
136.6773333809916
 40
136.6773333809916
 40
142.482179778284
 40
142.482179778284
 40
142.482179778284
 40
145.3507707772908
 40
145.3507707772908
 40
145.3507707772908
 40
148.2040019301137
 40
148.2040019301137
 40
148.2040019301137
 40
151.0322675008854
 40
151.0322675008854
 40
151.0322675008854
 40
152.6234953879526
 40
152.6234953879526
 40
152.6234953879526
 40
153.7988763559911
 40
153.7988763559911
 40
153.7988763559911
 40
154.7383912361527
 40
154.7383912361527
 40
154.7383912361527
 40
156.4935004113074
 40
156.4935004113074
 40
156.4935004113074
 40
159.1275323016736
 40
159.1275323016736
 40
159.1275323016736
 40
161.728118421232
 40
161.728118421232
 40
161.728118421232
 40
164.3377304806281
 40
164.3377304806281
 40
164.3377304806281
 40
166.9952451875406
 40
166.9952451875406
 40
166.9952451875406
 40
169.6949176880802
 40
169.6949176880802
 40
169.6949176880802
 40
172.4094000110171
 40
172.4094000110171
 40
172.4094000110171
 40
175.0036171199766
 40
175.0036171199766
 40
175.0036171199766
 40
175.0036171199766
 10
6151.437186287828
 20
-2859.875988371998
 30
0.0
 10
6151.466235886425
 20
-2867.1442869423
 30
0.0
 10
6151.519371433605
 20
-2874.410562894966
 30
0.0
 10
6151.568964706787
 20
-2881.675075828502
 30
0.0
 10
6151.592381719684
 20
-2885.105242505072
 30
0.0
 10
6151.615638013601
 20
-2888.592352297904
 30
0.0
 10
6151.622762540434
 20
-2892.136278270725
 30
0.0
 10
6151.623071841342
 20
-2892.29013263033
 30
0.0
 10
6151.623350102526
 20
-2892.443987112927
 30
0.0
 10
6151.623596039141
 20
-2892.597841623134
 30
0.0
 10
6151.625049057212
 20
-2893.506829433347
 30
0.0
 10
6151.625222303562
 20
-2894.338079707825
 30
0.0
 10
6151.624374633961
 20
-2895.091571328882
 30
0.0
 10
6151.621196927473
 20
-2897.916227552691
 30
0.0
 10
6151.602795689755
 20
-2900.735408535007
 30
0.0
 10
6151.554593171803
 20
-2903.559438552046
 30
0.0
 10
6151.49184481998
 20
-2907.235662048241
 30
0.0
 10
6151.37889769121
 20
-2910.902307782591
 30
0.0
 10
6151.159722900466
 20
-2914.565842035813
 30
0.0
 10
6150.939948379199
 20
-2918.239400860344
 30
0.0
 10
6150.613034672412
 20
-2921.911156535188
 30
0.0
 10
6150.148638741138
 20
-2925.535510377744
 30
0.0
 10
6149.684951328404
 20
-2929.154334624275
 30
0.0
 10
6149.082542072586
 20
-2932.73913651441
 30
0.0
 10
6148.40425153494
 20
-2936.280239558859
 30
0.0
 10
6147.727479162336
 20
-2939.813416827329
 30
0.0
 10
6146.986496414909
 20
-2943.248503142559
 30
0.0
 10
6146.255236410159
 20
-2946.750535364576
 30
0.0
 10
6145.5327504927
 20
-2950.210548145885
 30
0.0
 10
6144.834099210338
 20
-2953.669159626226
 30
0.0
 10
6144.172913563836
 20
-2957.154279534751
 30
0.0
 10
6143.511609862888
 20
-2960.640021710114
 30
0.0
 10
6142.889486319848
 20
-2964.142859194636
 30
0.0
 10
6142.241344344898
 20
-2967.637874812302
 30
0.0
 10
6141.917774780689
 20
-2969.38267876578
 30
0.0
 10
6141.587454364652
 20
-2971.126827335093
 30
0.0
 10
6141.264789835339
 20
-2972.8758060732
 30
0.0
 10
6140.949699814001
 20
-2974.583727762272
 30
0.0
 10
6140.63564728729
 20
-2976.330796639982
 30
0.0
 10
6140.378752582145
 20
-2978.059446577182
 30
0.0
 10
6140.124518110789
 20
-2979.770195744611
 30
0.0
 10
6139.921806480914
 20
-2981.487228482301
 30
0.0
 10
6139.811091222747
 20
-2983.232616117434
 30
0.0
 10
6139.760178542657
 20
-2984.03523685618
 30
0.0
 10
6139.729202297943
 20
-2984.836839486047
 30
0.0
 10
6139.706998653489
 20
-2985.642398822844
 30
0.0
 10
6139.704982046676
 20
-2985.71556232761
 30
0.0
 10
6139.703038920635
 20
-2985.788731746288
 30
0.0
 10
6139.701161196273
 20
-2985.861905569591
 30
0.0
 10
6139.677813766132
 20
-2986.77174130582
 30
0.0
 10
6139.664237754168
 20
-2987.679160320377
 30
0.0
 10
6139.641947158881
 20
-2988.582914794349
 30
0.0
 10
6139.639085803951
 20
-2988.698926156354
 30
0.0
 10
6139.635842686442
 20
-2988.824946405128
 30
0.0
 10
6139.632096659084
 20
-2988.960967268564
 30
0.0
 10
6139.609722790628
 20
-2989.773378021258
 30
0.0
 10
6139.579154662847
 20
-2990.582593861661
 30
0.0
 10
6139.531431036791
 20
-2991.393201989691
 30
0.0
 10
6139.475251941869
 20
-2992.347430214402
 30
0.0
 10
6139.395093257229
 20
-2993.304610215054
 30
0.0
 10
6139.282371281207
 20
-2994.252027616932
 30
0.0
 10
6139.055542526231
 20
-2996.158501556584
 30
0.0
 10
6138.692998044248
 20
-2998.062790881742
 30
0.0
 10
6138.229643554841
 20
-2999.92784860982
 30
0.0
 10
6137.999359918424
 20
-3000.854768032353
 30
0.0
 10
6137.744221335143
 20
-3001.77217146362
 30
0.0
 10
6137.464641199293
 20
-3002.688268392519
 30
0.0
 10
6137.187796380032
 20
-3003.595402541856
 30
0.0
 10
6136.887320599527
 20
-3004.499747568265
 30
0.0
 10
6136.572955502285
 20
-3005.381169730231
 30
0.0
 10
6136.263601395255
 20
-3006.248541993323
 30
0.0
 10
6135.935587339757
 20
-3007.107684321334
 30
0.0
 10
6135.622453512385
 20
-3007.892066411669
 30
0.0
 10
6135.445748536687
 20
-3008.334702135104
 30
0.0
 10
6135.273181211786
 20
-3008.755126260447
 30
0.0
 10
6135.111361882337
 20
-3009.144597594135
 30
0.0
 10
6134.991798543372
 20
-3009.432366016151
 30
0.0
 10
6134.877504660907
 20
-3009.704688483847
 30
0.0
 10
6134.772000781067
 20
-3009.956218117534
 30
0.0
 10
6134.68749986188
 20
-3010.157675023969
 30
0.0
 10
6134.608442561578
 20
-3010.346270104178
 30
0.0
 10
6134.53499135617
 20
-3010.522774135623
 30
0.0
 10
6134.397790411863
 20
-3010.85246947083
 30
0.0
 10
6134.281143767795
 20
-3011.137782623788
 30
0.0
 10
6134.184516102378
 20
-3011.386214574701
 30
0.0
 10
6134.036641961839
 20
-3011.766402392192
 30
0.0
 10
6133.941542503427
 20
-3012.04216673858
 30
0.0
 10
6133.866588428938
 20
-3012.303072585548
 30
0.0
 10
6133.796082345136
 20
-3012.548495528007
 30
0.0
 10
6133.743962739423
 20
-3012.783087974626
 30
0.0
 10
6133.70394921712
 20
-3013.048965329206
 30
0.0
 10
6133.662142989081
 20
-3013.326754653308
 30
0.0
 10
6133.63130598839
 20
-3013.640220996679
 30
0.0
 10
6133.61114617176
 20
-3014.116374964824
 30
0.0
 10
6133.59120116033
 20
-3014.587455456895
 30
0.0
 10
6133.58430419213
 20
-3015.205721540386
 30
0.0
 10
6133.590904820106
 20
-3015.955500602616
 30
0.0
 10
6133.597592269584
 20
-3016.71514190014
 30
0.0
 10
6133.617598765001
 20
-3017.604493419118
 30
0.0
 10
6133.641839740088
 20
-3018.484829857781
 30
0.0
 10
6133.666577705736
 20
-3019.383215029971
 30
0.0
 10
6133.696226465346
 20
-3020.291736825861
 30
0.0
 10
6133.726949076316
 20
-3021.172551692503
 30
0.0
 10
6133.75652121103
 20
-3022.020382494364
 30
0.0
 10
6133.787343129824
 20
-3022.849904065357
 30
0.0
 10
6133.818725241038
 20
-3023.662970647227
 30
0.0
  0
SPLINE
  5
E8
330
1F
100
AcDbEntity
  8
Make2D$Visibile$Curve
370
    -3
100
AcDbSpline
210
0.0
220
0.0
230
1.0
 70
    28
 71
     2
 72
     8
 73
     5
 74
     0
 42
0.0000000001
 43
0.0000000001
 40
8.639379797372026
 40
8.639379797372026
 40
8.639379797372026
 40
12.95906969605804
 40
12.95906969605804
 40
17.27875959474405
 40
17.27875959474405
 40
17.27875959474405
 10
6151.437186287828
 20
-2859.875988371997
 30
0.0
 41
1.0
 10
6151.437186287828
 20
-2859.875988371996
 30
0.0
 41
0.7071067811865476
 10
6148.687186287828
 20
-2859.875988371997
 30
0.0
 41
1.0
 10
6145.937186287828
 20
-2859.875988371997
 30
0.0
 41
0.7071067811865476
 10
6145.937186287828
 20
-2859.875988371998
 30
0.0
 41
1.0
  0
SPLINE
  5
E9
330
1F
100
AcDbEntity
  8
Make2D$Visibile$Curve
370
    -3
100
AcDbSpline
210
0.0
220
0.0
230
1.0
 70
    28
 71
     2
 72
     6
 73
     3
 74
     0
 42
0.0000000001
 43
0.0000000001
 40
76.24374646486835
 40
76.24374646486835
 40
76.24374646486835
 40
544.3569881132809
 40
544.3569881132809
 40
544.3569881132809
 10
5692.759852094568
 20
-2537.247008049858
 30
0.0
 41
1.0
 10
5692.759852096579
 20
-2771.303628874063
 30
0.0
 41
1.0
 10
5692.759852098591
 20
-3005.36024969827
 30
0.0
 41
1.0
  0
SPLINE
  5
EA
330
1F
100
AcDbEntity
  8
Make2D$Visibile$Curve
370
    -3
100
AcDbSpline
210
0.0
220
0.0
230
1.0
 70
    24
 71
     2
 72
     6
 73
     3
 74
     0
 42
0.0000000001
 43
0.0000000001
 40
0.0
 40
0.0
 40
0.0
 40
358.301256533084
 40
358.301256533084
 40
358.301256533084
 10
6193.296027685671
 20
-2555.357641373261
 30
0.0
 10
6014.145399419129
 20
-2555.357641373261
 30
0.0
 10
5834.994771152587
 20
-2555.357641373261
 30
0.0
  0
SPLINE
  5
EB
330
1F
100
AcDbEntity
  8
Make2D$Visibile$Curve
370
    -3
100
AcDbSpline
210
0.0
220
0.0
230
1.0
 70
    28
 71
     2
 72
     6
 73
     3
 74
     0
 42
0.0000000001
 43
0.0000000001
 40
0.0
 40
0.0
 40
0.0
 40
574.3735862836927
 40
574.3735862836927
 40
574.3735862836927
 10
5556.339219289463
 20
-3005.360249698269
 30
0.0
 41
1.0
 10
5843.52601243131
 20
-3005.360249698269
 30
0.0
 41
1.0
 10
6130.712805573156
 20
-3005.360249698269
 30
0.0
 41
1.0
  0
SPLINE
  5
EC
330
1F
100
AcDbEntity
  8
Make2D$Visibile$Curve
370
    -3
100
AcDbSpline
210
0.0
220
0.0
230
1.0
 70
    28
 71
     2
 72
     6
 73
     3
 74
     0
 42
0.0000000001
 43
0.0000000001
 40
580.2411933390704
 40
580.2411933390704
 40
580.2411933390704
 40
734.6872875924785
 40
734.6872875924785
 40
734.6872875924785
 10
6136.580412628534
 20
-3005.360249698269
 30
0.0
 41
1.0
 10
6213.803459755238
 20
-3005.360249698269
 30
0.0
 41
1.0
 10
6291.026506881942
 20
-3005.360249698269
 30
0.0
 41
1.0
  0
SPLINE
  5
ED
330
1F
100
AcDbEntity
  8
Make2D$Visibile$Curve
370
    -3
100
AcDbSpline
210
0.0
220
0.0
230
1.0
 70
    28
 71
     2
 72
     8
 73
     5
 74
     0
 42
0.0000000001
 43
0.0000000001
 40
0.0
 40
0.0
 40
0.0
 40
12.56637061435917
 40
12.56637061435917
 40
25.13274122871834
 40
25.13274122871834
 40
25.13274122871834
 10
5684.359852099179
 20
-2508.247008049857
 30
0.0
 41
1.0
 10
5684.359852099178
 20
-2508.247008049857
 30
0.0
 41
0.7071067811865476
 10
5692.359852099179
 20
-2508.247008049857
 30
0.0
 41
1.0
 10
5700.359852099178
 20
-2508.247008049857
 30
0.0
 41
0.7071067811865476
 10
5700.359852099179
 20
-2508.247008049857
 30
0.0
 41
1.0
  0
SPLINE
  5
EE
330
1F
100
AcDbEntity
  8
Make2D$Visibile$Curve
370
    -3
100
AcDbSpline
210
0.0
220
0.0
230
1.0
 70
    28
 71
     2
 72
     8
 73
     5
 74
     0
 42
0.0000000001
 43
0.0000000001
 40
0.0
 40
0.0
 40
0.0
 40
9.42477796076938
 40
9.42477796076938
 40
18.84955592153876
 40
18.84955592153876
 40
18.84955592153876
 10
5686.359852099179
 20
-2537.247008049857
 30
0.0
 41
1.0
 10
5686.359852099179
 20
-2537.247008049857
 30
0.0
 41
0.7071067811865476
 10
5692.359852099179
 20
-2537.247008049857
 30
0.0
 41
1.0
 10
5698.359852099178
 20
-2537.247008049857
 30
0.0
 41
0.7071067811865476
 10
5698.359852099179
 20
-2537.247008049857
 30
0.0
 41
1.0
  0
SPLINE
  5
EF
330
1F
100
AcDbEntity
  8
Make2D$Visibile$Curve
370
    -3
100
AcDbSpline
210
0.0
220
0.0
230
1.0
 70
    28
 71
     2
 72
     8
 73
     5
 74
     0
 42
0.0000000001
 43
0.0000000001
 40
-37.69911184307752
 40
-37.69911184307752
 40
-37.69911184307752
 40
-28.27433388230814
 40
-28.27433388230814
 40
-18.84955592153876
 40
-18.84955592153876
 40
-18.84955592153876
 10
5686.359852099179
 20
-2535.247008049857
 30
0.0
 41
1.0
 10
5686.359852099179
 20
-2535.247008049857
 30
0.0
 41
0.7071067811865476
 10
5692.359852099179
 20
-2535.247008049857
 30
0.0
 41
1.0
 10
5698.359852099178
 20
-2535.247008049857
 30
0.0
 41
0.7071067811865476
 10
5698.359852099179
 20
-2535.247008049857
 30
0.0
 41
1.0
  0
SPLINE
  5
F0
330
1F
100
AcDbEntity
  8
Make2D$Visibile$Curve
370
    -3
100
AcDbSpline
210
0.0
220
0.0
230
1.0
 70
    28
 71
     2
 72
     8
 73
     5
 74
     0
 42
0.0000000001
 43
0.0000000001
 40
0.0
 40
0.0
 40
0.0
 40
4.71238898038469
 40
4.71238898038469
 40
9.42477796076938
 40
9.42477796076938
 40
9.42477796076938
 10
5689.359852099179
 20
-2547.247008049857
 30
0.0
 41
1.0
 10
5689.359852099178
 20
-2547.247008049857
 30
0.0
 41
0.7071067811865476
 10
5692.359852099179
 20
-2547.247008049857
 30
0.0
 41
1.0
 10
5695.359852099177
 20
-2547.247008049857
 30
0.0
 41
0.7071067811865476
 10
5695.359852099179
 20
-2547.247008049857
 30
0.0
 41
1.0
  0
SPLINE
  5
F1
330
1F
100
AcDbEntity
  8
Make2D$Visibile$Curve
370
    -3
100
AcDbSpline
210
0.0
220
0.0
230
1.0
 70
    28
 71
     2
 72
     8
 73
     5
 74
     0
 42
0.0000000001
 43
0.0000000001
 40
0.0
 40
0.0
 40
0.0
 40
9.42477796076938
 40
9.42477796076938
 40
18.84955592153876
 40
18.84955592153876
 40
18.84955592153876
 10
5686.359852099179
 20
-2535.047008049857
 30
0.0
 41
1.0
 10
5686.359852099179
 20
-2535.047008049857
 30
0.0
 41
0.7071067811865476
 10
5692.359852099179
 20
-2535.047008049857
 30
0.0
 41
1.0
 10
5698.359852099178
 20
-2535.047008049857
 30
0.0
 41
0.7071067811865476
 10
5698.359852099179
 20
-2535.047008049857
 30
0.0
 41
1.0
  0
SPLINE
  5
F2
330
1F
100
AcDbEntity
  8
Make2D$Visibile$Curve
370
    -3
100
AcDbSpline
210
0.0
220
0.0
230
1.0
 70
    28
 71
     2
 72
     6
 73
     3
 74
     0
 42
0.0000000001
 43
0.0000000001
 40
0.0
 40
0.0
 40
0.0
 40
59.07500118074586
 40
59.07500118074586
 40
59.07500118074586
 10
6764.060061576066
 20
-2859.875988371997
 30
0.0
 41
1.0
 10
6764.060061576065
 20
-2830.338488371756
 30
0.0
 41
1.0
 10
6764.060061576064
 20
-2800.800988371514
 30
0.0
 41
1.0
  0
SPLINE
  5
F3
330
1F
100
AcDbEntity
  8
Make2D$Visibile$Curve
370
    -3
100
AcDbSpline
210
0.0
220
0.0
230
1.0
 70
    28
 71
     2
 72
     6
 73
     3
 74
     0
 42
0.0000000001
 43
0.0000000001
 40
0.0
 40
0.0
 40
0.0
 40
59.07500118074586
 40
59.07500118074586
 40
59.07500118074586
 10
6769.560061576064
 20
-2800.800988371515
 30
0.0
 41
1.0
 10
6769.560061576065
 20
-2830.338488371757
 30
0.0
 41
1.0
 10
6769.560061576066
 20
-2859.875988371998
 30
0.0
 41
1.0
  0
SPLINE
  5
F4
330
1F
100
AcDbEntity
  8
Make2D$Visibile$Curve
370
    -3
100
AcDbSpline
210
0.0
220
0.0
230
1.0
 70
    12
 71
     3
 72
    31
 73
    27
 74
     0
 42
0.0000000001
 43
0.0000000001
 40
0.0
 40
0.0
 40
0.0
 40
0.0
 40
16.14720792202383
 40
16.14720792202383
 40
16.14720792202383
 40
18.0177891583981
 40
18.0177891583981
 40
21.79846891779606
 40
21.79846891779606
 40
21.79846891779606
 40
32.7272878816907
 40
32.7272878816907
 40
32.7272878816907
 40
41.33649036648609
 40
41.33649036648609
 40
41.33649036648609
 40
43.698407672549
 40
43.698407672549
 40
43.698407672549
 40
54.73775326021379
 40
54.73775326021379
 40
54.73775326021379
 40
65.83639296144018
 40
65.83639296144018
 40
65.83639296144018
 40
71.37906422197025
 40
71.37906422197025
 40
71.37906422197025
 40
71.37906422197025
 10
6769.560061576066
 20
-2859.875988371999
 30
0.0
 41
0.5857864376269049
 10
6769.603447763513
 20
-2865.246523697803
 30
0.0
 41
0.5857864376269051
 10
6769.654178022877
 20
-2870.631277134762
 30
0.0
 41
0.5857864376269051
 10
6769.700227775156
 20
-2876.022304194581
 30
0.0
 41
0.5857864376269051
 10
6769.706560501903
 20
-2876.763674116619
 30
0.0
 41
0.5857864376269051
 10
6769.71219885719
 20
-2877.434423450212
 30
0.0
 41
0.5857864376269051
 10
6769.72722767621
 20
-2879.247487537179
 30
0.0
 41
0.5857864376269051
 10
6769.736966882995
 20
-2880.460384545793
 30
0.0
 41
0.5857864376269051
 10
6769.746255526399
 20
-2881.67324439703
 30
0.0
 41
0.5857864376269051
 10
6769.774159410131
 20
-2885.316779712402
 30
0.0
 41
0.5857864376269051
 10
6769.797959031065
 20
-2888.959662620915
 30
0.0
 41
0.5857864376269051
 10
6769.799298414758
 20
-2892.601710716749
 30
0.0
 41
0.5857864376269051
 10
6769.800354553546
 20
-2895.473560124637
 30
0.0
 41
0.5857864376269051
 10
6769.787482162474
 20
-2898.339201624912
 30
0.0
 41
0.5857864376269051
 10
6769.744271722951
 20
-2901.210356392018
 30
0.0
 41
0.5857864376269051
 10
6769.733369697197
 20
-2901.934750856943
 30
0.0
 41
0.5857864376269051
 10
6769.719635927049
 20
-2902.721885611549
 30
0.0
 41
0.5857864376269051
 10
6769.701575515057
 20
-2903.571636575158
 30
0.0
 41
0.5857864376269051
 10
6769.62335280676
 20
-2907.252052159292
 30
0.0
 41
0.5857864376269051
 10
6769.488389792257
 20
-2910.922802273164
 30
0.0
 41
0.5857864376269051
 10
6769.236943806985
 20
-2914.590476657644
 30
0.0
 41
0.5857864376269051
 10
6768.984720544661
 20
-2918.269488662492
 30
0.0
 41
0.5857864376269051
 10
6768.614930045128
 20
-2921.946780184746
 30
0.0
 41
0.5857864376269051
 10
6768.094778772129
 20
-2925.576371990982
 30
0.0
 41
0.5857864376269051
 10
6767.834911581593
 20
-2927.389713367689
 30
0.0
 41
0.5857864376269051
 10
6767.537036640283
 20
-2929.194588404913
 30
0.0
 41
0.5857864376269051
 10
6767.209180306346
 20
-2930.989723552408
 30
0.0
 41
0.5857864376269051
  0
SPLINE
  5
F5
330
1F
100
AcDbEntity
  8
Make2D$Visibile$Curve
370
    -3
100
AcDbSpline
210
0.0
220
0.0
230
1.0
 70
    12
 71
     3
 72
    26
 73
    22
 74
     0
 42
0.0000000001
 43
0.0000000001
 40
141.9735562812085
 40
141.9735562812085
 40
141.9735562812085
 40
141.9735562812085
 40
144.4800675953057
 40
144.4800675953057
 40
144.4800675953057
 40
146.7385060422059
 40
146.7385060422059
 40
146.7385060422059
 40
148.7378447873264
 40
148.7378447873264
 40
148.7378447873264
 40
150.6605433916321
 40
150.6605433916321
 40
150.6605433916321
 40
152.7959840056489
 40
152.7959840056489
 40
152.7959840056489
 40
155.2810367819631
 40
155.2810367819631
 40
155.2810367819631
 40
157.0137276486472
 40
157.0137276486472
 40
157.0137276486472
 40
157.0137276486472
 10
6755.32789863678
 20
-2999.423671359067
 30
0.0
 41
0.5857864376269051
 10
6755.26618226126
 20
-3000.219174702533
 30
0.0
 41
0.5857864376269051
 10
6755.222172257541
 20
-3001.038552422103
 30
0.0
 41
0.5857864376269051
 10
6755.227295444016
 20
-3001.817979202228
 30
0.0
 41
0.5857864376269051
 10
6755.231913930709
 20
-3002.520622416553
 30
0.0
 41
0.5857864376269051
 10
6755.276348178923
 20
-3003.233823552245
 30
0.0
 41
0.5857864376269051
 10
6755.398336253203
 20
-3003.898002742183
 30
0.0
 41
0.5857864376269051
 10
6755.507410668951
 20
-3004.491871917703
 30
0.0
 41
0.5857864376269051
 10
6755.677557359429
 20
-3005.050241029887
 30
0.0
 41
0.5857864376269051
 10
6755.950320571545
 20
-3005.562180097682
 30
0.0
 41
0.5857864376269051
 10
6756.21504703334
 20
-3006.059035289482
 30
0.0
 41
0.5857864376269051
 10
6756.561465552846
 20
-3006.485930563733
 30
0.0
 41
0.5857864376269051
 10
6757.013437618768
 20
-3006.881935005755
 30
0.0
 41
0.5857864376269051
 10
6757.505380568707
 20
-3007.312960744039
 30
0.0
 41
0.5857864376269051
 10
6758.099302517802
 20
-3007.682300215316
 30
0.0
 41
0.5857864376269051
 10
6758.706195487639
 20
-3008.005556918739
 30
0.0
 41
0.5857864376269051
 10
6759.402446852314
 20
-3008.376409658981
 30
0.0
 41
0.5857864376269051
 10
6760.193746211524
 20
-3008.726774494435
 30
0.0
 41
0.5857864376269051
 10
6760.926798543135
 20
-3009.043738370792
 30
0.0
 41
0.5857864376269051
 10
6761.456733417999
 20
-3009.272876462181
 30
0.0
 41
0.5857864376269051
 10
6761.982823022359
 20
-3009.4970116122
 30
0.0
 41
0.5857864376269051
 10
6762.507435360126
 20
-3009.7302558765
 30
0.0
 41
0.5857864376269051
  0
SPLINE
  5
F6
330
1F
100
AcDbEntity
  8
Make2D$Visibile$Curve
370
    -3
100
AcDbSpline
210
0.0
220
0.0
230
1.0
 70
    28
 71
     2
 72
     6
 73
     3
 74
     0
 42
0.0000000001
 43
0.0000000001
 40
7.815717850351806
 40
7.815717850351806
 40
7.815717850351806
 40
26.29886661175027
 40
26.29886661175027
 40
26.29886661175027
 10
6764.060061576133
 20
-2573.822939869611
 30
0.0
 41
0.884405750603027
 10
6764.06006157613
 20
-2564.581365488912
 30
0.0
 41
0.884405750603027
 10
6764.060061576127
 20
-2555.339791108213
 30
0.0
 41
0.8844057506030271
  0
SPLINE
  5
F7
330
1F
100
AcDbEntity
  8
Make2D$Visibile$Curve
370
    -3
100
AcDbSpline
210
0.0
220
0.0
230
1.0
 70
    12
 71
     3
 72
     8
 73
     4
 74
     0
 42
0.0000000001
 43
0.0000000001
 40
0.0
 40
0.0
 40
0.0
 40
0.0
 40
2.56574718985511
 40
2.56574718985511
 40
2.56574718985511
 40
2.56574718985511
 10
6769.560061576091
 20
-2573.82293986959
 30
0.0
 41
1.0
 10
6769.560061576091
 20
-2574.666089617581
 30
0.0
 41
1.0
 10
6769.560076362376
 20
-2575.505563244717
 30
0.0
 41
1.0
 10
6769.560105583442
 20
-2576.339105596225
 30
0.0
 41
1.0
  0
SPLINE
  5
F8
330
1F
100
AcDbEntity
  8
Make2D$Visibile$Curve
370
    -3
100
AcDbSpline
210
0.0
220
0.0
230
1.0
 70
    12
 71
     3
 72
     8
 73
     4
 74
     0
 42
0.0000000001
 43
0.0000000001
 40
47.16002741376303
 40
47.16002741376303
 40
47.16002741376303
 40
47.16002741376303
 40
49.7259225754696
 40
49.7259225754696
 40
49.7259225754696
 40
49.7259225754696
 10
6764.06010558248
 20
-2576.339298598197
 30
0.0
 41
0.9033859174052845
 10
6764.06007636186
 20
-2575.505696158772
 30
0.0
 41
0.9033859174052845
 10
6764.06006157609
 20
-2574.666158798618
 30
0.0
 41
0.9033859174052845
 10
6764.06006157609
 20
-2573.82293986959
 30
0.0
 41
0.9033859174052845
  0
SPLINE
  5
F9
330
1F
100
AcDbEntity
  8
Make2D$Visibile$Curve
370
    -3
100
AcDbSpline
210
0.0
220
0.0
230
1.0
 70
    12
 71
     3
 72
     8
 73
     4
 74
     0
 42
0.0000000001
 43
0.0000000001
 40
2.184104735950092
 40
2.184104735950092
 40
2.184104735950092
 40
2.184104735950092
 40
4.766786321389614
 40
4.766786321389614
 40
4.766786321389614
 40
4.766786321389614
 10
6769.560105586602
 20
-2576.339104888937
 30
0.0
 41
1.0
 10
6769.560135000719
 20
-2577.178147713942
 30
0.0
 41
1.0
 10
6769.560181596556
 20
-2578.010130917978
 30
0.0
 41
1.0
 10
6769.560244879288
 20
-2578.831880108046
 30
0.0
 41
1.0
  0
SPLINE
  5
FA
330
1F
100
AcDbEntity
  8
Make2D$Visibile$Curve
370
    -3
100
AcDbSpline
210
0.0
220
0.0
230
1.0
 70
    12
 71
     3
 72
     8
 73
     4
 74
     0
 42
0.0000000001
 43
0.0000000001
 40
37.94891550056722
 40
37.94891550056722
 40
37.94891550056722
 40
37.94891550056722
 40
40.53180393617809
 40
40.53180393617809
 40
40.53180393617809
 40
40.53180393617809
 10
6764.060244880362
 20
-2578.832304386386
 30
0.0
 41
0.9033859174052845
 10
6764.06018159579
 20
-2578.010481466364
 30
0.0
 41
0.9033859174052845
 10
6764.060134999593
 20
-2577.178422124746
 30
0.0
 41
0.9033859174052845
 10
6764.06010558564
 20
-2576.33929789091
 30
0.0
 41
0.9033859174052845
  0
SPLINE
  5
FB
330
1F
100
AcDbEntity
  8
Make2D$Visibile$Curve
370
    -3
100
AcDbSpline
210
0.0
220
0.0
230
1.0
 70
    12
 71
     3
 72
     8
 73
     4
 74
     0
 42
0.0000000001
 43
0.0000000001
 40
4.561832151346126
 40
4.561832151346126
 40
4.561832151346126
 40
4.561832151346126
 40
6.975442646101348
 40
6.975442646101348
 40
6.975442646101348
 40
6.975442646101348
 10
6769.560244880179
 20
-2578.831879667167
 30
0.0
 41
1.0
 10
6769.560304020276
 20
-2579.59983420372
 30
0.0
 41
1.0
 10
6769.560378388785
 20
-2580.358449241517
 30
0.0
 41
1.0
 10
6769.560467544713
 20
-2581.104895786016
 30
0.0
 41
1.0
  0
SPLINE
  5
FC
330
1F
100
AcDbEntity
  8
Make2D$Visibile$Curve
370
    -3
100
AcDbSpline
210
0.0
220
0.0
230
1.0
 70
    12
 71
     3
 72
     8
 73
     4
 74
     0
 42
0.0000000001
 43
0.0000000001
 40
34.08693496205356
 40
34.08693496205356
 40
34.08693496205356
 40
34.08693496205356
 40
36.50077086769191
 40
36.50077086769191
 40
36.50077086769191
 40
36.50077086769191
 10
6764.060467558887
 20
-2581.10555356665
 30
0.0
 41
0.9033859174052845
 10
6764.060378396303
 20
-2580.359029942292
 30
0.0
 41
0.9033859174052845
 10
6764.060304023719
 20
-2579.600337931858
 30
0.0
 41
0.9033859174052845
 10
6764.060244881251
 20
-2578.832303945508
 30
0.0
 41
0.9033859174052845
  0
SPLINE
  5
FD
330
1F
100
AcDbEntity
  8
Make2D$Visibile$Curve
370
    -3
100
AcDbSpline
210
0.0
220
0.0
230
1.0
 70
    12
 71
     3
 72
     8
 73
     4
 74
     0
 42
0.0000000001
 43
0.0000000001
 40
7.210825690289481
 40
7.210825690289481
 40
7.210825690289481
 40
7.210825690289481
 40
9.629354781461021
 40
9.629354781461021
 40
9.629354781461021
 40
9.629354781461021
 10
6769.560467544626
 20
-2581.104895835487
 30
0.0
 41
1.0
 10
6769.560556882213
 20
-2581.852863652864
 30
0.0
 41
1.0
 10
6769.560660582892
 20
-2582.589012189583
 30
0.0
 41
1.0
 10
6769.560778231476
 20
-2583.310677957506
 30
0.0
 41
1.0
  0
SPLINE
  5
FE
330
1F
100
AcDbEntity
  8
Make2D$Visibile$Curve
370
    -3
100
AcDbSpline
210
0.0
220
0.0
230
1.0
 70
    12
 71
     3
 72
     8
 73
     4
 74
     0
 42
0.0000000001
 43
0.0000000001
 40
32.67437854099529
 40
32.67437854099529
 40
32.67437854099529
 40
32.67437854099529
 40
35.09313933916741
 40
35.09313933916741
 40
35.09313933916741
 40
35.09313933916741
 10
6764.060778275009
 20
-2583.311574366509
 30
0.0
 41
0.9033859174052845
 10
6764.060660613529
 20
-2582.589827544019
 30
0.0
 41
0.9033859174052845
 10
6764.060556903329
 20
-2581.853600234575
 30
0.0
 41
0.9033859174052845
 10
6764.060467558801
 20
-2581.10555361612
 30
0.0
 41
0.9033859174052845
  0
SPLINE
  5
FF
330
1F
100
AcDbEntity
  8
Make2D$Visibile$Curve
370
    -3
100
AcDbSpline
210
0.0
220
0.0
230
1.0
 70
    12
 71
     3
 72
     8
 73
     4
 74
     0
 42
0.0000000001
 43
0.0000000001
 40
10.41562981746969
 40
10.41562981746969
 40
10.41562981746969
 40
10.41562981746969
 40
12.4683539735912
 40
12.4683539735912
 40
12.4683539735912
 40
12.4683539735912
 10
6769.56077823133
 20
-2583.310678131549
 30
0.0
 41
1.0
 10
6769.560878085501
 20
-2583.923191614704
 30
0.0
 41
1.0
 10
6769.560987228938
 20
-2584.526059759603
 30
0.0
 41
1.0
 10
6769.561105444686
 20
-2585.117890705656
 30
0.0
 41
1.0
  0
SPLINE
  5
100
330
1F
100
AcDbEntity
  8
Make2D$Visibile$Curve
370
    -3
100
AcDbSpline
210
0.0
220
0.0
230
1.0
 70
    12
 71
     3
 72
     8
 73
     4
 74
     0
 42
0.0000000001
 43
0.0000000001
 40
33.31261139023491
 40
33.31261139023491
 40
33.31261139023491
 40
33.31261139023491
 40
35.36552232128634
 40
35.36552232128634
 40
35.36552232128634
 40
35.36552232128634
 10
6764.061105526051
 20
-2585.118987540711
 30
0.0
 41
0.9033859174052845
 10
6764.060987295315
 20
-2584.527087690225
 30
0.0
 41
0.9033859174052845
 10
6764.060878139397
 20
-2583.924153105331
 30
0.0
 41
0.9033859174052845
 10
6764.060778274866
 20
-2583.311574540552
 30
0.0
 41
0.9033859174052845
  0
SPLINE
  5
101
330
1F
100
AcDbEntity
  8
Make2D$Visibile$Curve
370
    -3
100
AcDbSpline
210
0.0
220
0.0
230
1.0
 70
    12
 71
     3
 72
     8
 73
     4
 74
     0
 42
0.0000000001
 43
0.0000000001
 40
16.27773326561981
 40
16.27773326561981
 40
16.27773326561981
 40
16.27773326561981
 40
18.32806579158193
 40
18.32806579158193
 40
18.32806579158193
 40
18.32806579158193
 10
6769.561105437594
 20
-2585.117899784987
 30
0.0
 41
1.0
 10
6769.561223516103
 20
-2585.709042948019
 30
0.0
 41
1.0
 10
6769.561348527745
 20
-2586.291751890476
 30
0.0
 41
1.0
 10
6769.561480345697
 20
-2586.865212918311
 30
0.0
 41
1.0
  0
SPLINE
  5
102
330
1F
100
AcDbEntity
  8
Make2D$Visibile$Curve
370
    -3
100
AcDbSpline
210
0.0
220
0.0
230
1.0
 70
    12
 71
     3
 72
     8
 73
     4
 74
     0
 42
0.0000000001
 43
0.0000000001
 40
39.76756482834088
 40
39.76756482834088
 40
39.76756482834088
 40
39.76756482834088
 40
41.81804208785604
 40
41.81804208785604
 40
41.81804208785604
 40
41.81804208785604
 10
6764.061480466378
 20
-2586.866474269149
 30
0.0
 41
0.9033859174052844
 10
6764.06134863373
 20
-2586.292956646479
 30
0.0
 41
0.9033859174052844
 10
6764.06122360904
 20
-2585.710193029815
 30
0.0
 41
0.9033859174052844
 10
6764.061105518958
 20
-2585.118996620043
 30
0.0
 41
0.9033859174052845
  0
SPLINE
  5
103
330
1F
100
AcDbEntity
  8
Make2D$Visibile$Curve
370
    -3
100
AcDbSpline
210
0.0
220
0.0
230
1.0
 70
    12
 71
     3
 72
     8
 73
     4
 74
     0
 42
0.0000000001
 43
0.0000000001
 40
22.7920061485029
 40
22.7920061485029
 40
22.7920061485029
 40
22.7920061485029
 40
24.80992301847913
 40
24.80992301847913
 40
24.80992301847913
 40
24.80992301847913
 10
6769.561480332301
 20
-2586.865232719954
 30
0.0
 41
1.0
 10
6769.561610066738
 20
-2587.429628910359
 30
0.0
 41
1.0
 10
6769.561745102822
 20
-2587.986821931018
 30
0.0
 41
1.0
 10
6769.561885362385
 20
-2588.536310205946
 30
0.0
 41
1.0
  0
SPLINE
  5
104
330
1F
100
AcDbEntity
  8
Make2D$Visibile$Curve
370
    -3
100
AcDbSpline
210
0.0
220
0.0
230
1.0
 70
    12
 71
     3
 72
     8
 73
     4
 74
     0
 42
0.0000000001
 43
0.0000000001
 40
46.2579988955216
 40
46.2579988955216
 40
46.2579988955216
 40
46.2579988955216
 40
48.2760313992352
 40
48.2760313992352
 40
48.2760313992352
 40
48.2760313992352
 10
6764.061885521365
 20
-2588.537710671069
 30
0.0
 41
0.9033859174052845
 10
6764.061745247943
 20
-2587.988174667025
 30
0.0
 41
0.9033859174052845
 10
6764.06161019912
 20
-2587.430935356158
 30
0.0
 41
0.9033859174052845
 10
6764.061480452981
 20
-2586.866494070791
 30
0.0
 41
0.9033859174052845
  0
SPLINE
  5
105
330
1F
100
AcDbEntity
  8
Make2D$Visibile$Curve
370
    -3
100
AcDbSpline
210
0.0
220
0.0
230
1.0
 70
    12
 71
     3
 72
     8
 73
     4
 74
     0
 42
0.0000000001
 43
0.0000000001
 40
50.8991782021275
 40
50.8991782021275
 40
50.8991782021275
 40
50.8991782021275
 40
52.91419066409904
 40
52.91419066409904
 40
52.91419066409904
 40
52.91419066409904
 10
6769.561885274562
 20
-2588.536454493775
 30
0.0
 41
1.0
 10
6769.562025333737
 20
-2589.08515604118
 30
0.0
 41
1.0
 10
6769.56216793178
 20
-2589.630113087221
 30
0.0
 41
1.0
 10
6769.562313050207
 20
-2590.171206992887
 30
0.0
 41
1.0
  0
SPLINE
  5
106
330
1F
100
AcDbEntity
  8
Make2D$Visibile$Curve
370
    -3
100
AcDbSpline
210
0.0
220
0.0
230
1.0
 70
    12
 71
     3
 72
     8
 73
     4
 74
     0
 42
0.0000000001
 43
0.0000000001
 40
88.45508156522284
 40
88.45508156522284
 40
88.45508156522284
 40
88.45508156522284
 40
90.47015073955939
 40
90.47015073955939
 40
90.47015073955939
 40
90.47015073955939
 10
6764.062313230326
 20
-2590.172678548734
 30
0.0
 41
0.9033859174052845
 10
6764.062168104581
 20
-2589.631560588191
 30
0.0
 41
0.9033859174052845
 10
6764.062025499494
 20
-2589.086579854583
 30
0.0
 41
0.9033859174052845
 10
6764.061885433543
 20
-2588.537854958898
 30
0.0
 41
0.9033859174052845
  0
SPLINE
  5
107
330
1F
100
AcDbEntity
  8
Make2D$Visibile$Curve
370
    -3
100
AcDbSpline
210
0.0
220
0.0
230
1.0
 70
    12
 71
     3
 72
     8
 73
     4
 74
     0
 42
0.0000000001
 43
0.0000000001
 40
115.6005468528796
 40
115.6005468528796
 40
115.6005468528796
 40
115.6005468528796
 40
117.6424501781345
 40
117.6424501781345
 40
117.6424501781345
 40
117.6424501781345
 10
6769.562312842184
 20
-2590.171565661741
 30
0.0
 41
1.0
 10
6769.56245989814
 20
-2590.719883030661
 30
0.0
 41
1.0
 10
6769.562608138785
 20
-2591.266384663421
 30
0.0
 41
1.0
 10
6769.56275756008
 20
-2591.811044696212
 30
0.0
 41
1.0
  0
SPLINE
  5
108
330
1F
100
AcDbEntity
  8
Make2D$Visibile$Curve
370
    -3
100
AcDbSpline
210
0.0
220
0.0
230
1.0
 70
    12
 71
     3
 72
     8
 73
     4
 74
     0
 42
0.0000000001
 43
0.0000000001
 40
186.6439662821999
 40
186.6439662821999
 40
186.6439662821999
 40
186.6439662821999
 40
188.6858960291063
 40
188.6858960291063
 40
188.6858960291063
 40
188.6858960291063
 10
6764.062757750591
 20
-2591.812550057786
 30
0.0
 41
0.9033859174052845
 10
6764.062608325769
 20
-2591.267878675739
 30
0.0
 41
0.9033859174052845
 10
6764.062460081665
 20
-2590.721365775334
 30
0.0
 41
0.9033859174052845
 10
6764.062313022303
 20
-2590.17303721759
 30
0.0
 41
0.9033859174052845
  0
SPLINE
  5
109
330
1F
100
AcDbEntity
  8
Make2D$Visibile$Curve
370
    -3
100
AcDbSpline
210
0.0
220
0.0
230
1.0
 70
    12
 71
     3
 72
     8
 73
     4
 74
     0
 42
0.0000000001
 43
0.0000000001
 40
152.2516450396634
 40
152.2516450396634
 40
152.2516450396634
 40
152.2516450396634
 40
154.2937047794646
 40
154.2937047794646
 40
154.2937047794646
 40
154.2937047794646
 10
6769.562758250428
 20
-2591.809826523978
 30
0.0
 41
0.9033859174052845
 10
6769.562907684947
 20
-2592.354533080563
 30
0.0
 41
0.9033859174052845
 10
6769.563055664202
 20
-2592.901509333667
 30
0.0
 41
0.9033859174052845
 10
6769.563202182072
 20
-2593.450716000608
 30
0.0
 41
0.9033859174052845
  0
SPLINE
  5
10A
330
1F
100
AcDbEntity
  8
Make2D$Visibile$Curve
370
    -3
100
AcDbSpline
210
0.0
220
0.0
230
1.0
 70
    12
 71
     3
 72
     8
 73
     4
 74
     0
 42
0.0000000001
 43
0.0000000001
 40
93.41842754904765
 40
93.41842754904765
 40
93.41842754904765
 40
93.41842754904765
 40
95.46045473677837
 40
95.46045473677837
 40
95.46045473677837
 40
95.46045473677837
 10
6764.063202359829
 20
-2593.452179775861
 30
0.0
 41
1.0
 10
6764.063055846119
 20
-2592.902986850527
 30
0.0
 41
1.0
 10
6764.062907871114
 20
-2592.356024457787
 30
0.0
 41
1.0
 10
6764.062758440939
 20
-2591.811331885551
 30
0.0
 41
1.0
  0
SPLINE
  5
10B
330
1F
100
AcDbEntity
  8
Make2D$Visibile$Curve
370
    -3
100
AcDbSpline
210
0.0
220
0.0
230
1.0
 70
    12
 71
     3
 72
     8
 73
     4
 74
     0
 42
0.0000000001
 43
0.0000000001
 40
85.36381267658973
 40
85.36381267658973
 40
85.36381267658973
 40
85.36381267658973
 40
87.47950168580849
 40
87.47950168580849
 40
87.47950168580849
 40
87.47950168580849
 10
6769.563202039632
 20
-2593.450960479424
 30
0.0
 41
0.9033859174052845
 10
6769.563353841205
 20
-2594.019971730133
 30
0.0
 41
0.9033859174052845
 10
6769.563502748539
 20
-2594.593400052813
 30
0.0
 41
0.9033859174052845
 10
6769.563648738469
 20
-2595.171096746489
 30
0.0
 41
0.9033859174052845
  0
SPLINE
  5
10C
330
1F
100
AcDbEntity
  8
Make2D$Visibile$Curve
370
    -3
100
AcDbSpline
210
0.0
220
0.0
230
1.0
 70
    12
 71
     3
 72
     8
 73
     4
 74
     0
 42
0.0000000001
 43
0.0000000001
 40
48.51719213083201
 40
48.51719213083201
 40
48.51719213083201
 40
48.51719213083201
 40
50.63281922161097
 40
50.63281922161097
 40
50.63281922161097
 40
50.63281922161097
 10
6764.063648893411
 20
-2595.172483235249
 30
0.0
 41
1.0
 10
6764.063502910766
 20
-2594.594811892911
 30
0.0
 41
1.0
 10
6764.063354011033
 20
-2594.021409320206
 30
0.0
 41
1.0
 10
6764.063202217391
 20
-2593.452424254678
 30
0.0
 41
1.0
  0
SPLINE
  5
10D
330
1F
100
AcDbEntity
  8
Make2D$Visibile$Curve
370
    -3
100
AcDbSpline
210
0.0
220
0.0
230
1.0
 70
    12
 71
     3
 72
     8
 73
     4
 74
     0
 42
0.0000000001
 43
0.0000000001
 40
50.8902907439285
 40
50.8902907439285
 40
50.8902907439285
 40
50.8902907439285
 40
53.00907016705595
 40
53.00907016705595
 40
53.00907016705595
 40
53.00907016705595
 10
6769.563648666905
 20
-2595.1712131649
 30
0.0
 41
0.9033859174052846
 10
6769.563794871267
 20
-2595.749757020852
 30
0.0
 41
0.9033859174052846
 10
6769.563935856703
 20
-2596.335935938488
 30
0.0
 41
0.9033859174052846
 10
6769.564071549215
 20
-2596.92927482814
 30
0.0
 41
0.9033859174052845
  0
SPLINE
  5
10E
330
1F
100
AcDbEntity
  8
Make2D$Visibile$Curve
370
    -3
100
AcDbSpline
210
0.0
220
0.0
230
1.0
 70
    12
 71
     3
 72
     8
 73
     4
 74
     0
 42
0.0000000001
 43
0.0000000001
 40
25.08220526709681
 40
25.08220526709681
 40
25.08220526709681
 40
25.08220526709681
 40
27.20087490833269
 40
27.20087490833269
 40
27.20087490833269
 40
27.20087490833269
 10
6764.064071668235
 20
-2596.930529761966
 30
0.0
 41
1.0
 10
6764.063935986741
 20
-2596.337233585485
 30
0.0
 41
1.0
 10
6764.063795013256
 20
-2595.751098449833
 30
0.0
 41
1.0
 10
6764.063648821849
 20
-2595.172599653661
 30
0.0
 41
1.0
  0
SPLINE
  5
10F
330
1F
100
AcDbEntity
  8
Make2D$Visibile$Curve
370
    -3
100
AcDbSpline
210
0.0
220
0.0
230
1.0
 70
    12
 71
     3
 72
     8
 73
     4
 74
     0
 42
0.0000000001
 43
0.0000000001
 40
45.32186011429282
 40
45.32186011429282
 40
45.32186011429282
 40
45.32186011429282
 40
47.76751302659186
 40
47.76751302659186
 40
47.76751302659186
 40
47.76751302659186
 10
6769.564071537442
 20
-2596.929292093102
 30
0.0
 41
0.9033859174052845
 10
6769.564228164269
 20
-2597.614169294899
 30
0.0
 41
0.9033859174052845
 10
6769.564376419299
 20
-2598.31037104971
 30
0.0
 41
0.9033859174052845
 10
6769.564516142166
 20
-2599.016867724752
 30
0.0
 41
0.9033859174052845
  0
SPLINE
  5
110
330
1F
100
AcDbEntity
  8
Make2D$Visibile$Curve
370
    -3
100
AcDbSpline
210
0.0
220
0.0
230
1.0
 70
    12
 71
     3
 72
     8
 73
     4
 74
     0
 42
0.0000000001
 43
0.0000000001
 40
18.68267199884015
 40
18.68267199884015
 40
18.68267199884015
 40
18.68267199884015
 40
21.12817587166719
 40
21.12817587166719
 40
21.12817587166719
 40
21.12817587166719
 10
6764.064516221201
 20
-2599.017953761266
 30
0.0
 41
1.0
 10
6764.064376510042
 20
-2598.311511725196
 30
0.0
 41
1.0
 10
6764.064228268281
 20
-2597.615366089671
 30
0.0
 41
1.0
 10
6764.064071656462
 20
-2596.930547026928
 30
0.0
 41
1.0
  0
SPLINE
  5
111
330
1F
100
AcDbEntity
  8
Make2D$Visibile$Curve
370
    -3
100
AcDbSpline
210
0.0
220
0.0
230
1.0
 70
    12
 71
     3
 72
     8
 73
     4
 74
     0
 42
0.0000000001
 43
0.0000000001
 40
40.26530187929617
 40
40.26530187929617
 40
40.26530187929617
 40
40.26530187929617
 40
42.7138640791405
 40
42.7138640791405
 40
42.7138640791405
 40
42.7138640791405
 10
6769.564516136413
 20
-2599.016875047917
 30
0.0
 41
0.9033859174052845
 10
6769.564656025831
 20
-2599.724213382322
 30
0.0
 41
0.9033859174052845
 10
6769.5647855507
 20
-2600.444057166744
 30
0.0
 41
0.9033859174052845
 10
6769.564904474696
 20
-2601.174888964249
 30
0.0
 41
0.9033859174052845
  0
SPLINE
  5
112
330
1F
100
AcDbEntity
  8
Make2D$Visibile$Curve
370
    -3
100
AcDbSpline
210
0.0
220
0.0
230
1.0
 70
    12
 71
     3
 72
     8
 73
     4
 74
     0
 42
0.0000000001
 43
0.0000000001
 40
12.96793328571465
 40
12.96793328571465
 40
12.96793328571465
 40
12.96793328571465
 40
15.41631694018777
 40
15.41631694018777
 40
15.41631694018777
 40
15.41631694018777
 10
6764.06490451797
 20
-2601.175783739577
 30
0.0
 41
1.0
 10
6764.064785603846
 20
-2600.445014138465
 30
0.0
 41
1.0
 10
6764.064656090785
 20
-2599.725233785179
 30
0.0
 41
1.0
 10
6764.064516215446
 20
-2599.01796108443
 30
0.0
 41
1.0
  0
SPLINE
  5
113
330
1F
100
AcDbEntity
  8
Make2D$Visibile$Curve
370
    -3
100
AcDbSpline
210
0.0
220
0.0
230
1.0
 70
    12
 71
     3
 72
     8
 73
     4
 74
     0
 42
0.0000000001
 43
0.0000000001
 40
41.30074324095772
 40
41.30074324095772
 40
41.30074324095772
 40
41.30074324095772
 40
44.33377822464744
 40
44.33377822464744
 40
44.33377822464744
 40
44.33377822464744
 10
6769.564904474601
 20
-2601.174889064098
 30
0.0
 41
0.9033859174052844
 10
6769.565051785831
 20
-2602.08017091587
 30
0.0
 41
0.9033859174052844
 10
6769.565182212846
 20
-2603.002953489045
 30
0.0
 41
0.9033859174052844
 10
6769.565295271688
 20
-2603.940129255052
 30
0.0
 41
0.9033859174052845
  0
SPLINE
  5
114
330
1F
100
AcDbEntity
  8
Make2D$Visibile$Curve
370
    -3
100
AcDbSpline
210
0.0
220
0.0
230
1.0
 70
    12
 71
     3
 72
     8
 73
     4
 74
     0
 42
0.0000000001
 43
0.0000000001
 40
9.460106857535239
 40
9.460106857535239
 40
9.460106857535239
 40
9.460106857535239
 40
12.49291814053421
 40
12.49291814053421
 40
12.49291814053421
 40
12.49291814053421
 10
6764.065295286445
 20
-2603.94079362492
 30
0.0
 41
1.0
 10
6764.065182234443
 20
-2603.003693935145
 30
0.0
 41
1.0
 10
6764.065051816698
 20
-2602.080987472012
 30
0.0
 41
1.0
 10
6764.064904517875
 20
-2601.175783839427
 30
0.0
 41
1.0
  0
SPLINE
  5
115
330
1F
100
AcDbEntity
  8
Make2D$Visibile$Curve
370
    -3
100
AcDbSpline
210
0.0
220
0.0
230
1.0
 70
    12
 71
     3
 72
     8
 73
     4
 74
     0
 42
0.0000000001
 43
0.0000000001
 40
45.70036187022607
 40
45.70036187022607
 40
45.70036187022607
 40
45.70036187022607
 40
48.72826145589438
 40
48.72826145589438
 40
48.72826145589438
 40
48.72826145589438
 10
6769.565295271786
 20
-2603.940129200722
 30
0.0
 41
0.9033859174052845
 10
6769.565408139228
 20
-2604.875718068871
 30
0.0
 41
0.9033859174052845
 10
6769.565504266354
 20
-2605.825179851619
 30
0.0
 41
0.9033859174052845
 10
6769.56558320279
 20
-2606.785622694543
 30
0.0
 41
0.9033859174052845
  0
SPLINE
  5
116
330
1F
100
AcDbEntity
  8
Make2D$Visibile$Curve
370
    -3
100
AcDbSpline
210
0.0
220
0.0
230
1.0
 70
    12
 71
     3
 72
     8
 73
     4
 74
     0
 42
0.0000000001
 43
0.0000000001
 40
6.754022029592026
 40
6.754022029592026
 40
6.754022029592026
 40
6.754022029592026
 40
9.781716769290416
 40
9.781716769290416
 40
9.781716769290416
 40
9.781716769290416
 10
6764.065583204748
 20
-2606.786075534454
 30
0.0
 41
1.0
 10
6764.065504270867
 20
-2605.825704334436
 30
0.0
 41
1.0
 10
6764.065408147794
 20
-2604.876312428439
 30
0.0
 41
1.0
 10
6764.065295286543
 20
-2603.94079357059
 30
0.0
 41
1.0
  0
SPLINE
  5
117
330
1F
100
AcDbEntity
  8
Make2D$Visibile$Curve
370
    -3
100
AcDbSpline
210
0.0
220
0.0
230
1.0
 70
    12
 71
     3
 72
     8
 73
     4
 74
     0
 42
0.0000000001
 43
0.0000000001
 40
51.14570852096539
 40
51.14570852096539
 40
51.14570852096539
 40
51.14570852096539
 40
53.08822110576461
 40
53.08822110576461
 40
53.08822110576461
 40
53.08822110576461
 10
6769.565583204138
 20
-2606.78562198289
 30
0.0
 41
0.9033859174052844
 10
6769.565633844905
 20
-2607.401782434613
 30
0.0
 41
0.9033859174052844
 10
6769.565677774275
 20
-2608.022229981548
 30
0.0
 41
0.9033859174052844
 10
6769.56571488524
 20
-2608.646277552188
 30
0.0
 41
0.9033859174052845
  0
SPLINE
  5
118
330
1F
100
AcDbEntity
  8
Make2D$Visibile$Curve
370
    -3
100
AcDbSpline
210
0.0
220
0.0
230
1.0
 70
    12
 71
     3
 72
     8
 73
     4
 74
     0
 42
0.0000000001
 43
0.0000000001
 40
5.177746697603355
 40
5.177746697603355
 40
5.177746697603355
 40
5.177746697603355
 40
7.120142846379498
 40
7.120142846379498
 40
7.120142846379498
 40
7.120142846379498
 10
6764.065714884516
 20
-2608.646605131892
 30
0.0
 41
1.0
 10
6764.065677774043
 20
-2608.022600223672
 30
0.0
 41
1.0
 10
6764.06563384552
 20
-2607.402194284517
 30
0.0
 41
1.0
 10
6764.065583206094
 20
-2606.786074822801
 30
0.0
 41
1.0
  0
SPLINE
  5
119
330
1F
100
AcDbEntity
  8
Make2D$Visibile$Curve
370
    -3
100
AcDbSpline
210
0.0
220
0.0
230
1.0
 70
    12
 71
     3
 72
     8
 73
     4
 74
     0
 42
0.0000000001
 43
0.0000000001
 40
58.09538575796573
 40
58.09538575796573
 40
58.09538575796573
 40
58.09538575796573
 40
60.03229253799041
 40
60.03229253799041
 40
60.03229253799041
 40
60.03229253799041
 10
6769.565714888828
 20
-2608.646276180415
 30
0.0
 41
0.9033859174052845
 10
6769.565751892778
 20
-2609.268522592374
 30
0.0
 41
0.9033859174052845
 10
6769.565782762927
 20
-2609.894007531613
 30
0.0
 41
0.9033859174052845
 10
6769.565807412415
 20
-2610.522173343293
 30
0.0
 41
0.9033859174052845
  0
SPLINE
  5
11A
330
1F
100
AcDbEntity
  8
Make2D$Visibile$Curve
370
    -3
100
AcDbSpline
210
0.0
220
0.0
230
1.0
 70
    12
 71
     3
 72
     8
 73
     4
 74
     0
 42
0.0000000001
 43
0.0000000001
 40
3.78569172538188
 40
3.78569172538188
 40
3.78569172538188
 40
3.78569172538188
 40
5.722500503816009
 40
5.722500503816009
 40
5.722500503816009
 40
5.722500503816009
 10
6764.065807411366
 20
-2610.522389413027
 30
0.0
 41
1.0
 10
6764.065782761817
 20
-2609.894261824151
 30
0.0
 41
1.0
 10
6764.065751891742
 20
-2609.268813945934
 30
0.0
 41
1.0
 10
6764.065714888103
 20
-2608.64660376012
 30
0.0
 41
1.0
  0
SPLINE
  5
11B
330
1F
100
AcDbEntity
  8
Make2D$Visibile$Curve
370
    -3
100
AcDbSpline
210
0.0
220
0.0
230
1.0
 70
    12
 71
     3
 72
     8
 73
     4
 74
     0
 42
0.0000000001
 43
0.0000000001
 40
63.65322113319976
 40
63.65322113319976
 40
63.65322113319976
 40
63.65322113319976
 40
65.8160894191547
 40
65.8160894191547
 40
65.8160894191547
 40
65.8160894191547
 10
6769.56580741439
 20
-2610.52217283592
 30
0.0
 41
0.9033859174052845
 10
6769.565834939558
 20
-2611.223620888146
 30
0.0
 41
0.9033859174052845
 10
6769.56585518051
 20
-2611.928208127842
 30
0.0
 41
0.9033859174052845
 10
6769.565868030591
 20
-2612.635249784771
 30
0.0
 41
0.9033859174052845
  0
SPLINE
  5
11C
330
1F
100
AcDbEntity
  8
Make2D$Visibile$Curve
370
    -3
100
AcDbSpline
210
0.0
220
0.0
230
1.0
 70
    12
 71
     3
 72
     8
 73
     4
 74
     0
 42
0.0000000001
 43
0.0000000001
 40
1.868506602292318
 40
1.868506602292318
 40
1.868506602292318
 40
1.868506602292318
 40
4.031280718940065
 40
4.031280718940065
 40
4.031280718940065
 40
4.031280718940065
 10
6764.065868030194
 20
-2612.635349832126
 30
0.0
 41
1.0
 10
6764.065855179892
 20
-2611.928348358665
 30
0.0
 41
1.0
 10
6764.065834938682
 20
-2611.223799664718
 30
0.0
 41
1.0
 10
6764.065807413342
 20
-2610.522388905654
 30
0.0
 41
1.0
  0
SPLINE
  5
11D
330
1F
100
AcDbEntity
  8
Make2D$Visibile$Curve
370
    -3
100
AcDbSpline
210
0.0
220
0.0
230
1.0
 70
    12
 71
     3
 72
     8
 73
     4
 74
     0
 42
0.0000000001
 43
0.0000000001
 40
75.22074861228057
 40
75.22074861228057
 40
75.22074861228057
 40
75.22074861228057
 40
77.37477231621092
 40
77.37477231621092
 40
77.37477231621092
 40
77.37477231621092
 10
6769.565868032464
 20
-2612.635249565469
 30
0.0
 41
0.9033859174052847
 10
6769.565880830051
 20
-2613.339399308248
 30
0.0
 41
0.9033859174052847
 10
6769.565887268486
 20
-2614.045660752673
 30
0.0
 41
0.9033859174052846
 10
6769.565887268485
 20
-2614.753524865512
 30
0.0
 41
0.9033859174052845
  0
SPLINE
  5
11E
330
1F
100
AcDbEntity
  8
Make2D$Visibile$Curve
370
    -3
100
AcDbSpline
210
0.0
220
0.0
230
1.0
 70
    12
 71
     3
 72
     8
 73
     4
 74
     0
 42
0.0000000001
 43
0.0000000001
 40
0.0
 40
0.0
 40
0.0
 40
0.0
 40
2.153950478613028
 40
2.153950478613028
 40
2.153950478613028
 40
2.153950478613028
 10
6764.065887268486
 20
-2614.753524865512
 30
0.0
 41
1.0
 10
6764.065887268486
 20
-2614.045695477636
 30
0.0
 41
1.0
 10
6764.065880829889
 20
-2613.339467297625
 30
0.0
 41
1.0
 10
6764.065868032066
 20
-2612.635349612822
 30
0.0
 41
1.0
  0
SPLINE
  5
11F
330
1F
100
AcDbEntity
  8
Make2D$Visibile$Curve
370
    -3
100
AcDbSpline
210
0.0
220
0.0
230
1.0
 70
    28
 71
     2
 72
     6
 73
     3
 74
     0
 42
0.0000000001
 43
0.0000000001
 40
2.596400934769933
 40
2.596400934769933
 40
2.596400934769933
 40
17.59640093476985
 40
17.59640093476985
 40
17.59640093476985
 10
6769.565887268504
 20
-2614.753524865502
 30
0.0
 41
0.8844057506030798
 10
6769.565887268504
 20
-2622.253524865502
 30
0.0
 41
0.8844057506030798
 10
6769.565887268506
 20
-2629.753524865502
 30
0.0
 41
0.8844057506030798
  0
SPLINE
  5
120
330
1F
100
AcDbEntity
  8
Make2D$Visibile$Curve
370
    -3
100
AcDbSpline
210
0.0
220
0.0
230
1.0
 70
    28
 71
     2
 72
     6
 73
     3
 74
     0
 42
0.0000000001
 43
0.0000000001
 40
2.596400934763901
 40
2.596400934763901
 40
2.596400934763901
 40
17.59640093476402
 40
17.59640093476402
 40
17.59640093476402
 10
6764.065887268497
 20
-2629.753524865503
 30
0.0
 41
0.8844057506030796
 10
6764.0658872685
 20
-2622.253524865502
 30
0.0
 41
0.8844057506030796
 10
6764.065887268504
 20
-2614.753524865502
 30
0.0
 41
0.8844057506030796
  0
SPLINE
  5
121
330
1F
100
AcDbEntity
  8
Make2D$Visibile$Curve
370
    -3
100
AcDbSpline
210
0.0
220
0.0
230
1.0
 70
     8
 71
     3
 72
     8
 73
     4
 74
     0
 42
0.0000000001
 43
0.0000000001
 40
3.305244881535359
 40
3.305244881535359
 40
3.305244881535359
 40
3.305244881535359
 40
9.815550118585582
 40
9.815550118585582
 40
9.815550118585582
 40
9.815550118585582
 10
6769.565887265223
 20
-2629.753524865505
 30
0.0
 10
6769.565887262416
 20
-2631.923639952105
 30
0.0
 10
6769.565844642747
 20
-2634.093793685141
 30
0.0
 10
6769.565759412623
 20
-2636.263800719159
 30
0.0
  0
SPLINE
  5
122
330
1F
100
AcDbEntity
  8
Make2D$Visibile$Curve
370
    -3
100
AcDbSpline
210
0.0
220
0.0
230
1.0
 70
     8
 71
     3
 72
     8
 73
     4
 74
     0
 42
0.0000000001
 43
0.0000000001
 40
3.33237793162067
 40
3.33237793162067
 40
3.33237793162067
 40
3.33237793162067
 40
9.842467729613121
 40
9.842467729613121
 40
9.842467729613121
 40
9.842467729613121
 10
6764.065759416867
 20
-2636.263584691713
 30
0.0
 10
6764.065844645999
 20
-2634.093602881606
 30
0.0
 10
6764.065887262416
 20
-2631.923521154311
 30
0.0
 10
6764.065887265223
 20
-2629.753524865497
 30
0.0
  0
SPLINE
  5
123
330
1F
100
AcDbEntity
  8
Make2D$Visibile$Curve
370
    -3
100
AcDbSpline
210
0.0
220
0.0
230
1.0
 70
     8
 71
     3
 72
     8
 73
     4
 74
     0
 42
0.0000000001
 43
0.0000000001
 40
3.333437853494047
 40
3.333437853494047
 40
3.333437853494047
 40
3.333437853494047
 40
9.843743427807539
 40
9.843743427807539
 40
9.843743427807539
 40
9.843743427807539
 10
6769.565759413056
 20
-2636.263800719808
 30
0.0
 10
6769.565674175939
 20
-2638.433853036206
 30
0.0
 10
6769.565548529118
 20
-2640.603881412804
 30
0.0
 10
6769.565382484615
 20
-2642.773719218508
 30
0.0
  0
SPLINE
  5
124
330
1F
100
AcDbEntity
  8
Make2D$Visibile$Curve
370
    -3
100
AcDbSpline
210
0.0
220
0.0
230
1.0
 70
     8
 71
     3
 72
     8
 73
     4
 74
     0
 42
0.0000000001
 43
0.0000000001
 40
3.359158968070409
 40
3.359158968070409
 40
3.359158968070409
 40
3.359158968070409
 40
9.869260197074729
 40
9.869260197074729
 40
9.869260197074729
 40
9.869260197074729
 10
6764.065382500718
 20
-2642.773298330806
 30
0.0
 10
6764.065548543228
 20
-2640.603486576099
 30
0.0
 10
6764.065674184522
 20
-2638.433526481125
 30
0.0
 10
6764.065759417298
 20
-2636.263584692362
 30
0.0
  0
SPLINE
  5
125
330
1F
100
AcDbEntity
  8
Make2D$Visibile$Curve
370
    -3
100
AcDbSpline
210
0.0
220
0.0
230
1.0
 70
     8
 71
     3
 72
     8
 73
     4
 74
     0
 42
0.0000000001
 43
0.0000000001
 40
3.355535089316124
 40
3.355535089316124
 40
3.355535089316124
 40
3.355535089316124
 40
9.8508192423883
 40
9.8508192423883
 40
9.8508192423883
 40
9.8508192423883
 10
6769.565382487211
 20
-2642.773719224971
 30
0.0
 10
6769.565216820384
 20
-2644.938584111353
 30
0.0
 10
6769.565027947868
 20
-2647.103394845809
 30
0.0
 10
6769.56481587492
 20
-2649.268096344294
 30
0.0
  0
SPLINE
  5
126
330
1F
100
AcDbEntity
  8
Make2D$Visibile$Curve
370
    -3
100
AcDbSpline
210
0.0
220
0.0
230
1.0
 70
     8
 71
     3
 72
     8
 73
     4
 74
     0
 42
0.0000000001
 43
0.0000000001
 40
3.370335742746171
 40
3.370335742746171
 40
3.370335742746171
 40
3.370335742746171
 40
9.865502067294178
 40
9.865502067294178
 40
9.865502067294178
 40
9.865502067294178
 10
6764.064815901314
 20
-2649.267557515373
 30
0.0
 10
6764.065027971784
 20
-2647.102881316674
 30
0.0
 10
6764.06521684057
 20
-2644.938109894655
 30
0.0
 10
6764.065382503314
 20
-2642.773298337268
 30
0.0
  0
SPLINE
  5
127
330
1F
100
AcDbEntity
  8
Make2D$Visibile$Curve
370
    -3
100
AcDbSpline
210
0.0
220
0.0
230
1.0
 70
     8
 71
     3
 72
     8
 73
     4
 74
     0
 42
0.0000000001
 43
0.0000000001
 40
3.361307245810341
 40
3.361307245810341
 40
3.361307245810341
 40
3.361307245810341
 40
9.856540118364387
 40
9.856540118364387
 40
9.856540118364387
 40
9.856540118364387
 10
6769.564815890083
 20
-2649.268096346195
 30
0.0
 10
6769.564603817377
 20
-2651.432790673442
 30
0.0
 10
6769.564395977827
 20
-2653.597500687348
 30
0.0
 10
6769.564192371609
 20
-2655.762224554401
 30
0.0
  0
SPLINE
  5
128
330
1F
100
AcDbEntity
  8
Make2D$Visibile$Curve
370
    -3
100
AcDbSpline
210
0.0
220
0.0
230
1.0
 70
     8
 71
     3
 72
     8
 73
     4
 74
     0
 42
0.0000000001
 43
0.0000000001
 40
3.358607317114261
 40
3.358607317114261
 40
3.358607317114261
 40
3.358607317114261
 40
9.853861703930132
 40
9.853861703930132
 40
9.853861703930132
 40
9.853861703930132
 10
6764.064192395937
 20
-2655.761707243995
 30
0.0
 10
6764.064396002875
 20
-2653.59697573784
 30
0.0
 10
6764.064603843114
 20
-2651.432258551108
 30
0.0
 10
6764.064815916477
 20
-2649.267557517283
 30
0.0
  0
SPLINE
  5
129
330
1F
100
AcDbEntity
  8
Make2D$Visibile$Curve
370
    -3
100
AcDbSpline
210
0.0
220
0.0
230
1.0
 70
     8
 71
     3
 72
     8
 73
     4
 74
     0
 42
0.0000000001
 43
0.0000000001
 40
2.528006347835858
 40
2.528006347835858
 40
2.528006347835858
 40
2.528006347835858
 40
13.89343519379216
 40
13.89343519379216
 40
13.89343519379216
 40
13.89343519379216
 10
6769.564192356304
 20
-2655.762224554669
 30
0.0
 10
6769.563836084129
 20
-2659.550081305732
 30
0.0
 10
6769.563511823223
 20
-2663.338063750317
 30
0.0
 10
6769.563219578446
 20
-2667.126111963988
 30
0.0
  0
SPLINE
  5
12A
330
1F
100
AcDbEntity
  8
Make2D$Visibile$Curve
370
    -3
100
AcDbSpline
210
0.0
220
0.0
230
1.0
 70
     8
 71
     3
 72
     8
 73
     4
 74
     0
 42
0.0000000001
 43
0.0000000001
 40
2.516308943397202
 40
2.516308943397202
 40
2.516308943397202
 40
2.516308943397202
 40
13.88183073344844
 40
13.88183073344844
 40
13.88183073344844
 40
13.88183073344844
 10
6764.063219594816
 20
-2667.125687643742
 30
0.0
 10
6764.063511842817
 20
-2663.337597618836
 30
0.0
 10
6764.063836106557
 20
-2659.549584178272
 30
0.0
 10
6764.064192380633
 20
-2655.761707244261
 30
0.0
  0
SPLINE
  5
12B
330
1F
100
AcDbEntity
  8
Make2D$Visibile$Curve
370
    -3
100
AcDbSpline
210
0.0
220
0.0
230
1.0
 70
     8
 71
     3
 72
     8
 73
     4
 74
     0
 42
0.0000000001
 43
0.0000000001
 40
2.510739950167888
 40
2.510739950167888
 40
2.510739950167888
 40
2.510739950167888
 40
13.87616760648681
 40
13.87616760648681
 40
13.87616760648681
 40
13.87616760648681
 10
6769.563219578539
 20
-2667.126111964009
 30
0.0
 10
6769.562927333242
 20
-2670.91417057105
 30
0.0
 10
6769.562667688539
 20
-2674.702337120787
 30
0.0
 10
6769.562440648401
 20
-2678.490549466753
 30
0.0
  0
SPLINE
  5
12C
330
1F
100
AcDbEntity
  8
Make2D$Visibile$Curve
370
    -3
100
AcDbSpline
210
0.0
220
0.0
230
1.0
 70
     8
 71
     3
 72
     8
 73
     4
 74
     0
 42
0.0000000001
 43
0.0000000001
 40
2.498825455070129
 40
2.498825455070129
 40
2.498825455070129
 40
2.498825455070129
 40
13.86434775506683
 40
13.86434775506683
 40
13.86434775506683
 40
13.86434775506683
 10
6764.06244065828
 20
-2678.490219833657
 30
0.0
 10
6764.062667700981
 20
-2674.70196473341
 30
0.0
 10
6764.06292734804
 20
-2670.913766621936
 30
0.0
 10
6764.063219594908
 20
-2667.125687643724
 30
0.0
  0
SPLINE
  5
12D
330
1F
100
AcDbEntity
  8
Make2D$Visibile$Curve
370
    -3
100
AcDbSpline
210
0.0
220
0.0
230
1.0
 70
     8
 71
     3
 72
     8
 73
     4
 74
     0
 42
0.0000000001
 43
0.0000000001
 40
1.865855650674745
 40
1.865855650674745
 40
1.865855650674745
 40
1.865855650674745
 40
19.7611217232572
 40
19.7611217232572
 40
19.7611217232572
 40
19.7611217232572
 10
6769.562440648165
 20
-2678.490549466612
 30
0.0
 10
6769.562083165109
 20
-2684.45523578141
 30
0.0
 10
6769.56178657034
 20
-2690.420092269996
 30
0.0
 10
6769.561550870068
 20
-2696.384981257515
 30
0.0
  0
SPLINE
  5
12E
330
1F
100
AcDbEntity
  8
Make2D$Visibile$Curve
370
    -3
100
AcDbSpline
210
0.0
220
0.0
230
1.0
 70
     8
 71
     3
 72
     8
 73
     4
 74
     0
 42
0.0000000001
 43
0.0000000001
 40
1.851707994678588
 40
1.851707994678588
 40
1.851707994678588
 40
1.851707994678588
 40
19.74708631551512
 40
19.74708631551512
 40
19.74708631551512
 40
19.74708631551512
 10
6764.061550874362
 20
-2696.3847639273
 30
0.0
 10
6764.061786576934
 20
-2690.419816721441
 30
0.0
 10
6764.06208317399
 20
-2684.454922799646
 30
0.0
 10
6764.062440658044
 20
-2678.490219833569
 30
0.0
  0
SPLINE
  5
12F
330
1F
100
AcDbEntity
  8
Make2D$Visibile$Curve
370
    -3
100
AcDbSpline
210
0.0
220
0.0
230
1.0
 70
     8
 71
     3
 72
     8
 73
     4
 74
     0
 42
0.0000000001
 43
0.0000000001
 40
1.840536304233874
 40
1.840536304233874
 40
1.840536304233874
 40
1.840536304233874
 40
19.73583679422255
 40
19.73583679422255
 40
19.73583679422255
 40
19.73583679422255
 10
6769.561550869536
 20
-2696.384981257505
 30
0.0
 10
6769.561315168
 20
-2702.349907136804
 30
0.0
 10
6769.561115005478
 20
-2708.314896947795
 30
0.0
 10
6769.560950383416
 20
-2714.279903792014
 30
0.0
  0
SPLINE
  5
130
330
1F
100
AcDbEntity
  8
Make2D$Visibile$Curve
370
    -3
100
AcDbSpline
210
0.0
220
0.0
230
1.0
 70
     8
 71
     3
 72
     8
 73
     4
 74
     0
 42
0.0000000001
 43
0.0000000001
 40
1.832278235825011
 40
1.832278235825011
 40
1.832278235825011
 40
1.832278235825011
 40
19.72764425607296
 40
19.72764425607296
 40
19.72764425607296
 40
19.72764425607296
 10
6764.060950385511
 20
-2714.279752003225
 30
0.0
 10
6764.061115008371
 20
-2708.314716246477
 30
0.0
 10
6764.061315171711
 20
-2702.349704588504
 30
0.0
 10
6764.061550873831
 20
-2696.384763927283
 30
0.0
  0
SPLINE
  5
131
330
1F
100
AcDbEntity
  8
Make2D$Visibile$Curve
370
    -3
100
AcDbSpline
210
0.0
220
0.0
230
1.0
 70
     8
 71
     3
 72
     8
 73
     4
 74
     0
 42
0.0000000001
 43
0.0000000001
 40
1.903131380152171
 40
1.903131380152171
 40
1.903131380152171
 40
1.903131380152171
 40
18.7487144896689
 40
18.7487144896689
 40
18.7487144896689
 40
18.7487144896689
 10
6769.560950400656
 20
-2714.279903791998
 30
0.0
 10
6769.560795434964
 20
-2719.895017969971
 30
0.0
 10
6769.560666172331
 20
-2725.510165019865
 30
0.0
 10
6769.560562613299
 20
-2731.125318882721
 30
0.0
  0
SPLINE
  5
132
330
1F
100
AcDbEntity
  8
Make2D$Visibile$Curve
370
    -3
100
AcDbSpline
210
0.0
220
0.0
230
1.0
 70
     8
 71
     3
 72
     8
 73
     4
 74
     0
 42
0.0000000001
 43
0.0000000001
 40
1.896787045861969
 40
1.896787045861969
 40
1.896787045861969
 40
1.896787045861969
 40
18.74242050388992
 40
18.74242050388992
 40
18.74242050388992
 40
18.74242050388992
 10
6764.060562614234
 20
-2731.125217447453
 30
0.0
 10
6764.060666173648
 20
-2725.510042807983
 30
0.0
 10
6764.060795436707
 20
-2719.894878973638
 30
0.0
 10
6764.06095040275
 20
-2714.279752003202
 30
0.0
  0
SPLINE
  5
133
330
1F
100
AcDbEntity
  8
Make2D$Visibile$Curve
370
    -3
100
AcDbSpline
210
0.0
220
0.0
230
1.0
 70
     8
 71
     3
 72
     8
 73
     4
 74
     0
 42
0.0000000001
 43
0.0000000001
 40
1.89196079494718
 40
1.89196079494718
 40
1.89196079494718
 40
1.89196079494718
 40
18.73755321839029
 40
18.73755321839029
 40
18.73755321839029
 40
18.73755321839029
 10
6769.560562620237
 20
-2731.12531888272
 30
0.0
 10
6769.560459061081
 20
-2736.740480493461
 30
0.0
 10
6769.560373411528
 20
-2742.355657544922
 30
0.0
 10
6769.560305671751
 20
-2747.97083738533
 30
0.0
  0
SPLINE
  5
134
330
1F
100
AcDbEntity
  8
Make2D$Visibile$Curve
370
    -3
100
AcDbSpline
210
0.0
220
0.0
230
1.0
 70
     8
 71
     3
 72
     8
 73
     4
 74
     0
 42
0.0000000001
 43
0.0000000001
 40
1.887540067514615
 40
1.887540067514615
 40
1.887540067514615
 40
1.887540067514615
 40
18.73316757425841
 40
18.73316757425841
 40
18.73316757425841
 40
18.73316757425841
 10
6764.060305672151
 20
-2747.970771035043
 30
0.0
 10
6764.060373412093
 20
-2742.355577563362
 30
0.0
 10
6764.060459061838
 20
-2736.740388816924
 30
0.0
 10
6764.060562621172
 20
-2731.125217447452
 30
0.0
  0
SPLINE
  5
135
330
1F
100
AcDbEntity
  8
Make2D$Visibile$Curve
370
    -3
100
AcDbSpline
210
0.0
220
0.0
230
1.0
 70
     8
 71
     3
 72
     8
 73
     4
 74
     0
 42
0.0000000001
 43
0.0000000001
 40
1.555788274793741
 40
1.555788274793741
 40
1.555788274793741
 40
1.555788274793741
 40
23.66637632108002
 40
23.66637632108002
 40
23.66637632108002
 40
23.66637632108002
 10
6769.560305676055
 20
-2747.97083738533
 30
0.0
 10
6769.560216764573
 20
-2755.341012401017
 30
0.0
 10
6769.560153857877
 20
-2762.711204320982
 30
0.0
 10
6769.560116956108
 20
-2770.081392823107
 30
0.0
  0
SPLINE
  5
136
330
1F
100
AcDbEntity
  8
Make2D$Visibile$Curve
370
    -3
100
AcDbSpline
210
0.0
220
0.0
230
1.0
 70
     8
 71
     3
 72
     8
 73
     4
 74
     0
 42
0.0000000001
 43
0.0000000001
 40
1.550896182012774
 40
1.550896182012774
 40
1.550896182012774
 40
1.550896182012774
 40
23.66152303867181
 40
23.66152303867181
 40
23.66152303867181
 40
23.66152303867181
 10
6764.060116956177
 20
-2770.081365285174
 30
0.0
 10
6764.060153858026
 20
-2762.711160948416
 30
0.0
 10
6764.060216764853
 20
-2755.340956091018
 30
0.0
 10
6764.060305676455
 20
-2747.970771035042
 30
0.0
  0
SPLINE
  5
137
330
1F
100
AcDbEntity
  8
Make2D$Visibile$Curve
370
    -3
100
AcDbSpline
210
0.0
220
0.0
230
1.0
 70
    12
 71
     2
 72
     6
 73
     3
 74
     0
 42
0.0000000001
 43
0.0000000001
 40
1.546720941405724
 40
1.546720941405724
 40
1.546720941405724
 40
23.65731610169455
 40
23.65731610169455
 40
23.65731610169455
 10
6769.560116966955
 20
-2770.081392823104
 30
0.0
 41
0.9978542942017427
 10
6769.560061614261
 20
-2781.136685650569
 30
0.0
 41
0.9978541787947554
 10
6769.56006161426
 20
-2792.191983593248
 30
0.0
 41
0.9978542942380029
  0
SPLINE
  5
138
330
1F
100
AcDbEntity
  8
Make2D$Visibile$Curve
370
    -3
100
AcDbSpline
210
0.0
220
0.0
230
1.0
 70
    12
 71
     2
 72
     6
 73
     3
 74
     0
 42
0.0000000001
 43
0.0000000001
 40
1.543249895201712
 40
1.543249895201712
 40
1.543249895201712
 40
23.6538725934156
 40
23.6538725934156
 40
23.6538725934156
 10
6764.06006161426
 20
-2792.191983593243
 30
0.0
 41
0.9978542942380072
 10
6764.060061614257
 20
-2781.136671881601
 30
0.0
 41
0.9978541787947595
 10
6764.060116967025
 20
-2770.081365285176
 30
0.0
 41
0.9978542942017469
  0
SPLINE
  5
139
330
1F
100
AcDbEntity
  8
Make2D$Visibile$Curve
370
    -3
100
AcDbSpline
210
0.0
220
0.0
230
1.0
 70
    28
 71
     2
 72
     6
 73
     3
 74
     0
 42
0.0000000001
 43
0.0000000001
 40
1.957301412597313
 40
1.957301412597313
 40
1.957301412597313
 40
10.56630619086318
 40
10.56630619086318
 40
10.56630619086318
 10
6769.560061576066
 20
-2792.191983593252
 30
0.0
 41
0.8844057506029861
 10
6769.560061576066
 20
-2796.496485982386
 30
0.0
 41
0.8844057506029861
 10
6769.560061576066
 20
-2800.800988371518
 30
0.0
 41
0.8844057506029861
  0
SPLINE
  5
13A
330
1F
100
AcDbEntity
  8
Make2D$Visibile$Curve
370
    -3
100
AcDbSpline
210
0.0
220
0.0
230
1.0
 70
    28
 71
     2
 72
     6
 73
     3
 74
     0
 42
0.0000000001
 43
0.0000000001
 40
1.957301412590064
 40
1.957301412590064
 40
1.957301412590064
 40
10.56630619085609
 40
10.56630619085609
 40
10.56630619085609
 10
6764.060061576066
 20
-2800.800988371518
 30
0.0
 41
0.8844057506029861
 10
6764.060061576066
 20
-2796.496485982386
 30
0.0
 41
0.8844057506029861
 10
6764.060061576066
 20
-2792.191983593252
 30
0.0
 41
0.8844057506029861
  0
SPLINE
  5
13B
330
1F
100
AcDbEntity
  8
Make2D$Visibile$Curve
370
    -3
100
AcDbSpline
210
0.0
220
0.0
230
1.0
 70
    28
 71
     2
 72
     8
 73
     5
 74
     0
 42
0.0000000001
 43
0.0000000001
 40
496.1724329525838
 40
496.1724329525838
 40
496.1724329525838
 40
513.1545978273815
 40
513.1545978273815
 40
530.136762702179
 40
530.136762702179
 40
530.136762702179
 10
6821.870224362269
 20
-2506.357641373262
 30
0.0
 41
0.8535533909026436
 10
6821.870224362272
 20
-2506.357641373261
 30
0.0
 41
0.853560121580013
 10
6815.866236693545
 20
-2506.357641373261
 30
0.0
 41
1.0
 10
6809.862249024821
 20
-2506.357641373261
 30
0.0
 41
0.8535601215800146
 10
6801.371004939454
 20
-2506.357641373261
 30
0.0
 41
0.8535533909026436
  0
SPLINE
  5
13C
330
1F
100
AcDbEntity
  8
Make2D$Visibile$Curve
370
    -3
100
AcDbSpline
210
0.0
220
0.0
230
1.0
 70
    28
 71
     2
 72
     8
 73
     5
 74
     0
 42
0.0000000001
 43
0.0000000001
 40
599.2586494288724
 40
599.2586494288724
 40
599.2586494288724
 40
616.2408143036699
 40
616.2408143036699
 40
633.2229791784677
 40
633.2229791784677
 40
633.2229791784677
 10
6732.24911821276
 20
-2506.357641373262
 30
0.0
 41
0.8535533909026436
 10
6723.757874127393
 20
-2506.357641373262
 30
0.0
 41
0.853560121580014
 10
6717.75388645867
 20
-2506.357641373261
 30
0.0
 41
1.0
 10
6711.749898789945
 20
-2506.357641373261
 30
0.0
 41
0.8535601215800124
 10
6711.749898789947
 20
-2506.357641373261
 30
0.0
 41
0.8535533909026437
  0
SPLINE
  5
13D
330
1F
100
AcDbEntity
  8
Make2D$Visibile$Curve
370
    -3
100
AcDbSpline
210
0.0
220
0.0
230
1.0
 70
    28
 71
     2
 72
     8
 73
     5
 74
     0
 42
0.0000000001
 43
0.0000000001
 40
0.0
 40
0.0
 40
0.0
 40
15.32536830164661
 40
15.32536830164661
 40
30.65073660329315
 40
30.65073660329315
 40
30.65073660329315
 10
6819.459985419332
 20
-2555.357641373262
 30
0.0
 41
0.8535533909026436
 10
6819.459985419333
 20
-2555.357641373261
 30
0.0
 41
0.8535601215800137
 10
6814.041752645119
 20
-2555.357641373262
 30
0.0
 41
1.0
 10
6808.623519870903
 20
-2555.357641373261
 30
0.0
 41
0.8535601215800138
 10
6800.960689842645
 20
-2555.357641373262
 30
0.0
 41
0.8535533909026436
  0
SPLINE
  5
13E
330
1F
100
AcDbEntity
  8
Make2D$Visibile$Curve
370
    -3
100
AcDbSpline
210
0.0
220
0.0
230
1.0
 70
    28
 71
     2
 72
     8
 73
     5
 74
     0
 42
0.0000000001
 43
0.0000000001
 40
0.0
 40
0.0
 40
0.0
 40
15.32536830164657
 40
15.32536830164657
 40
30.65073660329316
 40
30.65073660329316
 40
30.65073660329316
 10
6732.659433309569
 20
-2555.357641373262
 30
0.0
 41
0.8535533909026438
 10
6724.996603281311
 20
-2555.357641373262
 30
0.0
 41
0.8535601215800142
 10
6719.578370507098
 20
-2555.357641373262
 30
0.0
 41
1.0
 10
6714.160137732883
 20
-2555.357641373261
 30
0.0
 41
0.8535601215800138
 10
6714.160137732882
 20
-2555.357641373262
 30
0.0
 41
0.8535533909026436
  0
SPLINE
  5
13F
330
1F
100
AcDbEntity
  8
Make2D$Visibile$Curve
370
    -3
100
AcDbSpline
210
0.0
220
0.0
230
1.0
 70
    24
 71
     2
 72
     6
 73
     3
 74
     0
 42
0.0000000001
 43
0.0000000001
 40
-47.02103370025731
 40
-47.02103370025731
 40
-47.02103370025731
 40
0.0
 40
0.0
 40
0.0
 10
6821.870224362271
 20
-2506.357641373262
 30
0.0
 10
6821.665066813866
 20
-2529.866367908761
 30
0.0
 10
6821.459909265462
 20
-2553.375094444259
 30
0.0
  0
SPLINE
  5
140
330
1F
100
AcDbEntity
  8
Make2D$Visibile$Curve
370
    -3
100
AcDbSpline
210
0.0
220
0.0
230
1.0
 70
    24
 71
     2
 72
     6
 73
     3
 74
     0
 42
0.0000000001
 43
0.0000000001
 40
-47.02103370025731
 40
-47.02103370025731
 40
-47.02103370025731
 40
0.0
 40
0.0
 40
0.0
 10
6712.160213886756
 20
-2553.375094444259
 30
0.0
 10
6711.955056338351
 20
-2529.86636790876
 30
0.0
 10
6711.749898789946
 20
-2506.357641373261
 30
0.0
  0
SPLINE
  5
141
330
1F
100
AcDbEntity
  8
Make2D$Visibile$Curve
370
    -3
100
AcDbSpline
210
0.0
220
0.0
230
1.0
 70
    12
 71
     2
 72
     8
 73
     5
 74
     0
 42
0.0000000001
 43
0.0000000001
 40
0.0
 40
0.0
 40
0.0
 40
1.646639561981879
 40
1.646639561981879
 40
3.293279123963504
 40
3.293279123963504
 40
3.293279123963504
 10
6712.160213886756
 20
-2553.375094444259
 30
0.0
 41
1.000000000000009
 10
6712.167398616049
 20
-2554.198382875755
 30
0.0
 41
0.8550926878116448
 10
6712.752108283971
 20
-2554.778012124508
 30
0.0
 41
0.8550926878116436
 10
6713.33681795189
 20
-2555.357641373262
 30
0.0
 41
0.8550926878116423
 10
6714.160137732883
 20
-2555.357641373261
 30
0.0
 41
1.000000000000004
  0
SPLINE
  5
142
330
1F
100
AcDbEntity
  8
Make2D$Visibile$Curve
370
    -3
100
AcDbSpline
210
0.0
220
0.0
230
1.0
 70
    12
 71
     2
 72
     8
 73
     5
 74
     0
 42
0.0000000001
 43
0.0000000001
 40
0.0
 40
0.0
 40
0.0
 40
1.646639561981983
 40
1.646639561981983
 40
2.271234839402466
 40
2.271234839402466
 40
2.271234839402466
 10
6821.459909265462
 20
-2553.375094444258
 30
0.0
 41
0.9999999999999999
 10
6821.452724536165
 20
-2554.198382875756
 30
0.0
 41
0.8550926878116433
 10
6820.868014868245
 20
-2554.778012124508
 30
0.0
 41
0.855092687811644
 10
6820.646225652392
 20
-2554.997874260574
 30
0.0
 41
0.8550926878116443
 10
6820.367966418812
 20
-2555.139654421639
 30
0.0
 41
0.8759419457549492
  0
SPLINE
  5
143
330
1F
100
AcDbEntity
  8
Make2D$Visibile$Curve
370
    -3
100
AcDbSpline
210
0.0
220
0.0
230
1.0
 70
    12
 71
     2
 72
     6
 73
     3
 74
     0
 42
0.0000000001
 43
0.0000000001
 40
2.271234839402466
 40
2.271234839402466
 40
2.271234839402466
 40
3.293279123964007
 40
3.293279123964007
 40
3.293279123964007
 10
6820.367966418812
 20
-2555.139654421639
 30
0.0
 41
0.8759419457549492
 10
6819.940142937495
 20
-2555.357641373261
 30
0.0
 41
0.9100582218278449
 10
6819.459985419334
 20
-2555.357641373262
 30
0.0
 41
1.000000000000003
  0
SPLINE
  5
144
330
1F
100
AcDbEntity
  8
Make2D$Visibile$Curve
370
    -3
100
AcDbSpline
210
0.0
220
0.0
230
1.0
 70
     8
 71
     3
 72
     8
 73
     4
 74
     0
 42
0.0000000001
 43
0.0000000001
 40
196.9625807160503
 40
196.9625807160503
 40
196.9625807160503
 40
196.9625807160503
 40
198.7979493928296
 40
198.7979493928296
 40
198.7979493928296
 40
198.7979493928296
 10
6775.131862652673
 20
-3020.062377241122
 30
0.0
 10
6775.240521351058
 20
-3020.486954246607
 30
0.0
 10
6775.294219593158
 20
-3020.920203339674
 30
0.0
 10
6775.294219593158
 20
-3021.351622138314
 30
0.0
  0
SPLINE
  5
145
330
1F
100
AcDbEntity
  8
Make2D$Visibile$Curve
370
    -3
100
AcDbSpline
210
0.0
220
0.0
230
1.0
 70
     8
 71
     3
 72
     8
 73
     4
 74
     0
 42
0.0000000001
 43
0.0000000001
 40
177.208933763896
 40
177.208933763896
 40
177.208933763896
 40
177.208933763896
 40
196.9625807160503
 40
196.9625807160503
 40
196.9625807160503
 40
196.9625807160503
 10
6769.344566601118
 20
-3006.781574048126
 30
0.0
 10
6772.052514197071
 20
-3010.994607347169
 30
0.0
 10
6773.967129323663
 20
-3015.513105323675
 30
0.0
 10
6775.131862652673
 20
-3020.062377241122
 30
0.0
  0
SPLINE
  5
146
330
1F
100
AcDbEntity
  8
Make2D$Visibile$Curve
370
    -3
100
AcDbSpline
210
0.0
220
0.0
230
1.0
 70
     8
 71
     3
 72
     8
 73
     4
 74
     0
 42
0.0000000001
 43
0.0000000001
 40
59.53106633884985
 40
59.53106633884985
 40
59.53106633884985
 40
59.53106633884985
 40
79.28364898898121
 40
79.28364898898121
 40
79.28364898898121
 40
79.28364898898121
 10
6764.239084125281
 20
-4473.938907094393
 30
0.0
 10
6761.757449505842
 20
-4470.034812573331
 30
0.0
 10
6759.719013773974
 20
-4465.60781480157
 30
0.0
 10
6758.451432086259
 20
-4460.657528495012
 30
0.0
  0
SPLINE
  5
147
330
1F
100
AcDbEntity
  8
Make2D$Visibile$Curve
370
    -3
100
AcDbSpline
210
0.0
220
0.0
230
1.0
 70
     8
 71
     3
 72
     8
 73
     4
 74
     0
 42
0.0000000001
 43
0.0000000001
 40
0.0
 40
0.0
 40
0.0
 40
0.0
 40
1.832722934957514
 40
1.832722934957514
 40
1.832722934957514
 40
1.832722934957514
 10
6758.451432086259
 20
-4460.657528495012
 30
0.0
 10
6758.345602852457
 20
-4460.232758638173
 30
0.0
 10
6758.291984738134
 20
-4459.800138905223
 30
0.0
 10
6758.291984739549
 20
-4459.36933859724
 30
0.0
  0
SPLINE
  5
148
330
1F
100
AcDbEntity
  8
Make2D$Visibile$Curve
370
    -3
100
AcDbSpline
210
0.0
220
0.0
230
1.0
 70
    12
 71
     2
 72
     8
 73
     5
 74
     0
 42
0.0000000001
 43
0.0000000001
 40
51.79760004998704
 40
51.79760004998704
 40
51.79760004998704
 40
55.66433319437041
 40
55.66433319437041
 40
59.53106633884985
 40
59.53106633884985
 40
59.53106633884985
 10
6769.342150605625
 20
-4473.937361824386
 30
0.0
 41
0.8650898199011665
 10
6768.462305156396
 20
-4475.359857674349
 30
0.0
 41
0.8124502160589231
 10
6766.790131132827
 20
-4475.360249701129
 30
0.0
 41
1.0
 10
6765.118350187648
 20
-4475.360482285151
 30
0.0
 41
0.8124502160555558
 10
6764.239084125283
 20
-4473.938907094391
 30
0.0
 41
0.8650898199030568
  0
SPLINE
  5
149
330
1F
100
AcDbEntity
  8
Make2D$Visibile$Curve
370
    -3
100
AcDbSpline
210
0.0
220
0.0
230
1.0
 70
     8
 71
     3
 72
     8
 73
     4
 74
     0
 42
0.0000000001
 43
0.0000000001
 40
0.9619741130578305
 40
0.9619741130578305
 40
0.9619741130578305
 40
0.9619741130578305
 40
2.7969668121853
 40
2.7969668121853
 40
2.7969668121853
 40
2.7969668121853
 10
6775.29322455792
 20
-4459.368683195
 30
0.0
 10
6775.293540098582
 20
-4459.800099808687
 30
0.0
 10
6775.240192427801
 20
-4460.233344993412
 30
0.0
 10
6775.128830179393
 20
-4460.657528495005
 30
0.0
  0
SPLINE
  5
14A
330
1F
100
AcDbEntity
  8
Make2D$Visibile$Curve
370
    -3
100
AcDbSpline
210
0.0
220
0.0
230
1.0
 70
     8
 71
     3
 72
     8
 73
     4
 74
     0
 42
0.0000000001
 43
0.0000000001
 40
148.6400721226036
 40
148.6400721226036
 40
148.6400721226036
 40
148.6400721226036
 40
150.4741043166794
 40
150.4741043166794
 40
150.4741043166794
 40
150.4741043166794
 10
6758.291984739549
 20
-3021.351160805158
 30
0.0
 10
6758.291984739549
 20
-3020.920359268857
 30
0.0
 10
6758.345605102705
 20
-3020.487740169016
 30
0.0
 10
6758.454107180641
 20
-3020.063775555498
 30
0.0
  0
SPLINE
  5
14B
330
1F
100
AcDbEntity
  8
Make2D$Visibile$Curve
370
    -3
100
AcDbSpline
210
0.0
220
0.0
230
1.0
 70
     8
 71
     3
 72
     8
 73
     4
 74
     0
 42
0.0000000001
 43
0.0000000001
 40
0.0
 40
0.0
 40
0.0
 40
0.0
 40
19.75364695215716
 40
19.75364695215716
 40
19.75364695215716
 40
19.75364695215716
 10
6769.341534127841
 20
-4473.938331690084
 30
0.0
 10
6772.049481723793
 20
-4469.725298391746
 30
0.0
 10
6773.964096850384
 20
-4465.206800415259
 30
0.0
 10
6775.128830179393
 20
-4460.657528497117
 30
0.0
  0
SPLINE
  5
14C
330
1F
100
AcDbEntity
  8
Make2D$Visibile$Curve
370
    -3
100
AcDbSpline
210
0.0
220
0.0
230
1.0
 70
    28
 71
     2
 72
     6
 73
     3
 74
     0
 42
0.0000000001
 43
0.0000000001
 40
1.29640093475962
 40
1.29640093475962
 40
1.29640093475962
 40
1.407034258164134
 40
1.407034258164134
 40
1.407034258164134
 10
6774.804095660834
 20
-2506.247008049857
 30
0.0
 41
1.0
 10
6774.804095660834
 20
-2506.302324711559
 30
0.0
 41
1.0
 10
6774.804095660834
 20
-2506.357641373261
 30
0.0
 41
1.0
  0
SPLINE
  5
14D
330
1F
100
AcDbEntity
  8
Make2D$Visibile$Curve
370
    -3
100
AcDbSpline
210
0.0
220
0.0
230
1.0
 70
    28
 71
     2
 72
     8
 73
     5
 74
     0
 42
0.0000000001
 43
0.0000000001
 40
-37.69911184307752
 40
-37.69911184307752
 40
-37.69911184307752
 40
-25.13274122871835
 40
-25.13274122871835
 40
-12.56637061435917
 40
-12.56637061435917
 40
-12.56637061435917
 10
6758.804095660834
 20
-2506.247008049857
 30
0.0
 41
1.0
 10
6758.804095660835
 20
-2506.247008049858
 30
0.0
 41
0.7071067811865475
 10
6766.804095660834
 20
-2506.247008049857
 30
0.0
 41
1.0
 10
6774.804095660835
 20
-2506.247008049858
 30
0.0
 41
0.7071067811865475
 10
6774.804095660834
 20
-2506.247008049857
 30
0.0
 41
1.0
  0
SPLINE
  5
14E
330
1F
100
AcDbEntity
  8
Make2D$Visibile$Curve
370
    -3
100
AcDbSpline
210
0.0
220
0.0
230
1.0
 70
    28
 71
     2
 72
     6
 73
     3
 74
     0
 42
0.0000000001
 43
0.0000000001
 40
4.319689898686013
 40
4.319689898686013
 40
4.319689898686013
 40
8.16474098524283
 40
8.16474098524283
 40
8.16474098524283
 10
6769.560061576066
 20
-2859.875988371998
 30
0.0
 41
1.0
 10
6769.560061576066
 20
-2859.875988371998
 30
0.0
 41
0.7392892972279423
 10
6767.248768993679
 20
-2859.875988371997
 30
0.0
 41
0.9427072678014508
  0
SPLINE
  5
14F
330
1F
100
AcDbEntity
  8
Make2D$Visibile$Curve
370
    -3
100
AcDbSpline
210
0.0
220
0.0
230
1.0
 70
     8
 71
     3
 72
    11
 73
     7
 74
     0
 42
0.0000000001
 43
0.0000000001
 40
0.0
 40
0.0
 40
0.0
 40
0.0
 40
0.9618579671901852
 40
0.9618579671901852
 40
0.9618579671901852
 40
0.9626869600368814
 40
0.9626869600368814
 40
0.9626869600368814
 40
0.9626869600368814
 10
6758.333561866629
 20
-3022.030952001873
 30
0.0
 10
6758.303872371059
 20
-3021.80543789308
 30
0.0
 10
6758.289075145773
 20
-3021.578702885884
 30
0.0
 10
6758.289075145773
 20
-3021.352215801624
 30
0.0
 10
6758.289075145773
 20
-3021.352020992543
 30
0.0
 10
6758.28907515672
 20
-3021.351826183088
 30
0.0
 10
6758.289075178621
 20
-3021.351631373261
 30
0.0
  0
SPLINE
  5
150
330
1F
100
AcDbEntity
  8
Make2D$Visibile$Curve
370
    -3
100
AcDbSpline
210
0.0
220
0.0
230
1.0
 70
    28
 71
     2
 72
     6
 73
     3
 74
     0
 42
0.0000000001
 43
0.0000000001
 40
9.061118052566329
 40
9.061118052566329
 40
9.061118052566329
 40
12.95906969605804
 40
12.95906969605804
 40
12.95906969605804
 10
6766.42115068906
 20
-2859.875988371998
 30
0.0
 41
0.9483924056948676
 10
6764.060061576066
 20
-2859.875988371997
 30
0.0
 41
0.7357024160487172
 10
6764.060061576066
 20
-2859.875988371997
 30
0.0
 41
1.0
  0
SPLINE
  5
151
330
1F
100
AcDbEntity
  8
Make2D$Visibile$Curve
370
    -3
100
AcDbSpline
210
0.0
220
0.0
230
1.0
 70
    24
 71
     2
 72
     6
 73
     3
 74
     0
 42
0.0000000001
 43
0.0000000001
 40
1954.629311720961
 40
1954.629311720961
 40
1954.629311720961
 40
3392.647489513018
 40
3392.647489513018
 40
3392.647489513018
 10
6758.291984739549
 20
-4459.369338597215
 30
0.0
 10
6758.291984739549
 20
-3740.360249701186
 30
0.0
 10
6758.291984739549
 20
-3021.351160805158
 30
0.0
  0
SPLINE
  5
152
330
1F
100
AcDbEntity
  8
Make2D$Visibile$Curve
370
    -3
100
AcDbSpline
210
0.0
220
0.0
230
1.0
 70
    28
 71
     2
 72
     6
 73
     3
 74
     0
 42
0.0000000001
 43
0.0000000001
 40
3.185767611355077
 40
3.185767611355077
 40
3.185767611355077
 40
3.296400934759729
 40
3.296400934759729
 40
3.296400934759729
 10
6758.804095660834
 20
-2506.357641373262
 30
0.0
 41
1.0
 10
6758.804095660834
 20
-2506.30232471156
 30
0.0
 41
1.0
 10
6758.804095660834
 20
-2506.247008049857
 30
0.0
 41
1.0
  0
SPLINE
  5
153
330
1F
100
AcDbEntity
  8
Make2D$Visibile$Curve
370
    -3
100
AcDbSpline
210
0.0
220
0.0
230
1.0
 70
    24
 71
     2
 72
     6
 73
     3
 74
     0
 42
0.0000000001
 43
0.0000000001
 40
0.0
 40
0.0
 40
0.0
 40
1438.017061056686
 40
1438.017061056686
 40
1438.017061056686
 10
6775.294219593158
 20
-3021.351622138314
 30
0.0
 10
6775.294219593158
 20
-3740.360152666657
 30
0.0
 10
6775.294219593158
 20
-4459.368683195
 30
0.0
  0
SPLINE
  5
154
330
1F
100
AcDbEntity
  8
Make2D$Visibile$Curve
370
    -3
100
AcDbSpline
210
0.0
220
0.0
230
1.0
 70
    12
 71
     3
 72
    41
 73
    37
 74
     0
 42
0.0000000001
 43
0.0000000001
 40
75.60530012707767
 40
75.60530012707767
 40
75.60530012707767
 40
75.60530012707767
 40
76.91466124339956
 40
76.91466124339956
 40
76.91466124339956
 40
87.88566910240766
 40
87.88566910240766
 40
87.88566910240766
 40
98.76594140196633
 40
98.76594140196633
 40
98.76594140196633
 40
109.6399276995827
 40
109.6399276995827
 40
109.6399276995827
 40
115.0675490370628
 40
115.0675490370628
 40
115.0675490370628
 40
120.4127718047374
 40
120.4127718047374
 40
120.4127718047374
 40
125.6636636625237
 40
125.6636636625237
 40
125.6636636625237
 40
128.2985882891477
 40
128.2985882891477
 40
128.2985882891477
 40
131.0119740354782
 40
131.0119740354782
 40
131.0119740354782
 40
133.7932899586403
 40
133.7932899586403
 40
133.7932899586403
 40
136.5878770454989
 40
136.5878770454989
 40
136.5878770454989
 40
141.9479565175925
 40
141.9479565175925
 40
141.9479565175925
 40
141.9479565175925
 10
6766.410483268241
 20
-2935.078493054751
 30
0.0
 41
0.5857864376269051
 10
6766.323334378609
 20
-2935.498879257937
 30
0.0
 41
0.5857864376269051
 10
6766.234853882247
 20
-2935.918667725638
 30
0.0
 41
0.5857864376269051
 10
6766.145147592269
 20
-2936.337841668383
 30
0.0
 41
0.5857864376269051
 10
6765.388249251949
 20
-2939.874628906447
 30
0.0
 41
0.5857864376269051
 10
6764.556369596726
 20
-2943.315087549903
 30
0.0
 41
0.5857864376269051
 10
6763.724739086306
 20
-2946.821148777859
 30
0.0
 41
0.5857864376269051
 10
6762.903999013947
 20
-2950.281297136861
 30
0.0
 41
0.5857864376269051
 10
6762.098777471879
 20
-2953.74198390111
 30
0.0
 41
0.5857864376269051
 10
6761.335539062478
 20
-2957.227097952438
 30
0.0
 41
0.5857864376269051
 10
6760.57319155813
 20
-2960.708143935816
 30
0.0
 41
0.5857864376269051
 10
6759.854317810848
 20
-2964.206304096636
 30
0.0
 41
0.5857864376269051
 10
6759.12650229753
 20
-2967.696902212961
 30
0.0
 41
0.5857864376269051
 10
6758.763413414348
 20
-2969.438273959654
 30
0.0
 41
0.5857864376269051
 10
6758.397763928043
 20
-2971.179065724031
 30
0.0
 41
0.5857864376269051
 10
6758.043207365445
 20
-2972.924712909814
 30
0.0
 41
0.5857864376269051
 10
6757.696640365848
 20
-2974.631023753693
 30
0.0
 41
0.5857864376269051
 10
6757.354322400272
 20
-2976.37421813888
 30
0.0
 41
0.5857864376269051
 10
6757.070889102281
 20
-2978.10151296425
 30
0.0
 41
0.5857864376269051
 10
6756.790280583507
 20
-2979.811593063785
 30
0.0
 41
0.5857864376269051
 10
6756.562948809362
 20
-2981.527909874117
 30
0.0
 41
0.5857864376269051
 10
6756.426318025588
 20
-2983.272591550799
 30
0.0
 41
0.5857864376269051
 10
6756.357798020434
 20
-2984.147545160663
 30
0.0
 41
0.5857864376269051
 10
6756.312765175842
 20
-2985.021692210268
 30
0.0
 41
0.5857864376269051
 10
6756.277685184159
 20
-2985.900102288262
 30
0.0
 41
0.5857864376269051
 10
6756.241501129444
 20
-2986.806158327602
 30
0.0
 41
0.5857864376269051
 10
6756.215869384473
 20
-2987.710239569284
 30
0.0
 41
0.5857864376269051
 10
6756.183129051451
 20
-2988.611130273702
 30
0.0
 41
0.5857864376269051
 10
6756.149450396583
 20
-2989.537840062708
 30
0.0
 41
0.5857864376269051
 10
6756.108564444597
 20
-2990.46244068981
 30
0.0
 41
0.5857864376269051
 10
6756.053975673345
 20
-2991.387025468517
 30
0.0
 41
0.5857864376269051
 10
6755.999348045497
 20
-2992.312268371916
 30
0.0
 41
0.5857864376269051
 10
6755.930507745355
 20
-2993.244487463597
 30
0.0
 41
0.5857864376269051
 10
6755.846970709325
 20
-2994.163238969774
 30
0.0
 41
0.5857864376269051
 10
6755.687369263744
 20
-2995.91855703567
 30
0.0
 41
0.5857864376269051
 10
6755.463544156363
 20
-2997.686573959872
 30
0.0
 41
0.5857864376269051
 10
6755.329820958627
 20
-2999.398974515005
 30
0.0
 41
0.5857864376269051
  0
SPLINE
  5
155
330
1F
100
AcDbEntity
  8
Make2D$Visibile$Curve
370
    -3
100
AcDbSpline
210
0.0
220
0.0
230
1.0
 70
    12
 71
     3
 72
    88
 73
    84
 74
     0
 42
0.0000000001
 43
0.0000000001
 40
10.63833579345608
 40
10.63833579345608
 40
10.63833579345608
 40
10.63833579345608
 40
12.32445740882659
 40
12.32445740882659
 40
12.32445740882659
 40
15.29820645514204
 40
15.29820645514204
 40
15.29820645514204
 40
18.64121755550235
 40
18.64121755550235
 40
18.64121755550235
 40
22.23230096914018
 40
22.23230096914018
 40
22.23230096914018
 40
25.73963869080427
 40
25.73963869080427
 40
25.73963869080427
 40
28.95290584008431
 40
28.95290584008431
 40
28.95290584008431
 40
31.90382626248239
 40
31.90382626248239
 40
31.90382626248239
 40
32.05642696704452
 40
32.05642696704452
 40
32.05642696704452
 40
37.43468793232474
 40
37.43468793232474
 40
37.43468793232474
 40
40.09243200037467
 40
40.09243200037467
 40
40.09243200037467
 40
42.76635262943861
 40
42.76635262943861
 40
42.76635262943861
 40
45.50845223084487
 40
45.50845223084487
 40
45.50845223084487
 40
48.32509955236305
 40
48.32509955236305
 40
48.32509955236305
 40
53.98796719533983
 40
53.98796719533983
 40
53.98796719533983
 40
59.5517455166657
 40
59.5517455166657
 40
59.5517455166657
 40
65.03099593277412
 40
65.03099593277412
 40
65.03099593277412
 40
75.97134054061098
 40
75.97134054061098
 40
75.97134054061098
 40
86.90573129333266
 40
86.90573129333266
 40
86.90573129333266
 40
97.75105877811622
 40
97.75105877811622
 40
97.75105877811622
 40
108.49346111286
 40
108.49346111286
 40
108.49346111286
 40
119.217100824177
 40
119.217100824177
 40
119.217100824177
 40
129.9966978070609
 40
129.9966978070609
 40
129.9966978070609
 40
132.2597471749433
 40
132.2597471749433
 40
132.2597471749433
 40
140.8401815399828
 40
140.8401815399828
 40
140.8401815399828
 40
151.7254099310483
 40
151.7254099310483
 40
151.7254099310483
 40
155.4943738938798
 40
155.4943738938798
 40
157.3580756852362
 40
157.3580756852362
 40
157.3580756852362
 40
173.5551702984275
 40
173.5551702984275
 40
173.5551702984275
 40
173.5551702984275
 10
6760.183762129117
 20
-3014.714489583419
 30
0.0
 41
1.0
 10
6759.666507450183
 20
-3014.4866730928
 30
0.0
 41
1.0
 10
6759.139605285686
 20
-3014.263571184766
 30
0.0
 41
1.0
 10
6758.640714941713
 20
-3014.046998614513
 30
0.0
 41
1.0
 10
6757.721825998085
 20
-3013.648101055758
 30
0.0
 41
1.0
 10
6756.859201694989
 20
-3013.257472058732
 30
0.0
 41
1.0
 10
6755.984344982119
 20
-3012.779269346688
 30
0.0
 41
1.0
 10
6755.020151737469
 20
-3012.252234670331
 30
0.0
 41
1.0
 10
6754.105329517471
 20
-3011.652000722433
 30
0.0
 41
1.0
 10
6753.295120477161
 20
-3010.917947325506
 30
0.0
 41
1.0
 10
6752.439913432777
 20
-3010.143125514378
 30
0.0
 41
1.0
 10
6751.69120381397
 20
-3009.209720315326
 30
0.0
 41
1.0
 10
6751.143336093194
 20
-3008.204020997425
 30
0.0
 41
1.0
 10
6750.602166660449
 20
-3007.210617464528
 30
0.0
 41
1.0
 10
6750.246746418356
 20
-3006.129219831344
 30
0.0
 41
1.0
 10
6750.028701973887
 20
-3005.032030588896
 30
0.0
 41
1.0
 10
6749.826128251539
 20
-3004.012689282111
 30
0.0
 41
1.0
 10
6749.745379012979
 20
-3002.997191151145
 30
0.0
 41
1.0
 10
6749.73216244937
 20
-3001.957711713345
 30
0.0
 41
1.0
 10
6749.719986074785
 20
-3001.000042883394
 30
0.0
 41
1.0
 10
6749.765247927057
 20
-3000.064216658231
 30
0.0
 41
1.0
 10
6749.837835701605
 20
-2999.101989634123
 30
0.0
 41
1.0
 10
6749.841559127483
 20
-2999.052631721939
 30
0.0
 41
1.0
 10
6749.845348560918
 20
-2999.003264760721
 30
0.0
 41
1.0
 10
6749.849201410615
 20
-2998.953889276079
 30
0.0
 41
1.0
 10
6749.984559764481
 20
-2997.219229259267
 30
0.0
 41
1.0
 10
6750.204307915522
 20
-2995.461345789708
 30
0.0
 41
1.0
 10
6750.366535647575
 20
-2993.694750532958
 30
0.0
 41
1.0
 10
6750.447245546685
 20
-2992.81585194306
 30
0.0
 41
1.0
 10
6750.512018966042
 20
-2991.942177591728
 30
0.0
 41
1.0
 10
6750.564226933841
 20
-2991.056167428418
 30
0.0
 41
1.0
 10
6750.616514005201
 20
-2990.168814815645
 30
0.0
 41
1.0
 10
6750.655623547907
 20
-2989.277156982113
 30
0.0
 41
1.0
 10
6750.687764920128
 20
-2988.387627058998
 30
0.0
 41
1.0
 10
6750.720852230622
 20
-2987.471917780703
 30
0.0
 41
1.0
 10
6750.746907374089
 20
-2986.558306074423
 30
0.0
 41
1.0
 10
6750.783636049892
 20
-2985.647914710203
 30
0.0
 41
1.0
 10
6750.821418313365
 20
-2984.711408135064
 30
0.0
 41
1.0
 10
6750.870444385352
 20
-2983.771939568763
 30
0.0
 41
1.0
 10
6750.943642543381
 20
-2982.838770791891
 30
0.0
 41
1.0
 10
6751.090530741681
 20
-2980.966162463486
 30
0.0
 41
1.0
 10
6751.337010169252
 20
-2979.093541295225
 30
0.0
 41
1.0
 10
6751.637169338471
 20
-2977.255733931541
 30
0.0
 41
1.0
 10
6751.934901400496
 20
-2975.432787201583
 30
0.0
 41
1.0
 10
6752.282196032919
 20
-2973.659523044937
 30
0.0
 41
1.0
 10
6752.64732746258
 20
-2971.860746319619
 30
0.0
 41
1.0
 10
6753.004668525332
 20
-2970.100347913823
 30
0.0
 41
1.0
 10
6753.373742475339
 20
-2968.34259804351
 30
0.0
 41
1.0
 10
6753.740800852695
 20
-2966.582162916621
 30
0.0
 41
1.0
 10
6754.473240803517
 20
-2963.069334720063
 30
0.0
 41
1.0
 10
6755.196598325095
 20
-2959.549604934099
 30
0.0
 41
1.0
 10
6755.963772221309
 20
-2956.046751137808
 30
0.0
 41
1.0
 10
6756.730038097571
 20
-2952.548043286989
 30
0.0
 41
1.0
 10
6757.541735512031
 20
-2949.058403514444
 30
0.0
 41
1.0
 10
6758.365330955227
 20
-2945.585571004928
 30
0.0
 41
1.0
 10
6759.177756751596
 20
-2942.159837241453
 30
0.0
 41
1.0
 10
6760.01902229284
 20
-2938.678715875461
 30
0.0
 41
1.0
 10
6760.758753726675
 20
-2935.227319969815
 30
0.0
 41
1.0
 10
6761.495914194208
 20
-2931.787919529211
 30
0.0
 41
1.0
 10
6762.146192243327
 20
-2928.318139568991
 30
0.0
 41
1.0
 10
6762.650329301675
 20
-2924.802030375944
 30
0.0
 41
1.0
 10
6763.153694806168
 20
-2921.291302393351
 30
0.0
 41
1.0
 10
6763.508985438925
 20
-2917.751681489143
 30
0.0
 41
1.0
 10
6763.752340893941
 20
-2914.191007279354
 30
0.0
 41
1.0
 10
6763.996670725234
 20
-2910.616076407507
 30
0.0
 41
1.0
 10
6764.127907829426
 20
-2907.019314682837
 30
0.0
 41
1.0
 10
6764.203802295017
 20
-2903.431716478679
 30
0.0
 41
1.0
 10
6764.220920738332
 20
-2902.622512592526
 30
0.0
 41
1.0
 10
6764.234108021591
 20
-2901.868328679144
 30
0.0
 41
1.0
 10
6764.244672625439
 20
-2901.16928145562
 30
0.0
 41
1.0
 10
6764.287859276786
 20
-2898.311672296806
 30
0.0
 41
1.0
 10
6764.300644149912
 20
-2895.44723380451
 30
0.0
 41
1.0
 10
6764.299523433659
 20
-2892.589409527514
 30
0.0
 41
1.0
 10
6764.298100225712
 20
-2888.960232011262
 30
0.0
 41
1.0
 10
6764.274309834301
 20
-2885.331807213605
 30
0.0
 41
1.0
 10
6764.246523553092
 20
-2881.704534582256
 30
0.0
 41
1.0
 10
6764.237248366654
 20
-2880.493734559602
 30
0.0
 41
1.0
 10
6764.227523460103
 20
-2879.282979721643
 30
0.0
 41
1.0
 10
6764.212521396866
 20
-2877.473588706806
 30
0.0
 41
1.0
 10
6764.206915650581
 20
-2876.80689535277
 30
0.0
 41
1.0
 10
6764.200639411737
 20
-2876.072188889559
 30
0.0
 41
1.0
 10
6764.154597427813
 20
-2870.682441301324
 30
0.0
 41
1.0
 10
6764.103770351655
 20
-2865.286455093171
 30
0.0
 41
1.0
 10
6764.060061576066
 20
-2859.875988372
 30
0.0
 41
0.9999999999999997
  0
SPLINE
  5
156
330
1F
100
AcDbEntity
  8
Make2D$Visibile$Curve
370
    -3
100
AcDbSpline
210
0.0
220
0.0
230
1.0
 70
    28
 71
     2
 72
     6
 73
     3
 74
     0
 42
0.0000000001
 43
0.0000000001
 40
56.54358850992549
 40
56.54358850992549
 40
56.54358850992549
 40
75.00888700627316
 40
75.00888700627316
 40
75.00888700627316
 10
6769.56006157613
 20
-2555.357641373261
 30
0.0
 41
0.884405750603027
 10
6769.560061576135
 20
-2564.590290621435
 30
0.0
 41
0.884405750603027
 10
6769.56006157614
 20
-2573.822939869609
 30
0.0
 41
0.884405750603027
  0
SPLINE
  5
157
330
1F
100
AcDbEntity
  8
Make2D$Visibile$Curve
370
    -3
100
AcDbSpline
210
0.0
220
0.0
230
1.0
 70
    24
 71
     2
 72
     6
 73
     3
 74
     0
 42
0.0000000001
 43
0.0000000001
 40
0.0
 40
0.0
 40
0.0
 40
69.1218867266934
 40
69.1218867266934
 40
69.1218867266934
 10
6801.371004939455
 20
-2506.357641373261
 30
0.0
 10
6766.810061576109
 20
-2506.357641373262
 30
0.0
 10
6732.249118212762
 20
-2506.357641373262
 30
0.0
  0
SPLINE
  5
158
330
1F
100
AcDbEntity
  8
Make2D$Visibile$Curve
370
    -3
100
AcDbSpline
210
0.0
220
0.0
230
1.0
 70
    24
 71
     2
 72
     6
 73
     3
 74
     0
 42
0.0000000001
 43
0.0000000001
 40
0.8493717334651869
 40
0.8493717334651869
 40
0.8493717334651869
 40
69.15062826654099
 40
69.15062826654099
 40
69.15062826654099
 10
6800.960689842645
 20
-2555.357641373261
 30
0.0
 10
6766.810061576108
 20
-2555.357641373261
 30
0.0
 10
6732.65943330957
 20
-2555.357641373261
 30
0.0
  0
SPLINE
  5
159
330
1F
100
AcDbEntity
  8
Make2D$Visibile$Curve
370
    -3
100
AcDbSpline
210
0.0
220
0.0
230
1.0
 70
     8
 71
     3
 72
    11
 73
     7
 74
     0
 42
0.0000000001
 43
0.0000000001
 40
170.2277512668168
 40
170.2277512668168
 40
170.2277512668168
 40
170.2277512668168
 40
173.7093840505603
 40
173.7093840505603
 40
173.7093840505603
 40
177.208933763896
 40
177.208933763896
 40
177.208933763896
 40
177.208933763896
 10
6764.24099061956
 20
-3006.782772100685
 30
0.0
 10
6764.829201398615
 20
-3005.831773192365
 30
0.0
 10
6765.81001575414
 20
-3005.360230515084
 30
0.0
 10
6766.79019095881
 20
-3005.360249701428
 30
0.0
 10
6767.775410271005
 20
-3005.360268986644
 30
0.0
 10
6768.759983837114
 20
-3005.836716059551
 30
0.0
 10
6769.344566601118
 20
-3006.781574048126
 30
0.0
  0
SPLINE
  5
15A
330
1F
100
AcDbEntity
  8
Make2D$Visibile$Curve
370
    -3
100
AcDbSpline
210
0.0
220
0.0
230
1.0
 70
     8
 71
     3
 72
     8
 73
     4
 74
     0
 42
0.0000000001
 43
0.0000000001
 40
150.4741043166794
 40
150.4741043166794
 40
150.4741043166794
 40
150.4741043166794
 40
170.2277512668168
 40
170.2277512668168
 40
170.2277512668168
 40
170.2277512668168
 10
6758.454107180641
 20
-3020.063775555498
 30
0.0
 10
6759.618704229036
 20
-3015.514437456791
 30
0.0
 10
6761.533179310522
 20
-3010.99587158236
 30
0.0
 10
6764.24099061956
 20
-3006.782772100685
 30
0.0
  0
SPLINE
  5
15B
330
1F
100
AcDbEntity
  8
Make2D$Visibile$Curve
370
    -3
100
AcDbSpline
210
0.0
220
0.0
230
1.0
 70
    28
 71
     2
 72
     6
 73
     3
 74
     0
 42
0.0000000001
 43
0.0000000001
 40
70.92391368867311
 40
70.92391368867311
 40
70.92391368867311
 40
520.9553921895804
 40
520.9553921895804
 40
520.9553921895804
 10
6767.20918030634
 20
-2555.357641373261
 30
0.0
 41
1.0
 10
6767.209180306344
 20
-2780.373380623715
 30
0.0
 41
1.0
 10
6767.209180306348
 20
-3005.389119874169
 30
0.0
 41
1.0
  0
SPLINE
  5
15C
330
1F
100
AcDbEntity
  8
Make2D$Visibile$Curve
370
    -3
100
AcDbSpline
210
0.0
220
0.0
230
1.0
 70
    28
 71
     2
 72
     6
 73
     3
 74
     0
 42
0.0000000001
 43
0.0000000001
 40
54.05736574155377
 40
54.05736574155377
 40
54.05736574155377
 40
504.0838384407284
 40
504.0838384407284
 40
504.0838384407284
 10
6766.409180306348
 20
-3005.384114072436
 30
0.0
 41
1.0
 10
6766.409180306344
 20
-2780.370877722849
 30
0.0
 41
1.0
 10
6766.409180306339
 20
-2555.357641373261
 30
0.0
 41
1.0
  0
SPLINE
  5
15D
330
1F
100
AcDbEntity
  8
Make2D$Visibile$Curve
370
    -3
100
AcDbSpline
210
0.0
220
0.0
230
1.0
 70
    24
 71
     2
 72
     6
 73
     3
 74
     0
 42
0.0000000001
 43
0.0000000001
 40
0.0
 40
0.0
 40
0.0
 40
359.1218867267
 40
359.1218867267
 40
359.1218867267
 10
5834.584456055779
 20
-1975.402677575447
 30
0.0
 10
6014.145399419129
 20
-1975.402677575447
 30
0.0
 10
6193.706342782479
 20
-1975.402677575446
 30
0.0
  0
SPLINE
  5
15E
330
1F
100
AcDbEntity
  8
Make2D$Visibile$Curve
370
    -3
100
AcDbSpline
210
0.0
220
0.0
230
1.0
 70
    24
 71
     2
 72
     6
 73
     3
 74
     0
 42
0.0000000001
 43
0.0000000001
 40
0.0
 40
0.0
 40
0.0
 40
359.1218867267
 40
359.1218867267
 40
359.1218867267
 10
6193.706342782479
 20
-2085.523003147771
 30
0.0
 10
6014.145399419129
 20
-2085.523003147771
 30
0.0
 10
5834.584456055779
 20
-2085.523003147771
 30
0.0
  0
SPLINE
  5
15F
330
1F
100
AcDbEntity
  8
Make2D$Visibile$Curve
370
    -3
100
AcDbSpline
210
0.0
220
0.0
230
1.0
 70
    12
 71
     2
 72
     8
 73
     5
 74
     0
 42
0.0000000001
 43
0.0000000001
 40
496.1724329525838
 40
496.1724329525838
 40
496.1724329525838
 40
513.1545978273815
 40
513.1545978273815
 40
530.136762702179
 40
530.136762702179
 40
530.136762702179
 10
6193.706342782477
 20
-1975.402677575446
 30
0.0
 41
0.8535533909026436
 10
6202.197586867846
 20
-1975.402677575446
 30
0.0
 41
0.853560121580013
 10
6208.201574536569
 20
-1981.40666524417
 30
0.0
 41
1.0
 10
6214.205562205295
 20
-1987.410652912894
 30
0.0
 41
0.8535601215800146
 10
6214.205562205293
 20
-1995.901896998261
 30
0.0
 41
0.8535533909026436
  0
SPLINE
  5
160
330
1F
100
AcDbEntity
  8
Make2D$Visibile$Curve
370
    -3
100
AcDbSpline
210
0.0
220
0.0
230
1.0
 70
    12
 71
     2
 72
     8
 73
     5
 74
     0
 42
0.0000000001
 43
0.0000000001
 40
992.3448659051676
 40
992.3448659051676
 40
992.3448659051676
 40
1009.327030779965
 40
1009.327030779965
 40
1026.309195654763
 40
1026.309195654763
 40
1026.309195654763
 10
5834.584456055778
 20
-2085.523003147771
 30
0.0
 41
0.8535533909026436
 10
5826.09321197041
 20
-2085.523003147771
 30
0.0
 41
0.8535601215800128
 10
5820.089224301687
 20
-2079.519015479047
 30
0.0
 41
1.0
 10
5814.085236632962
 20
-2073.515027810322
 30
0.0
 41
0.8535601215800137
 10
5814.085236632962
 20
-2065.023783724955
 30
0.0
 41
0.8535533909026436
  0
SPLINE
  5
161
330
1F
100
AcDbEntity
  8
Make2D$Visibile$Curve
370
    -3
100
AcDbSpline
210
0.0
220
0.0
230
1.0
 70
    12
 71
     2
 72
     8
 73
     5
 74
     0
 42
0.0000000001
 43
0.0000000001
 40
1095.431082381456
 40
1095.431082381456
 40
1095.431082381456
 40
1112.413247256254
 40
1112.413247256254
 40
1129.395412131052
 40
1129.395412131052
 40
1129.395412131052
 10
5814.085236632962
 20
-1995.901896998262
 30
0.0
 41
0.8535533909026436
 10
5814.085236632963
 20
-1987.410652912896
 30
0.0
 41
0.8535601215800139
 10
5820.089224301687
 20
-1981.406665244171
 30
0.0
 41
1.0
 10
5826.09321197041
 20
-1975.402677575447
 30
0.0
 41
0.8535601215800128
 10
5834.584456055778
 20
-1975.402677575446
 30
0.0
 41
0.8535533909026436
  0
SPLINE
  5
162
330
1F
100
AcDbEntity
  8
Make2D$Visibile$Curve
370
    -3
100
AcDbSpline
210
0.0
220
0.0
230
1.0
 70
    24
 71
     2
 72
     6
 73
     3
 74
     0
 42
0.0000000001
 43
0.0000000001
 40
-53.05396855630501
 40
-53.05396855630501
 40
-53.05396855630501
 40
-5.962684086756374
 40
-5.962684086756374
 40
-5.962684086756374
 10
5814.495551729814
 20
-1996.312212095072
 30
0.0
 10
5814.290087670144
 20
-1996.106748035422
 30
0.0
 10
5814.084623610475
 20
-1995.901283975772
 30
0.0
  0
SPLINE
  5
163
330
1F
100
AcDbEntity
  8
Make2D$Visibile$Curve
370
    -3
100
AcDbSpline
210
0.0
220
0.0
230
1.0
 70
    24
 71
     2
 72
     6
 73
     3
 74
     0
 42
0.0000000001
 43
0.0000000001
 40
-53.05396855630624
 40
-53.05396855630624
 40
-53.05396855630624
 40
-5.962684086757573
 40
-5.962684086757573
 40
-5.962684086757573
 10
6213.795247108493
 20
-2064.613468628147
 30
0.0
 10
6214.00071116814
 20
-2064.818932687797
 30
0.0
 10
6214.206175227787
 20
-2065.024396747446
 30
0.0
  0
SPLINE
  5
164
330
1F
100
AcDbEntity
  8
Make2D$Visibile$Curve
370
    -3
100
AcDbSpline
210
0.0
220
0.0
230
1.0
 70
    24
 71
     2
 72
     6
 73
     3
 74
     0
 42
0.0000000001
 43
0.0000000001
 40
5.962684086756006
 40
5.962684086756006
 40
5.962684086756006
 40
53.05396855630469
 40
53.05396855630469
 40
53.05396855630469
 10
6214.206175227785
 20
-1995.901283975772
 30
0.0
 10
6214.000711168136
 20
-1996.106748035423
 30
0.0
 10
6213.795247108487
 20
-1996.312212095074
 30
0.0
  0
SPLINE
  5
165
330
1F
100
AcDbEntity
  8
Make2D$Visibile$Curve
370
    -3
100
AcDbSpline
210
0.0
220
0.0
230
1.0
 70
    24
 71
     2
 72
     6
 73
     3
 74
     0
 42
0.0000000001
 43
0.0000000001
 40
-53.05396855630469
 40
-53.05396855630469
 40
-53.05396855630469
 40
-5.962684086756006
 40
-5.962684086756006
 40
-5.962684086756006
 10
6193.296027685675
 20
-1975.812992672256
 30
0.0
 10
6193.501491745323
 20
-1975.607528612605
 30
0.0
 10
6193.706955804971
 20
-1975.402064552955
 30
0.0
  0
SPLINE
  5
166
330
1F
100
AcDbEntity
  8
Make2D$Visibile$Curve
370
    -3
100
AcDbSpline
210
0.0
220
0.0
230
1.0
 70
    24
 71
     2
 72
     6
 73
     3
 74
     0
 42
0.0000000001
 43
0.0000000001
 40
5.962684086757112
 40
5.962684086757112
 40
5.962684086757112
 40
53.05396855630556
 40
53.05396855630556
 40
53.05396855630556
 10
5814.084623610471
 20
-2065.024396747446
 30
0.0
 10
5814.290087670119
 20
-2064.818932687796
 30
0.0
 10
5814.495551729767
 20
-2064.613468628145
 30
0.0
  0
SPLINE
  5
167
330
1F
100
AcDbEntity
  8
Make2D$Visibile$Curve
370
    -3
100
AcDbSpline
210
0.0
220
0.0
230
1.0
 70
    24
 71
     2
 72
     6
 73
     3
 74
     0
 42
0.0000000001
 43
0.0000000001
 40
-53.05396855630556
 40
-53.05396855630556
 40
-53.05396855630556
 40
-5.962684086757112
 40
-5.962684086757112
 40
-5.962684086757112
 10
5834.994771152581
 20
-2085.112688050963
 30
0.0
 10
5834.789307092933
 20
-2085.318152110613
 30
0.0
 10
5834.583843033285
 20
-2085.523616170262
 30
0.0
  0
SPLINE
  5
168
330
1F
100
AcDbEntity
  8
Make2D$Visibile$Curve
370
    -3
100
AcDbSpline
210
0.0
220
0.0
230
1.0
 70
    24
 71
     2
 72
     6
 73
     3
 74
     0
 42
0.0000000001
 43
0.0000000001
 40
5.962684086756374
 40
5.962684086756374
 40
5.962684086756374
 40
53.05396855630501
 40
53.05396855630501
 40
53.05396855630501
 10
5834.583843033291
 20
-1975.402064552958
 30
0.0
 10
5834.789307092949
 20
-1975.607528612618
 30
0.0
 10
5834.994771152608
 20
-1975.812992672277
 30
0.0
  0
SPLINE
  5
169
330
1F
100
AcDbEntity
  8
Make2D$Visibile$Curve
370
    -3
100
AcDbSpline
210
0.0
220
0.0
230
1.0
 70
    15
 71
     2
 72
    12
 73
     9
 74
     0
 42
0.0000000001
 43
0.0000000001
 40
-2.513274122871834
 40
-2.513274122871834
 40
-2.513274122871834
 40
-1.884955592153876
 40
-1.884955592153876
 40
-1.256637061435917
 40
-1.256637061435917
 40
-0.6283185307179586
 40
-0.6283185307179586
 40
0.0
 40
0.0
 40
0.0
 10
5691.959852099178
 20
-2030.468806276882
 30
0.0
 41
1.0
 10
5691.959852099177
 20
-2030.068806276882
 30
0.0
 41
0.7071067811865476
 10
5692.359852099177
 20
-2030.068806276882
 30
0.0
 41
1.0
 10
5692.759852099177
 20
-2030.068806276882
 30
0.0
 41
0.7071067811865476
 10
5692.759852099177
 20
-2030.468806276882
 30
0.0
 41
1.0
 10
5692.759852099177
 20
-2030.868806276882
 30
0.0
 41
0.7071067811865476
 10
5692.359852099177
 20
-2030.868806276882
 30
0.0
 41
1.0
 10
5691.959852099177
 20
-2030.868806276882
 30
0.0
 41
0.7071067811865476
 10
5691.959852099178
 20
-2030.468806276882
 30
0.0
 41
1.0
  0
SPLINE
  5
16A
330
1F
100
AcDbEntity
  8
Make2D$Visibile$Curve
370
    -3
100
AcDbSpline
210
0.0
220
0.0
230
1.0
 70
    15
 71
     2
 72
    12
 73
     9
 74
     0
 42
0.0000000001
 43
0.0000000001
 40
-50.26548245743669
 40
-50.26548245743669
 40
-50.26548245743669
 40
-37.69911184307752
 40
-37.69911184307752
 40
-25.13274122871834
 40
-25.13274122871834
 40
-12.56637061435917
 40
-12.56637061435917
 40
0.0
 40
0.0
 40
0.0
 10
5684.359852099179
 20
-2030.468806276882
 30
0.0
 41
1.0
 10
5684.359852099178
 20
-2038.468806276882
 30
0.0
 41
0.7071067811865476
 10
5692.359852099179
 20
-2038.468806276882
 30
0.0
 41
1.0
 10
5700.359852099178
 20
-2038.468806276882
 30
0.0
 41
0.7071067811865476
 10
5700.359852099179
 20
-2030.468806276882
 30
0.0
 41
1.0
 10
5700.359852099178
 20
-2022.468806276882
 30
0.0
 41
0.7071067811865476
 10
5692.359852099179
 20
-2022.468806276882
 30
0.0
 41
1.0
 10
5684.359852099178
 20
-2022.468806276882
 30
0.0
 41
0.7071067811865476
 10
5684.359852099179
 20
-2030.468806276882
 30
0.0
 41
1.0
  0
SPLINE
  5
16B
330
1F
100
AcDbEntity
  8
Make2D$Visibile$Curve
370
    -3
100
AcDbSpline
210
0.0
220
0.0
230
1.0
 70
    15
 71
     2
 72
    12
 73
     9
 74
     0
 42
0.0000000001
 43
0.0000000001
 40
-6.283185307179586
 40
-6.283185307179586
 40
-6.283185307179586
 40
-4.71238898038469
 40
-4.71238898038469
 40
-3.141592653589793
 40
-3.141592653589793
 40
-1.570796326794897
 40
-1.570796326794897
 40
0.0
 40
0.0
 40
0.0
 10
5691.359852099179
 20
-2030.468806276882
 30
0.0
 41
1.0
 10
5691.359852099178
 20
-2029.468806276882
 30
0.0
 41
0.7071067811865476
 10
5692.359852099179
 20
-2029.468806276882
 30
0.0
 41
1.0
 10
5693.359852099179
 20
-2029.468806276882
 30
0.0
 41
0.7071067811865476
 10
5693.359852099179
 20
-2030.468806276882
 30
0.0
 41
1.0
 10
5693.359852099179
 20
-2031.468806276882
 30
0.0
 41
0.7071067811865476
 10
5692.359852099179
 20
-2031.468806276882
 30
0.0
 41
1.0
 10
5691.359852099178
 20
-2031.468806276882
 30
0.0
 41
0.7071067811865476
 10
5691.359852099179
 20
-2030.468806276882
 30
0.0
 41
1.0
  0
SPLINE
  5
16C
330
1F
100
AcDbEntity
  8
Make2D$Visibile$Curve
370
    -3
100
AcDbSpline
210
0.0
220
0.0
230
1.0
 70
    15
 71
     2
 72
    12
 73
     9
 74
     0
 42
0.0000000001
 43
0.0000000001
 40
-17.27875959474386
 40
-17.27875959474386
 40
-17.27875959474386
 40
-12.9590696960579
 40
-12.9590696960579
 40
-8.63937979737193
 40
-8.63937979737193
 40
-4.319689898685965
 40
-4.319689898685965
 40
0.0
 40
0.0
 40
0.0
 10
5689.609852099179
 20
-2030.468806276882
 30
0.0
 41
1.0
 10
5689.609852099179
 20
-2027.718806276882
 30
0.0
 41
0.7071067811865476
 10
5692.359852099179
 20
-2027.718806276882
 30
0.0
 41
1.0
 10
5695.109852099178
 20
-2027.718806276882
 30
0.0
 41
0.7071067811865476
 10
5695.109852099179
 20
-2030.468806276882
 30
0.0
 41
1.0
 10
5695.109852099178
 20
-2033.218806276882
 30
0.0
 41
0.7071067811865476
 10
5692.359852099179
 20
-2033.218806276882
 30
0.0
 41
1.0
 10
5689.609852099179
 20
-2033.218806276882
 30
0.0
 41
0.7071067811865476
 10
5689.609852099179
 20
-2030.468806276882
 30
0.0
 41
1.0
  0
SPLINE
  5
16D
330
1F
100
AcDbEntity
  8
Make2D$Visibile$Curve
370
    -3
100
AcDbSpline
210
0.0
220
0.0
230
1.0
 70
    12
 71
     2
 72
     8
 73
     5
 74
     0
 42
0.0000000001
 43
0.0000000001
 40
51.79760004998704
 40
51.79760004998704
 40
51.79760004998704
 40
55.66433319437041
 40
55.66433319437041
 40
59.53106633884985
 40
59.53106633884985
 40
59.53106633884985
 10
5557.761137299818
 20
-2027.931367809878
 30
0.0
 41
0.8650898199011665
 10
5556.339219286604
 20
-2028.810845966688
 30
0.0
 41
0.8124502160589231
 10
5556.339219286604
 20
-2030.482770804889
 30
0.0
 41
1.0
 10
5556.339219286604
 20
-2032.154695643129
 30
0.0
 41
0.8124502160555558
 10
5557.761137299865
 20
-2033.034173799934
 30
0.0
 41
0.8650898199030568
  0
SPLINE
  5
16E
330
1F
100
AcDbEntity
  8
Make2D$Visibile$Curve
370
    -3
100
AcDbSpline
210
0.0
220
0.0
230
1.0
 70
    28
 71
     2
 72
     6
 73
     3
 74
     0
 42
0.0000000001
 43
0.0000000001
 40
385.8534468427441
 40
385.8534468427441
 40
385.8534468427441
 40
446.6402844781095
 40
446.6402844781095
 40
446.6402844781095
 10
6275.034540778582
 20
-2038.983826791944
 30
0.0
 41
1.0
 10
6244.641121960899
 20
-2038.983826791944
 30
0.0
 41
1.0
 10
6214.247703143216
 20
-2038.983826791944
 30
0.0
 41
1.0
  0
SPLINE
  5
16F
330
1F
100
AcDbEntity
  8
Make2D$Visibile$Curve
370
    -3
100
AcDbSpline
210
0.0
220
0.0
230
1.0
 70
     8
 71
     3
 72
    11
 73
     7
 74
     0
 42
0.0000000001
 43
0.0000000001
 40
196.9625807160503
 40
196.9625807160503
 40
196.9625807160503
 40
196.9625807160503
 40
198.7979493928296
 40
198.7979493928296
 40
198.7979493928296
 40
198.7987900623061
 40
198.7987900623061
 40
198.7987900623061
 40
198.7987900623061
 10
5571.04134682651
 20
-2022.141039285044
 30
0.0
 10
5571.465923831992
 20
-2022.032380586658
 30
0.0
 10
5571.899172925056
 20
-2021.978682344559
 30
0.0
 10
5572.330591723693
 20
-2021.978682344559
 30
0.0
 10
5572.330789728215
 20
-2021.978682344559
 30
0.0
 10
5572.330987732926
 20
-2021.978682355869
 30
0.0
 10
5572.331185737826
 20
-2021.978682378488
 30
0.0
  0
SPLINE
  5
170
330
1F
100
AcDbEntity
  8
Make2D$Visibile$Curve
370
    -3
100
AcDbSpline
210
0.0
220
0.0
230
1.0
 70
     8
 71
     3
 72
     8
 73
     4
 74
     0
 42
0.0000000001
 43
0.0000000001
 40
177.208933763896
 40
177.208933763896
 40
177.208933763896
 40
177.208933763896
 40
196.9625807160503
 40
196.9625807160503
 40
196.9625807160503
 40
196.9625807160503
 10
5557.760543633593
 20
-2027.928335336598
 30
0.0
 10
5561.97357693261
 20
-2025.220387740646
 30
0.0
 10
5566.49207490909
 20
-2023.305772614052
 30
0.0
 10
5571.04134682651
 20
-2022.141039285044
 30
0.0
  0
SPLINE
  5
171
330
1F
100
AcDbEntity
  8
Make2D$Visibile$Curve
370
    -3
100
AcDbSpline
210
0.0
220
0.0
230
1.0
 70
     8
 71
     3
 72
     8
 73
     4
 74
     0
 42
0.0000000001
 43
0.0000000001
 40
150.4741043166794
 40
150.4741043166794
 40
150.4741043166794
 40
150.4741043166794
 40
170.2277512668168
 40
170.2277512668168
 40
170.2277512668168
 40
170.2277512668168
 10
5571.042745140884
 20
-2038.818794757076
 30
0.0
 10
5566.493407042205
 20
-2037.654197708681
 30
0.0
 10
5561.974841167801
 20
-2035.739722627195
 30
0.0
 10
5557.761741686151
 20
-2033.031911318156
 30
0.0
  0
SPLINE
  5
172
330
1F
100
AcDbEntity
  8
Make2D$Visibile$Curve
370
    -3
100
AcDbSpline
210
0.0
220
0.0
230
1.0
 70
     8
 71
     3
 72
    11
 73
     7
 74
     0
 42
0.0000000001
 43
0.0000000001
 40
196.9625807160503
 40
196.9625807160503
 40
196.9625807160503
 40
196.9625807160503
 40
198.7979493928296
 40
198.7979493928296
 40
198.7979493928296
 40
198.7987900593663
 40
198.7987900593663
 40
198.7987900593663
 40
198.7987900593663
 10
6276.324379341412
 20
-2022.141039285044
 30
0.0
 10
6275.89980233593
 20
-2022.032380586658
 30
0.0
 10
6275.466553242865
 20
-2021.978682344559
 30
0.0
 10
6275.035134444229
 20
-2021.978682344559
 30
0.0
 10
6275.034936440398
 20
-2021.978682344559
 30
0.0
 10
6275.03473843638
 20
-2021.978682355869
 30
0.0
 10
6275.034540432173
 20
-2021.978682378488
 30
0.0
  0
SPLINE
  5
173
330
1F
100
AcDbEntity
  8
Make2D$Visibile$Curve
370
    -3
100
AcDbSpline
210
0.0
220
0.0
230
1.0
 70
     8
 71
     3
 72
    11
 73
     7
 74
     0
 42
0.0000000001
 43
0.0000000001
 40
170.2277512668168
 40
170.2277512668168
 40
170.2277512668168
 40
170.2277512668168
 40
173.7093840505603
 40
173.7093840505603
 40
173.7093840505603
 40
177.208933763896
 40
177.208933763896
 40
177.208933763896
 40
177.208933763896
 10
6289.603984481771
 20
-2033.031911318156
 30
0.0
 10
6290.554983390089
 20
-2032.443700539102
 30
0.0
 10
6291.02652606737
 20
-2031.462886183577
 30
0.0
 10
6291.026506881029
 20
-2030.482710978908
 30
0.0
 10
6291.02648759581
 20
-2029.497491666712
 30
0.0
 10
6290.550040522902
 20
-2028.512918100603
 30
0.0
 10
6289.60518253433
 20
-2027.928335336598
 30
0.0
  0
SPLINE
  5
174
330
1F
100
AcDbEntity
  8
Make2D$Visibile$Curve
370
    -3
100
AcDbSpline
210
0.0
220
0.0
230
1.0
 70
     8
 71
     3
 72
     8
 73
     4
 74
     0
 42
0.0000000001
 43
0.0000000001
 40
150.4741043166794
 40
150.4741043166794
 40
150.4741043166794
 40
150.4741043166794
 40
170.2277512668168
 40
170.2277512668168
 40
170.2277512668168
 40
170.2277512668168
 10
6276.322981027038
 20
-2038.818794757076
 30
0.0
 10
6280.872319125717
 20
-2037.654197708681
 30
0.0
 10
6285.39088500012
 20
-2035.739722627195
 30
0.0
 10
6289.603984481771
 20
-2033.031911318156
 30
0.0
  0
SPLINE
  5
175
330
1F
100
AcDbEntity
  8
Make2D$Visibile$Curve
370
    -3
100
AcDbSpline
210
0.0
220
0.0
230
1.0
 70
     8
 71
     3
 72
     8
 73
     4
 74
     0
 42
0.0000000001
 43
0.0000000001
 40
177.208933763896
 40
177.208933763896
 40
177.208933763896
 40
177.208933763896
 40
196.9625807160503
 40
196.9625807160503
 40
196.9625807160503
 40
196.9625807160503
 10
6289.60518253433
 20
-2027.928335336598
 30
0.0
 10
6285.392149235312
 20
-2025.220387740646
 30
0.0
 10
6280.873651258832
 20
-2023.305772614052
 30
0.0
 10
6276.324379341412
 20
-2022.141039285044
 30
0.0
  0
SPLINE
  5
176
330
1F
100
AcDbEntity
  8
Make2D$Visibile$Curve
370
    -3
100
AcDbSpline
210
0.0
220
0.0
230
1.0
 70
     8
 71
     3
 72
    11
 73
     7
 74
     0
 42
0.0000000001
 43
0.0000000001
 40
148.6130388802897
 40
148.6130388802897
 40
148.6130388802897
 40
148.6130388802897
 40
148.638735639893
 40
148.638735639893
 40
148.638735639893
 40
150.4741043166794
 40
150.4741043166794
 40
150.4741043166794
 40
150.4741043166794
 10
5572.349217028354
 20
-2038.980882118767
 30
0.0
 10
5572.343168586899
 20
-2038.98090435156
 30
0.0
 10
5572.337120294578
 20
-2038.980916015618
 30
0.0
 10
5572.331072179401
 20
-2038.980917112748
 30
0.0
 10
5571.899959368974
 20
-2038.980995316713
 30
0.0
 10
5571.467018702836
 20
-2038.927375901862
 30
0.0
 10
5571.042745140884
 20
-2038.818794757076
 30
0.0
  0
SPLINE
  5
177
330
1F
100
AcDbEntity
  8
Make2D$Visibile$Curve
370
    -3
100
AcDbSpline
210
0.0
220
0.0
230
1.0
 70
    24
 71
     2
 72
     6
 73
     3
 74
     0
 42
0.0000000001
 43
0.0000000001
 40
0.0
 40
0.0
 40
0.0
 40
69.1218867266934
 40
69.1218867266934
 40
69.1218867266934
 10
6214.205562205295
 20
-1995.901896998261
 30
0.0
 10
6214.205562205295
 20
-2030.462840361608
 30
0.0
 10
6214.205562205295
 20
-2065.023783724955
 30
0.0
  0
SPLINE
  5
178
330
1F
100
AcDbEntity
  8
Make2D$Visibile$Curve
370
    -3
100
AcDbSpline
210
0.0
220
0.0
230
1.0
 70
    24
 71
     2
 72
     6
 73
     3
 74
     0
 42
0.0000000001
 43
0.0000000001
 40
0.0
 40
0.0
 40
0.0
 40
69.1218867266933
 40
69.1218867266933
 40
69.1218867266933
 10
5814.085236632963
 20
-2065.023783724956
 30
0.0
 10
5814.085236632963
 20
-2030.462840361609
 30
0.0
 10
5814.085236632963
 20
-1995.901896998262
 30
0.0
  0
SPLINE
  5
179
330
1F
100
AcDbEntity
  8
Make2D$Visibile$Curve
370
    -3
100
AcDbSpline
210
0.0
220
0.0
230
1.0
 70
    12
 71
     2
 72
     8
 73
     5
 74
     0
 42
0.0000000001
 43
0.0000000001
 40
599.2586494288724
 40
599.2586494288724
 40
599.2586494288724
 40
616.2408143036699
 40
616.2408143036699
 40
633.2229791784677
 40
633.2229791784677
 40
633.2229791784677
 10
6214.205562205293
 20
-2065.023783724955
 30
0.0
 41
0.8535533909026436
 10
6214.205562205293
 20
-2073.515027810323
 30
0.0
 41
0.853560121580014
 10
6208.201574536569
 20
-2079.519015479046
 30
0.0
 41
1.0
 10
6202.197586867845
 20
-2085.523003147771
 30
0.0
 41
0.8535601215800124
 10
6193.706342782478
 20
-2085.523003147771
 30
0.0
 41
0.8535533909026437
  0
SPLINE
  5
17A
330
1F
100
AcDbEntity
  8
Make2D$Visibile$Curve
370
    -3
100
AcDbSpline
210
0.0
220
0.0
230
1.0
 70
    24
 71
     2
 72
     6
 73
     3
 74
     0
 42
0.0000000001
 43
0.0000000001
 40
5.962684086757573
 40
5.962684086757573
 40
5.962684086757573
 40
53.05396855630624
 40
53.05396855630624
 40
53.05396855630624
 10
6193.706955804969
 20
-2085.523616170262
 30
0.0
 10
6193.50149174532
 20
-2085.318152110614
 30
0.0
 10
6193.296027685671
 20
-2085.112688050965
 30
0.0
  0
SPLINE
  5
17B
330
1F
100
AcDbEntity
  8
Make2D$Visibile$Curve
370
    -3
100
AcDbSpline
210
0.0
220
0.0
230
1.0
 70
    28
 71
     2
 72
     6
 73
     3
 74
     0
 42
0.0000000001
 43
0.0000000001
 40
846.8027509883644
 40
846.8027509883644
 40
846.8027509883644
 40
1088.556802228509
 40
1088.556802228509
 40
1088.556802228509
 10
5814.085236632963
 20
-2038.983826791944
 30
0.0
 41
1.0
 10
5693.20821101289
 20
-2038.983826791944
 30
0.0
 41
1.0
 10
5572.331185392818
 20
-2038.983826791944
 30
0.0
 41
1.0
  0
SPLINE
  5
17C
330
1F
100
AcDbEntity
  8
Make2D$Visibile$Curve
370
    -3
100
AcDbSpline
210
0.0
220
0.0
230
1.0
 70
    28
 71
     2
 72
     6
 73
     3
 74
     0
 42
0.0000000001
 43
0.0000000001
 40
0.0
 40
0.0
 40
0.0
 40
241.7697010650275
 40
241.7697010650275
 40
241.7697010650275
 10
5572.33118539282
 20
-2021.981714817838
 30
0.0
 41
1.0
 10
5693.216035925334
 20
-2021.981714817838
 30
0.0
 41
1.0
 10
5814.100886457848
 20
-2021.981714817838
 30
0.0
 41
1.0
  0
SPLINE
  5
17D
330
1F
100
AcDbEntity
  8
Make2D$Visibile$Curve
370
    -3
100
AcDbSpline
210
0.0
220
0.0
230
1.0
 70
    28
 71
     2
 72
     6
 73
     3
 74
     0
 42
0.0000000001
 43
0.0000000001
 40
641.8918317535824
 40
641.8918317535824
 40
641.8918317535824
 40
702.7033553857626
 40
702.7033553857626
 40
702.7033553857626
 10
6214.223017146403
 20
-2021.981714817838
 30
0.0
 41
1.0
 10
6244.628778962493
 20
-2021.981714817838
 30
0.0
 41
1.0
 10
6275.034540778584
 20
-2021.981714817838
 30
0.0
 41
1.0
  0
SPLINE
  5
17E
330
1F
100
AcDbEntity
  8
Make2D$Visibile$Curve
370
    -3
100
AcDbSpline
210
0.0
220
0.0
230
1.0
 70
     8
 71
     3
 72
    11
 73
     7
 74
     0
 42
0.0000000001
 43
0.0000000001
 40
147.6771375047926
 40
147.6771375047926
 40
147.6771375047926
 40
147.6771375047926
 40
148.638735639893
 40
148.638735639893
 40
148.638735639893
 40
150.4741043166794
 40
150.4741043166794
 40
150.4741043166794
 40
150.4741043166794
 10
6274.356398244686
 20
-2038.936307597809
 30
0.0
 10
6274.581753035191
 20
-2038.966037811507
 30
0.0
 10
6274.808327542546
 20
-2038.980876057077
 30
0.0
 10
6275.03465398852
 20
-2038.980917112748
 30
0.0
 10
6275.465766798948
 20
-2038.980995316713
 30
0.0
 10
6275.898707465086
 20
-2038.927375901862
 30
0.0
 10
6276.322981027038
 20
-2038.818794757076
 30
0.0
  0
ENDSEC
  0
SECTION
  2
OBJECTS
  0
DICTIONARY
  5
C
330
0
100
AcDbDictionary
281
     1
  3
ACAD_DETAILVIEWSTYLE
350
1BA
  3
ACAD_GROUP
350
D
  3
ACAD_LAYOUT
350
1A
  3
ACAD_MATERIAL
350
43
  3
ACAD_MLEADERSTYLE
350
5B
  3
ACAD_MLINESTYLE
350
17
  3
ACAD_PLOTSETTINGS
350
19
  3
ACAD_PLOTSTYLENAME
350
E
  3
ACAD_SCALELIST
350
47
  3
ACAD_SECTIONVIEWSTYLE
350
1BB
  3
ACAD_TABLESTYLE
350
59
  3
ACAD_VISUALSTYLE
350
2A
  3
AcDbVariableDictionary
350
17F
  3
ACDB_RECOMPOSE_DATA
350
1B7
  0
SUN
  5
5D
330
29
100
AcDbSun
 90
        1
290
     0
 63
     7
421
 16777215
 40
1.0
291
     1
 91
  2455826
 92
 54000000
292
     0
 70
     2
 71
   256
280
     1
  0
DICTIONARY
  5
1BA
102
{ACAD_REACTORS
330
C
102
}
330
C
100
AcDbDictionary
281
     1
  0
DICTIONARY
  5
D
102
{ACAD_REACTORS
330
C
102
}
330
C
100
AcDbDictionary
281
     1
  0
DICTIONARY
  5
1A
102
{ACAD_REACTORS
330
C
102
}
330
C
100
AcDbDictionary
281
     1
  3
Layout1
350
1E
  3
Layout2
350
26
  3
Model
350
22
  0
DICTIONARY
  5
43
102
{ACAD_REACTORS
330
C
102
}
330
C
100
AcDbDictionary
281
     1
  3
ByBlock
350
45
  3
ByLayer
350
44
  3
Global
350
46
  0
DICTIONARY
  5
5B
102
{ACAD_REACTORS
330
C
102
}
330
C
100
AcDbDictionary
281
     1
  3
Standard
350
5C
  0
DICTIONARY
  5
17
102
{ACAD_REACTORS
330
C
102
}
330
C
100
AcDbDictionary
281
     1
  3
Standard
350
18
  0
DICTIONARY
  5
19
102
{ACAD_REACTORS
330
C
102
}
330
C
100
AcDbDictionary
281
     1
  0
ACDBDICTIONARYWDFLT
  5
E
102
{ACAD_REACTORS
330
C
102
}
330
C
100
AcDbDictionary
281
     1
  3
Normal
350
F
100
AcDbDictionaryWithDefault
340
F
  0
DICTIONARY
  5
47
102
{ACAD_REACTORS
330
C
102
}
330
C
100
AcDbDictionary
281
     1
  3
A0
350
48
  3
A1
350
49
  3
A2
350
4A
  3
A3
350
4B
  3
A4
350
4C
  3
A5
350
4D
  3
A6
350
4E
  3
A7
350
4F
  3
A8
350
50
  3
A9
350
51
  3
B1
350
52
  3
B2
350
53
  3
B3
350
54
  3
B4
350
55
  3
B5
350
56
  3
B6
350
57
  3
B7
350
58
  0
DICTIONARY
  5
1BB
102
{ACAD_REACTORS
330
C
102
}
330
C
100
AcDbDictionary
281
     1
  0
DICTIONARY
  5
59
102
{ACAD_REACTORS
330
C
102
}
330
C
100
AcDbDictionary
281
     1
  3
Standard
350
5A
  0
DICTIONARY
  5
2A
102
{ACAD_REACTORS
330
C
102
}
330
C
100
AcDbDictionary
281
     1
  3
2dWireframe
350
2F
  3
Basic
350
32
  3
Brighten
350
36
  3
ColorChange
350
3A
  3
Conceptual
350
34
  3
Dim
350
35
  3
EdgeColorOff
350
3D
  3
Facepattern
350
39
  3
Flat
350
2B
  3
FlatWithEdges
350
2C
  3
Gouraud
350
2D
  3
GouraudWithEdges
350
2E
  3
Hidden
350
31
  3
JitterOff
350
3B
  3
Linepattern
350
38
  3
OverhangOff
350
3C
  3
Realistic
350
33
  3
Shaded
350
42
  3
Shaded with edges
350
41
  3
Shades of Gray
350
3E
  3
Sketchy
350
3F
  3
Thicken
350
37
  3
Wireframe
350
30
  3
X-Ray
350
40
  0
DICTIONARY
  5
17F
102
{ACAD_REACTORS
330
C
102
}
330
C
100
AcDbDictionary
281
     1
  3
CANNOSCALE
350
180
  3
CMLEADERSTYLE
350
1B9
  3
CTABLESTYLE
350
1B8
  3
XCLIPFRAME
350
181
  0
XRECORD
  5
1B7
102
{ACAD_REACTORS
330
C
102
}
330
C
100
AcDbXrecord
280
     1
 90
        1
330
5A
  0
LAYOUT
  5
1E
102
{ACAD_REACTORS
330
1A
102
}
330
1A
100
AcDbPlotSettings
  1

  2
none_device
  4

  6

 40
0.0
 41
0.0
 42
0.0
 43
0.0
 44
0.0
 45
0.0
 46
0.0
 47
0.0
 48
0.0
 49
0.0
140
0.0
141
0.0
142
1.0
143
1.0
 70
   688
 72
     0
 73
     0
 74
     5
  7

 75
    16
 76
     0
 77
     2
 78
   300
147
1.0
148
0.0
149
0.0
100
AcDbLayout
  1
Layout1
 70
     1
 71
     1
 10
0.0
 20
0.0
 11
12.0
 21
9.0
 12
0.0
 22
0.0
 32
0.0
 14
1.000000000000000E+20
 24
1.000000000000000E+20
 34
1.000000000000000E+20
 15
-1.000000000000000E+20
 25
-1.000000000000000E+20
 35
-1.000000000000000E+20
146
0.0
 13
0.0
 23
0.0
 33
0.0
 16
1.0
 26
0.0
 36
0.0
 17
0.0
 27
1.0
 37
0.0
 76
     0
330
1B
  0
LAYOUT
  5
26
102
{ACAD_REACTORS
330
1A
102
}
330
1A
100
AcDbPlotSettings
  1

  2
none_device
  4

  6

 40
0.0
 41
0.0
 42
0.0
 43
0.0
 44
0.0
 45
0.0
 46
0.0
 47
0.0
 48
0.0
 49
0.0
140
0.0
141
0.0
142
1.0
143
1.0
 70
   688
 72
     0
 73
     0
 74
     5
  7

 75
    16
 76
     0
 77
     2
 78
   300
147
1.0
148
0.0
149
0.0
100
AcDbLayout
  1
Layout2
 70
     1
 71
     2
 10
0.0
 20
0.0
 11
0.0
 21
0.0
 12
0.0
 22
0.0
 32
0.0
 14
0.0
 24
0.0
 34
0.0
 15
0.0
 25
0.0
 35
0.0
146
0.0
 13
0.0
 23
0.0
 33
0.0
 16
1.0
 26
0.0
 36
0.0
 17
0.0
 27
1.0
 37
0.0
 76
     0
330
23
  0
LAYOUT
  5
22
102
{ACAD_REACTORS
330
1A
102
}
330
1A
100
AcDbPlotSettings
  1

  2
none_device
  4
Letter_(8.50_x_11.00_Inches)
  6

 40
6.35
 41
6.35
 42
6.35000508
 43
6.35000508
 44
215.9
 45
279.4
 46
0.0
 47
0.0
 48
0.0
 49
0.0
140
0.0
141
0.0
142
1.0
143
1.0
 70
  1712
 72
     0
 73
     0
 74
     0
  7

 75
     0
 76
     0
 77
     2
 78
   300
147
1.0
148
0.0
149
0.0
100
AcDbLayout
  1
Model
 70
     1
 71
     0
 10
0.0
 20
0.0
 11
12.0
 21
9.0
 12
0.0
 22
0.0
 32
0.0
 14
5556.33921925757
 24
-4475.36024973016
 34
0.0
 15
6821.870224362271
 25
-1975.402064552955
 35
0.0
146
0.0
 13
0.0
 23
0.0
 33
0.0
 16
1.0
 26
0.0
 36
0.0
 17
0.0
 27
1.0
 37
0.0
 76
     0
330
1F
331
29
  0
MATERIAL
  5
45
102
{ACAD_REACTORS
330
43
102
}
330
43
100
AcDbMaterial
  1
ByBlock
 72
     1
 94
      127
  0
MATERIAL
  5
44
102
{ACAD_REACTORS
330
43
102
}
330
43
100
AcDbMaterial
  1
ByLayer
 72
     1
 94
      127
  0
MATERIAL
  5
46
102
{ACAD_REACTORS
330
43
102
}
330
43
100
AcDbMaterial
  1
Global
 72
     1
 94
      127
  0
MLEADERSTYLE
  5
5C
102
{ACAD_REACTORS
330
5B
102
}
102
{ACAD_XDICTIONARY
360
1B5
102
}
330
5B
100
AcDbMLeaderStyle
170
     2
171
     1
172
     0
 90
        2
 40
0.0
 41
0.0
173
     1
 91
-1056964608
340
14
 92
       -2
290
     1
 42
0.09
291
     1
 43
0.36
  3
Standard
341
0
 44
0.18
300

342
11
174
     1
178
     6
175
     1
176
     0
 93
-1056964608
 45
0.18
292
     0
297
     0
 46
0.18
343
0
 94
-1056964608
 47
1.0
 49
1.0
140
1.0
293
     1
141
0.0
294
     1
177
     0
142
1.0
295
     0
296
     0
143
0.125
1001
ACAD_MLEADERVER
1070
     2
  0
MLINESTYLE
  5
18
102
{ACAD_REACTORS
330
17
102
}
330
17
100
AcDbMlineStyle
  2
Standard
 70
     0
  3

 62
   256
 51
90.0
 52
90.0
 71
     2
 49
0.5
 62
   256
  6
BYLAYER
 49
-0.5
 62
   256
  6
BYLAYER
  0
ACDBPLACEHOLDER
  5
F
102
{ACAD_REACTORS
330
E
102
}
330
E
  0
SCALE
  5
48
102
{ACAD_REACTORS
330
47
102
}
330
47
100
AcDbScale
 70
     0
300
1:1
140
1.0
141
1.0
290
     1
  0
SCALE
  5
49
102
{ACAD_REACTORS
330
47
102
}
330
47
100
AcDbScale
 70
     0
300
1/128" = 1'-0"
140
0.0078125
141
12.0
290
     0
  0
SCALE
  5
4A
102
{ACAD_REACTORS
330
47
102
}
330
47
100
AcDbScale
 70
     0
300
1/64" = 1'-0"
140
0.015625
141
12.0
290
     0
  0
SCALE
  5
4B
102
{ACAD_REACTORS
330
47
102
}
330
47
100
AcDbScale
 70
     0
300
1/32" = 1'-0"
140
0.03125
141
12.0
290
     0
  0
SCALE
  5
4C
102
{ACAD_REACTORS
330
47
102
}
330
47
100
AcDbScale
 70
     0
300
1/16" = 1'-0"
140
0.0625
141
12.0
290
     0
  0
SCALE
  5
4D
102
{ACAD_REACTORS
330
47
102
}
330
47
100
AcDbScale
 70
     0
300
3/32" = 1'-0"
140
0.09375
141
12.0
290
     0
  0
SCALE
  5
4E
102
{ACAD_REACTORS
330
47
102
}
330
47
100
AcDbScale
 70
     0
300
1/8" = 1'-0"
140
0.125
141
12.0
290
     0
  0
SCALE
  5
4F
102
{ACAD_REACTORS
330
47
102
}
330
47
100
AcDbScale
 70
     0
300
3/16" = 1'-0"
140
0.1875
141
12.0
290
     0
  0
SCALE
  5
50
102
{ACAD_REACTORS
330
47
102
}
330
47
100
AcDbScale
 70
     0
300
1/4" = 1'-0"
140
0.25
141
12.0
290
     0
  0
SCALE
  5
51
102
{ACAD_REACTORS
330
47
102
}
330
47
100
AcDbScale
 70
     0
300
3/8" = 1'-0"
140
0.375
141
12.0
290
     0
  0
SCALE
  5
52
102
{ACAD_REACTORS
330
47
102
}
330
47
100
AcDbScale
 70
     0
300
1/2" = 1'-0"
140
0.5
141
12.0
290
     0
  0
SCALE
  5
53
102
{ACAD_REACTORS
330
47
102
}
330
47
100
AcDbScale
 70
     0
300
3/4" = 1'-0"
140
0.75
141
12.0
290
     0
  0
SCALE
  5
54
102
{ACAD_REACTORS
330
47
102
}
330
47
100
AcDbScale
 70
     0
300
1" = 1'-0"
140
1.0
141
12.0
290
     0
  0
SCALE
  5
55
102
{ACAD_REACTORS
330
47
102
}
330
47
100
AcDbScale
 70
     0
300
1-1/2" = 1'-0"
140
1.5
141
12.0
290
     0
  0
SCALE
  5
56
102
{ACAD_REACTORS
330
47
102
}
330
47
100
AcDbScale
 70
     0
300
3" = 1'-0"
140
3.0
141
12.0
290
     0
  0
SCALE
  5
57
102
{ACAD_REACTORS
330
47
102
}
330
47
100
AcDbScale
 70
     0
300
6" = 1'-0"
140
6.0
141
12.0
290
     0
  0
SCALE
  5
58
102
{ACAD_REACTORS
330
47
102
}
330
47
100
AcDbScale
 70
     0
300
1'-0" = 1'-0"
140
12.0
141
12.0
290
     0
  0
TABLESTYLE
  5
5A
102
{ACAD_REACTORS
330
59
102
}
102
{ACAD_XDICTIONARY
360
1B2
102
}
330
59
100
AcDbTableStyle
  3
Standard
 70
     0
 71
     0
 40
0.06
 41
0.06
280
     0
281
     0
  7
Standard
140
0.18
170
     2
 62
     0
 63
   257
283
     0
 90
        4
 91
        0
  1

274
    -2
284
     1
 64
     0
275
    -2
285
     1
 65
     0
276
    -2
286
     1
 66
     0
277
    -2
287
     1
 67
     0
278
    -2
288
     1
 68
     0
279
    -2
289
     1
 69
     0
  7
Standard
140
0.25
170
     5
 62
     0
 63
   257
283
     0
 90
        4
 91
        0
  1

274
    -2
284
     1
 64
     0
275
    -2
285
     1
 65
     0
276
    -2
286
     1
 66
     0
277
    -2
287
     1
 67
     0
278
    -2
288
     1
 68
     0
279
    -2
289
     1
 69
     0
  7
Standard
140
0.18
170
     5
 62
     0
 63
   257
283
     0
 90
        4
 91
        0
  1

274
    -2
284
     1
 64
     0
275
    -2
285
     1
 65
     0
276
    -2
286
     1
 66
     0
277
    -2
287
     1
 67
     0
278
    -2
288
     1
 68
     0
279
    -2
289
     1
 69
     0
  0
VISUALSTYLE
  5
2F
102
{ACAD_REACTORS
330
2A
102
}
102
{ACAD_XDICTIONARY
360
18A
102
}
330
2A
100
AcDbVisualStyle
  2
2dWireframe
 70
     4
 71
     0
 72
     2
 73
     0
 90
        0
 40
0.6
 41
30.0
 62
     5
 63
     7
421
 16777215
 74
     1
 91
        4
 64
     7
 65
   257
 75
     1
175
     1
 42
1.0
 92
        0
 66
   257
 43
1.0
 76
     1
 77
     6
 78
     2
 67
     7
 79
     5
170
     0
171
     0
290
     0
174
     0
 93
        1
 44
0.0
173
     0
291
     0
 45
0.0
  0
VISUALSTYLE
  5
32
102
{ACAD_REACTORS
330
2A
102
}
102
{ACAD_XDICTIONARY
360
190
102
}
330
2A
100
AcDbVisualStyle
  2
Basic
 70
     7
 71
     1
 72
     0
 73
     1
 90
        0
 40
0.6
 41
30.0
 62
     5
 63
     7
421
 16777215
 74
     0
 91
        4
 64
     7
 65
   257
 75
     1
175
     1
 42
1.0
 92
        8
 66
     7
 43
1.0
 76
     1
 77
     6
 78
     2
 67
     7
 79
     5
170
     0
171
     0
290
     0
174
     0
 93
        1
 44
0.0
173
     0
291
     1
 45
0.0
  0
VISUALSTYLE
  5
36
102
{ACAD_REACTORS
330
2A
102
}
102
{ACAD_XDICTIONARY
360
198
102
}
330
2A
100
AcDbVisualStyle
  2
Brighten
 70
    12
 71
     2
 72
     2
 73
     0
 90
        0
 40
0.6
 41
30.0
 62
     5
 63
     7
421
 16777215
 74
     1
 91
        4
 64
     7
 65
   257
 75
     1
175
     1
 42
1.0
 92
        8
 66
     7
 43
1.0
 76
     1
 77
     6
 78
     2
 67
     7
 79
     5
170
     0
171
     0
290
     0
174
     0
 93
        1
 44
50.0
173
     0
291
     1
 45
0.0
  0
VISUALSTYLE
  5
3A
102
{ACAD_REACTORS
330
2A
102
}
102
{ACAD_XDICTIONARY
360
1A0
102
}
330
2A
100
AcDbVisualStyle
  2
ColorChange
 70
    16
 71
     2
 72
     2
 73
     3
 90
        0
 40
0.6
 41
30.0
 62
     5
 63
     8
421
  8421504
 74
     1
 91
        4
 64
     7
 65
   257
 75
     1
175
     1
 42
1.0
 92
        8
 66
     8
424
  8421504
 43
1.0
 76
     1
 77
     6
 78
     2
 67
     7
 79
     5
170
     0
171
     0
290
     0
174
     0
 93
        1
 44
0.0
173
     0
291
     1
 45
0.0
  0
VISUALSTYLE
  5
34
102
{ACAD_REACTORS
330
2A
102
}
102
{ACAD_XDICTIONARY
360
194
102
}
330
2A
100
AcDbVisualStyle
  2
Conceptual
 70
     9
 71
     3
 72
     2
 73
     0
 90
        0
 40
0.6
 41
30.0
 62
     5
 63
     7
421
 16777215
 74
     2
 91
        2
 64
     7
 65
   257
 75
     1
175
     1
 42
179.0
 92
        8
 66
     7
 43
1.0
 76
     1
 77
     6
 78
     2
 67
     7
 79
     3
170
     0
171
     0
290
     0
174
     0
 93
        1
 44
0.0
173
     0
291
     0
 45
0.0
  0
VISUALSTYLE
  5
35
102
{ACAD_REACTORS
330
2A
102
}
102
{ACAD_XDICTIONARY
360
196
102
}
330
2A
100
AcDbVisualStyle
  2
Dim
 70
    11
 71
     2
 72
     2
 73
     0
 90
        0
 40
0.6
 41
30.0
 62
     5
 63
     7
421
 16777215
 74
     1
 91
        4
 64
     7
 65
   257
 75
     1
175
     1
 42
1.0
 92
        8
 66
     7
 43
1.0
 76
     1
 77
     6
 78
     2
 67
     7
 79
     5
170
     0
171
     0
290
     0
174
     0
 93
        1
 44
-50.0
173
     0
291
     1
 45
0.0
  0
VISUALSTYLE
  5
3D
102
{ACAD_REACTORS
330
2A
102
}
102
{ACAD_XDICTIONARY
360
1A6
102
}
330
2A
100
AcDbVisualStyle
  2
EdgeColorOff
 70
    22
 71
     2
 72
     2
 73
     0
 90
        0
 40
0.6
 41
30.0
 62
     5
 63
     7
421
 16777215
 74
     1
 91
        4
 64
     7
 65
   257
 75
     1
175
     1
 42
1.0
 92
        8
 66
     7
 43
1.0
 76
     1
 77
     6
 78
     2
 67
     7
 79
     5
170
     0
171
     0
290
     0
174
     0
 93
        1
 44
0.0
173
     0
291
     1
 45
0.0
  0
VISUALSTYLE
  5
39
102
{ACAD_REACTORS
330
2A
102
}
102
{ACAD_XDICTIONARY
360
19E
102
}
330
2A
100
AcDbVisualStyle
  2
Facepattern
 70
    15
 71
     2
 72
     2
 73
     0
 90
        0
 40
0.6
 41
30.0
 62
     5
 63
     7
421
 16777215
 74
     1
 91
        4
 64
     7
 65
   257
 75
     1
175
     1
 42
1.0
 92
        8
 66
     7
 43
1.0
 76
     1
 77
     6
 78
     2
 67
     7
 79
     5
170
     0
171
     0
290
     0
174
     0
 93
        1
 44
0.0
173
     0
291
     1
 45
0.0
  0
VISUALSTYLE
  5
2B
102
{ACAD_REACTORS
330
2A
102
}
102
{ACAD_XDICTIONARY
360
182
102
}
330
2A
100
AcDbVisualStyle
  2
Flat
 70
     0
 71
     2
 72
     1
 73
     1
 90
        2
 40
0.6
 41
30.0
 62
     5
 63
     7
421
 16777215
 74
     0
 91
        0
 64
     7
 65
   257
 75
     1
175
     1
 42
1.0
 92
        8
 66
     7
 43
1.0
 76
     1
 77
     6
 78
     2
 67
     7
 79
     5
170
     0
171
     0
290
     0
174
     0
 93
       13
 44
0.0
173
     0
291
     1
 45
0.0
  0
VISUALSTYLE
  5
2C
102
{ACAD_REACTORS
330
2A
102
}
102
{ACAD_XDICTIONARY
360
184
102
}
330
2A
100
AcDbVisualStyle
  2
FlatWithEdges
 70
     1
 71
     2
 72
     1
 73
     1
 90
        2
 40
0.6
 41
30.0
 62
     5
 63
     7
421
 16777215
 74
     1
 91
        0
 64
     7
 65
   257
 75
     1
175
     1
 42
1.0
 92
        0
 66
   257
 43
1.0
 76
     1
 77
     6
 78
     2
 67
     7
 79
     5
170
     0
171
     0
290
     0
174
     0
 93
       13
 44
0.0
173
     0
291
     1
 45
0.0
  0
VISUALSTYLE
  5
2D
102
{ACAD_REACTORS
330
2A
102
}
102
{ACAD_XDICTIONARY
360
186
102
}
330
2A
100
AcDbVisualStyle
  2
Gouraud
 70
     2
 71
     2
 72
     2
 73
     1
 90
        2
 40
0.6
 41
30.0
 62
     5
 63
     7
421
 16777215
 74
     0
 91
        0
 64
     7
 65
   257
 75
     1
175
     1
 42
1.0
 92
        0
 66
     7
 43
1.0
 76
     1
 77
     6
 78
     2
 67
     7
 79
     5
170
     0
171
     0
290
     0
174
     0
 93
       13
 44
0.0
173
     0
291
     1
 45
0.0
  0
VISUALSTYLE
  5
2E
102
{ACAD_REACTORS
330
2A
102
}
102
{ACAD_XDICTIONARY
360
188
102
}
330
2A
100
AcDbVisualStyle
  2
GouraudWithEdges
 70
     3
 71
     2
 72
     2
 73
     1
 90
        2
 40
0.6
 41
30.0
 62
     5
 63
     7
421
 16777215
 74
     1
 91
        0
 64
     7
 65
   257
 75
     1
175
     1
 42
1.0
 92
        0
 66
   257
 43
1.0
 76
     1
 77
     6
 78
     2
 67
     7
 79
     5
170
     0
171
     0
290
     0
174
     0
 93
       13
 44
0.0
173
     0
291
     1
 45
0.0
  0
VISUALSTYLE
  5
31
102
{ACAD_REACTORS
330
2A
102
}
102
{ACAD_XDICTIONARY
360
18E
102
}
330
2A
100
AcDbVisualStyle
  2
Hidden
 70
     6
 71
     1
 72
     2
 73
     2
 90
        0
 40
0.6
 41
30.0
 62
     5
 63
     7
421
 16777215
 74
     2
 91
        2
 64
     7
 65
   257
 75
     2
175
     1
 42
40.0
 92
        0
 66
   257
 43
1.0
 76
     1
 77
     6
 78
     2
 67
     7
 79
     3
170
     0
171
     0
290
     0
174
     0
 93
        1
 44
0.0
173
     0
291
     0
 45
0.0
  0
VISUALSTYLE
  5
3B
102
{ACAD_REACTORS
330
2A
102
}
102
{ACAD_XDICTIONARY
360
1A2
102
}
330
2A
100
AcDbVisualStyle
  2
JitterOff
 70
    20
 71
     2
 72
     2
 73
     0
 90
        0
 40
0.6
 41
30.0
 62
     5
 63
     7
421
 16777215
 74
     1
 91
        4
 64
     7
 65
   257
 75
     1
175
     1
 42
1.0
 92
       10
 66
     7
 43
1.0
 76
     1
 77
     6
 78
     2
 67
     7
 79
     5
170
     0
171
     0
290
     0
174
     0
 93
        1
 44
0.0
173
     0
291
     1
 45
0.0
  0
VISUALSTYLE
  5
38
102
{ACAD_REACTORS
330
2A
102
}
102
{ACAD_XDICTIONARY
360
19C
102
}
330
2A
100
AcDbVisualStyle
  2
Linepattern
 70
    14
 71
     2
 72
     2
 73
     0
 90
        0
 40
0.6
 41
30.0
 62
     5
 63
     7
421
 16777215
 74
     1
 91
        4
 64
     7
 65
   257
 75
     7
175
     7
 42
1.0
 92
        8
 66
     7
 43
1.0
 76
     1
 77
     6
 78
     2
 67
     7
 79
     5
170
     0
171
     0
290
     0
174
     0
 93
        1
 44
0.0
173
     0
291
     1
 45
0.0
  0
VISUALSTYLE
  5
3C
102
{ACAD_REACTORS
330
2A
102
}
102
{ACAD_XDICTIONARY
360
1A4
102
}
330
2A
100
AcDbVisualStyle
  2
OverhangOff
 70
    21
 71
     2
 72
     2
 73
     0
 90
        0
 40
0.6
 41
30.0
 62
     5
 63
     7
421
 16777215
 74
     1
 91
        4
 64
     7
 65
   257
 75
     1
175
     1
 42
1.0
 92
        9
 66
     7
 43
1.0
 76
     1
 77
     6
 78
     2
 67
     7
 79
     5
170
     0
171
     0
290
     0
174
     0
 93
        1
 44
0.0
173
     0
291
     1
 45
0.0
  0
VISUALSTYLE
  5
33
102
{ACAD_REACTORS
330
2A
102
}
102
{ACAD_XDICTIONARY
360
192
102
}
330
2A
100
AcDbVisualStyle
  2
Realistic
 70
     8
 71
     2
 72
     3
 73
     0
 90
        2
 40
0.6
 41
30.0
 62
     5
 63
     7
421
 16777215
 74
     0
 91
        0
 64
     7
 65
   257
 75
     1
175
     1
 42
1.0
 92
        8
 66
   257
 43
1.0
 76
     1
 77
     6
 78
     2
 67
     7
 79
     3
170
     0
171
     0
290
     0
174
     0
 93
       13
 44
0.0
173
     0
291
     0
 45
0.0
  0
VISUALSTYLE
  5
42
102
{ACAD_REACTORS
330
2A
102
}
102
{ACAD_XDICTIONARY
360
1B0
102
}
330
2A
100
AcDbVisualStyle
  2
Shaded
 70
    27
 71
     2
 72
     2
 73
     1
 90
        2
 40
0.6
 41
30.0
 62
     5
 63
     7
421
 16777215
 74
     0
 91
        4
 64
     7
 65
   257
 75
     1
175
     1
 42
1.0
 92
        8
 66
   257
 43
1.0
 76
     1
 77
     6
 78
     2
 67
     8
425
  7895160
 79
     3
170
     0
171
     0
290
     0
174
     0
 93
        5
 44
0.0
173
     0
291
     0
 45
0.0
  0
VISUALSTYLE
  5
41
102
{ACAD_REACTORS
330
2A
102
}
102
{ACAD_XDICTIONARY
360
1AE
102
}
330
2A
100
AcDbVisualStyle
  2
Shaded with edges
 70
    26
 71
     2
 72
     2
 73
     1
 90
        2
 40
0.6
 41
30.0
 62
     5
 63
     7
421
 16777215
 74
     1
 91
       10
 64
     7
 65
   257
 75
     2
175
     1
 42
1.0
 92
        8
 66
   257
 43
1.0
 76
     1
 77
     6
 78
     2
 67
     7
 79
     3
170
     0
171
     0
290
     0
174
     0
 93
        5
 44
0.0
173
     0
291
     0
 45
0.0
  0
VISUALSTYLE
  5
3E
102
{ACAD_REACTORS
330
2A
102
}
102
{ACAD_XDICTIONARY
360
1A8
102
}
330
2A
100
AcDbVisualStyle
  2
Shades of Gray
 70
    23
 71
     2
 72
     2
 73
     3
 90
        0
 40
0.6
 41
30.0
 62
     5
 63
     7
421
 16777215
 74
     2
 91
        2
 64
     7
 65
     7
 75
     1
175
     1
 42
40.0
 92
        8
 66
     7
 43
1.0
 76
     1
 77
     6
 78
     2
 67
     7
 79
     3
170
     0
171
     0
290
     0
174
     0
 93
        1
 44
0.0
173
     0
291
     0
 45
0.0
  0
VISUALSTYLE
  5
3F
102
{ACAD_REACTORS
330
2A
102
}
102
{ACAD_XDICTIONARY
360
1AA
102
}
330
2A
100
AcDbVisualStyle
  2
Sketchy
 70
    24
 71
     1
 72
     2
 73
     2
 90
        0
 40
0.6
 41
30.0
 62
     5
 63
     7
421
 16777215
 74
     2
 91
        2
 64
     7
 65
     7
 75
     1
175
     1
 42
40.0
 92
       11
 66
     7
 43
1.0
 76
     1
 77
     6
 78
     2
 67
     7
 79
     6
170
     0
171
     0
290
     0
174
     0
 93
        1
 44
0.0
173
     0
291
     0
 45
0.0
  0
VISUALSTYLE
  5
37
102
{ACAD_REACTORS
330
2A
102
}
102
{ACAD_XDICTIONARY
360
19A
102
}
330
2A
100
AcDbVisualStyle
  2
Thicken
 70
    13
 71
     2
 72
     2
 73
     0
 90
        0
 40
0.6
 41
30.0
 62
     5
 63
     7
421
 16777215
 74
     1
 91
        4
 64
     7
 65
   257
 75
     1
175
     1
 42
1.0
 92
       12
 66
     7
 43
1.0
 76
     1
 77
     6
 78
     2
 67
     7
 79
     5
170
     0
171
     0
290
     0
174
     0
 93
        1
 44
0.0
173
     0
291
     1
 45
0.0
  0
VISUALSTYLE
  5
30
102
{ACAD_REACTORS
330
2A
102
}
102
{ACAD_XDICTIONARY
360
18C
102
}
330
2A
100
AcDbVisualStyle
  2
Wireframe
 70
     5
 71
     0
 72
     2
 73
     0
 90
        0
 40
0.6
 41
30.0
 62
     5
 63
     7
421
 16777215
 74
     1
 91
        4
 64
     7
 65
   257
 75
     1
175
     1
 42
1.0
 92
        0
 66
   257
 43
1.0
 76
     1
 77
     6
 78
     2
 67
     7
 79
     3
170
     0
171
     0
290
     0
174
     0
 93
        1
 44
0.0
173
     0
291
     0
 45
0.0
  0
VISUALSTYLE
  5
40
102
{ACAD_REACTORS
330
2A
102
}
102
{ACAD_XDICTIONARY
360
1AC
102
}
330
2A
100
AcDbVisualStyle
  2
X-Ray
 70
    25
 71
     2
 72
     2
 73
     1
 90
        1
 40
0.5
 41
30.0
 62
     5
 63
     7
421
 16777215
 74
     1
 91
        0
 64
     7
 65
   257
 75
     1
175
     1
 42
1.0
 92
        8
 66
     7
 43
1.0
 76
     1
 77
     6
 78
     2
 67
     7
 79
     3
170
     0
171
     0
290
     0
174
     0
 93
       13
 44
0.0
173
     0
291
     0
 45
0.0
  0
DICTIONARYVAR
  5
180
102
{ACAD_REACTORS
330
17F
102
}
330
17F
100
DictionaryVariables
280
     0
  1
1:1
  0
DICTIONARYVAR
  5
1B9
102
{ACAD_REACTORS
330
17F
102
}
330
17F
100
DictionaryVariables
280
     0
  1
Standard
  0
DICTIONARYVAR
  5
1B8
102
{ACAD_REACTORS
330
17F
102
}
330
17F
100
DictionaryVariables
280
     0
  1
Standard
  0
DICTIONARYVAR
  5
181
102
{ACAD_REACTORS
330
17F
102
}
330
17F
100
DictionaryVariables
280
     0
  1
2
  0
DICTIONARY
  5
1B5
330
5C
100
AcDbDictionary
280
     1
281
     1
  3
ACAD_XREC_ROUNDTRIP
360
1B6
  0
DICTIONARY
  5
1B2
330
5A
100
AcDbDictionary
280
     1
281
     1
  3
ACAD_ROUNDTRIP_2008_TABLESTYLE_CELLSTYLEMAP
360
1B3
  0
DICTIONARY
  5
18A
330
2F
100
AcDbDictionary
280
     1
281
     1
  3
ACAD_XREC_ROUNDTRIP
360
18B
  0
DICTIONARY
  5
190
330
32
100
AcDbDictionary
280
     1
281
     1
  3
ACAD_XREC_ROUNDTRIP
360
191
  0
DICTIONARY
  5
198
330
36
100
AcDbDictionary
280
     1
281
     1
  3
ACAD_XREC_ROUNDTRIP
360
199
  0
DICTIONARY
  5
1A0
330
3A
100
AcDbDictionary
280
     1
281
     1
  3
ACAD_XREC_ROUNDTRIP
360
1A1
  0
DICTIONARY
  5
194
330
34
100
AcDbDictionary
280
     1
281
     1
  3
ACAD_XREC_ROUNDTRIP
360
195
  0
DICTIONARY
  5
196
330
35
100
AcDbDictionary
280
     1
281
     1
  3
ACAD_XREC_ROUNDTRIP
360
197
  0
DICTIONARY
  5
1A6
330
3D
100
AcDbDictionary
280
     1
281
     1
  3
ACAD_XREC_ROUNDTRIP
360
1A7
  0
DICTIONARY
  5
19E
330
39
100
AcDbDictionary
280
     1
281
     1
  3
ACAD_XREC_ROUNDTRIP
360
19F
  0
DICTIONARY
  5
182
330
2B
100
AcDbDictionary
280
     1
281
     1
  3
ACAD_XREC_ROUNDTRIP
360
183
  0
DICTIONARY
  5
184
330
2C
100
AcDbDictionary
280
     1
281
     1
  3
ACAD_XREC_ROUNDTRIP
360
185
  0
DICTIONARY
  5
186
330
2D
100
AcDbDictionary
280
     1
281
     1
  3
ACAD_XREC_ROUNDTRIP
360
187
  0
DICTIONARY
  5
188
330
2E
100
AcDbDictionary
280
     1
281
     1
  3
ACAD_XREC_ROUNDTRIP
360
189
  0
DICTIONARY
  5
18E
330
31
100
AcDbDictionary
280
     1
281
     1
  3
ACAD_XREC_ROUNDTRIP
360
18F
  0
DICTIONARY
  5
1A2
330
3B
100
AcDbDictionary
280
     1
281
     1
  3
ACAD_XREC_ROUNDTRIP
360
1A3
  0
DICTIONARY
  5
19C
330
38
100
AcDbDictionary
280
     1
281
     1
  3
ACAD_XREC_ROUNDTRIP
360
19D
  0
DICTIONARY
  5
1A4
330
3C
100
AcDbDictionary
280
     1
281
     1
  3
ACAD_XREC_ROUNDTRIP
360
1A5
  0
DICTIONARY
  5
192
330
33
100
AcDbDictionary
280
     1
281
     1
  3
ACAD_XREC_ROUNDTRIP
360
193
  0
DICTIONARY
  5
1B0
330
42
100
AcDbDictionary
280
     1
281
     1
  3
ACAD_XREC_ROUNDTRIP
360
1B1
  0
DICTIONARY
  5
1AE
330
41
100
AcDbDictionary
280
     1
281
     1
  3
ACAD_XREC_ROUNDTRIP
360
1AF
  0
DICTIONARY
  5
1A8
330
3E
100
AcDbDictionary
280
     1
281
     1
  3
ACAD_XREC_ROUNDTRIP
360
1A9
  0
DICTIONARY
  5
1AA
330
3F
100
AcDbDictionary
280
     1
281
     1
  3
ACAD_XREC_ROUNDTRIP
360
1AB
  0
DICTIONARY
  5
19A
330
37
100
AcDbDictionary
280
     1
281
     1
  3
ACAD_XREC_ROUNDTRIP
360
19B
  0
DICTIONARY
  5
18C
330
30
100
AcDbDictionary
280
     1
281
     1
  3
ACAD_XREC_ROUNDTRIP
360
18D
  0
DICTIONARY
  5
1AC
330
40
100
AcDbDictionary
280
     1
281
     1
  3
ACAD_XREC_ROUNDTRIP
360
1AD
  0
XRECORD
  5
1B6
102
{ACAD_REACTORS
330
1B5
102
}
330
1B5
100
AcDbXrecord
280
     1
102
ACAD_ROUNDTRIP_2010_MLEADER_STYLE
  0
CELLSTYLEMAP
  5
1B3
102
{ACAD_REACTORS
330
1B2
102
}
330
1B2
100
AcDbCellStyleMap
 90
        3
300
CELLSTYLE
  1
TABLEFORMAT_BEGIN
 90
        5
170
     1
 91
        0
 92
    32768
 62
   257
 93
        1
300
CONTENTFORMAT
  1
CONTENTFORMAT_BEGIN
 90
        0
 91
        0
 92
        4
 93
        0
300

 40
0.0
140
1.0
 94
        5
 62
     0
340
11
144
0.25
309
CONTENTFORMAT_END
171
     1
301
MARGIN
  1
CELLMARGIN_BEGIN
 40
0.06
 40
0.06
 40
0.06
 40
0.06
 40
0.06
 40
0.06
309
CELLMARGIN_END
 94
        6
 95
        1
302
GRIDFORMAT
  1
GRIDFORMAT_BEGIN
 90
        0
 91
        1
 62
     0
 92
       -2
340
14
 93
        0
 40
0.045
309
GRIDFORMAT_END
 95
        2
302
GRIDFORMAT
  1
GRIDFORMAT_BEGIN
 90
        0
 91
        1
 62
     0
 92
       -2
340
14
 93
        0
 40
0.045
309
GRIDFORMAT_END
 95
        4
302
GRIDFORMAT
  1
GRIDFORMAT_BEGIN
 90
        0
 91
        1
 62
     0
 92
       -2
340
14
 93
        0
 40
0.045
309
GRIDFORMAT_END
 95
        8
302
GRIDFORMAT
  1
GRIDFORMAT_BEGIN
 90
        0
 91
        1
 62
     0
 92
       -2
340
14
 93
        0
 40
0.045
309
GRIDFORMAT_END
 95
       16
302
GRIDFORMAT
  1
GRIDFORMAT_BEGIN
 90
        0
 91
        1
 62
     0
 92
       -2
340
14
 93
        0
 40
0.045
309
GRIDFORMAT_END
 95
       32
302
GRIDFORMAT
  1
GRIDFORMAT_BEGIN
 90
        0
 91
        1
 62
     0
 92
       -2
340
14
 93
        0
 40
0.045
309
GRIDFORMAT_END
309
TABLEFORMAT_END
  1
CELLSTYLE_BEGIN
 90
        1
 91
        1
300
_TITLE
309
CELLSTYLE_END
300
CELLSTYLE
  1
TABLEFORMAT_BEGIN
 90
        5
170
     1
 91
        0
 92
        0
 62
   257
 93
        1
300
CONTENTFORMAT
  1
CONTENTFORMAT_BEGIN
 90
        0
 91
        0
 92
        4
 93
        0
300

 40
0.0
140
1.0
 94
        5
 62
     0
340
11
144
0.18
309
CONTENTFORMAT_END
171
     1
301
MARGIN
  1
CELLMARGIN_BEGIN
 40
0.06
 40
0.06
 40
0.06
 40
0.06
 40
0.06
 40
0.06
309
CELLMARGIN_END
 94
        6
 95
        1
302
GRIDFORMAT
  1
GRIDFORMAT_BEGIN
 90
        0
 91
        1
 62
     0
 92
       -2
340
14
 93
        0
 40
0.045
309
GRIDFORMAT_END
 95
        2
302
GRIDFORMAT
  1
GRIDFORMAT_BEGIN
 90
        0
 91
        1
 62
     0
 92
       -2
340
14
 93
        0
 40
0.045
309
GRIDFORMAT_END
 95
        4
302
GRIDFORMAT
  1
GRIDFORMAT_BEGIN
 90
        0
 91
        1
 62
     0
 92
       -2
340
14
 93
        0
 40
0.045
309
GRIDFORMAT_END
 95
        8
302
GRIDFORMAT
  1
GRIDFORMAT_BEGIN
 90
        0
 91
        1
 62
     0
 92
       -2
340
14
 93
        0
 40
0.045
309
GRIDFORMAT_END
 95
       16
302
GRIDFORMAT
  1
GRIDFORMAT_BEGIN
 90
        0
 91
        1
 62
     0
 92
       -2
340
14
 93
        0
 40
0.045
309
GRIDFORMAT_END
 95
       32
302
GRIDFORMAT
  1
GRIDFORMAT_BEGIN
 90
        0
 91
        1
 62
     0
 92
       -2
340
14
 93
        0
 40
0.045
309
GRIDFORMAT_END
309
TABLEFORMAT_END
  1
CELLSTYLE_BEGIN
 90
        2
 91
        1
300
_HEADER
309
CELLSTYLE_END
300
CELLSTYLE
  1
TABLEFORMAT_BEGIN
 90
        5
170
     1
 91
        0
 92
        0
 62
   257
 93
        1
300
CONTENTFORMAT
  1
CONTENTFORMAT_BEGIN
 90
        0
 91
        0
 92
        4
 93
        0
300

 40
0.0
140
1.0
 94
        2
 62
     0
340
11
144
0.18
309
CONTENTFORMAT_END
171
     1
301
MARGIN
  1
CELLMARGIN_BEGIN
 40
0.06
 40
0.06
 40
0.06
 40
0.06
 40
0.06
 40
0.06
309
CELLMARGIN_END
 94
        6
 95
        1
302
GRIDFORMAT
  1
GRIDFORMAT_BEGIN
 90
        0
 91
        1
 62
     0
 92
       -2
340
14
 93
        0
 40
0.045
309
GRIDFORMAT_END
 95
        2
302
GRIDFORMAT
  1
GRIDFORMAT_BEGIN
 90
        0
 91
        1
 62
     0
 92
       -2
340
14
 93
        0
 40
0.045
309
GRIDFORMAT_END
 95
        4
302
GRIDFORMAT
  1
GRIDFORMAT_BEGIN
 90
        0
 91
        1
 62
     0
 92
       -2
340
14
 93
        0
 40
0.045
309
GRIDFORMAT_END
 95
        8
302
GRIDFORMAT
  1
GRIDFORMAT_BEGIN
 90
        0
 91
        1
 62
     0
 92
       -2
340
14
 93
        0
 40
0.045
309
GRIDFORMAT_END
 95
       16
302
GRIDFORMAT
  1
GRIDFORMAT_BEGIN
 90
        0
 91
        1
 62
     0
 92
       -2
340
14
 93
        0
 40
0.045
309
GRIDFORMAT_END
 95
       32
302
GRIDFORMAT
  1
GRIDFORMAT_BEGIN
 90
        0
 91
        1
 62
     0
 92
       -2
340
14
 93
        0
 40
0.045
309
GRIDFORMAT_END
309
TABLEFORMAT_END
  1
CELLSTYLE_BEGIN
 90
        3
 91
        2
300
_DATA
309
CELLSTYLE_END
  0
XRECORD
  5
18B
102
{ACAD_REACTORS
330
18A
102
}
330
18A
100
AcDbXrecord
280
     1
102
RTVSPropertyOp0
 70
     1
102
RTVSPropertyOp1
 70
     1
102
RTVSPropertyOp2
 70
     1
102
RTVSPropertyOp3
 70
     1
102
RTVSPropertyOp4
 70
     1
102
RTVSPropertyOp5
 70
     1
102
RTVSPropertyOp6
 70
     1
102
RTVSPropertyOp7
 70
     1
102
RTVSPropertyOp8
 70
     1
102
RTVSPropertyOp9
 70
     1
102
RTVSPropertyOp10
 70
     1
102
RTVSPropertyOp11
 70
     1
102
RTVSPropertyOp12
 70
     1
102
RTVSPropertyOp13
 70
     1
102
RTVSPropertyOp14
 70
     1
102
RTVSPropertyOp15
 70
     1
102
RTVSPropertyOp16
 70
     1
102
RTVSPropertyOp17
 70
     1
102
RTVSPropertyOp18
 70
     1
102
RTVSPropertyOp19
 70
     1
102
RTVSPropertyOp20
 70
     1
102
RTVSPropertyOp21
 70
     1
102
RTVSPropertyOp22
 70
     1
102
RTVSPropertyOp23
 70
     1
102
RTVSPropertyOp24
 70
     1
102
RTVSPropertyOp25
 70
     1
102
RTVSPropertyOp26
 70
     1
102
RTVSPropertyOp27
 70
     1
102
RTVSPropertyOp28
 70
     1
102
RTVSPropertyOp29
 70
     1
102
RTVSPropertyOp30
 70
     1
102
RTVSPropertyOp31
 70
     1
102
RTVSPropertyOp32
 70
     1
102
RTVSPropertyOp33
 70
     1
102
RTVSPropertyOp34
 70
     1
102
RTVSPropertyOp35
 70
     1
102
RTVSPropertyOp36
 70
     1
102
RTVSPropertyOp37
 70
     1
102
RTVSPropertyOp38
 70
     1
102
RTVSPropertyOp39
 70
     1
102
RTVSPropertyOp40
 70
     1
102
RTVSPropertyOp41
 70
     1
102
RTVSPropertyOp42
 70
     1
102
RTVSPropertyOp43
 70
     1
102
RTVSPropertyOp44
 70
     1
102
RTVSPropertyOp45
 70
     1
102
RTVSPropertyOp46
 70
     1
102
RTVSPropertyOp47
 70
     1
102
RTVSPropertyOp48
 70
     1
102
RTVSPropertyOp49
 70
     1
102
RTVSPropertyOp50
 70
     1
102
RTVSPropertyOp51
 70
     0
102
RTVSPropertyOp52
 70
     0
102
RTVSPropertyOp53
 70
     1
102
RTVSPropertyOp54
 70
     1
102
RTVSPropertyOp55
 70
     1
102
RTVSPropertyOp56
 70
     1
102
RTVSPropertyOp57
 70
     1
102
RTVSPost2010Prop28
280
     1
102
RTVSPost2010PropOp28
 70
     1
102
RTVSPost2010Prop29
280
     1
102
RTVSPost2010PropOp29
 70
     1
102
RTVSPost2010Prop30
280
     0
102
RTVSPost2010PropOp30
 70
     1
102
RTVSPost2010Prop31
280
     0
102
RTVSPost2010PropOp31
 70
     1
102
RTVSPost2010Prop32
280
     0
102
RTVSPost2010PropOp32
 70
     1
102
RTVSPost2010Prop33
280
     0
102
RTVSPost2010PropOp33
 70
     1
102
RTVSPost2010Prop34
280
     0
102
RTVSPost2010PropOp34
 70
     1
102
RTVSPost2010Prop35
280
     0
102
RTVSPost2010PropOp35
 70
     1
102
RTVSPost2010Prop36
280
     0
102
RTVSPost2010PropOp36
 70
     1
102
RTVSPost2010Prop37
 90
       50
102
RTVSPost2010PropOp37
 70
     1
102
RTVSPost2010Prop38
140
0.0
102
RTVSPost2010PropOp38
 70
     1
102
RTVSPost2010Prop39
140
1.0
102
RTVSPost2010PropOp39
 70
     1
102
RTVSPost2010Prop40
 90
        0
102
RTVSPost2010PropOp40
 70
     1
102
RTVSPost2010Prop41ColorIndex
 90
       18
102
RTVSPost2010Prop41ColorRGB
 90
        0
102
RTVSPost2010PropOp41
 70
     1
102
RTVSPost2010Prop42
 90
       50
102
RTVSPost2010PropOp42
 70
     1
102
RTVSPost2010Prop43
 90
        3
102
RTVSPost2010PropOp43
 70
     1
102
RTVSPost2010Prop44ColorIndex
 90
        5
102
RTVSPost2010Prop44ColorRGB
 90
      255
102
RTVSPost2010PropOp44
 70
     1
102
RTVSPost2010Prop45
280
     0
102
RTVSPost2010PropOp45
 70
     1
102
RTVSPost2010Prop46
 90
       50
102
RTVSPost2010PropOp46
 70
     1
102
RTVSPost2010Prop47
 90
       50
102
RTVSPost2010PropOp47
 70
     1
102
RTVSPost2010Prop48
 90
       50
102
RTVSPost2010PropOp48
 70
     1
102
RTVSPost2010Prop49
280
     0
102
RTVSPost2010PropOp49
 70
     1
102
RTVSPost2010Prop50
 90
       50
102
RTVSPost2010PropOp50
 70
     1
102
RTVSPost2010Prop51ColorIndex
 90
      256
102
RTVSPost2010Prop51ColorRGB
 90
-16777216
102
RTVSPost2010PropOp51
 70
     0
102
RTVSPost2010Prop52
140
1.0
102
RTVSPost2010PropOp52
 70
     0
102
RTVSPost2010Prop53
 90
        2
102
RTVSPost2010PropOp53
 70
     1
102
RTVSPost2010Prop54
  1
strokes_ogs.tif
102
RTVSPost2010PropOp54
 70
     1
102
RTVSPost2010Prop55
280
     0
102
RTVSPost2010PropOp55
 70
     1
102
RTVSPost2010Prop56
140
1.0
102
RTVSPost2010PropOp56
 70
     1
102
RTVSPost2010Prop57
140
1.0
102
RTVSPost2010PropOp57
 70
     1
  0
XRECORD
  5
191
102
{ACAD_REACTORS
330
190
102
}
330
190
100
AcDbXrecord
280
     1
102
RTVSPropertyOp0
 70
     1
102
RTVSPropertyOp1
 70
     1
102
RTVSPropertyOp2
 70
     1
102
RTVSPropertyOp3
 70
     1
102
RTVSPropertyOp4
 70
     1
102
RTVSPropertyOp5
 70
     1
102
RTVSPropertyOp6
 70
     1
102
RTVSPropertyOp7
 70
     1
102
RTVSPropertyOp8
 70
     1
102
RTVSPropertyOp9
 70
     1
102
RTVSPropertyOp10
 70
     1
102
RTVSPropertyOp11
 70
     1
102
RTVSPropertyOp12
 70
     1
102
RTVSPropertyOp13
 70
     1
102
RTVSPropertyOp14
 70
     1
102
RTVSPropertyOp15
 70
     1
102
RTVSPropertyOp16
 70
     1
102
RTVSPropertyOp17
 70
     1
102
RTVSPropertyOp18
 70
     1
102
RTVSPropertyOp19
 70
     1
102
RTVSPropertyOp20
 70
     1
102
RTVSPropertyOp21
 70
     1
102
RTVSPropertyOp22
 70
     1
102
RTVSPropertyOp23
 70
     1
102
RTVSPropertyOp24
 70
     1
102
RTVSPropertyOp25
 70
     1
102
RTVSPropertyOp26
 70
     1
102
RTVSPropertyOp27
 70
     1
102
RTVSPropertyOp28
 70
     1
102
RTVSPropertyOp29
 70
     1
102
RTVSPropertyOp30
 70
     1
102
RTVSPropertyOp31
 70
     1
102
RTVSPropertyOp32
 70
     1
102
RTVSPropertyOp33
 70
     1
102
RTVSPropertyOp34
 70
     1
102
RTVSPropertyOp35
 70
     1
102
RTVSPropertyOp36
 70
     1
102
RTVSPropertyOp37
 70
     1
102
RTVSPropertyOp38
 70
     1
102
RTVSPropertyOp39
 70
     1
102
RTVSPropertyOp40
 70
     1
102
RTVSPropertyOp41
 70
     1
102
RTVSPropertyOp42
 70
     1
102
RTVSPropertyOp43
 70
     1
102
RTVSPropertyOp44
 70
     1
102
RTVSPropertyOp45
 70
     1
102
RTVSPropertyOp46
 70
     1
102
RTVSPropertyOp47
 70
     1
102
RTVSPropertyOp48
 70
     1
102
RTVSPropertyOp49
 70
     1
102
RTVSPropertyOp50
 70
     1
102
RTVSPropertyOp51
 70
     0
102
RTVSPropertyOp52
 70
     0
102
RTVSPropertyOp53
 70
     1
102
RTVSPropertyOp54
 70
     1
102
RTVSPropertyOp55
 70
     1
102
RTVSPropertyOp56
 70
     1
102
RTVSPropertyOp57
 70
     1
102
RTVSPost2010Prop28
280
     0
102
RTVSPost2010PropOp28
 70
     1
102
RTVSPost2010Prop29
280
     1
102
RTVSPost2010PropOp29
 70
     1
102
RTVSPost2010Prop30
280
     1
102
RTVSPost2010PropOp30
 70
     1
102
RTVSPost2010Prop31
280
     0
102
RTVSPost2010PropOp31
 70
     1
102
RTVSPost2010Prop32
280
     0
102
RTVSPost2010PropOp32
 70
     1
102
RTVSPost2010Prop33
280
     0
102
RTVSPost2010PropOp33
 70
     1
102
RTVSPost2010Prop34
280
     0
102
RTVSPost2010PropOp34
 70
     1
102
RTVSPost2010Prop35
280
     0
102
RTVSPost2010PropOp35
 70
     1
102
RTVSPost2010Prop36
280
     0
102
RTVSPost2010PropOp36
 70
     1
102
RTVSPost2010Prop37
 90
       50
102
RTVSPost2010PropOp37
 70
     1
102
RTVSPost2010Prop38
140
0.0
102
RTVSPost2010PropOp38
 70
     1
102
RTVSPost2010Prop39
140
1.0
102
RTVSPost2010PropOp39
 70
     1
102
RTVSPost2010Prop40
 90
        0
102
RTVSPost2010PropOp40
 70
     1
102
RTVSPost2010Prop41ColorIndex
 90
       18
102
RTVSPost2010Prop41ColorRGB
 90
        0
102
RTVSPost2010PropOp41
 70
     1
102
RTVSPost2010Prop42
 90
       50
102
RTVSPost2010PropOp42
 70
     1
102
RTVSPost2010Prop43
 90
        3
102
RTVSPost2010PropOp43
 70
     1
102
RTVSPost2010Prop44ColorIndex
 90
        5
102
RTVSPost2010Prop44ColorRGB
 90
      255
102
RTVSPost2010PropOp44
 70
     1
102
RTVSPost2010Prop45
280
     0
102
RTVSPost2010PropOp45
 70
     1
102
RTVSPost2010Prop46
 90
       50
102
RTVSPost2010PropOp46
 70
     1
102
RTVSPost2010Prop47
 90
       50
102
RTVSPost2010PropOp47
 70
     1
102
RTVSPost2010Prop48
 90
       50
102
RTVSPost2010PropOp48
 70
     1
102
RTVSPost2010Prop49
280
     0
102
RTVSPost2010PropOp49
 70
     1
102
RTVSPost2010Prop50
 90
       50
102
RTVSPost2010PropOp50
 70
     1
102
RTVSPost2010Prop51ColorIndex
 90
      256
102
RTVSPost2010Prop51ColorRGB
 90
-16777216
102
RTVSPost2010PropOp51
 70
     0
102
RTVSPost2010Prop52
140
1.0
102
RTVSPost2010PropOp52
 70
     0
102
RTVSPost2010Prop53
 90
        2
102
RTVSPost2010PropOp53
 70
     1
102
RTVSPost2010Prop54
  1
strokes_ogs.tif
102
RTVSPost2010PropOp54
 70
     1
102
RTVSPost2010Prop55
280
     0
102
RTVSPost2010PropOp55
 70
     1
102
RTVSPost2010Prop56
140
1.0
102
RTVSPost2010PropOp56
 70
     1
102
RTVSPost2010Prop57
140
1.0
102
RTVSPost2010PropOp57
 70
     1
  0
XRECORD
  5
199
102
{ACAD_REACTORS
330
198
102
}
330
198
100
AcDbXrecord
280
     1
102
RTVSPropertyOp0
 70
     1
102
RTVSPropertyOp1
 70
     1
102
RTVSPropertyOp2
 70
     1
102
RTVSPropertyOp3
 70
     1
102
RTVSPropertyOp4
 70
     1
102
RTVSPropertyOp5
 70
     1
102
RTVSPropertyOp6
 70
     1
102
RTVSPropertyOp7
 70
     1
102
RTVSPropertyOp8
 70
     1
102
RTVSPropertyOp9
 70
     1
102
RTVSPropertyOp10
 70
     1
102
RTVSPropertyOp11
 70
     1
102
RTVSPropertyOp12
 70
     1
102
RTVSPropertyOp13
 70
     1
102
RTVSPropertyOp14
 70
     1
102
RTVSPropertyOp15
 70
     1
102
RTVSPropertyOp16
 70
     1
102
RTVSPropertyOp17
 70
     1
102
RTVSPropertyOp18
 70
     1
102
RTVSPropertyOp19
 70
     1
102
RTVSPropertyOp20
 70
     1
102
RTVSPropertyOp21
 70
     1
102
RTVSPropertyOp22
 70
     1
102
RTVSPropertyOp23
 70
     1
102
RTVSPropertyOp24
 70
     1
102
RTVSPropertyOp25
 70
     1
102
RTVSPropertyOp26
 70
     1
102
RTVSPropertyOp27
 70
     1
102
RTVSPropertyOp28
 70
     1
102
RTVSPropertyOp29
 70
     1
102
RTVSPropertyOp30
 70
     1
102
RTVSPropertyOp31
 70
     1
102
RTVSPropertyOp32
 70
     1
102
RTVSPropertyOp33
 70
     1
102
RTVSPropertyOp34
 70
     1
102
RTVSPropertyOp35
 70
     1
102
RTVSPropertyOp36
 70
     1
102
RTVSPropertyOp37
 70
     1
102
RTVSPropertyOp38
 70
     1
102
RTVSPropertyOp39
 70
     1
102
RTVSPropertyOp40
 70
     1
102
RTVSPropertyOp41
 70
     1
102
RTVSPropertyOp42
 70
     1
102
RTVSPropertyOp43
 70
     1
102
RTVSPropertyOp44
 70
     1
102
RTVSPropertyOp45
 70
     1
102
RTVSPropertyOp46
 70
     1
102
RTVSPropertyOp47
 70
     1
102
RTVSPropertyOp48
 70
     1
102
RTVSPropertyOp49
 70
     1
102
RTVSPropertyOp50
 70
     1
102
RTVSPropertyOp51
 70
     0
102
RTVSPropertyOp52
 70
     0
102
RTVSPropertyOp53
 70
     1
102
RTVSPropertyOp54
 70
     1
102
RTVSPropertyOp55
 70
     1
102
RTVSPropertyOp56
 70
     1
102
RTVSPropertyOp57
 70
     1
102
RTVSPost2010Prop28
280
     0
102
RTVSPost2010PropOp28
 70
     1
102
RTVSPost2010Prop29
280
     1
102
RTVSPost2010PropOp29
 70
     1
102
RTVSPost2010Prop30
280
     1
102
RTVSPost2010PropOp30
 70
     1
102
RTVSPost2010Prop31
280
     0
102
RTVSPost2010PropOp31
 70
     1
102
RTVSPost2010Prop32
280
     0
102
RTVSPost2010PropOp32
 70
     1
102
RTVSPost2010Prop33
280
     0
102
RTVSPost2010PropOp33
 70
     1
102
RTVSPost2010Prop34
280
     0
102
RTVSPost2010PropOp34
 70
     1
102
RTVSPost2010Prop35
280
     0
102
RTVSPost2010PropOp35
 70
     1
102
RTVSPost2010Prop36
280
     0
102
RTVSPost2010PropOp36
 70
     1
102
RTVSPost2010Prop37
 90
       50
102
RTVSPost2010PropOp37
 70
     1
102
RTVSPost2010Prop38
140
0.0
102
RTVSPost2010PropOp38
 70
     1
102
RTVSPost2010Prop39
140
1.0
102
RTVSPost2010PropOp39
 70
     1
102
RTVSPost2010Prop40
 90
        0
102
RTVSPost2010PropOp40
 70
     1
102
RTVSPost2010Prop41ColorIndex
 90
       18
102
RTVSPost2010Prop41ColorRGB
 90
        0
102
RTVSPost2010PropOp41
 70
     1
102
RTVSPost2010Prop42
 90
       50
102
RTVSPost2010PropOp42
 70
     1
102
RTVSPost2010Prop43
 90
        3
102
RTVSPost2010PropOp43
 70
     1
102
RTVSPost2010Prop44ColorIndex
 90
        5
102
RTVSPost2010Prop44ColorRGB
 90
      255
102
RTVSPost2010PropOp44
 70
     1
102
RTVSPost2010Prop45
280
     0
102
RTVSPost2010PropOp45
 70
     1
102
RTVSPost2010Prop46
 90
       50
102
RTVSPost2010PropOp46
 70
     1
102
RTVSPost2010Prop47
 90
       50
102
RTVSPost2010PropOp47
 70
     1
102
RTVSPost2010Prop48
 90
       50
102
RTVSPost2010PropOp48
 70
     1
102
RTVSPost2010Prop49
280
     0
102
RTVSPost2010PropOp49
 70
     1
102
RTVSPost2010Prop50
 90
       50
102
RTVSPost2010PropOp50
 70
     1
102
RTVSPost2010Prop51ColorIndex
 90
      256
102
RTVSPost2010Prop51ColorRGB
 90
-16777216
102
RTVSPost2010PropOp51
 70
     0
102
RTVSPost2010Prop52
140
1.0
102
RTVSPost2010PropOp52
 70
     0
102
RTVSPost2010Prop53
 90
        2
102
RTVSPost2010PropOp53
 70
     1
102
RTVSPost2010Prop54
  1
strokes_ogs.tif
102
RTVSPost2010PropOp54
 70
     1
102
RTVSPost2010Prop55
280
     0
102
RTVSPost2010PropOp55
 70
     1
102
RTVSPost2010Prop56
140
1.0
102
RTVSPost2010PropOp56
 70
     1
102
RTVSPost2010Prop57
140
1.0
102
RTVSPost2010PropOp57
 70
     1
  0
XRECORD
  5
1A1
102
{ACAD_REACTORS
330
1A0
102
}
330
1A0
100
AcDbXrecord
280
     1
102
RTVSPropertyOp0
 70
     1
102
RTVSPropertyOp1
 70
     1
102
RTVSPropertyOp2
 70
     1
102
RTVSPropertyOp3
 70
     1
102
RTVSPropertyOp4
 70
     1
102
RTVSPropertyOp5
 70
     1
102
RTVSPropertyOp6
 70
     1
102
RTVSPropertyOp7
 70
     1
102
RTVSPropertyOp8
 70
     1
102
RTVSPropertyOp9
 70
     1
102
RTVSPropertyOp10
 70
     1
102
RTVSPropertyOp11
 70
     1
102
RTVSPropertyOp12
 70
     1
102
RTVSPropertyOp13
 70
     1
102
RTVSPropertyOp14
 70
     1
102
RTVSPropertyOp15
 70
     1
102
RTVSPropertyOp16
 70
     1
102
RTVSPropertyOp17
 70
     1
102
RTVSPropertyOp18
 70
     1
102
RTVSPropertyOp19
 70
     1
102
RTVSPropertyOp20
 70
     1
102
RTVSPropertyOp21
 70
     1
102
RTVSPropertyOp22
 70
     1
102
RTVSPropertyOp23
 70
     1
102
RTVSPropertyOp24
 70
     1
102
RTVSPropertyOp25
 70
     1
102
RTVSPropertyOp26
 70
     1
102
RTVSPropertyOp27
 70
     1
102
RTVSPropertyOp28
 70
     1
102
RTVSPropertyOp29
 70
     1
102
RTVSPropertyOp30
 70
     1
102
RTVSPropertyOp31
 70
     1
102
RTVSPropertyOp32
 70
     1
102
RTVSPropertyOp33
 70
     1
102
RTVSPropertyOp34
 70
     1
102
RTVSPropertyOp35
 70
     1
102
RTVSPropertyOp36
 70
     1
102
RTVSPropertyOp37
 70
     1
102
RTVSPropertyOp38
 70
     1
102
RTVSPropertyOp39
 70
     1
102
RTVSPropertyOp40
 70
     1
102
RTVSPropertyOp41
 70
     1
102
RTVSPropertyOp42
 70
     1
102
RTVSPropertyOp43
 70
     1
102
RTVSPropertyOp44
 70
     1
102
RTVSPropertyOp45
 70
     1
102
RTVSPropertyOp46
 70
     1
102
RTVSPropertyOp47
 70
     1
102
RTVSPropertyOp48
 70
     1
102
RTVSPropertyOp49
 70
     1
102
RTVSPropertyOp50
 70
     1
102
RTVSPropertyOp51
 70
     0
102
RTVSPropertyOp52
 70
     0
102
RTVSPropertyOp53
 70
     1
102
RTVSPropertyOp54
 70
     1
102
RTVSPropertyOp55
 70
     1
102
RTVSPropertyOp56
 70
     1
102
RTVSPropertyOp57
 70
     1
102
RTVSPost2010Prop28
280
     0
102
RTVSPost2010PropOp28
 70
     1
102
RTVSPost2010Prop29
280
     1
102
RTVSPost2010PropOp29
 70
     1
102
RTVSPost2010Prop30
280
     1
102
RTVSPost2010PropOp30
 70
     1
102
RTVSPost2010Prop31
280
     0
102
RTVSPost2010PropOp31
 70
     1
102
RTVSPost2010Prop32
280
     0
102
RTVSPost2010PropOp32
 70
     1
102
RTVSPost2010Prop33
280
     0
102
RTVSPost2010PropOp33
 70
     1
102
RTVSPost2010Prop34
280
     0
102
RTVSPost2010PropOp34
 70
     1
102
RTVSPost2010Prop35
280
     0
102
RTVSPost2010PropOp35
 70
     1
102
RTVSPost2010Prop36
280
     0
102
RTVSPost2010PropOp36
 70
     1
102
RTVSPost2010Prop37
 90
       50
102
RTVSPost2010PropOp37
 70
     1
102
RTVSPost2010Prop38
140
0.0
102
RTVSPost2010PropOp38
 70
     1
102
RTVSPost2010Prop39
140
1.0
102
RTVSPost2010PropOp39
 70
     1
102
RTVSPost2010Prop40
 90
        0
102
RTVSPost2010PropOp40
 70
     1
102
RTVSPost2010Prop41ColorIndex
 90
       18
102
RTVSPost2010Prop41ColorRGB
 90
        0
102
RTVSPost2010PropOp41
 70
     1
102
RTVSPost2010Prop42
 90
       50
102
RTVSPost2010PropOp42
 70
     1
102
RTVSPost2010Prop43
 90
        3
102
RTVSPost2010PropOp43
 70
     1
102
RTVSPost2010Prop44ColorIndex
 90
        5
102
RTVSPost2010Prop44ColorRGB
 90
      255
102
RTVSPost2010PropOp44
 70
     1
102
RTVSPost2010Prop45
280
     0
102
RTVSPost2010PropOp45
 70
     1
102
RTVSPost2010Prop46
 90
       50
102
RTVSPost2010PropOp46
 70
     1
102
RTVSPost2010Prop47
 90
       50
102
RTVSPost2010PropOp47
 70
     1
102
RTVSPost2010Prop48
 90
       50
102
RTVSPost2010PropOp48
 70
     1
102
RTVSPost2010Prop49
280
     0
102
RTVSPost2010PropOp49
 70
     1
102
RTVSPost2010Prop50
 90
       50
102
RTVSPost2010PropOp50
 70
     1
102
RTVSPost2010Prop51ColorIndex
 90
      256
102
RTVSPost2010Prop51ColorRGB
 90
-16777216
102
RTVSPost2010PropOp51
 70
     0
102
RTVSPost2010Prop52
140
1.0
102
RTVSPost2010PropOp52
 70
     0
102
RTVSPost2010Prop53
 90
        2
102
RTVSPost2010PropOp53
 70
     1
102
RTVSPost2010Prop54
  1
strokes_ogs.tif
102
RTVSPost2010PropOp54
 70
     1
102
RTVSPost2010Prop55
280
     0
102
RTVSPost2010PropOp55
 70
     1
102
RTVSPost2010Prop56
140
1.0
102
RTVSPost2010PropOp56
 70
     1
102
RTVSPost2010Prop57
140
1.0
102
RTVSPost2010PropOp57
 70
     1
  0
XRECORD
  5
195
102
{ACAD_REACTORS
330
194
102
}
330
194
100
AcDbXrecord
280
     1
102
RTVSPropertyOp0
 70
     1
102
RTVSPropertyOp1
 70
     1
102
RTVSPropertyOp2
 70
     1
102
RTVSPropertyOp3
 70
     1
102
RTVSPropertyOp4
 70
     1
102
RTVSPropertyOp5
 70
     1
102
RTVSPropertyOp6
 70
     1
102
RTVSPropertyOp7
 70
     1
102
RTVSPropertyOp8
 70
     1
102
RTVSPropertyOp9
 70
     1
102
RTVSPropertyOp10
 70
     1
102
RTVSPropertyOp11
 70
     1
102
RTVSPropertyOp12
 70
     1
102
RTVSPropertyOp13
 70
     1
102
RTVSPropertyOp14
 70
     1
102
RTVSPropertyOp15
 70
     1
102
RTVSPropertyOp16
 70
     1
102
RTVSPropertyOp17
 70
     1
102
RTVSPropertyOp18
 70
     1
102
RTVSPropertyOp19
 70
     1
102
RTVSPropertyOp20
 70
     1
102
RTVSPropertyOp21
 70
     1
102
RTVSPropertyOp22
 70
     1
102
RTVSPropertyOp23
 70
     1
102
RTVSPropertyOp24
 70
     1
102
RTVSPropertyOp25
 70
     1
102
RTVSPropertyOp26
 70
     1
102
RTVSPropertyOp27
 70
     1
102
RTVSPropertyOp28
 70
     1
102
RTVSPropertyOp29
 70
     1
102
RTVSPropertyOp30
 70
     1
102
RTVSPropertyOp31
 70
     1
102
RTVSPropertyOp32
 70
     1
102
RTVSPropertyOp33
 70
     1
102
RTVSPropertyOp34
 70
     1
102
RTVSPropertyOp35
 70
     1
102
RTVSPropertyOp36
 70
     1
102
RTVSPropertyOp37
 70
     1
102
RTVSPropertyOp38
 70
     1
102
RTVSPropertyOp39
 70
     1
102
RTVSPropertyOp40
 70
     1
102
RTVSPropertyOp41
 70
     1
102
RTVSPropertyOp42
 70
     1
102
RTVSPropertyOp43
 70
     1
102
RTVSPropertyOp44
 70
     1
102
RTVSPropertyOp45
 70
     1
102
RTVSPropertyOp46
 70
     1
102
RTVSPropertyOp47
 70
     1
102
RTVSPropertyOp48
 70
     1
102
RTVSPropertyOp49
 70
     1
102
RTVSPropertyOp50
 70
     1
102
RTVSPropertyOp51
 70
     0
102
RTVSPropertyOp52
 70
     0
102
RTVSPropertyOp53
 70
     1
102
RTVSPropertyOp54
 70
     1
102
RTVSPropertyOp55
 70
     1
102
RTVSPropertyOp56
 70
     1
102
RTVSPropertyOp57
 70
     1
102
RTVSPost2010Prop28
280
     0
102
RTVSPost2010PropOp28
 70
     1
102
RTVSPost2010Prop29
280
     1
102
RTVSPost2010PropOp29
 70
     1
102
RTVSPost2010Prop30
280
     1
102
RTVSPost2010PropOp30
 70
     1
102
RTVSPost2010Prop31
280
     0
102
RTVSPost2010PropOp31
 70
     1
102
RTVSPost2010Prop32
280
     0
102
RTVSPost2010PropOp32
 70
     1
102
RTVSPost2010Prop33
280
     0
102
RTVSPost2010PropOp33
 70
     1
102
RTVSPost2010Prop34
280
     0
102
RTVSPost2010PropOp34
 70
     1
102
RTVSPost2010Prop35
280
     0
102
RTVSPost2010PropOp35
 70
     1
102
RTVSPost2010Prop36
280
     0
102
RTVSPost2010PropOp36
 70
     1
102
RTVSPost2010Prop37
 90
       50
102
RTVSPost2010PropOp37
 70
     1
102
RTVSPost2010Prop38
140
0.0
102
RTVSPost2010PropOp38
 70
     1
102
RTVSPost2010Prop39
140
1.0
102
RTVSPost2010PropOp39
 70
     1
102
RTVSPost2010Prop40
 90
        0
102
RTVSPost2010PropOp40
 70
     1
102
RTVSPost2010Prop41ColorIndex
 90
       18
102
RTVSPost2010Prop41ColorRGB
 90
        0
102
RTVSPost2010PropOp41
 70
     1
102
RTVSPost2010Prop42
 90
       50
102
RTVSPost2010PropOp42
 70
     1
102
RTVSPost2010Prop43
 90
        3
102
RTVSPost2010PropOp43
 70
     1
102
RTVSPost2010Prop44ColorIndex
 90
        5
102
RTVSPost2010Prop44ColorRGB
 90
      255
102
RTVSPost2010PropOp44
 70
     1
102
RTVSPost2010Prop45
280
     0
102
RTVSPost2010PropOp45
 70
     1
102
RTVSPost2010Prop46
 90
       50
102
RTVSPost2010PropOp46
 70
     1
102
RTVSPost2010Prop47
 90
       50
102
RTVSPost2010PropOp47
 70
     1
102
RTVSPost2010Prop48
 90
       50
102
RTVSPost2010PropOp48
 70
     1
102
RTVSPost2010Prop49
280
     0
102
RTVSPost2010PropOp49
 70
     1
102
RTVSPost2010Prop50
 90
       50
102
RTVSPost2010PropOp50
 70
     1
102
RTVSPost2010Prop51ColorIndex
 90
      256
102
RTVSPost2010Prop51ColorRGB
 90
-16777216
102
RTVSPost2010PropOp51
 70
     0
102
RTVSPost2010Prop52
140
1.0
102
RTVSPost2010PropOp52
 70
     0
102
RTVSPost2010Prop53
 90
        2
102
RTVSPost2010PropOp53
 70
     1
102
RTVSPost2010Prop54
  1
strokes_ogs.tif
102
RTVSPost2010PropOp54
 70
     1
102
RTVSPost2010Prop55
280
     0
102
RTVSPost2010PropOp55
 70
     1
102
RTVSPost2010Prop56
140
1.0
102
RTVSPost2010PropOp56
 70
     1
102
RTVSPost2010Prop57
140
1.0
102
RTVSPost2010PropOp57
 70
     1
  0
XRECORD
  5
197
102
{ACAD_REACTORS
330
196
102
}
330
196
100
AcDbXrecord
280
     1
102
RTVSPropertyOp0
 70
     1
102
RTVSPropertyOp1
 70
     1
102
RTVSPropertyOp2
 70
     1
102
RTVSPropertyOp3
 70
     1
102
RTVSPropertyOp4
 70
     1
102
RTVSPropertyOp5
 70
     1
102
RTVSPropertyOp6
 70
     1
102
RTVSPropertyOp7
 70
     1
102
RTVSPropertyOp8
 70
     1
102
RTVSPropertyOp9
 70
     1
102
RTVSPropertyOp10
 70
     1
102
RTVSPropertyOp11
 70
     1
102
RTVSPropertyOp12
 70
     1
102
RTVSPropertyOp13
 70
     1
102
RTVSPropertyOp14
 70
     1
102
RTVSPropertyOp15
 70
     1
102
RTVSPropertyOp16
 70
     1
102
RTVSPropertyOp17
 70
     1
102
RTVSPropertyOp18
 70
     1
102
RTVSPropertyOp19
 70
     1
102
RTVSPropertyOp20
 70
     1
102
RTVSPropertyOp21
 70
     1
102
RTVSPropertyOp22
 70
     1
102
RTVSPropertyOp23
 70
     1
102
RTVSPropertyOp24
 70
     1
102
RTVSPropertyOp25
 70
     1
102
RTVSPropertyOp26
 70
     1
102
RTVSPropertyOp27
 70
     1
102
RTVSPropertyOp28
 70
     1
102
RTVSPropertyOp29
 70
     1
102
RTVSPropertyOp30
 70
     1
102
RTVSPropertyOp31
 70
     1
102
RTVSPropertyOp32
 70
     1
102
RTVSPropertyOp33
 70
     1
102
RTVSPropertyOp34
 70
     1
102
RTVSPropertyOp35
 70
     1
102
RTVSPropertyOp36
 70
     1
102
RTVSPropertyOp37
 70
     1
102
RTVSPropertyOp38
 70
     1
102
RTVSPropertyOp39
 70
     1
102
RTVSPropertyOp40
 70
     1
102
RTVSPropertyOp41
 70
     1
102
RTVSPropertyOp42
 70
     1
102
RTVSPropertyOp43
 70
     1
102
RTVSPropertyOp44
 70
     1
102
RTVSPropertyOp45
 70
     1
102
RTVSPropertyOp46
 70
     1
102
RTVSPropertyOp47
 70
     1
102
RTVSPropertyOp48
 70
     1
102
RTVSPropertyOp49
 70
     1
102
RTVSPropertyOp50
 70
     1
102
RTVSPropertyOp51
 70
     0
102
RTVSPropertyOp52
 70
     0
102
RTVSPropertyOp53
 70
     1
102
RTVSPropertyOp54
 70
     1
102
RTVSPropertyOp55
 70
     1
102
RTVSPropertyOp56
 70
     1
102
RTVSPropertyOp57
 70
     1
102
RTVSPost2010Prop28
280
     0
102
RTVSPost2010PropOp28
 70
     1
102
RTVSPost2010Prop29
280
     1
102
RTVSPost2010PropOp29
 70
     1
102
RTVSPost2010Prop30
280
     1
102
RTVSPost2010PropOp30
 70
     1
102
RTVSPost2010Prop31
280
     0
102
RTVSPost2010PropOp31
 70
     1
102
RTVSPost2010Prop32
280
     0
102
RTVSPost2010PropOp32
 70
     1
102
RTVSPost2010Prop33
280
     0
102
RTVSPost2010PropOp33
 70
     1
102
RTVSPost2010Prop34
280
     0
102
RTVSPost2010PropOp34
 70
     1
102
RTVSPost2010Prop35
280
     0
102
RTVSPost2010PropOp35
 70
     1
102
RTVSPost2010Prop36
280
     0
102
RTVSPost2010PropOp36
 70
     1
102
RTVSPost2010Prop37
 90
       50
102
RTVSPost2010PropOp37
 70
     1
102
RTVSPost2010Prop38
140
0.0
102
RTVSPost2010PropOp38
 70
     1
102
RTVSPost2010Prop39
140
1.0
102
RTVSPost2010PropOp39
 70
     1
102
RTVSPost2010Prop40
 90
        0
102
RTVSPost2010PropOp40
 70
     1
102
RTVSPost2010Prop41ColorIndex
 90
       18
102
RTVSPost2010Prop41ColorRGB
 90
        0
102
RTVSPost2010PropOp41
 70
     1
102
RTVSPost2010Prop42
 90
       50
102
RTVSPost2010PropOp42
 70
     1
102
RTVSPost2010Prop43
 90
        3
102
RTVSPost2010PropOp43
 70
     1
102
RTVSPost2010Prop44ColorIndex
 90
        5
102
RTVSPost2010Prop44ColorRGB
 90
      255
102
RTVSPost2010PropOp44
 70
     1
102
RTVSPost2010Prop45
280
     0
102
RTVSPost2010PropOp45
 70
     1
102
RTVSPost2010Prop46
 90
       50
102
RTVSPost2010PropOp46
 70
     1
102
RTVSPost2010Prop47
 90
       50
102
RTVSPost2010PropOp47
 70
     1
102
RTVSPost2010Prop48
 90
       50
102
RTVSPost2010PropOp48
 70
     1
102
RTVSPost2010Prop49
280
     0
102
RTVSPost2010PropOp49
 70
     1
102
RTVSPost2010Prop50
 90
       50
102
RTVSPost2010PropOp50
 70
     1
102
RTVSPost2010Prop51ColorIndex
 90
      256
102
RTVSPost2010Prop51ColorRGB
 90
-16777216
102
RTVSPost2010PropOp51
 70
     0
102
RTVSPost2010Prop52
140
1.0
102
RTVSPost2010PropOp52
 70
     0
102
RTVSPost2010Prop53
 90
        2
102
RTVSPost2010PropOp53
 70
     1
102
RTVSPost2010Prop54
  1
strokes_ogs.tif
102
RTVSPost2010PropOp54
 70
     1
102
RTVSPost2010Prop55
280
     0
102
RTVSPost2010PropOp55
 70
     1
102
RTVSPost2010Prop56
140
1.0
102
RTVSPost2010PropOp56
 70
     1
102
RTVSPost2010Prop57
140
1.0
102
RTVSPost2010PropOp57
 70
     1
  0
XRECORD
  5
1A7
102
{ACAD_REACTORS
330
1A6
102
}
330
1A6
100
AcDbXrecord
280
     1
102
RTVSPropertyOp0
 70
     0
102
RTVSPropertyOp1
 70
     0
102
RTVSPropertyOp2
 70
     0
102
RTVSPropertyOp3
 70
     0
102
RTVSPropertyOp4
 70
     0
102
RTVSPropertyOp5
 70
     0
102
RTVSPropertyOp6
 70
     0
102
RTVSPropertyOp7
 70
     0
102
RTVSPropertyOp8
 70
     0
102
RTVSPropertyOp9
 70
     0
102
RTVSPropertyOp10
 70
     0
102
RTVSPropertyOp11
 70
     0
102
RTVSPropertyOp12
 70
     0
102
RTVSPropertyOp13
 70
     0
102
RTVSPropertyOp14
 70
     2
102
RTVSPropertyOp15
 70
     0
102
RTVSPropertyOp16
 70
     0
102
RTVSPropertyOp17
 70
     0
102
RTVSPropertyOp18
 70
     0
102
RTVSPropertyOp19
 70
     0
102
RTVSPropertyOp20
 70
     0
102
RTVSPropertyOp21
 70
     0
102
RTVSPropertyOp22
 70
     0
102
RTVSPropertyOp23
 70
     0
102
RTVSPropertyOp24
 70
     0
102
RTVSPropertyOp25
 70
     0
102
RTVSPropertyOp26
 70
     0
102
RTVSPropertyOp27
 70
     0
102
RTVSPropertyOp28
 70
     0
102
RTVSPropertyOp29
 70
     0
102
RTVSPropertyOp30
 70
     0
102
RTVSPropertyOp31
 70
     0
102
RTVSPropertyOp32
 70
     0
102
RTVSPropertyOp33
 70
     0
102
RTVSPropertyOp34
 70
     0
102
RTVSPropertyOp35
 70
     0
102
RTVSPropertyOp36
 70
     0
102
RTVSPropertyOp37
 70
     0
102
RTVSPropertyOp38
 70
     0
102
RTVSPropertyOp39
 70
     0
102
RTVSPropertyOp40
 70
     0
102
RTVSPropertyOp41
 70
     0
102
RTVSPropertyOp42
 70
     0
102
RTVSPropertyOp43
 70
     0
102
RTVSPropertyOp44
 70
     0
102
RTVSPropertyOp45
 70
     0
102
RTVSPropertyOp46
 70
     0
102
RTVSPropertyOp47
 70
     0
102
RTVSPropertyOp48
 70
     0
102
RTVSPropertyOp49
 70
     0
102
RTVSPropertyOp50
 70
     0
102
RTVSPropertyOp51
 70
     0
102
RTVSPropertyOp52
 70
     0
102
RTVSPropertyOp53
 70
     0
102
RTVSPropertyOp54
 70
     0
102
RTVSPropertyOp55
 70
     0
102
RTVSPropertyOp56
 70
     0
102
RTVSPropertyOp57
 70
     0
102
RTVSPost2010Prop28
280
     0
102
RTVSPost2010PropOp28
 70
     0
102
RTVSPost2010Prop29
280
     1
102
RTVSPost2010PropOp29
 70
     0
102
RTVSPost2010Prop30
280
     1
102
RTVSPost2010PropOp30
 70
     0
102
RTVSPost2010Prop31
280
     0
102
RTVSPost2010PropOp31
 70
     0
102
RTVSPost2010Prop32
280
     0
102
RTVSPost2010PropOp32
 70
     0
102
RTVSPost2010Prop33
280
     0
102
RTVSPost2010PropOp33
 70
     0
102
RTVSPost2010Prop34
280
     0
102
RTVSPost2010PropOp34
 70
     0
102
RTVSPost2010Prop35
280
     0
102
RTVSPost2010PropOp35
 70
     0
102
RTVSPost2010Prop36
280
     0
102
RTVSPost2010PropOp36
 70
     0
102
RTVSPost2010Prop37
 90
       50
102
RTVSPost2010PropOp37
 70
     0
102
RTVSPost2010Prop38
140
0.0
102
RTVSPost2010PropOp38
 70
     0
102
RTVSPost2010Prop39
140
1.0
102
RTVSPost2010PropOp39
 70
     0
102
RTVSPost2010Prop40
 90
        0
102
RTVSPost2010PropOp40
 70
     0
102
RTVSPost2010Prop41ColorIndex
 90
       18
102
RTVSPost2010Prop41ColorRGB
 90
        0
102
RTVSPost2010PropOp41
 70
     0
102
RTVSPost2010Prop42
 90
       50
102
RTVSPost2010PropOp42
 70
     0
102
RTVSPost2010Prop43
 90
        3
102
RTVSPost2010PropOp43
 70
     0
102
RTVSPost2010Prop44ColorIndex
 90
        5
102
RTVSPost2010Prop44ColorRGB
 90
      255
102
RTVSPost2010PropOp44
 70
     0
102
RTVSPost2010Prop45
280
     0
102
RTVSPost2010PropOp45
 70
     0
102
RTVSPost2010Prop46
 90
       50
102
RTVSPost2010PropOp46
 70
     0
102
RTVSPost2010Prop47
 90
       50
102
RTVSPost2010PropOp47
 70
     0
102
RTVSPost2010Prop48
 90
       50
102
RTVSPost2010PropOp48
 70
     0
102
RTVSPost2010Prop49
280
     0
102
RTVSPost2010PropOp49
 70
     0
102
RTVSPost2010Prop50
 90
       50
102
RTVSPost2010PropOp50
 70
     0
102
RTVSPost2010Prop51ColorIndex
 90
      256
102
RTVSPost2010Prop51ColorRGB
 90
-16777216
102
RTVSPost2010PropOp51
 70
     0
102
RTVSPost2010Prop52
140
1.0
102
RTVSPost2010PropOp52
 70
     0
102
RTVSPost2010Prop53
 90
        2
102
RTVSPost2010PropOp53
 70
     0
102
RTVSPost2010Prop54
  1
strokes_ogs.tif
102
RTVSPost2010PropOp54
 70
     0
102
RTVSPost2010Prop55
280
     0
102
RTVSPost2010PropOp55
 70
     0
102
RTVSPost2010Prop56
140
1.0
102
RTVSPost2010PropOp56
 70
     0
102
RTVSPost2010Prop57
140
1.0
102
RTVSPost2010PropOp57
 70
     0
  0
XRECORD
  5
19F
102
{ACAD_REACTORS
330
19E
102
}
330
19E
100
AcDbXrecord
280
     1
102
RTVSPropertyOp0
 70
     1
102
RTVSPropertyOp1
 70
     1
102
RTVSPropertyOp2
 70
     1
102
RTVSPropertyOp3
 70
     1
102
RTVSPropertyOp4
 70
     1
102
RTVSPropertyOp5
 70
     1
102
RTVSPropertyOp6
 70
     1
102
RTVSPropertyOp7
 70
     1
102
RTVSPropertyOp8
 70
     1
102
RTVSPropertyOp9
 70
     1
102
RTVSPropertyOp10
 70
     1
102
RTVSPropertyOp11
 70
     1
102
RTVSPropertyOp12
 70
     1
102
RTVSPropertyOp13
 70
     1
102
RTVSPropertyOp14
 70
     1
102
RTVSPropertyOp15
 70
     1
102
RTVSPropertyOp16
 70
     1
102
RTVSPropertyOp17
 70
     1
102
RTVSPropertyOp18
 70
     1
102
RTVSPropertyOp19
 70
     1
102
RTVSPropertyOp20
 70
     1
102
RTVSPropertyOp21
 70
     1
102
RTVSPropertyOp22
 70
     1
102
RTVSPropertyOp23
 70
     1
102
RTVSPropertyOp24
 70
     1
102
RTVSPropertyOp25
 70
     1
102
RTVSPropertyOp26
 70
     1
102
RTVSPropertyOp27
 70
     1
102
RTVSPropertyOp28
 70
     1
102
RTVSPropertyOp29
 70
     1
102
RTVSPropertyOp30
 70
     1
102
RTVSPropertyOp31
 70
     1
102
RTVSPropertyOp32
 70
     1
102
RTVSPropertyOp33
 70
     1
102
RTVSPropertyOp34
 70
     1
102
RTVSPropertyOp35
 70
     1
102
RTVSPropertyOp36
 70
     1
102
RTVSPropertyOp37
 70
     1
102
RTVSPropertyOp38
 70
     1
102
RTVSPropertyOp39
 70
     1
102
RTVSPropertyOp40
 70
     1
102
RTVSPropertyOp41
 70
     1
102
RTVSPropertyOp42
 70
     1
102
RTVSPropertyOp43
 70
     1
102
RTVSPropertyOp44
 70
     1
102
RTVSPropertyOp45
 70
     1
102
RTVSPropertyOp46
 70
     1
102
RTVSPropertyOp47
 70
     1
102
RTVSPropertyOp48
 70
     1
102
RTVSPropertyOp49
 70
     1
102
RTVSPropertyOp50
 70
     1
102
RTVSPropertyOp51
 70
     0
102
RTVSPropertyOp52
 70
     0
102
RTVSPropertyOp53
 70
     1
102
RTVSPropertyOp54
 70
     1
102
RTVSPropertyOp55
 70
     1
102
RTVSPropertyOp56
 70
     1
102
RTVSPropertyOp57
 70
     1
102
RTVSPost2010Prop28
280
     0
102
RTVSPost2010PropOp28
 70
     1
102
RTVSPost2010Prop29
280
     1
102
RTVSPost2010PropOp29
 70
     1
102
RTVSPost2010Prop30
280
     1
102
RTVSPost2010PropOp30
 70
     1
102
RTVSPost2010Prop31
280
     0
102
RTVSPost2010PropOp31
 70
     1
102
RTVSPost2010Prop32
280
     0
102
RTVSPost2010PropOp32
 70
     1
102
RTVSPost2010Prop33
280
     0
102
RTVSPost2010PropOp33
 70
     1
102
RTVSPost2010Prop34
280
     0
102
RTVSPost2010PropOp34
 70
     1
102
RTVSPost2010Prop35
280
     0
102
RTVSPost2010PropOp35
 70
     1
102
RTVSPost2010Prop36
280
     0
102
RTVSPost2010PropOp36
 70
     1
102
RTVSPost2010Prop37
 90
       50
102
RTVSPost2010PropOp37
 70
     1
102
RTVSPost2010Prop38
140
0.0
102
RTVSPost2010PropOp38
 70
     1
102
RTVSPost2010Prop39
140
1.0
102
RTVSPost2010PropOp39
 70
     1
102
RTVSPost2010Prop40
 90
        0
102
RTVSPost2010PropOp40
 70
     1
102
RTVSPost2010Prop41ColorIndex
 90
       18
102
RTVSPost2010Prop41ColorRGB
 90
        0
102
RTVSPost2010PropOp41
 70
     1
102
RTVSPost2010Prop42
 90
       50
102
RTVSPost2010PropOp42
 70
     1
102
RTVSPost2010Prop43
 90
        3
102
RTVSPost2010PropOp43
 70
     1
102
RTVSPost2010Prop44ColorIndex
 90
        5
102
RTVSPost2010Prop44ColorRGB
 90
      255
102
RTVSPost2010PropOp44
 70
     1
102
RTVSPost2010Prop45
280
     0
102
RTVSPost2010PropOp45
 70
     1
102
RTVSPost2010Prop46
 90
       50
102
RTVSPost2010PropOp46
 70
     1
102
RTVSPost2010Prop47
 90
       50
102
RTVSPost2010PropOp47
 70
     1
102
RTVSPost2010Prop48
 90
       50
102
RTVSPost2010PropOp48
 70
     1
102
RTVSPost2010Prop49
280
     0
102
RTVSPost2010PropOp49
 70
     1
102
RTVSPost2010Prop50
 90
       50
102
RTVSPost2010PropOp50
 70
     1
102
RTVSPost2010Prop51ColorIndex
 90
      256
102
RTVSPost2010Prop51ColorRGB
 90
-16777216
102
RTVSPost2010PropOp51
 70
     0
102
RTVSPost2010Prop52
140
1.0
102
RTVSPost2010PropOp52
 70
     0
102
RTVSPost2010Prop53
 90
        2
102
RTVSPost2010PropOp53
 70
     1
102
RTVSPost2010Prop54
  1
strokes_ogs.tif
102
RTVSPost2010PropOp54
 70
     1
102
RTVSPost2010Prop55
280
     0
102
RTVSPost2010PropOp55
 70
     1
102
RTVSPost2010Prop56
140
1.0
102
RTVSPost2010PropOp56
 70
     1
102
RTVSPost2010Prop57
140
1.0
102
RTVSPost2010PropOp57
 70
     1
  0
XRECORD
  5
183
102
{ACAD_REACTORS
330
182
102
}
330
182
100
AcDbXrecord
280
     1
102
RTVSPropertyOp0
 70
     1
102
RTVSPropertyOp1
 70
     1
102
RTVSPropertyOp2
 70
     1
102
RTVSPropertyOp3
 70
     1
102
RTVSPropertyOp4
 70
     1
102
RTVSPropertyOp5
 70
     1
102
RTVSPropertyOp6
 70
     1
102
RTVSPropertyOp7
 70
     1
102
RTVSPropertyOp8
 70
     1
102
RTVSPropertyOp9
 70
     1
102
RTVSPropertyOp10
 70
     1
102
RTVSPropertyOp11
 70
     1
102
RTVSPropertyOp12
 70
     1
102
RTVSPropertyOp13
 70
     1
102
RTVSPropertyOp14
 70
     1
102
RTVSPropertyOp15
 70
     1
102
RTVSPropertyOp16
 70
     1
102
RTVSPropertyOp17
 70
     1
102
RTVSPropertyOp18
 70
     1
102
RTVSPropertyOp19
 70
     1
102
RTVSPropertyOp20
 70
     1
102
RTVSPropertyOp21
 70
     1
102
RTVSPropertyOp22
 70
     1
102
RTVSPropertyOp23
 70
     1
102
RTVSPropertyOp24
 70
     1
102
RTVSPropertyOp25
 70
     1
102
RTVSPropertyOp26
 70
     1
102
RTVSPropertyOp27
 70
     1
102
RTVSPropertyOp28
 70
     1
102
RTVSPropertyOp29
 70
     1
102
RTVSPropertyOp30
 70
     1
102
RTVSPropertyOp31
 70
     1
102
RTVSPropertyOp32
 70
     1
102
RTVSPropertyOp33
 70
     1
102
RTVSPropertyOp34
 70
     1
102
RTVSPropertyOp35
 70
     1
102
RTVSPropertyOp36
 70
     1
102
RTVSPropertyOp37
 70
     1
102
RTVSPropertyOp38
 70
     1
102
RTVSPropertyOp39
 70
     1
102
RTVSPropertyOp40
 70
     1
102
RTVSPropertyOp41
 70
     1
102
RTVSPropertyOp42
 70
     1
102
RTVSPropertyOp43
 70
     1
102
RTVSPropertyOp44
 70
     1
102
RTVSPropertyOp45
 70
     1
102
RTVSPropertyOp46
 70
     1
102
RTVSPropertyOp47
 70
     1
102
RTVSPropertyOp48
 70
     1
102
RTVSPropertyOp49
 70
     1
102
RTVSPropertyOp50
 70
     1
102
RTVSPropertyOp51
 70
     0
102
RTVSPropertyOp52
 70
     0
102
RTVSPropertyOp53
 70
     1
102
RTVSPropertyOp54
 70
     1
102
RTVSPropertyOp55
 70
     1
102
RTVSPropertyOp56
 70
     1
102
RTVSPropertyOp57
 70
     1
102
RTVSPost2010Prop28
280
     0
102
RTVSPost2010PropOp28
 70
     1
102
RTVSPost2010Prop29
280
     1
102
RTVSPost2010PropOp29
 70
     1
102
RTVSPost2010Prop30
280
     1
102
RTVSPost2010PropOp30
 70
     1
102
RTVSPost2010Prop31
280
     0
102
RTVSPost2010PropOp31
 70
     1
102
RTVSPost2010Prop32
280
     0
102
RTVSPost2010PropOp32
 70
     1
102
RTVSPost2010Prop33
280
     0
102
RTVSPost2010PropOp33
 70
     1
102
RTVSPost2010Prop34
280
     0
102
RTVSPost2010PropOp34
 70
     1
102
RTVSPost2010Prop35
280
     0
102
RTVSPost2010PropOp35
 70
     1
102
RTVSPost2010Prop36
280
     0
102
RTVSPost2010PropOp36
 70
     1
102
RTVSPost2010Prop37
 90
       50
102
RTVSPost2010PropOp37
 70
     1
102
RTVSPost2010Prop38
140
0.0
102
RTVSPost2010PropOp38
 70
     1
102
RTVSPost2010Prop39
140
1.0
102
RTVSPost2010PropOp39
 70
     1
102
RTVSPost2010Prop40
 90
        0
102
RTVSPost2010PropOp40
 70
     1
102
RTVSPost2010Prop41ColorIndex
 90
       18
102
RTVSPost2010Prop41ColorRGB
 90
        0
102
RTVSPost2010PropOp41
 70
     1
102
RTVSPost2010Prop42
 90
       50
102
RTVSPost2010PropOp42
 70
     1
102
RTVSPost2010Prop43
 90
        3
102
RTVSPost2010PropOp43
 70
     1
102
RTVSPost2010Prop44ColorIndex
 90
        5
102
RTVSPost2010Prop44ColorRGB
 90
      255
102
RTVSPost2010PropOp44
 70
     1
102
RTVSPost2010Prop45
280
     0
102
RTVSPost2010PropOp45
 70
     1
102
RTVSPost2010Prop46
 90
       50
102
RTVSPost2010PropOp46
 70
     1
102
RTVSPost2010Prop47
 90
       50
102
RTVSPost2010PropOp47
 70
     1
102
RTVSPost2010Prop48
 90
       50
102
RTVSPost2010PropOp48
 70
     1
102
RTVSPost2010Prop49
280
     0
102
RTVSPost2010PropOp49
 70
     1
102
RTVSPost2010Prop50
 90
       50
102
RTVSPost2010PropOp50
 70
     1
102
RTVSPost2010Prop51ColorIndex
 90
      256
102
RTVSPost2010Prop51ColorRGB
 90
-16777216
102
RTVSPost2010PropOp51
 70
     0
102
RTVSPost2010Prop52
140
1.0
102
RTVSPost2010PropOp52
 70
     0
102
RTVSPost2010Prop53
 90
        2
102
RTVSPost2010PropOp53
 70
     1
102
RTVSPost2010Prop54
  1
strokes_ogs.tif
102
RTVSPost2010PropOp54
 70
     1
102
RTVSPost2010Prop55
280
     0
102
RTVSPost2010PropOp55
 70
     1
102
RTVSPost2010Prop56
140
1.0
102
RTVSPost2010PropOp56
 70
     1
102
RTVSPost2010Prop57
140
1.0
102
RTVSPost2010PropOp57
 70
     1
  0
XRECORD
  5
185
102
{ACAD_REACTORS
330
184
102
}
330
184
100
AcDbXrecord
280
     1
102
RTVSPropertyOp0
 70
     1
102
RTVSPropertyOp1
 70
     1
102
RTVSPropertyOp2
 70
     1
102
RTVSPropertyOp3
 70
     1
102
RTVSPropertyOp4
 70
     1
102
RTVSPropertyOp5
 70
     1
102
RTVSPropertyOp6
 70
     1
102
RTVSPropertyOp7
 70
     1
102
RTVSPropertyOp8
 70
     1
102
RTVSPropertyOp9
 70
     1
102
RTVSPropertyOp10
 70
     1
102
RTVSPropertyOp11
 70
     1
102
RTVSPropertyOp12
 70
     1
102
RTVSPropertyOp13
 70
     1
102
RTVSPropertyOp14
 70
     1
102
RTVSPropertyOp15
 70
     1
102
RTVSPropertyOp16
 70
     1
102
RTVSPropertyOp17
 70
     1
102
RTVSPropertyOp18
 70
     1
102
RTVSPropertyOp19
 70
     1
102
RTVSPropertyOp20
 70
     1
102
RTVSPropertyOp21
 70
     1
102
RTVSPropertyOp22
 70
     1
102
RTVSPropertyOp23
 70
     1
102
RTVSPropertyOp24
 70
     1
102
RTVSPropertyOp25
 70
     1
102
RTVSPropertyOp26
 70
     1
102
RTVSPropertyOp27
 70
     1
102
RTVSPropertyOp28
 70
     1
102
RTVSPropertyOp29
 70
     1
102
RTVSPropertyOp30
 70
     1
102
RTVSPropertyOp31
 70
     1
102
RTVSPropertyOp32
 70
     1
102
RTVSPropertyOp33
 70
     1
102
RTVSPropertyOp34
 70
     1
102
RTVSPropertyOp35
 70
     1
102
RTVSPropertyOp36
 70
     1
102
RTVSPropertyOp37
 70
     1
102
RTVSPropertyOp38
 70
     1
102
RTVSPropertyOp39
 70
     1
102
RTVSPropertyOp40
 70
     1
102
RTVSPropertyOp41
 70
     1
102
RTVSPropertyOp42
 70
     1
102
RTVSPropertyOp43
 70
     1
102
RTVSPropertyOp44
 70
     1
102
RTVSPropertyOp45
 70
     1
102
RTVSPropertyOp46
 70
     1
102
RTVSPropertyOp47
 70
     1
102
RTVSPropertyOp48
 70
     1
102
RTVSPropertyOp49
 70
     1
102
RTVSPropertyOp50
 70
     1
102
RTVSPropertyOp51
 70
     0
102
RTVSPropertyOp52
 70
     0
102
RTVSPropertyOp53
 70
     1
102
RTVSPropertyOp54
 70
     1
102
RTVSPropertyOp55
 70
     1
102
RTVSPropertyOp56
 70
     1
102
RTVSPropertyOp57
 70
     1
102
RTVSPost2010Prop28
280
     0
102
RTVSPost2010PropOp28
 70
     1
102
RTVSPost2010Prop29
280
     1
102
RTVSPost2010PropOp29
 70
     1
102
RTVSPost2010Prop30
280
     1
102
RTVSPost2010PropOp30
 70
     1
102
RTVSPost2010Prop31
280
     0
102
RTVSPost2010PropOp31
 70
     1
102
RTVSPost2010Prop32
280
     0
102
RTVSPost2010PropOp32
 70
     1
102
RTVSPost2010Prop33
280
     0
102
RTVSPost2010PropOp33
 70
     1
102
RTVSPost2010Prop34
280
     0
102
RTVSPost2010PropOp34
 70
     1
102
RTVSPost2010Prop35
280
     0
102
RTVSPost2010PropOp35
 70
     1
102
RTVSPost2010Prop36
280
     0
102
RTVSPost2010PropOp36
 70
     1
102
RTVSPost2010Prop37
 90
       50
102
RTVSPost2010PropOp37
 70
     1
102
RTVSPost2010Prop38
140
0.0
102
RTVSPost2010PropOp38
 70
     1
102
RTVSPost2010Prop39
140
1.0
102
RTVSPost2010PropOp39
 70
     1
102
RTVSPost2010Prop40
 90
        0
102
RTVSPost2010PropOp40
 70
     1
102
RTVSPost2010Prop41ColorIndex
 90
       18
102
RTVSPost2010Prop41ColorRGB
 90
        0
102
RTVSPost2010PropOp41
 70
     1
102
RTVSPost2010Prop42
 90
       50
102
RTVSPost2010PropOp42
 70
     1
102
RTVSPost2010Prop43
 90
        3
102
RTVSPost2010PropOp43
 70
     1
102
RTVSPost2010Prop44ColorIndex
 90
        5
102
RTVSPost2010Prop44ColorRGB
 90
      255
102
RTVSPost2010PropOp44
 70
     1
102
RTVSPost2010Prop45
280
     0
102
RTVSPost2010PropOp45
 70
     1
102
RTVSPost2010Prop46
 90
       50
102
RTVSPost2010PropOp46
 70
     1
102
RTVSPost2010Prop47
 90
       50
102
RTVSPost2010PropOp47
 70
     1
102
RTVSPost2010Prop48
 90
       50
102
RTVSPost2010PropOp48
 70
     1
102
RTVSPost2010Prop49
280
     0
102
RTVSPost2010PropOp49
 70
     1
102
RTVSPost2010Prop50
 90
       50
102
RTVSPost2010PropOp50
 70
     1
102
RTVSPost2010Prop51ColorIndex
 90
      256
102
RTVSPost2010Prop51ColorRGB
 90
-16777216
102
RTVSPost2010PropOp51
 70
     0
102
RTVSPost2010Prop52
140
1.0
102
RTVSPost2010PropOp52
 70
     0
102
RTVSPost2010Prop53
 90
        2
102
RTVSPost2010PropOp53
 70
     1
102
RTVSPost2010Prop54
  1
strokes_ogs.tif
102
RTVSPost2010PropOp54
 70
     1
102
RTVSPost2010Prop55
280
     0
102
RTVSPost2010PropOp55
 70
     1
102
RTVSPost2010Prop56
140
1.0
102
RTVSPost2010PropOp56
 70
     1
102
RTVSPost2010Prop57
140
1.0
102
RTVSPost2010PropOp57
 70
     1
  0
XRECORD
  5
187
102
{ACAD_REACTORS
330
186
102
}
330
186
100
AcDbXrecord
280
     1
102
RTVSPropertyOp0
 70
     1
102
RTVSPropertyOp1
 70
     1
102
RTVSPropertyOp2
 70
     1
102
RTVSPropertyOp3
 70
     1
102
RTVSPropertyOp4
 70
     1
102
RTVSPropertyOp5
 70
     1
102
RTVSPropertyOp6
 70
     1
102
RTVSPropertyOp7
 70
     1
102
RTVSPropertyOp8
 70
     1
102
RTVSPropertyOp9
 70
     1
102
RTVSPropertyOp10
 70
     1
102
RTVSPropertyOp11
 70
     1
102
RTVSPropertyOp12
 70
     1
102
RTVSPropertyOp13
 70
     1
102
RTVSPropertyOp14
 70
     1
102
RTVSPropertyOp15
 70
     1
102
RTVSPropertyOp16
 70
     1
102
RTVSPropertyOp17
 70
     1
102
RTVSPropertyOp18
 70
     1
102
RTVSPropertyOp19
 70
     1
102
RTVSPropertyOp20
 70
     1
102
RTVSPropertyOp21
 70
     1
102
RTVSPropertyOp22
 70
     1
102
RTVSPropertyOp23
 70
     1
102
RTVSPropertyOp24
 70
     1
102
RTVSPropertyOp25
 70
     1
102
RTVSPropertyOp26
 70
     1
102
RTVSPropertyOp27
 70
     1
102
RTVSPropertyOp28
 70
     1
102
RTVSPropertyOp29
 70
     1
102
RTVSPropertyOp30
 70
     1
102
RTVSPropertyOp31
 70
     1
102
RTVSPropertyOp32
 70
     1
102
RTVSPropertyOp33
 70
     1
102
RTVSPropertyOp34
 70
     1
102
RTVSPropertyOp35
 70
     1
102
RTVSPropertyOp36
 70
     1
102
RTVSPropertyOp37
 70
     1
102
RTVSPropertyOp38
 70
     1
102
RTVSPropertyOp39
 70
     1
102
RTVSPropertyOp40
 70
     1
102
RTVSPropertyOp41
 70
     1
102
RTVSPropertyOp42
 70
     1
102
RTVSPropertyOp43
 70
     1
102
RTVSPropertyOp44
 70
     1
102
RTVSPropertyOp45
 70
     1
102
RTVSPropertyOp46
 70
     1
102
RTVSPropertyOp47
 70
     1
102
RTVSPropertyOp48
 70
     1
102
RTVSPropertyOp49
 70
     1
102
RTVSPropertyOp50
 70
     1
102
RTVSPropertyOp51
 70
     0
102
RTVSPropertyOp52
 70
     0
102
RTVSPropertyOp53
 70
     1
102
RTVSPropertyOp54
 70
     1
102
RTVSPropertyOp55
 70
     1
102
RTVSPropertyOp56
 70
     1
102
RTVSPropertyOp57
 70
     1
102
RTVSPost2010Prop28
280
     0
102
RTVSPost2010PropOp28
 70
     1
102
RTVSPost2010Prop29
280
     1
102
RTVSPost2010PropOp29
 70
     1
102
RTVSPost2010Prop30
280
     1
102
RTVSPost2010PropOp30
 70
     1
102
RTVSPost2010Prop31
280
     0
102
RTVSPost2010PropOp31
 70
     1
102
RTVSPost2010Prop32
280
     0
102
RTVSPost2010PropOp32
 70
     1
102
RTVSPost2010Prop33
280
     0
102
RTVSPost2010PropOp33
 70
     1
102
RTVSPost2010Prop34
280
     0
102
RTVSPost2010PropOp34
 70
     1
102
RTVSPost2010Prop35
280
     0
102
RTVSPost2010PropOp35
 70
     1
102
RTVSPost2010Prop36
280
     0
102
RTVSPost2010PropOp36
 70
     1
102
RTVSPost2010Prop37
 90
       50
102
RTVSPost2010PropOp37
 70
     1
102
RTVSPost2010Prop38
140
0.0
102
RTVSPost2010PropOp38
 70
     1
102
RTVSPost2010Prop39
140
1.0
102
RTVSPost2010PropOp39
 70
     1
102
RTVSPost2010Prop40
 90
        0
102
RTVSPost2010PropOp40
 70
     1
102
RTVSPost2010Prop41ColorIndex
 90
       18
102
RTVSPost2010Prop41ColorRGB
 90
        0
102
RTVSPost2010PropOp41
 70
     1
102
RTVSPost2010Prop42
 90
       50
102
RTVSPost2010PropOp42
 70
     1
102
RTVSPost2010Prop43
 90
        3
102
RTVSPost2010PropOp43
 70
     1
102
RTVSPost2010Prop44ColorIndex
 90
        5
102
RTVSPost2010Prop44ColorRGB
 90
      255
102
RTVSPost2010PropOp44
 70
     1
102
RTVSPost2010Prop45
280
     0
102
RTVSPost2010PropOp45
 70
     1
102
RTVSPost2010Prop46
 90
       50
102
RTVSPost2010PropOp46
 70
     1
102
RTVSPost2010Prop47
 90
       50
102
RTVSPost2010PropOp47
 70
     1
102
RTVSPost2010Prop48
 90
       50
102
RTVSPost2010PropOp48
 70
     1
102
RTVSPost2010Prop49
280
     0
102
RTVSPost2010PropOp49
 70
     1
102
RTVSPost2010Prop50
 90
       50
102
RTVSPost2010PropOp50
 70
     1
102
RTVSPost2010Prop51ColorIndex
 90
      256
102
RTVSPost2010Prop51ColorRGB
 90
-16777216
102
RTVSPost2010PropOp51
 70
     0
102
RTVSPost2010Prop52
140
1.0
102
RTVSPost2010PropOp52
 70
     0
102
RTVSPost2010Prop53
 90
        2
102
RTVSPost2010PropOp53
 70
     1
102
RTVSPost2010Prop54
  1
strokes_ogs.tif
102
RTVSPost2010PropOp54
 70
     1
102
RTVSPost2010Prop55
280
     0
102
RTVSPost2010PropOp55
 70
     1
102
RTVSPost2010Prop56
140
1.0
102
RTVSPost2010PropOp56
 70
     1
102
RTVSPost2010Prop57
140
1.0
102
RTVSPost2010PropOp57
 70
     1
  0
XRECORD
  5
189
102
{ACAD_REACTORS
330
188
102
}
330
188
100
AcDbXrecord
280
     1
102
RTVSPropertyOp0
 70
     1
102
RTVSPropertyOp1
 70
     1
102
RTVSPropertyOp2
 70
     1
102
RTVSPropertyOp3
 70
     1
102
RTVSPropertyOp4
 70
     1
102
RTVSPropertyOp5
 70
     1
102
RTVSPropertyOp6
 70
     1
102
RTVSPropertyOp7
 70
     1
102
RTVSPropertyOp8
 70
     1
102
RTVSPropertyOp9
 70
     1
102
RTVSPropertyOp10
 70
     1
102
RTVSPropertyOp11
 70
     1
102
RTVSPropertyOp12
 70
     1
102
RTVSPropertyOp13
 70
     1
102
RTVSPropertyOp14
 70
     1
102
RTVSPropertyOp15
 70
     1
102
RTVSPropertyOp16
 70
     1
102
RTVSPropertyOp17
 70
     1
102
RTVSPropertyOp18
 70
     1
102
RTVSPropertyOp19
 70
     1
102
RTVSPropertyOp20
 70
     1
102
RTVSPropertyOp21
 70
     1
102
RTVSPropertyOp22
 70
     1
102
RTVSPropertyOp23
 70
     1
102
RTVSPropertyOp24
 70
     1
102
RTVSPropertyOp25
 70
     1
102
RTVSPropertyOp26
 70
     1
102
RTVSPropertyOp27
 70
     1
102
RTVSPropertyOp28
 70
     1
102
RTVSPropertyOp29
 70
     1
102
RTVSPropertyOp30
 70
     1
102
RTVSPropertyOp31
 70
     1
102
RTVSPropertyOp32
 70
     1
102
RTVSPropertyOp33
 70
     1
102
RTVSPropertyOp34
 70
     1
102
RTVSPropertyOp35
 70
     1
102
RTVSPropertyOp36
 70
     1
102
RTVSPropertyOp37
 70
     1
102
RTVSPropertyOp38
 70
     1
102
RTVSPropertyOp39
 70
     1
102
RTVSPropertyOp40
 70
     1
102
RTVSPropertyOp41
 70
     1
102
RTVSPropertyOp42
 70
     1
102
RTVSPropertyOp43
 70
     1
102
RTVSPropertyOp44
 70
     1
102
RTVSPropertyOp45
 70
     1
102
RTVSPropertyOp46
 70
     1
102
RTVSPropertyOp47
 70
     1
102
RTVSPropertyOp48
 70
     1
102
RTVSPropertyOp49
 70
     1
102
RTVSPropertyOp50
 70
     1
102
RTVSPropertyOp51
 70
     0
102
RTVSPropertyOp52
 70
     0
102
RTVSPropertyOp53
 70
     1
102
RTVSPropertyOp54
 70
     1
102
RTVSPropertyOp55
 70
     1
102
RTVSPropertyOp56
 70
     1
102
RTVSPropertyOp57
 70
     1
102
RTVSPost2010Prop28
280
     0
102
RTVSPost2010PropOp28
 70
     1
102
RTVSPost2010Prop29
280
     1
102
RTVSPost2010PropOp29
 70
     1
102
RTVSPost2010Prop30
280
     1
102
RTVSPost2010PropOp30
 70
     1
102
RTVSPost2010Prop31
280
     0
102
RTVSPost2010PropOp31
 70
     1
102
RTVSPost2010Prop32
280
     0
102
RTVSPost2010PropOp32
 70
     1
102
RTVSPost2010Prop33
280
     0
102
RTVSPost2010PropOp33
 70
     1
102
RTVSPost2010Prop34
280
     0
102
RTVSPost2010PropOp34
 70
     1
102
RTVSPost2010Prop35
280
     0
102
RTVSPost2010PropOp35
 70
     1
102
RTVSPost2010Prop36
280
     0
102
RTVSPost2010PropOp36
 70
     1
102
RTVSPost2010Prop37
 90
       50
102
RTVSPost2010PropOp37
 70
     1
102
RTVSPost2010Prop38
140
0.0
102
RTVSPost2010PropOp38
 70
     1
102
RTVSPost2010Prop39
140
1.0
102
RTVSPost2010PropOp39
 70
     1
102
RTVSPost2010Prop40
 90
        0
102
RTVSPost2010PropOp40
 70
     1
102
RTVSPost2010Prop41ColorIndex
 90
       18
102
RTVSPost2010Prop41ColorRGB
 90
        0
102
RTVSPost2010PropOp41
 70
     1
102
RTVSPost2010Prop42
 90
       50
102
RTVSPost2010PropOp42
 70
     1
102
RTVSPost2010Prop43
 90
        3
102
RTVSPost2010PropOp43
 70
     1
102
RTVSPost2010Prop44ColorIndex
 90
        5
102
RTVSPost2010Prop44ColorRGB
 90
      255
102
RTVSPost2010PropOp44
 70
     1
102
RTVSPost2010Prop45
280
     0
102
RTVSPost2010PropOp45
 70
     1
102
RTVSPost2010Prop46
 90
       50
102
RTVSPost2010PropOp46
 70
     1
102
RTVSPost2010Prop47
 90
       50
102
RTVSPost2010PropOp47
 70
     1
102
RTVSPost2010Prop48
 90
       50
102
RTVSPost2010PropOp48
 70
     1
102
RTVSPost2010Prop49
280
     0
102
RTVSPost2010PropOp49
 70
     1
102
RTVSPost2010Prop50
 90
       50
102
RTVSPost2010PropOp50
 70
     1
102
RTVSPost2010Prop51ColorIndex
 90
      256
102
RTVSPost2010Prop51ColorRGB
 90
-16777216
102
RTVSPost2010PropOp51
 70
     0
102
RTVSPost2010Prop52
140
1.0
102
RTVSPost2010PropOp52
 70
     0
102
RTVSPost2010Prop53
 90
        2
102
RTVSPost2010PropOp53
 70
     1
102
RTVSPost2010Prop54
  1
strokes_ogs.tif
102
RTVSPost2010PropOp54
 70
     1
102
RTVSPost2010Prop55
280
     0
102
RTVSPost2010PropOp55
 70
     1
102
RTVSPost2010Prop56
140
1.0
102
RTVSPost2010PropOp56
 70
     1
102
RTVSPost2010Prop57
140
1.0
102
RTVSPost2010PropOp57
 70
     1
  0
XRECORD
  5
18F
102
{ACAD_REACTORS
330
18E
102
}
330
18E
100
AcDbXrecord
280
     1
102
RTVSPropertyOp0
 70
     1
102
RTVSPropertyOp1
 70
     1
102
RTVSPropertyOp2
 70
     1
102
RTVSPropertyOp3
 70
     1
102
RTVSPropertyOp4
 70
     1
102
RTVSPropertyOp5
 70
     1
102
RTVSPropertyOp6
 70
     1
102
RTVSPropertyOp7
 70
     1
102
RTVSPropertyOp8
 70
     1
102
RTVSPropertyOp9
 70
     1
102
RTVSPropertyOp10
 70
     1
102
RTVSPropertyOp11
 70
     1
102
RTVSPropertyOp12
 70
     1
102
RTVSPropertyOp13
 70
     1
102
RTVSPropertyOp14
 70
     1
102
RTVSPropertyOp15
 70
     1
102
RTVSPropertyOp16
 70
     1
102
RTVSPropertyOp17
 70
     1
102
RTVSPropertyOp18
 70
     1
102
RTVSPropertyOp19
 70
     1
102
RTVSPropertyOp20
 70
     1
102
RTVSPropertyOp21
 70
     1
102
RTVSPropertyOp22
 70
     1
102
RTVSPropertyOp23
 70
     1
102
RTVSPropertyOp24
 70
     1
102
RTVSPropertyOp25
 70
     1
102
RTVSPropertyOp26
 70
     1
102
RTVSPropertyOp27
 70
     1
102
RTVSPropertyOp28
 70
     1
102
RTVSPropertyOp29
 70
     1
102
RTVSPropertyOp30
 70
     1
102
RTVSPropertyOp31
 70
     1
102
RTVSPropertyOp32
 70
     1
102
RTVSPropertyOp33
 70
     1
102
RTVSPropertyOp34
 70
     1
102
RTVSPropertyOp35
 70
     1
102
RTVSPropertyOp36
 70
     1
102
RTVSPropertyOp37
 70
     1
102
RTVSPropertyOp38
 70
     1
102
RTVSPropertyOp39
 70
     1
102
RTVSPropertyOp40
 70
     1
102
RTVSPropertyOp41
 70
     1
102
RTVSPropertyOp42
 70
     1
102
RTVSPropertyOp43
 70
     1
102
RTVSPropertyOp44
 70
     1
102
RTVSPropertyOp45
 70
     1
102
RTVSPropertyOp46
 70
     1
102
RTVSPropertyOp47
 70
     1
102
RTVSPropertyOp48
 70
     1
102
RTVSPropertyOp49
 70
     1
102
RTVSPropertyOp50
 70
     1
102
RTVSPropertyOp51
 70
     0
102
RTVSPropertyOp52
 70
     0
102
RTVSPropertyOp53
 70
     1
102
RTVSPropertyOp54
 70
     1
102
RTVSPropertyOp55
 70
     1
102
RTVSPropertyOp56
 70
     1
102
RTVSPropertyOp57
 70
     1
102
RTVSPost2010Prop28
280
     0
102
RTVSPost2010PropOp28
 70
     1
102
RTVSPost2010Prop29
280
     1
102
RTVSPost2010PropOp29
 70
     1
102
RTVSPost2010Prop30
280
     1
102
RTVSPost2010PropOp30
 70
     1
102
RTVSPost2010Prop31
280
     0
102
RTVSPost2010PropOp31
 70
     1
102
RTVSPost2010Prop32
280
     0
102
RTVSPost2010PropOp32
 70
     1
102
RTVSPost2010Prop33
280
     0
102
RTVSPost2010PropOp33
 70
     1
102
RTVSPost2010Prop34
280
     0
102
RTVSPost2010PropOp34
 70
     1
102
RTVSPost2010Prop35
280
     0
102
RTVSPost2010PropOp35
 70
     1
102
RTVSPost2010Prop36
280
     0
102
RTVSPost2010PropOp36
 70
     1
102
RTVSPost2010Prop37
 90
       50
102
RTVSPost2010PropOp37
 70
     1
102
RTVSPost2010Prop38
140
0.0
102
RTVSPost2010PropOp38
 70
     1
102
RTVSPost2010Prop39
140
1.0
102
RTVSPost2010PropOp39
 70
     1
102
RTVSPost2010Prop40
 90
        0
102
RTVSPost2010PropOp40
 70
     1
102
RTVSPost2010Prop41ColorIndex
 90
       18
102
RTVSPost2010Prop41ColorRGB
 90
        0
102
RTVSPost2010PropOp41
 70
     1
102
RTVSPost2010Prop42
 90
       50
102
RTVSPost2010PropOp42
 70
     1
102
RTVSPost2010Prop43
 90
        3
102
RTVSPost2010PropOp43
 70
     1
102
RTVSPost2010Prop44ColorIndex
 90
        5
102
RTVSPost2010Prop44ColorRGB
 90
      255
102
RTVSPost2010PropOp44
 70
     1
102
RTVSPost2010Prop45
280
     0
102
RTVSPost2010PropOp45
 70
     1
102
RTVSPost2010Prop46
 90
       50
102
RTVSPost2010PropOp46
 70
     1
102
RTVSPost2010Prop47
 90
       50
102
RTVSPost2010PropOp47
 70
     1
102
RTVSPost2010Prop48
 90
       50
102
RTVSPost2010PropOp48
 70
     1
102
RTVSPost2010Prop49
280
     0
102
RTVSPost2010PropOp49
 70
     1
102
RTVSPost2010Prop50
 90
       50
102
RTVSPost2010PropOp50
 70
     1
102
RTVSPost2010Prop51ColorIndex
 90
      256
102
RTVSPost2010Prop51ColorRGB
 90
-16777216
102
RTVSPost2010PropOp51
 70
     0
102
RTVSPost2010Prop52
140
1.0
102
RTVSPost2010PropOp52
 70
     0
102
RTVSPost2010Prop53
 90
        2
102
RTVSPost2010PropOp53
 70
     1
102
RTVSPost2010Prop54
  1
strokes_ogs.tif
102
RTVSPost2010PropOp54
 70
     1
102
RTVSPost2010Prop55
280
     0
102
RTVSPost2010PropOp55
 70
     1
102
RTVSPost2010Prop56
140
1.0
102
RTVSPost2010PropOp56
 70
     1
102
RTVSPost2010Prop57
140
1.0
102
RTVSPost2010PropOp57
 70
     1
  0
XRECORD
  5
1A3
102
{ACAD_REACTORS
330
1A2
102
}
330
1A2
100
AcDbXrecord
280
     1
102
RTVSPropertyOp0
 70
     0
102
RTVSPropertyOp1
 70
     0
102
RTVSPropertyOp2
 70
     0
102
RTVSPropertyOp3
 70
     0
102
RTVSPropertyOp4
 70
     0
102
RTVSPropertyOp5
 70
     0
102
RTVSPropertyOp6
 70
     0
102
RTVSPropertyOp7
 70
     0
102
RTVSPropertyOp8
 70
     0
102
RTVSPropertyOp9
 70
     0
102
RTVSPropertyOp10
 70
     0
102
RTVSPropertyOp11
 70
     0
102
RTVSPropertyOp12
 70
     0
102
RTVSPropertyOp13
 70
     0
102
RTVSPropertyOp14
 70
     2
102
RTVSPropertyOp15
 70
     0
102
RTVSPropertyOp16
 70
     0
102
RTVSPropertyOp17
 70
     0
102
RTVSPropertyOp18
 70
     0
102
RTVSPropertyOp19
 70
     0
102
RTVSPropertyOp20
 70
     0
102
RTVSPropertyOp21
 70
     0
102
RTVSPropertyOp22
 70
     0
102
RTVSPropertyOp23
 70
     0
102
RTVSPropertyOp24
 70
     0
102
RTVSPropertyOp25
 70
     0
102
RTVSPropertyOp26
 70
     0
102
RTVSPropertyOp27
 70
     0
102
RTVSPropertyOp28
 70
     0
102
RTVSPropertyOp29
 70
     0
102
RTVSPropertyOp30
 70
     0
102
RTVSPropertyOp31
 70
     0
102
RTVSPropertyOp32
 70
     0
102
RTVSPropertyOp33
 70
     0
102
RTVSPropertyOp34
 70
     0
102
RTVSPropertyOp35
 70
     0
102
RTVSPropertyOp36
 70
     0
102
RTVSPropertyOp37
 70
     0
102
RTVSPropertyOp38
 70
     0
102
RTVSPropertyOp39
 70
     0
102
RTVSPropertyOp40
 70
     0
102
RTVSPropertyOp41
 70
     0
102
RTVSPropertyOp42
 70
     0
102
RTVSPropertyOp43
 70
     0
102
RTVSPropertyOp44
 70
     0
102
RTVSPropertyOp45
 70
     0
102
RTVSPropertyOp46
 70
     0
102
RTVSPropertyOp47
 70
     0
102
RTVSPropertyOp48
 70
     0
102
RTVSPropertyOp49
 70
     0
102
RTVSPropertyOp50
 70
     0
102
RTVSPropertyOp51
 70
     0
102
RTVSPropertyOp52
 70
     0
102
RTVSPropertyOp53
 70
     0
102
RTVSPropertyOp54
 70
     0
102
RTVSPropertyOp55
 70
     0
102
RTVSPropertyOp56
 70
     0
102
RTVSPropertyOp57
 70
     0
102
RTVSPost2010Prop28
280
     0
102
RTVSPost2010PropOp28
 70
     0
102
RTVSPost2010Prop29
280
     1
102
RTVSPost2010PropOp29
 70
     0
102
RTVSPost2010Prop30
280
     1
102
RTVSPost2010PropOp30
 70
     0
102
RTVSPost2010Prop31
280
     0
102
RTVSPost2010PropOp31
 70
     0
102
RTVSPost2010Prop32
280
     0
102
RTVSPost2010PropOp32
 70
     0
102
RTVSPost2010Prop33
280
     0
102
RTVSPost2010PropOp33
 70
     0
102
RTVSPost2010Prop34
280
     0
102
RTVSPost2010PropOp34
 70
     0
102
RTVSPost2010Prop35
280
     0
102
RTVSPost2010PropOp35
 70
     0
102
RTVSPost2010Prop36
280
     0
102
RTVSPost2010PropOp36
 70
     0
102
RTVSPost2010Prop37
 90
       50
102
RTVSPost2010PropOp37
 70
     0
102
RTVSPost2010Prop38
140
0.0
102
RTVSPost2010PropOp38
 70
     0
102
RTVSPost2010Prop39
140
1.0
102
RTVSPost2010PropOp39
 70
     0
102
RTVSPost2010Prop40
 90
        0
102
RTVSPost2010PropOp40
 70
     0
102
RTVSPost2010Prop41ColorIndex
 90
       18
102
RTVSPost2010Prop41ColorRGB
 90
        0
102
RTVSPost2010PropOp41
 70
     0
102
RTVSPost2010Prop42
 90
       50
102
RTVSPost2010PropOp42
 70
     0
102
RTVSPost2010Prop43
 90
        3
102
RTVSPost2010PropOp43
 70
     0
102
RTVSPost2010Prop44ColorIndex
 90
        5
102
RTVSPost2010Prop44ColorRGB
 90
      255
102
RTVSPost2010PropOp44
 70
     0
102
RTVSPost2010Prop45
280
     0
102
RTVSPost2010PropOp45
 70
     0
102
RTVSPost2010Prop46
 90
       50
102
RTVSPost2010PropOp46
 70
     0
102
RTVSPost2010Prop47
 90
       50
102
RTVSPost2010PropOp47
 70
     0
102
RTVSPost2010Prop48
 90
       50
102
RTVSPost2010PropOp48
 70
     0
102
RTVSPost2010Prop49
280
     0
102
RTVSPost2010PropOp49
 70
     0
102
RTVSPost2010Prop50
 90
       50
102
RTVSPost2010PropOp50
 70
     0
102
RTVSPost2010Prop51ColorIndex
 90
      256
102
RTVSPost2010Prop51ColorRGB
 90
-16777216
102
RTVSPost2010PropOp51
 70
     0
102
RTVSPost2010Prop52
140
1.0
102
RTVSPost2010PropOp52
 70
     0
102
RTVSPost2010Prop53
 90
        2
102
RTVSPost2010PropOp53
 70
     0
102
RTVSPost2010Prop54
  1
strokes_ogs.tif
102
RTVSPost2010PropOp54
 70
     0
102
RTVSPost2010Prop55
280
     0
102
RTVSPost2010PropOp55
 70
     0
102
RTVSPost2010Prop56
140
1.0
102
RTVSPost2010PropOp56
 70
     0
102
RTVSPost2010Prop57
140
1.0
102
RTVSPost2010PropOp57
 70
     0
  0
XRECORD
  5
19D
102
{ACAD_REACTORS
330
19C
102
}
330
19C
100
AcDbXrecord
280
     1
102
RTVSPropertyOp0
 70
     1
102
RTVSPropertyOp1
 70
     1
102
RTVSPropertyOp2
 70
     1
102
RTVSPropertyOp3
 70
     1
102
RTVSPropertyOp4
 70
     1
102
RTVSPropertyOp5
 70
     1
102
RTVSPropertyOp6
 70
     1
102
RTVSPropertyOp7
 70
     1
102
RTVSPropertyOp8
 70
     1
102
RTVSPropertyOp9
 70
     1
102
RTVSPropertyOp10
 70
     1
102
RTVSPropertyOp11
 70
     1
102
RTVSPropertyOp12
 70
     1
102
RTVSPropertyOp13
 70
     1
102
RTVSPropertyOp14
 70
     1
102
RTVSPropertyOp15
 70
     1
102
RTVSPropertyOp16
 70
     1
102
RTVSPropertyOp17
 70
     1
102
RTVSPropertyOp18
 70
     1
102
RTVSPropertyOp19
 70
     1
102
RTVSPropertyOp20
 70
     1
102
RTVSPropertyOp21
 70
     1
102
RTVSPropertyOp22
 70
     1
102
RTVSPropertyOp23
 70
     1
102
RTVSPropertyOp24
 70
     1
102
RTVSPropertyOp25
 70
     1
102
RTVSPropertyOp26
 70
     1
102
RTVSPropertyOp27
 70
     1
102
RTVSPropertyOp28
 70
     1
102
RTVSPropertyOp29
 70
     1
102
RTVSPropertyOp30
 70
     1
102
RTVSPropertyOp31
 70
     1
102
RTVSPropertyOp32
 70
     1
102
RTVSPropertyOp33
 70
     1
102
RTVSPropertyOp34
 70
     1
102
RTVSPropertyOp35
 70
     1
102
RTVSPropertyOp36
 70
     1
102
RTVSPropertyOp37
 70
     1
102
RTVSPropertyOp38
 70
     1
102
RTVSPropertyOp39
 70
     1
102
RTVSPropertyOp40
 70
     1
102
RTVSPropertyOp41
 70
     1
102
RTVSPropertyOp42
 70
     1
102
RTVSPropertyOp43
 70
     1
102
RTVSPropertyOp44
 70
     1
102
RTVSPropertyOp45
 70
     1
102
RTVSPropertyOp46
 70
     1
102
RTVSPropertyOp47
 70
     1
102
RTVSPropertyOp48
 70
     1
102
RTVSPropertyOp49
 70
     1
102
RTVSPropertyOp50
 70
     1
102
RTVSPropertyOp51
 70
     0
102
RTVSPropertyOp52
 70
     0
102
RTVSPropertyOp53
 70
     1
102
RTVSPropertyOp54
 70
     1
102
RTVSPropertyOp55
 70
     1
102
RTVSPropertyOp56
 70
     1
102
RTVSPropertyOp57
 70
     1
102
RTVSPost2010Prop28
280
     0
102
RTVSPost2010PropOp28
 70
     1
102
RTVSPost2010Prop29
280
     1
102
RTVSPost2010PropOp29
 70
     1
102
RTVSPost2010Prop30
280
     1
102
RTVSPost2010PropOp30
 70
     1
102
RTVSPost2010Prop31
280
     0
102
RTVSPost2010PropOp31
 70
     1
102
RTVSPost2010Prop32
280
     0
102
RTVSPost2010PropOp32
 70
     1
102
RTVSPost2010Prop33
280
     0
102
RTVSPost2010PropOp33
 70
     1
102
RTVSPost2010Prop34
280
     0
102
RTVSPost2010PropOp34
 70
     1
102
RTVSPost2010Prop35
280
     0
102
RTVSPost2010PropOp35
 70
     1
102
RTVSPost2010Prop36
280
     0
102
RTVSPost2010PropOp36
 70
     1
102
RTVSPost2010Prop37
 90
       50
102
RTVSPost2010PropOp37
 70
     1
102
RTVSPost2010Prop38
140
0.0
102
RTVSPost2010PropOp38
 70
     1
102
RTVSPost2010Prop39
140
1.0
102
RTVSPost2010PropOp39
 70
     1
102
RTVSPost2010Prop40
 90
        0
102
RTVSPost2010PropOp40
 70
     1
102
RTVSPost2010Prop41ColorIndex
 90
       18
102
RTVSPost2010Prop41ColorRGB
 90
        0
102
RTVSPost2010PropOp41
 70
     1
102
RTVSPost2010Prop42
 90
       50
102
RTVSPost2010PropOp42
 70
     1
102
RTVSPost2010Prop43
 90
        3
102
RTVSPost2010PropOp43
 70
     1
102
RTVSPost2010Prop44ColorIndex
 90
        5
102
RTVSPost2010Prop44ColorRGB
 90
      255
102
RTVSPost2010PropOp44
 70
     1
102
RTVSPost2010Prop45
280
     0
102
RTVSPost2010PropOp45
 70
     1
102
RTVSPost2010Prop46
 90
       50
102
RTVSPost2010PropOp46
 70
     1
102
RTVSPost2010Prop47
 90
       50
102
RTVSPost2010PropOp47
 70
     1
102
RTVSPost2010Prop48
 90
       50
102
RTVSPost2010PropOp48
 70
     1
102
RTVSPost2010Prop49
280
     0
102
RTVSPost2010PropOp49
 70
     1
102
RTVSPost2010Prop50
 90
       50
102
RTVSPost2010PropOp50
 70
     1
102
RTVSPost2010Prop51ColorIndex
 90
      256
102
RTVSPost2010Prop51ColorRGB
 90
-16777216
102
RTVSPost2010PropOp51
 70
     0
102
RTVSPost2010Prop52
140
1.0
102
RTVSPost2010PropOp52
 70
     0
102
RTVSPost2010Prop53
 90
        2
102
RTVSPost2010PropOp53
 70
     1
102
RTVSPost2010Prop54
  1
strokes_ogs.tif
102
RTVSPost2010PropOp54
 70
     1
102
RTVSPost2010Prop55
280
     0
102
RTVSPost2010PropOp55
 70
     1
102
RTVSPost2010Prop56
140
1.0
102
RTVSPost2010PropOp56
 70
     1
102
RTVSPost2010Prop57
140
1.0
102
RTVSPost2010PropOp57
 70
     1
  0
XRECORD
  5
1A5
102
{ACAD_REACTORS
330
1A4
102
}
330
1A4
100
AcDbXrecord
280
     1
102
RTVSPropertyOp0
 70
     0
102
RTVSPropertyOp1
 70
     0
102
RTVSPropertyOp2
 70
     0
102
RTVSPropertyOp3
 70
     0
102
RTVSPropertyOp4
 70
     0
102
RTVSPropertyOp5
 70
     0
102
RTVSPropertyOp6
 70
     0
102
RTVSPropertyOp7
 70
     0
102
RTVSPropertyOp8
 70
     0
102
RTVSPropertyOp9
 70
     0
102
RTVSPropertyOp10
 70
     0
102
RTVSPropertyOp11
 70
     0
102
RTVSPropertyOp12
 70
     0
102
RTVSPropertyOp13
 70
     0
102
RTVSPropertyOp14
 70
     2
102
RTVSPropertyOp15
 70
     0
102
RTVSPropertyOp16
 70
     0
102
RTVSPropertyOp17
 70
     0
102
RTVSPropertyOp18
 70
     0
102
RTVSPropertyOp19
 70
     0
102
RTVSPropertyOp20
 70
     0
102
RTVSPropertyOp21
 70
     0
102
RTVSPropertyOp22
 70
     0
102
RTVSPropertyOp23
 70
     0
102
RTVSPropertyOp24
 70
     0
102
RTVSPropertyOp25
 70
     0
102
RTVSPropertyOp26
 70
     0
102
RTVSPropertyOp27
 70
     0
102
RTVSPropertyOp28
 70
     0
102
RTVSPropertyOp29
 70
     0
102
RTVSPropertyOp30
 70
     0
102
RTVSPropertyOp31
 70
     0
102
RTVSPropertyOp32
 70
     0
102
RTVSPropertyOp33
 70
     0
102
RTVSPropertyOp34
 70
     0
102
RTVSPropertyOp35
 70
     0
102
RTVSPropertyOp36
 70
     0
102
RTVSPropertyOp37
 70
     0
102
RTVSPropertyOp38
 70
     0
102
RTVSPropertyOp39
 70
     0
102
RTVSPropertyOp40
 70
     0
102
RTVSPropertyOp41
 70
     0
102
RTVSPropertyOp42
 70
     0
102
RTVSPropertyOp43
 70
     0
102
RTVSPropertyOp44
 70
     0
102
RTVSPropertyOp45
 70
     0
102
RTVSPropertyOp46
 70
     0
102
RTVSPropertyOp47
 70
     0
102
RTVSPropertyOp48
 70
     0
102
RTVSPropertyOp49
 70
     0
102
RTVSPropertyOp50
 70
     0
102
RTVSPropertyOp51
 70
     0
102
RTVSPropertyOp52
 70
     0
102
RTVSPropertyOp53
 70
     0
102
RTVSPropertyOp54
 70
     0
102
RTVSPropertyOp55
 70
     0
102
RTVSPropertyOp56
 70
     0
102
RTVSPropertyOp57
 70
     0
102
RTVSPost2010Prop28
280
     0
102
RTVSPost2010PropOp28
 70
     0
102
RTVSPost2010Prop29
280
     1
102
RTVSPost2010PropOp29
 70
     0
102
RTVSPost2010Prop30
280
     1
102
RTVSPost2010PropOp30
 70
     0
102
RTVSPost2010Prop31
280
     0
102
RTVSPost2010PropOp31
 70
     0
102
RTVSPost2010Prop32
280
     0
102
RTVSPost2010PropOp32
 70
     0
102
RTVSPost2010Prop33
280
     0
102
RTVSPost2010PropOp33
 70
     0
102
RTVSPost2010Prop34
280
     0
102
RTVSPost2010PropOp34
 70
     0
102
RTVSPost2010Prop35
280
     0
102
RTVSPost2010PropOp35
 70
     0
102
RTVSPost2010Prop36
280
     0
102
RTVSPost2010PropOp36
 70
     0
102
RTVSPost2010Prop37
 90
       50
102
RTVSPost2010PropOp37
 70
     0
102
RTVSPost2010Prop38
140
0.0
102
RTVSPost2010PropOp38
 70
     0
102
RTVSPost2010Prop39
140
1.0
102
RTVSPost2010PropOp39
 70
     0
102
RTVSPost2010Prop40
 90
        0
102
RTVSPost2010PropOp40
 70
     0
102
RTVSPost2010Prop41ColorIndex
 90
       18
102
RTVSPost2010Prop41ColorRGB
 90
        0
102
RTVSPost2010PropOp41
 70
     0
102
RTVSPost2010Prop42
 90
       50
102
RTVSPost2010PropOp42
 70
     0
102
RTVSPost2010Prop43
 90
        3
102
RTVSPost2010PropOp43
 70
     0
102
RTVSPost2010Prop44ColorIndex
 90
        5
102
RTVSPost2010Prop44ColorRGB
 90
      255
102
RTVSPost2010PropOp44
 70
     0
102
RTVSPost2010Prop45
280
     0
102
RTVSPost2010PropOp45
 70
     0
102
RTVSPost2010Prop46
 90
       50
102
RTVSPost2010PropOp46
 70
     0
102
RTVSPost2010Prop47
 90
       50
102
RTVSPost2010PropOp47
 70
     0
102
RTVSPost2010Prop48
 90
       50
102
RTVSPost2010PropOp48
 70
     0
102
RTVSPost2010Prop49
280
     0
102
RTVSPost2010PropOp49
 70
     0
102
RTVSPost2010Prop50
 90
       50
102
RTVSPost2010PropOp50
 70
     0
102
RTVSPost2010Prop51ColorIndex
 90
      256
102
RTVSPost2010Prop51ColorRGB
 90
-16777216
102
RTVSPost2010PropOp51
 70
     0
102
RTVSPost2010Prop52
140
1.0
102
RTVSPost2010PropOp52
 70
     0
102
RTVSPost2010Prop53
 90
        2
102
RTVSPost2010PropOp53
 70
     0
102
RTVSPost2010Prop54
  1
strokes_ogs.tif
102
RTVSPost2010PropOp54
 70
     0
102
RTVSPost2010Prop55
280
     0
102
RTVSPost2010PropOp55
 70
     0
102
RTVSPost2010Prop56
140
1.0
102
RTVSPost2010PropOp56
 70
     0
102
RTVSPost2010Prop57
140
1.0
102
RTVSPost2010PropOp57
 70
     0
  0
XRECORD
  5
193
102
{ACAD_REACTORS
330
192
102
}
330
192
100
AcDbXrecord
280
     1
102
RTVSPropertyOp0
 70
     1
102
RTVSPropertyOp1
 70
     1
102
RTVSPropertyOp2
 70
     1
102
RTVSPropertyOp3
 70
     1
102
RTVSPropertyOp4
 70
     1
102
RTVSPropertyOp5
 70
     1
102
RTVSPropertyOp6
 70
     1
102
RTVSPropertyOp7
 70
     1
102
RTVSPropertyOp8
 70
     1
102
RTVSPropertyOp9
 70
     1
102
RTVSPropertyOp10
 70
     1
102
RTVSPropertyOp11
 70
     1
102
RTVSPropertyOp12
 70
     1
102
RTVSPropertyOp13
 70
     1
102
RTVSPropertyOp14
 70
     1
102
RTVSPropertyOp15
 70
     1
102
RTVSPropertyOp16
 70
     1
102
RTVSPropertyOp17
 70
     1
102
RTVSPropertyOp18
 70
     1
102
RTVSPropertyOp19
 70
     1
102
RTVSPropertyOp20
 70
     1
102
RTVSPropertyOp21
 70
     1
102
RTVSPropertyOp22
 70
     1
102
RTVSPropertyOp23
 70
     1
102
RTVSPropertyOp24
 70
     1
102
RTVSPropertyOp25
 70
     1
102
RTVSPropertyOp26
 70
     1
102
RTVSPropertyOp27
 70
     1
102
RTVSPropertyOp28
 70
     1
102
RTVSPropertyOp29
 70
     1
102
RTVSPropertyOp30
 70
     1
102
RTVSPropertyOp31
 70
     1
102
RTVSPropertyOp32
 70
     1
102
RTVSPropertyOp33
 70
     1
102
RTVSPropertyOp34
 70
     1
102
RTVSPropertyOp35
 70
     1
102
RTVSPropertyOp36
 70
     1
102
RTVSPropertyOp37
 70
     1
102
RTVSPropertyOp38
 70
     1
102
RTVSPropertyOp39
 70
     1
102
RTVSPropertyOp40
 70
     1
102
RTVSPropertyOp41
 70
     1
102
RTVSPropertyOp42
 70
     1
102
RTVSPropertyOp43
 70
     1
102
RTVSPropertyOp44
 70
     1
102
RTVSPropertyOp45
 70
     1
102
RTVSPropertyOp46
 70
     1
102
RTVSPropertyOp47
 70
     1
102
RTVSPropertyOp48
 70
     1
102
RTVSPropertyOp49
 70
     1
102
RTVSPropertyOp50
 70
     1
102
RTVSPropertyOp51
 70
     0
102
RTVSPropertyOp52
 70
     0
102
RTVSPropertyOp53
 70
     1
102
RTVSPropertyOp54
 70
     1
102
RTVSPropertyOp55
 70
     1
102
RTVSPropertyOp56
 70
     1
102
RTVSPropertyOp57
 70
     1
102
RTVSPost2010Prop28
280
     0
102
RTVSPost2010PropOp28
 70
     1
102
RTVSPost2010Prop29
280
     1
102
RTVSPost2010PropOp29
 70
     1
102
RTVSPost2010Prop30
280
     1
102
RTVSPost2010PropOp30
 70
     1
102
RTVSPost2010Prop31
280
     0
102
RTVSPost2010PropOp31
 70
     1
102
RTVSPost2010Prop32
280
     0
102
RTVSPost2010PropOp32
 70
     1
102
RTVSPost2010Prop33
280
     0
102
RTVSPost2010PropOp33
 70
     1
102
RTVSPost2010Prop34
280
     0
102
RTVSPost2010PropOp34
 70
     1
102
RTVSPost2010Prop35
280
     0
102
RTVSPost2010PropOp35
 70
     1
102
RTVSPost2010Prop36
280
     0
102
RTVSPost2010PropOp36
 70
     1
102
RTVSPost2010Prop37
 90
       50
102
RTVSPost2010PropOp37
 70
     1
102
RTVSPost2010Prop38
140
0.0
102
RTVSPost2010PropOp38
 70
     1
102
RTVSPost2010Prop39
140
1.0
102
RTVSPost2010PropOp39
 70
     1
102
RTVSPost2010Prop40
 90
        0
102
RTVSPost2010PropOp40
 70
     1
102
RTVSPost2010Prop41ColorIndex
 90
       18
102
RTVSPost2010Prop41ColorRGB
 90
        0
102
RTVSPost2010PropOp41
 70
     1
102
RTVSPost2010Prop42
 90
       50
102
RTVSPost2010PropOp42
 70
     1
102
RTVSPost2010Prop43
 90
        3
102
RTVSPost2010PropOp43
 70
     1
102
RTVSPost2010Prop44ColorIndex
 90
        5
102
RTVSPost2010Prop44ColorRGB
 90
      255
102
RTVSPost2010PropOp44
 70
     1
102
RTVSPost2010Prop45
280
     0
102
RTVSPost2010PropOp45
 70
     1
102
RTVSPost2010Prop46
 90
       50
102
RTVSPost2010PropOp46
 70
     1
102
RTVSPost2010Prop47
 90
       50
102
RTVSPost2010PropOp47
 70
     1
102
RTVSPost2010Prop48
 90
       50
102
RTVSPost2010PropOp48
 70
     1
102
RTVSPost2010Prop49
280
     0
102
RTVSPost2010PropOp49
 70
     1
102
RTVSPost2010Prop50
 90
       50
102
RTVSPost2010PropOp50
 70
     1
102
RTVSPost2010Prop51ColorIndex
 90
      256
102
RTVSPost2010Prop51ColorRGB
 90
-16777216
102
RTVSPost2010PropOp51
 70
     0
102
RTVSPost2010Prop52
140
1.0
102
RTVSPost2010PropOp52
 70
     0
102
RTVSPost2010Prop53
 90
        2
102
RTVSPost2010PropOp53
 70
     1
102
RTVSPost2010Prop54
  1
strokes_ogs.tif
102
RTVSPost2010PropOp54
 70
     1
102
RTVSPost2010Prop55
280
     0
102
RTVSPost2010PropOp55
 70
     1
102
RTVSPost2010Prop56
140
1.0
102
RTVSPost2010PropOp56
 70
     1
102
RTVSPost2010Prop57
140
1.0
102
RTVSPost2010PropOp57
 70
     1
  0
XRECORD
  5
1B1
102
{ACAD_REACTORS
330
1B0
102
}
330
1B0
100
AcDbXrecord
280
     1
102
RTVSPropertyOp0
 70
     1
102
RTVSPropertyOp1
 70
     1
102
RTVSPropertyOp2
 70
     1
102
RTVSPropertyOp3
 70
     1
102
RTVSPropertyOp4
 70
     1
102
RTVSPropertyOp5
 70
     1
102
RTVSPropertyOp6
 70
     1
102
RTVSPropertyOp7
 70
     1
102
RTVSPropertyOp8
 70
     1
102
RTVSPropertyOp9
 70
     1
102
RTVSPropertyOp10
 70
     1
102
RTVSPropertyOp11
 70
     1
102
RTVSPropertyOp12
 70
     1
102
RTVSPropertyOp13
 70
     1
102
RTVSPropertyOp14
 70
     1
102
RTVSPropertyOp15
 70
     1
102
RTVSPropertyOp16
 70
     1
102
RTVSPropertyOp17
 70
     1
102
RTVSPropertyOp18
 70
     1
102
RTVSPropertyOp19
 70
     1
102
RTVSPropertyOp20
 70
     1
102
RTVSPropertyOp21
 70
     1
102
RTVSPropertyOp22
 70
     1
102
RTVSPropertyOp23
 70
     1
102
RTVSPropertyOp24
 70
     1
102
RTVSPropertyOp25
 70
     1
102
RTVSPropertyOp26
 70
     1
102
RTVSPropertyOp27
 70
     1
102
RTVSPropertyOp28
 70
     1
102
RTVSPropertyOp29
 70
     1
102
RTVSPropertyOp30
 70
     1
102
RTVSPropertyOp31
 70
     1
102
RTVSPropertyOp32
 70
     1
102
RTVSPropertyOp33
 70
     1
102
RTVSPropertyOp34
 70
     1
102
RTVSPropertyOp35
 70
     1
102
RTVSPropertyOp36
 70
     1
102
RTVSPropertyOp37
 70
     1
102
RTVSPropertyOp38
 70
     1
102
RTVSPropertyOp39
 70
     1
102
RTVSPropertyOp40
 70
     1
102
RTVSPropertyOp41
 70
     1
102
RTVSPropertyOp42
 70
     1
102
RTVSPropertyOp43
 70
     1
102
RTVSPropertyOp44
 70
     1
102
RTVSPropertyOp45
 70
     1
102
RTVSPropertyOp46
 70
     1
102
RTVSPropertyOp47
 70
     1
102
RTVSPropertyOp48
 70
     1
102
RTVSPropertyOp49
 70
     1
102
RTVSPropertyOp50
 70
     1
102
RTVSPropertyOp51
 70
     0
102
RTVSPropertyOp52
 70
     0
102
RTVSPropertyOp53
 70
     1
102
RTVSPropertyOp54
 70
     1
102
RTVSPropertyOp55
 70
     1
102
RTVSPropertyOp56
 70
     1
102
RTVSPropertyOp57
 70
     1
102
RTVSPost2010Prop28
280
     0
102
RTVSPost2010PropOp28
 70
     1
102
RTVSPost2010Prop29
280
     1
102
RTVSPost2010PropOp29
 70
     1
102
RTVSPost2010Prop30
280
     1
102
RTVSPost2010PropOp30
 70
     1
102
RTVSPost2010Prop31
280
     0
102
RTVSPost2010PropOp31
 70
     1
102
RTVSPost2010Prop32
280
     0
102
RTVSPost2010PropOp32
 70
     1
102
RTVSPost2010Prop33
280
     0
102
RTVSPost2010PropOp33
 70
     1
102
RTVSPost2010Prop34
280
     0
102
RTVSPost2010PropOp34
 70
     1
102
RTVSPost2010Prop35
280
     0
102
RTVSPost2010PropOp35
 70
     1
102
RTVSPost2010Prop36
280
     0
102
RTVSPost2010PropOp36
 70
     1
102
RTVSPost2010Prop37
 90
       50
102
RTVSPost2010PropOp37
 70
     1
102
RTVSPost2010Prop38
140
0.0
102
RTVSPost2010PropOp38
 70
     1
102
RTVSPost2010Prop39
140
1.0
102
RTVSPost2010PropOp39
 70
     1
102
RTVSPost2010Prop40
 90
        0
102
RTVSPost2010PropOp40
 70
     1
102
RTVSPost2010Prop41ColorIndex
 90
       18
102
RTVSPost2010Prop41ColorRGB
 90
        0
102
RTVSPost2010PropOp41
 70
     1
102
RTVSPost2010Prop42
 90
       50
102
RTVSPost2010PropOp42
 70
     1
102
RTVSPost2010Prop43
 90
        3
102
RTVSPost2010PropOp43
 70
     1
102
RTVSPost2010Prop44ColorIndex
 90
        5
102
RTVSPost2010Prop44ColorRGB
 90
      255
102
RTVSPost2010PropOp44
 70
     1
102
RTVSPost2010Prop45
280
     0
102
RTVSPost2010PropOp45
 70
     1
102
RTVSPost2010Prop46
 90
       50
102
RTVSPost2010PropOp46
 70
     1
102
RTVSPost2010Prop47
 90
       50
102
RTVSPost2010PropOp47
 70
     1
102
RTVSPost2010Prop48
 90
       50
102
RTVSPost2010PropOp48
 70
     1
102
RTVSPost2010Prop49
280
     0
102
RTVSPost2010PropOp49
 70
     1
102
RTVSPost2010Prop50
 90
       50
102
RTVSPost2010PropOp50
 70
     1
102
RTVSPost2010Prop51ColorIndex
 90
      256
102
RTVSPost2010Prop51ColorRGB
 90
-16777216
102
RTVSPost2010PropOp51
 70
     0
102
RTVSPost2010Prop52
140
1.0
102
RTVSPost2010PropOp52
 70
     0
102
RTVSPost2010Prop53
 90
        2
102
RTVSPost2010PropOp53
 70
     1
102
RTVSPost2010Prop54
  1
strokes_ogs.tif
102
RTVSPost2010PropOp54
 70
     1
102
RTVSPost2010Prop55
280
     0
102
RTVSPost2010PropOp55
 70
     1
102
RTVSPost2010Prop56
140
1.0
102
RTVSPost2010PropOp56
 70
     1
102
RTVSPost2010Prop57
140
1.0
102
RTVSPost2010PropOp57
 70
     1
  0
XRECORD
  5
1AF
102
{ACAD_REACTORS
330
1AE
102
}
330
1AE
100
AcDbXrecord
280
     1
102
RTVSPropertyOp0
 70
     1
102
RTVSPropertyOp1
 70
     1
102
RTVSPropertyOp2
 70
     1
102
RTVSPropertyOp3
 70
     1
102
RTVSPropertyOp4
 70
     1
102
RTVSPropertyOp5
 70
     1
102
RTVSPropertyOp6
 70
     1
102
RTVSPropertyOp7
 70
     1
102
RTVSPropertyOp8
 70
     1
102
RTVSPropertyOp9
 70
     1
102
RTVSPropertyOp10
 70
     1
102
RTVSPropertyOp11
 70
     1
102
RTVSPropertyOp12
 70
     1
102
RTVSPropertyOp13
 70
     1
102
RTVSPropertyOp14
 70
     1
102
RTVSPropertyOp15
 70
     1
102
RTVSPropertyOp16
 70
     1
102
RTVSPropertyOp17
 70
     1
102
RTVSPropertyOp18
 70
     1
102
RTVSPropertyOp19
 70
     1
102
RTVSPropertyOp20
 70
     1
102
RTVSPropertyOp21
 70
     1
102
RTVSPropertyOp22
 70
     1
102
RTVSPropertyOp23
 70
     1
102
RTVSPropertyOp24
 70
     1
102
RTVSPropertyOp25
 70
     1
102
RTVSPropertyOp26
 70
     1
102
RTVSPropertyOp27
 70
     1
102
RTVSPropertyOp28
 70
     1
102
RTVSPropertyOp29
 70
     1
102
RTVSPropertyOp30
 70
     1
102
RTVSPropertyOp31
 70
     1
102
RTVSPropertyOp32
 70
     1
102
RTVSPropertyOp33
 70
     1
102
RTVSPropertyOp34
 70
     1
102
RTVSPropertyOp35
 70
     1
102
RTVSPropertyOp36
 70
     1
102
RTVSPropertyOp37
 70
     1
102
RTVSPropertyOp38
 70
     1
102
RTVSPropertyOp39
 70
     1
102
RTVSPropertyOp40
 70
     1
102
RTVSPropertyOp41
 70
     1
102
RTVSPropertyOp42
 70
     1
102
RTVSPropertyOp43
 70
     1
102
RTVSPropertyOp44
 70
     1
102
RTVSPropertyOp45
 70
     1
102
RTVSPropertyOp46
 70
     1
102
RTVSPropertyOp47
 70
     1
102
RTVSPropertyOp48
 70
     1
102
RTVSPropertyOp49
 70
     1
102
RTVSPropertyOp50
 70
     1
102
RTVSPropertyOp51
 70
     0
102
RTVSPropertyOp52
 70
     0
102
RTVSPropertyOp53
 70
     1
102
RTVSPropertyOp54
 70
     1
102
RTVSPropertyOp55
 70
     1
102
RTVSPropertyOp56
 70
     1
102
RTVSPropertyOp57
 70
     1
102
RTVSPost2010Prop28
280
     0
102
RTVSPost2010PropOp28
 70
     1
102
RTVSPost2010Prop29
280
     1
102
RTVSPost2010PropOp29
 70
     1
102
RTVSPost2010Prop30
280
     1
102
RTVSPost2010PropOp30
 70
     1
102
RTVSPost2010Prop31
280
     0
102
RTVSPost2010PropOp31
 70
     1
102
RTVSPost2010Prop32
280
     0
102
RTVSPost2010PropOp32
 70
     1
102
RTVSPost2010Prop33
280
     0
102
RTVSPost2010PropOp33
 70
     1
102
RTVSPost2010Prop34
280
     0
102
RTVSPost2010PropOp34
 70
     1
102
RTVSPost2010Prop35
280
     0
102
RTVSPost2010PropOp35
 70
     1
102
RTVSPost2010Prop36
280
     0
102
RTVSPost2010PropOp36
 70
     1
102
RTVSPost2010Prop37
 90
       50
102
RTVSPost2010PropOp37
 70
     1
102
RTVSPost2010Prop38
140
0.0
102
RTVSPost2010PropOp38
 70
     1
102
RTVSPost2010Prop39
140
1.0
102
RTVSPost2010PropOp39
 70
     1
102
RTVSPost2010Prop40
 90
        0
102
RTVSPost2010PropOp40
 70
     1
102
RTVSPost2010Prop41ColorIndex
 90
       18
102
RTVSPost2010Prop41ColorRGB
 90
        0
102
RTVSPost2010PropOp41
 70
     1
102
RTVSPost2010Prop42
 90
       50
102
RTVSPost2010PropOp42
 70
     1
102
RTVSPost2010Prop43
 90
        3
102
RTVSPost2010PropOp43
 70
     1
102
RTVSPost2010Prop44ColorIndex
 90
        5
102
RTVSPost2010Prop44ColorRGB
 90
      255
102
RTVSPost2010PropOp44
 70
     1
102
RTVSPost2010Prop45
280
     0
102
RTVSPost2010PropOp45
 70
     1
102
RTVSPost2010Prop46
 90
       50
102
RTVSPost2010PropOp46
 70
     1
102
RTVSPost2010Prop47
 90
       50
102
RTVSPost2010PropOp47
 70
     1
102
RTVSPost2010Prop48
 90
       50
102
RTVSPost2010PropOp48
 70
     1
102
RTVSPost2010Prop49
280
     0
102
RTVSPost2010PropOp49
 70
     1
102
RTVSPost2010Prop50
 90
       50
102
RTVSPost2010PropOp50
 70
     1
102
RTVSPost2010Prop51ColorIndex
 90
      256
102
RTVSPost2010Prop51ColorRGB
 90
-16777216
102
RTVSPost2010PropOp51
 70
     0
102
RTVSPost2010Prop52
140
1.0
102
RTVSPost2010PropOp52
 70
     0
102
RTVSPost2010Prop53
 90
        2
102
RTVSPost2010PropOp53
 70
     1
102
RTVSPost2010Prop54
  1
strokes_ogs.tif
102
RTVSPost2010PropOp54
 70
     1
102
RTVSPost2010Prop55
280
     0
102
RTVSPost2010PropOp55
 70
     1
102
RTVSPost2010Prop56
140
1.0
102
RTVSPost2010PropOp56
 70
     1
102
RTVSPost2010Prop57
140
1.0
102
RTVSPost2010PropOp57
 70
     1
  0
XRECORD
  5
1A9
102
{ACAD_REACTORS
330
1A8
102
}
330
1A8
100
AcDbXrecord
280
     1
102
RTVSPropertyOp0
 70
     1
102
RTVSPropertyOp1
 70
     1
102
RTVSPropertyOp2
 70
     1
102
RTVSPropertyOp3
 70
     1
102
RTVSPropertyOp4
 70
     1
102
RTVSPropertyOp5
 70
     1
102
RTVSPropertyOp6
 70
     1
102
RTVSPropertyOp7
 70
     1
102
RTVSPropertyOp8
 70
     1
102
RTVSPropertyOp9
 70
     1
102
RTVSPropertyOp10
 70
     1
102
RTVSPropertyOp11
 70
     1
102
RTVSPropertyOp12
 70
     1
102
RTVSPropertyOp13
 70
     1
102
RTVSPropertyOp14
 70
     1
102
RTVSPropertyOp15
 70
     1
102
RTVSPropertyOp16
 70
     1
102
RTVSPropertyOp17
 70
     1
102
RTVSPropertyOp18
 70
     1
102
RTVSPropertyOp19
 70
     1
102
RTVSPropertyOp20
 70
     1
102
RTVSPropertyOp21
 70
     1
102
RTVSPropertyOp22
 70
     1
102
RTVSPropertyOp23
 70
     1
102
RTVSPropertyOp24
 70
     1
102
RTVSPropertyOp25
 70
     1
102
RTVSPropertyOp26
 70
     1
102
RTVSPropertyOp27
 70
     1
102
RTVSPropertyOp28
 70
     1
102
RTVSPropertyOp29
 70
     1
102
RTVSPropertyOp30
 70
     1
102
RTVSPropertyOp31
 70
     1
102
RTVSPropertyOp32
 70
     1
102
RTVSPropertyOp33
 70
     1
102
RTVSPropertyOp34
 70
     1
102
RTVSPropertyOp35
 70
     1
102
RTVSPropertyOp36
 70
     1
102
RTVSPropertyOp37
 70
     1
102
RTVSPropertyOp38
 70
     1
102
RTVSPropertyOp39
 70
     1
102
RTVSPropertyOp40
 70
     1
102
RTVSPropertyOp41
 70
     1
102
RTVSPropertyOp42
 70
     1
102
RTVSPropertyOp43
 70
     1
102
RTVSPropertyOp44
 70
     1
102
RTVSPropertyOp45
 70
     1
102
RTVSPropertyOp46
 70
     1
102
RTVSPropertyOp47
 70
     1
102
RTVSPropertyOp48
 70
     1
102
RTVSPropertyOp49
 70
     1
102
RTVSPropertyOp50
 70
     1
102
RTVSPropertyOp51
 70
     0
102
RTVSPropertyOp52
 70
     0
102
RTVSPropertyOp53
 70
     1
102
RTVSPropertyOp54
 70
     1
102
RTVSPropertyOp55
 70
     1
102
RTVSPropertyOp56
 70
     1
102
RTVSPropertyOp57
 70
     1
102
RTVSPost2010Prop28
280
     0
102
RTVSPost2010PropOp28
 70
     1
102
RTVSPost2010Prop29
280
     1
102
RTVSPost2010PropOp29
 70
     1
102
RTVSPost2010Prop30
280
     1
102
RTVSPost2010PropOp30
 70
     1
102
RTVSPost2010Prop31
280
     0
102
RTVSPost2010PropOp31
 70
     1
102
RTVSPost2010Prop32
280
     0
102
RTVSPost2010PropOp32
 70
     1
102
RTVSPost2010Prop33
280
     0
102
RTVSPost2010PropOp33
 70
     1
102
RTVSPost2010Prop34
280
     0
102
RTVSPost2010PropOp34
 70
     1
102
RTVSPost2010Prop35
280
     0
102
RTVSPost2010PropOp35
 70
     1
102
RTVSPost2010Prop36
280
     0
102
RTVSPost2010PropOp36
 70
     1
102
RTVSPost2010Prop37
 90
       50
102
RTVSPost2010PropOp37
 70
     1
102
RTVSPost2010Prop38
140
0.0
102
RTVSPost2010PropOp38
 70
     1
102
RTVSPost2010Prop39
140
1.0
102
RTVSPost2010PropOp39
 70
     1
102
RTVSPost2010Prop40
 90
        0
102
RTVSPost2010PropOp40
 70
     1
102
RTVSPost2010Prop41ColorIndex
 90
       18
102
RTVSPost2010Prop41ColorRGB
 90
        0
102
RTVSPost2010PropOp41
 70
     1
102
RTVSPost2010Prop42
 90
       50
102
RTVSPost2010PropOp42
 70
     1
102
RTVSPost2010Prop43
 90
        3
102
RTVSPost2010PropOp43
 70
     1
102
RTVSPost2010Prop44ColorIndex
 90
        5
102
RTVSPost2010Prop44ColorRGB
 90
      255
102
RTVSPost2010PropOp44
 70
     1
102
RTVSPost2010Prop45
280
     0
102
RTVSPost2010PropOp45
 70
     1
102
RTVSPost2010Prop46
 90
       50
102
RTVSPost2010PropOp46
 70
     1
102
RTVSPost2010Prop47
 90
       50
102
RTVSPost2010PropOp47
 70
     1
102
RTVSPost2010Prop48
 90
       50
102
RTVSPost2010PropOp48
 70
     1
102
RTVSPost2010Prop49
280
     0
102
RTVSPost2010PropOp49
 70
     1
102
RTVSPost2010Prop50
 90
       50
102
RTVSPost2010PropOp50
 70
     1
102
RTVSPost2010Prop51ColorIndex
 90
      256
102
RTVSPost2010Prop51ColorRGB
 90
-16777216
102
RTVSPost2010PropOp51
 70
     0
102
RTVSPost2010Prop52
140
1.0
102
RTVSPost2010PropOp52
 70
     0
102
RTVSPost2010Prop53
 90
        2
102
RTVSPost2010PropOp53
 70
     1
102
RTVSPost2010Prop54
  1
strokes_ogs.tif
102
RTVSPost2010PropOp54
 70
     1
102
RTVSPost2010Prop55
280
     0
102
RTVSPost2010PropOp55
 70
     1
102
RTVSPost2010Prop56
140
1.0
102
RTVSPost2010PropOp56
 70
     1
102
RTVSPost2010Prop57
140
1.0
102
RTVSPost2010PropOp57
 70
     1
  0
XRECORD
  5
1AB
102
{ACAD_REACTORS
330
1AA
102
}
330
1AA
100
AcDbXrecord
280
     1
102
RTVSPropertyOp0
 70
     1
102
RTVSPropertyOp1
 70
     1
102
RTVSPropertyOp2
 70
     1
102
RTVSPropertyOp3
 70
     1
102
RTVSPropertyOp4
 70
     1
102
RTVSPropertyOp5
 70
     1
102
RTVSPropertyOp6
 70
     1
102
RTVSPropertyOp7
 70
     1
102
RTVSPropertyOp8
 70
     1
102
RTVSPropertyOp9
 70
     1
102
RTVSPropertyOp10
 70
     1
102
RTVSPropertyOp11
 70
     1
102
RTVSPropertyOp12
 70
     1
102
RTVSPropertyOp13
 70
     1
102
RTVSPropertyOp14
 70
     1
102
RTVSPropertyOp15
 70
     1
102
RTVSPropertyOp16
 70
     1
102
RTVSPropertyOp17
 70
     1
102
RTVSPropertyOp18
 70
     1
102
RTVSPropertyOp19
 70
     1
102
RTVSPropertyOp20
 70
     1
102
RTVSPropertyOp21
 70
     1
102
RTVSPropertyOp22
 70
     1
102
RTVSPropertyOp23
 70
     1
102
RTVSPropertyOp24
 70
     1
102
RTVSPropertyOp25
 70
     1
102
RTVSPropertyOp26
 70
     1
102
RTVSPropertyOp27
 70
     1
102
RTVSPropertyOp28
 70
     1
102
RTVSPropertyOp29
 70
     1
102
RTVSPropertyOp30
 70
     1
102
RTVSPropertyOp31
 70
     1
102
RTVSPropertyOp32
 70
     1
102
RTVSPropertyOp33
 70
     1
102
RTVSPropertyOp34
 70
     1
102
RTVSPropertyOp35
 70
     1
102
RTVSPropertyOp36
 70
     1
102
RTVSPropertyOp37
 70
     1
102
RTVSPropertyOp38
 70
     1
102
RTVSPropertyOp39
 70
     1
102
RTVSPropertyOp40
 70
     1
102
RTVSPropertyOp41
 70
     1
102
RTVSPropertyOp42
 70
     1
102
RTVSPropertyOp43
 70
     1
102
RTVSPropertyOp44
 70
     1
102
RTVSPropertyOp45
 70
     1
102
RTVSPropertyOp46
 70
     1
102
RTVSPropertyOp47
 70
     1
102
RTVSPropertyOp48
 70
     1
102
RTVSPropertyOp49
 70
     1
102
RTVSPropertyOp50
 70
     1
102
RTVSPropertyOp51
 70
     0
102
RTVSPropertyOp52
 70
     0
102
RTVSPropertyOp53
 70
     1
102
RTVSPropertyOp54
 70
     1
102
RTVSPropertyOp55
 70
     1
102
RTVSPropertyOp56
 70
     1
102
RTVSPropertyOp57
 70
     1
102
RTVSPost2010Prop28
280
     0
102
RTVSPost2010PropOp28
 70
     1
102
RTVSPost2010Prop29
280
     1
102
RTVSPost2010PropOp29
 70
     1
102
RTVSPost2010Prop30
280
     1
102
RTVSPost2010PropOp30
 70
     1
102
RTVSPost2010Prop31
280
     0
102
RTVSPost2010PropOp31
 70
     1
102
RTVSPost2010Prop32
280
     0
102
RTVSPost2010PropOp32
 70
     1
102
RTVSPost2010Prop33
280
     0
102
RTVSPost2010PropOp33
 70
     1
102
RTVSPost2010Prop34
280
     0
102
RTVSPost2010PropOp34
 70
     1
102
RTVSPost2010Prop35
280
     0
102
RTVSPost2010PropOp35
 70
     1
102
RTVSPost2010Prop36
280
     0
102
RTVSPost2010PropOp36
 70
     1
102
RTVSPost2010Prop37
 90
       50
102
RTVSPost2010PropOp37
 70
     1
102
RTVSPost2010Prop38
140
0.0
102
RTVSPost2010PropOp38
 70
     1
102
RTVSPost2010Prop39
140
1.0
102
RTVSPost2010PropOp39
 70
     1
102
RTVSPost2010Prop40
 90
        0
102
RTVSPost2010PropOp40
 70
     1
102
RTVSPost2010Prop41ColorIndex
 90
       18
102
RTVSPost2010Prop41ColorRGB
 90
        0
102
RTVSPost2010PropOp41
 70
     1
102
RTVSPost2010Prop42
 90
       50
102
RTVSPost2010PropOp42
 70
     1
102
RTVSPost2010Prop43
 90
        3
102
RTVSPost2010PropOp43
 70
     1
102
RTVSPost2010Prop44ColorIndex
 90
        5
102
RTVSPost2010Prop44ColorRGB
 90
      255
102
RTVSPost2010PropOp44
 70
     1
102
RTVSPost2010Prop45
280
     0
102
RTVSPost2010PropOp45
 70
     1
102
RTVSPost2010Prop46
 90
       50
102
RTVSPost2010PropOp46
 70
     1
102
RTVSPost2010Prop47
 90
       50
102
RTVSPost2010PropOp47
 70
     1
102
RTVSPost2010Prop48
 90
       50
102
RTVSPost2010PropOp48
 70
     1
102
RTVSPost2010Prop49
280
     0
102
RTVSPost2010PropOp49
 70
     1
102
RTVSPost2010Prop50
 90
       50
102
RTVSPost2010PropOp50
 70
     1
102
RTVSPost2010Prop51ColorIndex
 90
      256
102
RTVSPost2010Prop51ColorRGB
 90
-16777216
102
RTVSPost2010PropOp51
 70
     0
102
RTVSPost2010Prop52
140
1.0
102
RTVSPost2010PropOp52
 70
     0
102
RTVSPost2010Prop53
 90
        2
102
RTVSPost2010PropOp53
 70
     1
102
RTVSPost2010Prop54
  1
strokes_ogs.tif
102
RTVSPost2010PropOp54
 70
     1
102
RTVSPost2010Prop55
280
     0
102
RTVSPost2010PropOp55
 70
     1
102
RTVSPost2010Prop56
140
1.0
102
RTVSPost2010PropOp56
 70
     1
102
RTVSPost2010Prop57
140
1.0
102
RTVSPost2010PropOp57
 70
     1
  0
XRECORD
  5
19B
102
{ACAD_REACTORS
330
19A
102
}
330
19A
100
AcDbXrecord
280
     1
102
RTVSPropertyOp0
 70
     1
102
RTVSPropertyOp1
 70
     1
102
RTVSPropertyOp2
 70
     1
102
RTVSPropertyOp3
 70
     1
102
RTVSPropertyOp4
 70
     1
102
RTVSPropertyOp5
 70
     1
102
RTVSPropertyOp6
 70
     1
102
RTVSPropertyOp7
 70
     1
102
RTVSPropertyOp8
 70
     1
102
RTVSPropertyOp9
 70
     1
102
RTVSPropertyOp10
 70
     1
102
RTVSPropertyOp11
 70
     1
102
RTVSPropertyOp12
 70
     1
102
RTVSPropertyOp13
 70
     1
102
RTVSPropertyOp14
 70
     1
102
RTVSPropertyOp15
 70
     1
102
RTVSPropertyOp16
 70
     1
102
RTVSPropertyOp17
 70
     1
102
RTVSPropertyOp18
 70
     1
102
RTVSPropertyOp19
 70
     1
102
RTVSPropertyOp20
 70
     1
102
RTVSPropertyOp21
 70
     1
102
RTVSPropertyOp22
 70
     1
102
RTVSPropertyOp23
 70
     1
102
RTVSPropertyOp24
 70
     1
102
RTVSPropertyOp25
 70
     1
102
RTVSPropertyOp26
 70
     1
102
RTVSPropertyOp27
 70
     1
102
RTVSPropertyOp28
 70
     1
102
RTVSPropertyOp29
 70
     1
102
RTVSPropertyOp30
 70
     1
102
RTVSPropertyOp31
 70
     1
102
RTVSPropertyOp32
 70
     1
102
RTVSPropertyOp33
 70
     1
102
RTVSPropertyOp34
 70
     1
102
RTVSPropertyOp35
 70
     1
102
RTVSPropertyOp36
 70
     1
102
RTVSPropertyOp37
 70
     1
102
RTVSPropertyOp38
 70
     1
102
RTVSPropertyOp39
 70
     1
102
RTVSPropertyOp40
 70
     1
102
RTVSPropertyOp41
 70
     1
102
RTVSPropertyOp42
 70
     1
102
RTVSPropertyOp43
 70
     1
102
RTVSPropertyOp44
 70
     1
102
RTVSPropertyOp45
 70
     1
102
RTVSPropertyOp46
 70
     1
102
RTVSPropertyOp47
 70
     1
102
RTVSPropertyOp48
 70
     1
102
RTVSPropertyOp49
 70
     1
102
RTVSPropertyOp50
 70
     1
102
RTVSPropertyOp51
 70
     0
102
RTVSPropertyOp52
 70
     0
102
RTVSPropertyOp53
 70
     1
102
RTVSPropertyOp54
 70
     1
102
RTVSPropertyOp55
 70
     1
102
RTVSPropertyOp56
 70
     1
102
RTVSPropertyOp57
 70
     1
102
RTVSPost2010Prop28
280
     0
102
RTVSPost2010PropOp28
 70
     1
102
RTVSPost2010Prop29
280
     1
102
RTVSPost2010PropOp29
 70
     1
102
RTVSPost2010Prop30
280
     1
102
RTVSPost2010PropOp30
 70
     1
102
RTVSPost2010Prop31
280
     0
102
RTVSPost2010PropOp31
 70
     1
102
RTVSPost2010Prop32
280
     0
102
RTVSPost2010PropOp32
 70
     1
102
RTVSPost2010Prop33
280
     0
102
RTVSPost2010PropOp33
 70
     1
102
RTVSPost2010Prop34
280
     0
102
RTVSPost2010PropOp34
 70
     1
102
RTVSPost2010Prop35
280
     0
102
RTVSPost2010PropOp35
 70
     1
102
RTVSPost2010Prop36
280
     0
102
RTVSPost2010PropOp36
 70
     1
102
RTVSPost2010Prop37
 90
       50
102
RTVSPost2010PropOp37
 70
     1
102
RTVSPost2010Prop38
140
0.0
102
RTVSPost2010PropOp38
 70
     1
102
RTVSPost2010Prop39
140
1.0
102
RTVSPost2010PropOp39
 70
     1
102
RTVSPost2010Prop40
 90
        0
102
RTVSPost2010PropOp40
 70
     1
102
RTVSPost2010Prop41ColorIndex
 90
       18
102
RTVSPost2010Prop41ColorRGB
 90
        0
102
RTVSPost2010PropOp41
 70
     1
102
RTVSPost2010Prop42
 90
       50
102
RTVSPost2010PropOp42
 70
     1
102
RTVSPost2010Prop43
 90
        3
102
RTVSPost2010PropOp43
 70
     1
102
RTVSPost2010Prop44ColorIndex
 90
        5
102
RTVSPost2010Prop44ColorRGB
 90
      255
102
RTVSPost2010PropOp44
 70
     1
102
RTVSPost2010Prop45
280
     0
102
RTVSPost2010PropOp45
 70
     1
102
RTVSPost2010Prop46
 90
       50
102
RTVSPost2010PropOp46
 70
     1
102
RTVSPost2010Prop47
 90
       50
102
RTVSPost2010PropOp47
 70
     1
102
RTVSPost2010Prop48
 90
       50
102
RTVSPost2010PropOp48
 70
     1
102
RTVSPost2010Prop49
280
     0
102
RTVSPost2010PropOp49
 70
     1
102
RTVSPost2010Prop50
 90
       50
102
RTVSPost2010PropOp50
 70
     1
102
RTVSPost2010Prop51ColorIndex
 90
      256
102
RTVSPost2010Prop51ColorRGB
 90
-16777216
102
RTVSPost2010PropOp51
 70
     0
102
RTVSPost2010Prop52
140
1.0
102
RTVSPost2010PropOp52
 70
     0
102
RTVSPost2010Prop53
 90
        2
102
RTVSPost2010PropOp53
 70
     1
102
RTVSPost2010Prop54
  1
strokes_ogs.tif
102
RTVSPost2010PropOp54
 70
     1
102
RTVSPost2010Prop55
280
     0
102
RTVSPost2010PropOp55
 70
     1
102
RTVSPost2010Prop56
140
1.0
102
RTVSPost2010PropOp56
 70
     1
102
RTVSPost2010Prop57
140
1.0
102
RTVSPost2010PropOp57
 70
     1
  0
XRECORD
  5
18D
102
{ACAD_REACTORS
330
18C
102
}
330
18C
100
AcDbXrecord
280
     1
102
RTVSPropertyOp0
 70
     1
102
RTVSPropertyOp1
 70
     1
102
RTVSPropertyOp2
 70
     1
102
RTVSPropertyOp3
 70
     1
102
RTVSPropertyOp4
 70
     1
102
RTVSPropertyOp5
 70
     1
102
RTVSPropertyOp6
 70
     1
102
RTVSPropertyOp7
 70
     1
102
RTVSPropertyOp8
 70
     1
102
RTVSPropertyOp9
 70
     1
102
RTVSPropertyOp10
 70
     1
102
RTVSPropertyOp11
 70
     1
102
RTVSPropertyOp12
 70
     1
102
RTVSPropertyOp13
 70
     1
102
RTVSPropertyOp14
 70
     1
102
RTVSPropertyOp15
 70
     1
102
RTVSPropertyOp16
 70
     1
102
RTVSPropertyOp17
 70
     1
102
RTVSPropertyOp18
 70
     1
102
RTVSPropertyOp19
 70
     1
102
RTVSPropertyOp20
 70
     1
102
RTVSPropertyOp21
 70
     1
102
RTVSPropertyOp22
 70
     1
102
RTVSPropertyOp23
 70
     1
102
RTVSPropertyOp24
 70
     1
102
RTVSPropertyOp25
 70
     1
102
RTVSPropertyOp26
 70
     1
102
RTVSPropertyOp27
 70
     1
102
RTVSPropertyOp28
 70
     1
102
RTVSPropertyOp29
 70
     1
102
RTVSPropertyOp30
 70
     1
102
RTVSPropertyOp31
 70
     1
102
RTVSPropertyOp32
 70
     1
102
RTVSPropertyOp33
 70
     1
102
RTVSPropertyOp34
 70
     1
102
RTVSPropertyOp35
 70
     1
102
RTVSPropertyOp36
 70
     1
102
RTVSPropertyOp37
 70
     1
102
RTVSPropertyOp38
 70
     1
102
RTVSPropertyOp39
 70
     1
102
RTVSPropertyOp40
 70
     1
102
RTVSPropertyOp41
 70
     1
102
RTVSPropertyOp42
 70
     1
102
RTVSPropertyOp43
 70
     1
102
RTVSPropertyOp44
 70
     1
102
RTVSPropertyOp45
 70
     1
102
RTVSPropertyOp46
 70
     1
102
RTVSPropertyOp47
 70
     1
102
RTVSPropertyOp48
 70
     1
102
RTVSPropertyOp49
 70
     1
102
RTVSPropertyOp50
 70
     1
102
RTVSPropertyOp51
 70
     0
102
RTVSPropertyOp52
 70
     0
102
RTVSPropertyOp53
 70
     1
102
RTVSPropertyOp54
 70
     1
102
RTVSPropertyOp55
 70
     1
102
RTVSPropertyOp56
 70
     1
102
RTVSPropertyOp57
 70
     1
102
RTVSPost2010Prop28
280
     0
102
RTVSPost2010PropOp28
 70
     1
102
RTVSPost2010Prop29
280
     1
102
RTVSPost2010PropOp29
 70
     1
102
RTVSPost2010Prop30
280
     1
102
RTVSPost2010PropOp30
 70
     1
102
RTVSPost2010Prop31
280
     0
102
RTVSPost2010PropOp31
 70
     1
102
RTVSPost2010Prop32
280
     0
102
RTVSPost2010PropOp32
 70
     1
102
RTVSPost2010Prop33
280
     0
102
RTVSPost2010PropOp33
 70
     1
102
RTVSPost2010Prop34
280
     0
102
RTVSPost2010PropOp34
 70
     1
102
RTVSPost2010Prop35
280
     0
102
RTVSPost2010PropOp35
 70
     1
102
RTVSPost2010Prop36
280
     0
102
RTVSPost2010PropOp36
 70
     1
102
RTVSPost2010Prop37
 90
       50
102
RTVSPost2010PropOp37
 70
     1
102
RTVSPost2010Prop38
140
0.0
102
RTVSPost2010PropOp38
 70
     1
102
RTVSPost2010Prop39
140
1.0
102
RTVSPost2010PropOp39
 70
     1
102
RTVSPost2010Prop40
 90
        0
102
RTVSPost2010PropOp40
 70
     1
102
RTVSPost2010Prop41ColorIndex
 90
       18
102
RTVSPost2010Prop41ColorRGB
 90
        0
102
RTVSPost2010PropOp41
 70
     1
102
RTVSPost2010Prop42
 90
       50
102
RTVSPost2010PropOp42
 70
     1
102
RTVSPost2010Prop43
 90
        3
102
RTVSPost2010PropOp43
 70
     1
102
RTVSPost2010Prop44ColorIndex
 90
        5
102
RTVSPost2010Prop44ColorRGB
 90
      255
102
RTVSPost2010PropOp44
 70
     1
102
RTVSPost2010Prop45
280
     0
102
RTVSPost2010PropOp45
 70
     1
102
RTVSPost2010Prop46
 90
       50
102
RTVSPost2010PropOp46
 70
     1
102
RTVSPost2010Prop47
 90
       50
102
RTVSPost2010PropOp47
 70
     1
102
RTVSPost2010Prop48
 90
       50
102
RTVSPost2010PropOp48
 70
     1
102
RTVSPost2010Prop49
280
     0
102
RTVSPost2010PropOp49
 70
     1
102
RTVSPost2010Prop50
 90
       50
102
RTVSPost2010PropOp50
 70
     1
102
RTVSPost2010Prop51ColorIndex
 90
      256
102
RTVSPost2010Prop51ColorRGB
 90
-16777216
102
RTVSPost2010PropOp51
 70
     0
102
RTVSPost2010Prop52
140
1.0
102
RTVSPost2010PropOp52
 70
     0
102
RTVSPost2010Prop53
 90
        2
102
RTVSPost2010PropOp53
 70
     1
102
RTVSPost2010Prop54
  1
strokes_ogs.tif
102
RTVSPost2010PropOp54
 70
     1
102
RTVSPost2010Prop55
280
     0
102
RTVSPost2010PropOp55
 70
     1
102
RTVSPost2010Prop56
140
1.0
102
RTVSPost2010PropOp56
 70
     1
102
RTVSPost2010Prop57
140
1.0
102
RTVSPost2010PropOp57
 70
     1
  0
XRECORD
  5
1AD
102
{ACAD_REACTORS
330
1AC
102
}
330
1AC
100
AcDbXrecord
280
     1
102
RTVSPropertyOp0
 70
     1
102
RTVSPropertyOp1
 70
     1
102
RTVSPropertyOp2
 70
     1
102
RTVSPropertyOp3
 70
     1
102
RTVSPropertyOp4
 70
     1
102
RTVSPropertyOp5
 70
     1
102
RTVSPropertyOp6
 70
     1
102
RTVSPropertyOp7
 70
     1
102
RTVSPropertyOp8
 70
     1
102
RTVSPropertyOp9
 70
     1
102
RTVSPropertyOp10
 70
     1
102
RTVSPropertyOp11
 70
     1
102
RTVSPropertyOp12
 70
     1
102
RTVSPropertyOp13
 70
     1
102
RTVSPropertyOp14
 70
     1
102
RTVSPropertyOp15
 70
     1
102
RTVSPropertyOp16
 70
     1
102
RTVSPropertyOp17
 70
     1
102
RTVSPropertyOp18
 70
     1
102
RTVSPropertyOp19
 70
     1
102
RTVSPropertyOp20
 70
     1
102
RTVSPropertyOp21
 70
     1
102
RTVSPropertyOp22
 70
     1
102
RTVSPropertyOp23
 70
     1
102
RTVSPropertyOp24
 70
     1
102
RTVSPropertyOp25
 70
     1
102
RTVSPropertyOp26
 70
     1
102
RTVSPropertyOp27
 70
     1
102
RTVSPropertyOp28
 70
     1
102
RTVSPropertyOp29
 70
     1
102
RTVSPropertyOp30
 70
     1
102
RTVSPropertyOp31
 70
     1
102
RTVSPropertyOp32
 70
     1
102
RTVSPropertyOp33
 70
     1
102
RTVSPropertyOp34
 70
     1
102
RTVSPropertyOp35
 70
     1
102
RTVSPropertyOp36
 70
     1
102
RTVSPropertyOp37
 70
     1
102
RTVSPropertyOp38
 70
     1
102
RTVSPropertyOp39
 70
     1
102
RTVSPropertyOp40
 70
     1
102
RTVSPropertyOp41
 70
     1
102
RTVSPropertyOp42
 70
     1
102
RTVSPropertyOp43
 70
     1
102
RTVSPropertyOp44
 70
     1
102
RTVSPropertyOp45
 70
     1
102
RTVSPropertyOp46
 70
     1
102
RTVSPropertyOp47
 70
     1
102
RTVSPropertyOp48
 70
     1
102
RTVSPropertyOp49
 70
     1
102
RTVSPropertyOp50
 70
     1
102
RTVSPropertyOp51
 70
     0
102
RTVSPropertyOp52
 70
     0
102
RTVSPropertyOp53
 70
     1
102
RTVSPropertyOp54
 70
     1
102
RTVSPropertyOp55
 70
     1
102
RTVSPropertyOp56
 70
     1
102
RTVSPropertyOp57
 70
     1
102
RTVSPost2010Prop28
280
     0
102
RTVSPost2010PropOp28
 70
     1
102
RTVSPost2010Prop29
280
     1
102
RTVSPost2010PropOp29
 70
     1
102
RTVSPost2010Prop30
280
     1
102
RTVSPost2010PropOp30
 70
     1
102
RTVSPost2010Prop31
280
     0
102
RTVSPost2010PropOp31
 70
     1
102
RTVSPost2010Prop32
280
     0
102
RTVSPost2010PropOp32
 70
     1
102
RTVSPost2010Prop33
280
     0
102
RTVSPost2010PropOp33
 70
     1
102
RTVSPost2010Prop34
280
     0
102
RTVSPost2010PropOp34
 70
     1
102
RTVSPost2010Prop35
280
     0
102
RTVSPost2010PropOp35
 70
     1
102
RTVSPost2010Prop36
280
     0
102
RTVSPost2010PropOp36
 70
     1
102
RTVSPost2010Prop37
 90
       50
102
RTVSPost2010PropOp37
 70
     1
102
RTVSPost2010Prop38
140
0.0
102
RTVSPost2010PropOp38
 70
     1
102
RTVSPost2010Prop39
140
1.0
102
RTVSPost2010PropOp39
 70
     1
102
RTVSPost2010Prop40
 90
        0
102
RTVSPost2010PropOp40
 70
     1
102
RTVSPost2010Prop41ColorIndex
 90
       18
102
RTVSPost2010Prop41ColorRGB
 90
        0
102
RTVSPost2010PropOp41
 70
     1
102
RTVSPost2010Prop42
 90
       50
102
RTVSPost2010PropOp42
 70
     1
102
RTVSPost2010Prop43
 90
        3
102
RTVSPost2010PropOp43
 70
     1
102
RTVSPost2010Prop44ColorIndex
 90
        5
102
RTVSPost2010Prop44ColorRGB
 90
      255
102
RTVSPost2010PropOp44
 70
     1
102
RTVSPost2010Prop45
280
     0
102
RTVSPost2010PropOp45
 70
     1
102
RTVSPost2010Prop46
 90
       50
102
RTVSPost2010PropOp46
 70
     1
102
RTVSPost2010Prop47
 90
       50
102
RTVSPost2010PropOp47
 70
     1
102
RTVSPost2010Prop48
 90
       50
102
RTVSPost2010PropOp48
 70
     1
102
RTVSPost2010Prop49
280
     0
102
RTVSPost2010PropOp49
 70
     1
102
RTVSPost2010Prop50
 90
       50
102
RTVSPost2010PropOp50
 70
     1
102
RTVSPost2010Prop51ColorIndex
 90
      256
102
RTVSPost2010Prop51ColorRGB
 90
-16777216
102
RTVSPost2010PropOp51
 70
     0
102
RTVSPost2010Prop52
140
1.0
102
RTVSPost2010PropOp52
 70
     0
102
RTVSPost2010Prop53
 90
        2
102
RTVSPost2010PropOp53
 70
     1
102
RTVSPost2010Prop54
  1
strokes_ogs.tif
102
RTVSPost2010PropOp54
 70
     1
102
RTVSPost2010Prop55
280
     0
102
RTVSPost2010PropOp55
 70
     1
102
RTVSPost2010Prop56
140
1.0
102
RTVSPost2010PropOp56
 70
     1
102
RTVSPost2010Prop57
140
1.0
102
RTVSPost2010PropOp57
 70
     1
  0
ENDSEC
  0
EOF
