  0
SECTION
  2
HEADER
  9
$ACADVER
  1
AC1021
  9
$ACADMAINTVER
 70
    25
  9
$DWGCODEPAGE
  3
ANSI_1252
  9
$LASTSAVEDBY
  1
colombo_c
  9
$INSBASE
 10
0.0
 20
0.0
 30
0.0
  9
$EXTMIN
 10
-238.7868973597893
 20
-887.8332648379828
 30
0.0
  9
$EXTMAX
 10
210.152806562998
 20
958.0959185706804
 30
0.0
  9
$LIMMIN
 10
0.0
 20
0.0
  9
$LIMMAX
 10
12.0
 20
9.0
  9
$ORTHOMODE
 70
     0
  9
$REGENMODE
 70
     1
  9
$FILLMODE
 70
     1
  9
$QTEXTMODE
 70
     0
  9
$MIRRTEXT
 70
     1
  9
$LTSCALE
 40
1.0
  9
$ATTMODE
 70
     1
  9
$TEXTSIZE
 40
0.2
  9
$TRACEWID
 40
0.05
  9
$TEXTSTYLE
  7
Standard
  9
$CLAYER
  8
0
  9
$CELTYPE
  6
ByLayer
  9
$CECOLOR
 62
   256
  9
$CELTSCALE
 40
1.0
  9
$DISPSILH
 70
     0
  9
$DIMSCALE
 40
1.0
  9
$DIMASZ
 40
0.18
  9
$DIMEXO
 40
0.0625
  9
$DIMDLI
 40
0.38
  9
$DIMRND
 40
0.0
  9
$DIMDLE
 40
0.0
  9
$DIMEXE
 40
0.18
  9
$DIMTP
 40
0.0
  9
$DIMTM
 40
0.0
  9
$DIMTXT
 40
0.18
  9
$DIMCEN
 40
0.09
  9
$DIMTSZ
 40
0.0
  9
$DIMTOL
 70
     0
  9
$DIMLIM
 70
     0
  9
$DIMTIH
 70
     1
  9
$DIMTOH
 70
     1
  9
$DIMSE1
 70
     0
  9
$DIMSE2
 70
     0
  9
$DIMTAD
 70
     0
  9
$DIMZIN
 70
     0
  9
$DIMBLK
  1

  9
$DIMASO
 70
     1
  9
$DIMSHO
 70
     1
  9
$DIMPOST
  1

  9
$DIMAPOST
  1

  9
$DIMALT
 70
     0
  9
$DIMALTD
 70
     2
  9
$DIMALTF
 40
25.4
  9
$DIMLFAC
 40
1.0
  9
$DIMTOFL
 70
     0
  9
$DIMTVP
 40
0.0
  9
$DIMTIX
 70
     0
  9
$DIMSOXD
 70
     0
  9
$DIMSAH
 70
     0
  9
$DIMBLK1
  1

  9
$DIMBLK2
  1

  9
$DIMSTYLE
  2
STANDARD_ACAD
  9
$DIMCLRD
 70
     0
  9
$DIMCLRE
 70
     0
  9
$DIMCLRT
 70
     0
  9
$DIMTFAC
 40
1.0
  9
$DIMGAP
 40
0.09
  9
$DIMJUST
 70
     0
  9
$DIMSD1
 70
     0
  9
$DIMSD2
 70
     0
  9
$DIMTOLJ
 70
     1
  9
$DIMTZIN
 70
     0
  9
$DIMALTZ
 70
     0
  9
$DIMALTTZ
 70
     0
  9
$DIMUPT
 70
     0
  9
$DIMDEC
 70
     4
  9
$DIMTDEC
 70
     4
  9
$DIMALTU
 70
     2
  9
$DIMALTTD
 70
     2
  9
$DIMTXSTY
  7
Standard
  9
$DIMAUNIT
 70
     0
  9
$DIMADEC
 70
     0
  9
$DIMALTRND
 40
0.0
  9
$DIMAZIN
 70
     0
  9
$DIMDSEP
 70
    46
  9
$DIMATFIT
 70
     3
  9
$DIMFRAC
 70
     0
  9
$DIMLDRBLK
  1

  9
$DIMLUNIT
 70
     2
  9
$DIMLWD
 70
    -2
  9
$DIMLWE
 70
    -2
  9
$DIMTMOVE
 70
     2
  9
$DIMFXL
 40
1.0
  9
$DIMFXLON
 70
     0
  9
$DIMJOGANG
 40
0.7853981633974483
  9
$DIMTFILL
 70
     0
  9
$DIMTFILLCLR
 70
     0
  9
$DIMARCSYM
 70
     0
  9
$DIMLTYPE
  6

  9
$DIMLTEX1
  6

  9
$DIMLTEX2
  6

  9
$LUNITS
 70
     2
  9
$LUPREC
 70
     3
  9
$SKETCHINC
 40
0.1
  9
$FILLETRAD
 40
0.0
  9
$AUNITS
 70
     0
  9
$AUPREC
 70
     0
  9
$MENU
  1
.
  9
$ELEVATION
 40
0.0
  9
$PELEVATION
 40
0.0
  9
$THICKNESS
 40
0.0
  9
$LIMCHECK
 70
     0
  9
$CHAMFERA
 40
0.0
  9
$CHAMFERB
 40
0.0
  9
$CHAMFERC
 40
0.0
  9
$CHAMFERD
 40
0.0
  9
$SKPOLY
 70
     0
  9
$TDCREATE
 40
2460830.433073496
  9
$TDUCREATE
 40
2460830.349740162
  9
$TDUPDATE
 40
2460830.43308963
  9
$TDUUPDATE
 40
2460830.349756297
  9
$TDINDWG
 40
0.0000000116
  9
$TDUSRTIMER
 40
0.0000000116
  9
$USRTIMER
 70
     1
  9
$ANGBASE
 50
0.0
  9
$ANGDIR
 70
     0
  9
$PDMODE
 70
     0
  9
$PDSIZE
 40
0.0
  9
$PLINEWID
 40
0.0
  9
$SPLFRAME
 70
     0
  9
$SPLINETYPE
 70
     6
  9
$SPLINESEGS
 70
     8
  9
$HANDSEED
  5
181
  9
$SURFTAB1
 70
     6
  9
$SURFTAB2
 70
     6
  9
$SURFTYPE
 70
     6
  9
$SURFU
 70
     6
  9
$SURFV
 70
     6
  9
$UCSBASE
  2

  9
$UCSNAME
  2

  9
$UCSORG
 10
0.0
 20
0.0
 30
0.0
  9
$UCSXDIR
 10
1.0
 20
0.0
 30
0.0
  9
$UCSYDIR
 10
0.0
 20
1.0
 30
0.0
  9
$UCSORTHOREF
  2

  9
$UCSORTHOVIEW
 70
     0
  9
$UCSORGTOP
 10
0.0
 20
0.0
 30
0.0
  9
$UCSORGBOTTOM
 10
0.0
 20
0.0
 30
0.0
  9
$UCSORGLEFT
 10
0.0
 20
0.0
 30
0.0
  9
$UCSORGRIGHT
 10
0.0
 20
0.0
 30
0.0
  9
$UCSORGFRONT
 10
0.0
 20
0.0
 30
0.0
  9
$UCSORGBACK
 10
0.0
 20
0.0
 30
0.0
  9
$PUCSBASE
  2

  9
$PUCSNAME
  2

  9
$PUCSORG
 10
0.0
 20
0.0
 30
0.0
  9
$PUCSXDIR
 10
1.0
 20
0.0
 30
0.0
  9
$PUCSYDIR
 10
0.0
 20
1.0
 30
0.0
  9
$PUCSORTHOREF
  2

  9
$PUCSORTHOVIEW
 70
     0
  9
$PUCSORGTOP
 10
0.0
 20
0.0
 30
0.0
  9
$PUCSORGBOTTOM
 10
0.0
 20
0.0
 30
0.0
  9
$PUCSORGLEFT
 10
0.0
 20
0.0
 30
0.0
  9
$PUCSORGRIGHT
 10
0.0
 20
0.0
 30
0.0
  9
$PUCSORGFRONT
 10
0.0
 20
0.0
 30
0.0
  9
$PUCSORGBACK
 10
0.0
 20
0.0
 30
0.0
  9
$USERI1
 70
     0
  9
$USERI2
 70
     0
  9
$USERI3
 70
     0
  9
$USERI4
 70
     0
  9
$USERI5
 70
     0
  9
$USERR1
 40
0.0
  9
$USERR2
 40
0.0
  9
$USERR3
 40
0.0
  9
$USERR4
 40
0.0
  9
$USERR5
 40
0.0
  9
$WORLDVIEW
 70
     1
  9
$SHADEDGE
 70
     3
  9
$SHADEDIF
 70
    70
  9
$TILEMODE
 70
     1
  9
$MAXACTVP
 70
    64
  9
$PINSBASE
 10
0.0
 20
0.0
 30
0.0
  9
$PLIMCHECK
 70
     0
  9
$PEXTMIN
 10
1.000000000000000E+20
 20
1.000000000000000E+20
 30
1.000000000000000E+20
  9
$PEXTMAX
 10
-1.000000000000000E+20
 20
-1.000000000000000E+20
 30
-1.000000000000000E+20
  9
$PLIMMIN
 10
0.0
 20
0.0
  9
$PLIMMAX
 10
12.0
 20
9.0
  9
$UNITMODE
 70
     0
  9
$VISRETAIN
 70
     1
  9
$PLINEGEN
 70
     0
  9
$PSLTSCALE
 70
     1
  9
$TREEDEPTH
 70
  3020
  9
$CMLSTYLE
  2
Standard
  9
$CMLJUST
 70
     0
  9
$CMLSCALE
 40
1.0
  9
$PROXYGRAPHICS
 70
     1
  9
$MEASUREMENT
 70
     1
  9
$CELWEIGHT
370
    -1
  9
$ENDCAPS
280
     0
  9
$JOINSTYLE
280
     0
  9
$LWDISPLAY
290
     0
  9
$INSUNITS
 70
     4
  9
$HYPERLINKBASE
  1

  9
$STYLESHEET
  1

  9
$XEDIT
290
     1
  9
$CEPSNTYPE
380
     0
  9
$PSTYLEMODE
290
     1
  9
$FINGERPRINTGUID
  2
{d97e095e-d7ec-49c7-ba8f-faa496794d9a}
  9
$VERSIONGUID
  2
{FAEB1C32-E019-11D5-929B-00C0DF256EC4}
  9
$EXTNAMES
290
     1
  9
$PSVPSCALE
 40
0.0
  9
$OLESTARTUP
290
     0
  9
$SORTENTS
280
   127
  9
$INDEXCTL
280
     0
  9
$HIDETEXT
280
     1
  9
$XCLIPFRAME
290
     0
  9
$HALOGAP
280
     0
  9
$OBSCOLOR
 70
   257
  9
$OBSLTYPE
280
     0
  9
$INTERSECTIONDISPLAY
280
     0
  9
$INTERSECTIONCOLOR
 70
   257
  9
$DIMASSOC
280
     2
  9
$PROJECTNAME
  1

  9
$CAMERADISPLAY
290
     0
  9
$LENSLENGTH
 40
50.0
  9
$CAMERAHEIGHT
 40
0.0
  9
$STEPSPERSEC
 40
2.0
  9
$STEPSIZE
 40
6.0
  9
$3DDWFPREC
 40
2.0
  9
$PSOLWIDTH
 40
0.25
  9
$PSOLHEIGHT
 40
4.0
  9
$LOFTANG1
 40
1.570796326794897
  9
$LOFTANG2
 40
1.570796326794897
  9
$LOFTMAG1
 40
0.0
  9
$LOFTMAG2
 40
0.0
  9
$LOFTPARAM
 70
     7
  9
$LOFTNORMALS
280
     1
  9
$LATITUDE
 40
37.795
  9
$LONGITUDE
 40
-122.394
  9
$NORTHDIRECTION
 40
0.0
  9
$TIMEZONE
 70
 -8000
  9
$LIGHTGLYPHDISPLAY
280
     1
  9
$TILEMODELIGHTSYNCH
280
     1
  9
$CMATERIAL
347
44
  9
$SOLIDHIST
280
     0
  9
$SHOWHIST
280
     1
  9
$DWFFRAME
280
     2
  9
$DGNFRAME
280
     2
  9
$REALWORLDSCALE
290
     1
  9
$INTERFERECOLOR
 62
   256
  9
$CSHADOW
280
     0
  9
$SHADOWPLANELOCATION
 40
0.0
  0
ENDSEC
  0
SECTION
  2
CLASSES
  0
CLASS
  1
ACDBDICTIONARYWDFLT
  2
AcDbDictionaryWithDefault
  3
ObjectDBX Classes
 90
        0
 91
        3
280
     0
281
     0
  0
CLASS
  1
VISUALSTYLE
  2
AcDbVisualStyle
  3
ObjectDBX Classes
 90
     4095
 91
        3
280
     0
281
     0
  0
CLASS
  1
MATERIAL
  2
AcDbMaterial
  3
ObjectDBX Classes
 90
     1153
 91
        3
280
     0
281
     0
  0
CLASS
  1
SCALE
  2
AcDbScale
  3
ObjectDBX Classes
 90
     1153
 91
        3
280
     0
281
     0
  0
CLASS
  1
TABLESTYLE
  2
AcDbTableStyle
  3
ObjectDBX Classes
 90
     4095
 91
        3
280
     0
281
     0
  0
CLASS
  1
MLEADERSTYLE
  2
AcDbMLeaderStyle
  3
ACDB_MLEADERSTYLE_CLASS
 90
     4095
 91
        3
280
     0
281
     0
  0
CLASS
  1
SUN
  2
AcDbSun
  3
SCENEOE
 90
     1153
 91
        3
280
     0
281
     0
  0
CLASS
  1
DICTIONARYVAR
  2
AcDbDictionaryVar
  3
ObjectDBX Classes
 90
        0
 91
        3
280
     0
281
     0
  0
CLASS
  1
CELLSTYLEMAP
  2
AcDbCellStyleMap
  3
ObjectDBX Classes
 90
     1152
 91
        3
280
     0
281
     0
  0
ENDSEC
  0
SECTION
  2
TABLES
  0
TABLE
  2
VPORT
  5
8
330
0
100
AcDbSymbolTable
 70
     1
  0
VPORT
  5
29
330
8
100
AcDbSymbolTableRecord
100
AcDbViewportTableRecord
  2
*Active
 70
     0
 10
0.0
 20
0.0
 11
1.0
 21
1.0
 12
10.42990654205607
 22
4.5
 13
0.0
 23
0.0
 14
0.5
 24
0.5
 15
0.5
 25
0.5
 16
0.0
 26
0.0
 36
1.0
 17
0.0
 27
0.0
 37
0.0
 40
9.0
 41
1.972972972850329
 42
50.0
 43
0.0
 44
0.0
 50
0.0
 51
0.0
 71
     0
 72
   100
 73
     1
 74
     3
 75
     0
 76
     0
 77
     0
 78
     0
281
     0
 65
     1
110
0.0
120
0.0
130
0.0
111
1.0
121
0.0
131
0.0
112
0.0
122
1.0
132
0.0
 79
     0
146
0.0
348
2F
 60
     3
 61
     5
292
     1
282
     1
141
0.0
142
0.0
 63
   250
361
5D
  0
ENDTAB
  0
TABLE
  2
LTYPE
  5
5
330
0
100
AcDbSymbolTable
 70
     1
  0
LTYPE
  5
14
330
5
100
AcDbSymbolTableRecord
100
AcDbLinetypeTableRecord
  2
ByBlock
 70
     0
  3

 72
    65
 73
     0
 40
0.0
  0
LTYPE
  5
15
330
5
100
AcDbSymbolTableRecord
100
AcDbLinetypeTableRecord
  2
ByLayer
 70
     0
  3

 72
    65
 73
     0
 40
0.0
  0
LTYPE
  5
16
330
5
100
AcDbSymbolTableRecord
100
AcDbLinetypeTableRecord
  2
Continuous
 70
     0
  3
Solid line
 72
    65
 73
     0
 40
0.0
  0
ENDTAB
  0
TABLE
  2
LAYER
  5
2
330
0
100
AcDbSymbolTable
 70
     2
  0
LAYER
  5
10
330
2
100
AcDbSymbolTableRecord
100
AcDbLayerTableRecord
  2
0
 70
     0
 62
     7
  6
Continuous
370
    -3
390
F
347
46
  0
LAYER
  5
5F
330
2
100
AcDbSymbolTableRecord
100
AcDbLayerTableRecord
  2
Make2D$Visibile$Curve
 70
     0
 62
    18
420
        0
  6
Continuous
370
    -3
390
F
347
46
  0
ENDTAB
  0
TABLE
  2
STYLE
  5
3
330
0
100
AcDbSymbolTable
 70
     1
  0
STYLE
  5
11
330
3
100
AcDbSymbolTableRecord
100
AcDbTextStyleTableRecord
  2
Standard
 70
     0
 40
0.0
 41
1.0
 50
0.0
 71
     0
 42
0.2
  3
txt
  4

  0
ENDTAB
  0
TABLE
  2
VIEW
  5
6
330
0
100
AcDbSymbolTable
 70
     0
  0
ENDTAB
  0
TABLE
  2
UCS
  5
7
330
0
100
AcDbSymbolTable
 70
     0
  0
ENDTAB
  0
TABLE
  2
APPID
  5
9
330
0
100
AcDbSymbolTable
 70
     3
  0
APPID
  5
12
330
9
100
AcDbSymbolTableRecord
100
AcDbRegAppTableRecord
  2
ACAD
 70
     0
  0
APPID
  5
5E
330
9
100
AcDbSymbolTableRecord
100
AcDbRegAppTableRecord
  2
Rhino
 70
     0
  0
APPID
  5
179
330
9
100
AcDbSymbolTableRecord
100
AcDbRegAppTableRecord
  2
ACAD_MLEADERVER
 70
     0
  0
ENDTAB
  0
TABLE
  2
DIMSTYLE
  5
A
330
0
100
AcDbSymbolTable
 70
     1
100
AcDbDimStyleTable
  0
DIMSTYLE
105
27
330
A
100
AcDbSymbolTableRecord
100
AcDbDimStyleTableRecord
  2
STANDARD_ACAD
 70
     0
178
     0
340
11
  0
ENDTAB
  0
TABLE
  2
BLOCK_RECORD
  5
1
330
0
100
AcDbSymbolTable
 70
     1
  0
BLOCK_RECORD
  5
1F
330
1
100
AcDbSymbolTableRecord
100
AcDbBlockTableRecord
  2
*Model_Space
340
22
 70
     0
280
     1
281
     0
  0
BLOCK_RECORD
  5
1B
330
1
100
AcDbSymbolTableRecord
100
AcDbBlockTableRecord
  2
*Paper_Space
340
1E
 70
     0
280
     1
281
     0
  0
BLOCK_RECORD
  5
23
330
1
100
AcDbSymbolTableRecord
100
AcDbBlockTableRecord
  2
*Paper_Space0
340
26
 70
     0
280
     1
281
     0
  0
ENDTAB
  0
ENDSEC
  0
SECTION
  2
BLOCKS
  0
BLOCK
  5
20
330
1F
100
AcDbEntity
  8
0
100
AcDbBlockBegin
  2
*Model_Space
 70
     0
 10
0.0
 20
0.0
 30
0.0
  3
*Model_Space
  1

  0
ENDBLK
  5
21
330
1F
100
AcDbEntity
  8
0
100
AcDbBlockEnd
  0
BLOCK
  5
1C
330
1B
100
AcDbEntity
 67
     1
  8
0
100
AcDbBlockBegin
  2
*Paper_Space
 70
     0
 10
0.0
 20
0.0
 30
0.0
  3
*Paper_Space
  1

  0
ENDBLK
  5
1D
330
1B
100
AcDbEntity
 67
     1
  8
0
100
AcDbBlockEnd
  0
BLOCK
  5
24
330
23
100
AcDbEntity
  8
0
100
AcDbBlockBegin
  2
*Paper_Space0
 70
     0
 10
0.0
 20
0.0
 30
0.0
  3
*Paper_Space0
  1

  0
ENDBLK
  5
25
330
23
100
AcDbEntity
  8
0
100
AcDbBlockEnd
  0
ENDSEC
  0
SECTION
  2
ENTITIES
  0
POLYLINE
  5
60
330
1F
100
AcDbEntity
  8
Make2D$Visibile$Curve
100
AcDb2dPolyline
 66
     1
 10
0.0
 20
0.0
 30
0.0
  0
VERTEX
  5
61
330
60
100
AcDbEntity
  8
Make2D$Visibile$Curve
100
AcDbVertex
100
AcDb2dVertex
 10
-186.7540099850465
 20
492.8865401443428
 30
0.0
  0
VERTEX
  5
62
330
60
100
AcDbEntity
  8
Make2D$Visibile$Curve
100
AcDbVertex
100
AcDb2dVertex
 10
-186.7540099850461
 20
-637.1134598556423
 30
0.0
  0
SEQEND
  5
63
330
60
100
AcDbEntity
  8
Make2D$Visibile$Curve
  0
POLYLINE
  5
64
330
1F
100
AcDbEntity
  8
Make2D$Visibile$Curve
100
AcDb2dPolyline
 66
     1
 10
0.0
 20
0.0
 30
0.0
  0
VERTEX
  5
65
330
64
100
AcDbEntity
  8
Make2D$Visibile$Curve
100
AcDbVertex
100
AcDb2dVertex
 10
-114.8424065845254
 20
492.8865401443427
 30
0.0
  0
VERTEX
  5
66
330
64
100
AcDbEntity
  8
Make2D$Visibile$Curve
100
AcDbVertex
100
AcDb2dVertex
 10
-114.8370871392488
 20
-637.113459855642
 30
0.0
  0
SEQEND
  5
67
330
64
100
AcDbEntity
  8
Make2D$Visibile$Curve
  0
POLYLINE
  5
68
330
1F
100
AcDbEntity
  8
Make2D$Visibile$Curve
100
AcDb2dPolyline
 66
     1
 10
0.0
 20
0.0
 30
0.0
  0
VERTEX
  5
69
330
68
100
AcDbEntity
  8
Make2D$Visibile$Curve
100
AcDbVertex
100
AcDb2dVertex
 10
93.1315706536459
 20
492.8435065361892
 30
0.0
  0
VERTEX
  5
6A
330
68
100
AcDbEntity
  8
Make2D$Visibile$Curve
100
AcDbVertex
100
AcDb2dVertex
 10
93.1315706536451
 20
-637.1564934637956
 30
0.0
  0
SEQEND
  5
6B
330
68
100
AcDbEntity
  8
Make2D$Visibile$Curve
  0
POLYLINE
  5
6C
330
1F
100
AcDbEntity
  8
Make2D$Visibile$Curve
100
AcDb2dPolyline
 66
     1
 10
0.0
 20
0.0
 30
0.0
  0
VERTEX
  5
6D
330
6C
100
AcDbEntity
  8
Make2D$Visibile$Curve
100
AcDbVertex
100
AcDb2dVertex
 10
176.1674688751107
 20
492.8435065361892
 30
0.0
  0
VERTEX
  5
6E
330
6C
100
AcDbEntity
  8
Make2D$Visibile$Curve
100
AcDbVertex
100
AcDb2dVertex
 10
176.1674688751115
 20
-637.1564934637956
 30
0.0
  0
SEQEND
  5
6F
330
6C
100
AcDbEntity
  8
Make2D$Visibile$Curve
  0
SPLINE
  5
70
330
1F
100
AcDbEntity
  8
Make2D$Visibile$Curve
100
AcDbSpline
210
0.0
220
0.0
230
1.0
 70
    28
 71
     2
 72
     8
 73
     5
 74
     0
 42
0.0000000001
 43
0.0000000001
 40
49.50896544281888
 40
49.50896544281888
 40
49.50896544281888
 40
66.62210529529023
 40
66.62210529529023
 40
83.73524514776159
 40
83.73524514776159
 40
83.73524514776159
 10
85.7819004618816
 20
-638.4393479968319
 30
0.0
 41
1.0
 10
85.78190046188202
 20
-638.4393479968319
 30
0.0
 41
0.833032256943112
 10
94.71627909123754
 20
-638.4393479968319
 30
0.0
 41
1.0
 10
103.6506577205932
 20
-638.4393479968319
 30
0.0
 41
0.833032256943112
 10
110.5816892464791
 20
-638.4393479968319
 30
0.0
 41
1.0
  0
SPLINE
  5
71
330
1F
100
AcDbEntity
  8
Make2D$Visibile$Curve
100
AcDbSpline
210
0.0
220
0.0
230
1.0
 70
    28
 71
     2
 72
     8
 73
     5
 74
     0
 42
0.0000000001
 43
0.0000000001
 40
0.0
 40
0.0
 40
0.0
 40
5.57491909974539
 40
5.57491909974539
 40
9.910015248298382
 40
9.910015248298382
 40
9.910015248298382
 10
112.4425364798606
 20
-638.4393479968319
 30
0.0
 41
1.0
 10
113.7928620324574
 20
-638.4393479968317
 30
0.0
 41
0.7772303537423337
 10
117.0361230955372
 20
-638.4393479968319
 30
0.0
 41
1.0
 10
119.40698176258
 20
-638.4393479968318
 30
0.0
 41
0.8267727623975338
 10
120.1055858721417
 20
-638.4393479968318
 30
0.0
 41
0.9229509518941701
  0
SPLINE
  5
72
330
1F
100
AcDbEntity
  8
Make2D$Visibile$Curve
100
AcDbSpline
210
0.0
220
0.0
230
1.0
 70
    28
 71
     2
 72
     6
 73
     3
 74
     0
 42
0.0000000001
 43
0.0000000001
 40
0.0
 40
0.0
 40
0.0
 40
1.497582456986788
 40
1.497582456986788
 40
1.497582456986788
 10
110.5816892464791
 20
-638.4393479968319
 30
0.0
 41
1.0
 10
111.2074821205372
 20
-638.4393479968318
 30
0.0
 41
0.7967945443744897
 10
111.9654536394922
 20
-638.4393479968317
 30
0.0
 41
1.0
  0
SPLINE
  5
73
330
1F
100
AcDbEntity
  8
Make2D$Visibile$Curve
100
AcDbSpline
210
0.0
220
0.0
230
1.0
 70
    28
 71
     2
 72
     8
 73
     5
 74
     0
 42
0.0000000001
 43
0.0000000001
 40
49.5100319191025
 40
49.5100319191025
 40
49.5100319191025
 40
66.62263853343204
 40
66.62263853343204
 40
83.73524514776159
 40
83.73524514776159
 40
83.73524514776159
 10
183.583354020682
 20
494.155957583857
 30
0.0
 41
1.0
 10
183.5833540206817
 20
494.1559575838571
 30
0.0
 41
0.8330423623756359
 10
174.6494668771822
 20
494.155957583857
 30
0.0
 41
1.0
 10
165.7155797336825
 20
494.1559575838571
 30
0.0
 41
0.8330423623756359
 10
158.784327830097
 20
494.155957583857
 30
0.0
 41
1.0
  0
SPLINE
  5
74
330
1F
100
AcDbEntity
  8
Make2D$Visibile$Curve
100
AcDbSpline
210
0.0
220
0.0
230
1.0
 70
    28
 71
     2
 72
     8
 73
     5
 74
     0
 42
0.0000000001
 43
0.0000000001
 40
0.0
 40
0.0
 40
0.0
 40
5.575068737680914
 40
5.575068737680914
 40
9.963077607632004
 40
9.963077607632004
 40
9.963077607632004
 10
156.9235065573305
 20
494.155957583857
 30
0.0
 41
1.0
 10
155.5733518620213
 20
494.1559575838569
 30
0.0
 41
0.7772188599246201
 10
152.3299444387351
 20
494.155957583857
 30
0.0
 41
1.0
 10
149.9239739213623
 20
494.1559575838571
 30
0.0
 41
0.8246540689083548
 10
149.2454464974905
 20
494.1559575838571
 30
0.0
 41
0.9253296676463241
  0
SPLINE
  5
75
330
1F
100
AcDbEntity
  8
Make2D$Visibile$Curve
100
AcDbSpline
210
0.0
220
0.0
230
1.0
 70
    28
 71
     2
 72
     6
 73
     3
 74
     0
 42
0.0000000001
 43
0.0000000001
 40
0.0
 40
0.0
 40
0.0
 40
1.497582456986788
 40
1.497582456986788
 40
1.497582456986788
 10
158.784327830097
 20
494.155957583857
 30
0.0
 41
1.0
 10
158.1584902526812
 20
494.1559575838569
 30
0.0
 41
0.7967945443744897
 10
157.4005507054453
 20
494.155957583857
 30
0.0
 41
1.0
  0
SPLINE
  5
76
330
1F
100
AcDbEntity
  8
Make2D$Visibile$Curve
100
AcDbSpline
210
0.0
220
0.0
230
1.0
 70
    28
 71
     2
 72
     6
 73
     3
 74
     0
 42
0.0000000001
 43
0.0000000001
 40
0.0
 40
0.0
 40
0.0
 40
1129.999999999981
 40
1129.999999999981
 40
1129.999999999981
 10
177.1674688751105
 20
492.8435065361892
 30
0.0
 41
0.6768255021811295
 10
177.1674688751105
 20
-72.15649346380141
 30
0.0
 41
0.6768255021811295
 10
177.1674688751105
 20
-637.1564934637921
 30
0.0
 41
0.6768255021811295
  0
SPLINE
  5
77
330
1F
100
AcDbEntity
  8
Make2D$Visibile$Curve
100
AcDbSpline
210
0.0
220
0.0
230
1.0
 70
    28
 71
     2
 72
     6
 73
     3
 74
     0
 42
0.0000000001
 43
0.0000000001
 40
0.0
 40
0.0
 40
0.0
 40
1129.999999999981
 40
1129.999999999981
 40
1129.999999999981
 10
92.13157087511055
 20
-637.1564934637923
 30
0.0
 41
0.6768255021810745
 10
92.13157087511055
 20
-72.15649346380172
 30
0.0
 41
0.6768255021810745
 10
92.13157087511055
 20
492.8435065361888
 30
0.0
 41
0.6768255021810745
  0
SPLINE
  5
78
330
1F
100
AcDbEntity
  8
Make2D$Visibile$Curve
100
AcDbSpline
210
0.0
220
0.0
230
1.0
 70
    12
 71
     2
 72
     6
 73
     3
 74
     0
 42
0.0000000001
 43
0.0000000001
 40
68.27370126056667
 40
68.27370126056667
 40
68.27370126056667
 40
87.8628216461579
 40
87.8628216461579
 40
87.8628216461579
 10
119.5538665851574
 20
487.6169909112049
 30
0.0
 41
1.0
 10
119.5538618785698
 20
487.6175362988202
 30
0.0
 41
0.796794544374496
 10
130.5774113211029
 20
487.6180816866075
 30
0.0
 41
1.0
  0
SPLINE
  5
79
330
1F
100
AcDbEntity
  8
Make2D$Visibile$Curve
100
AcDbSpline
210
0.0
220
0.0
230
1.0
 70
    12
 71
     2
 72
     8
 73
     5
 74
     0
 42
0.0000000001
 43
0.0000000001
 40
20.84869163825542
 40
20.84869163825542
 40
20.84869163825542
 40
44.56119644941104
 40
44.56119644941104
 40
68.27370126056667
 40
68.27370126056667
 40
68.27370126056667
 10
149.7455771968666
 20
487.6180816866093
 30
0.0
 41
1.0
 10
149.7455771950089
 20
487.6176680910237
 30
0.0
 41
0.707106822593205
 10
134.6497236571161
 20
487.6171227033852
 30
0.0
 41
1.0
 10
119.5538701192232
 20
487.616577315747
 30
0.0
 41
0.707106822593205
 10
119.5538665851574
 20
487.6169909112049
 30
0.0
 41
1.0
  0
SPLINE
  5
7A
330
1F
100
AcDbEntity
  8
Make2D$Visibile$Curve
100
AcDbSpline
210
0.0
220
0.0
230
1.0
 70
    24
 71
     3
 72
    14
 73
    10
 74
     0
 42
0.0000000001
 43
0.0000000001
 40
42.80371220728533
 40
42.80371220728533
 40
42.80371220728533
 40
42.80371220728533
 40
57.48692531925427
 40
57.48692531925427
 40
57.48692531925427
 40
75.11409462409054
 40
75.11409462409054
 40
75.11409462409054
 40
92.74126393924277
 40
92.74126393924277
 40
92.74126393924277
 40
92.74126393924277
 10
149.7410221143682
 20
-631.844042416144
 30
0.0
 10
149.7410221143681
 20
-631.844042416144
 30
0.0
 10
147.5710567894372
 20
-631.844042416144
 30
0.0
 10
143.7663718846864
 20
-631.844042416144
 30
0.0
 10
139.1988549211201
 20
-631.844042416144
 30
0.0
 10
133.0635785973107
 20
-631.844042416144
 30
0.0
 10
127.9295886420348
 20
-631.844042416144
 30
0.0
 10
122.7955986838633
 20
-631.844042416144
 30
0.0
 10
119.5488396484252
 20
-631.844042416144
 30
0.0
 10
119.548838305725
 20
-631.844042416144
 30
0.0
  0
SPLINE
  5
7B
330
1F
100
AcDbEntity
  8
Make2D$Visibile$Curve
100
AcDbSpline
210
0.0
220
0.0
230
1.0
 70
    28
 71
     2
 72
    10
 73
     7
 74
     0
 42
0.0000000001
 43
0.0000000001
 40
196.7482215779027
 40
196.7482215779027
 40
196.7482215779027
 40
237.2005701760012
 40
237.2005701760012
 40
355.8008552640018
 40
355.8008552640018
 40
433.9487917539039
 40
433.9487917539039
 40
433.9487917539039
 10
59.14623357209167
 20
657.7700938888051
 30
0.0
 41
0.8683475024126033
 10
59.14623357209163
 20
657.770093888805
 30
0.0
 41
0.9000995774953691
 10
69.26175589326806
 20
657.770093888805
 30
0.0
 41
1.0
 10
107.0133991409951
 20
657.7700938888051
 30
0.0
 41
0.7071067811865476
 10
172.4011633152718
 20
657.770093888805
 30
0.0
 41
1.0
 10
210.1528065629981
 20
657.7700938888048
 30
0.0
 41
0.8070072036911783
 10
210.152806562998
 20
657.7700938888051
 30
0.0
 41
0.8683475024126035
  0
SPLINE
  5
7C
330
1F
100
AcDbEntity
  8
Make2D$Visibile$Curve
100
AcDbSpline
210
0.0
220
0.0
230
1.0
 70
    28
 71
     2
 72
     6
 73
     3
 74
     0
 42
0.0000000001
 43
0.0000000001
 40
0.0
 40
0.0
 40
0.0
 40
5.461684884238173
 40
5.461684884238173
 40
5.461684884238173
 10
149.7453798754535
 20
493.648322156043
 30
0.0
 41
0.9568456805154835
 10
149.7454785361601
 20
490.917479716731
 30
0.0
 41
0.9568456805154835
 10
149.7455771968667
 20
488.1866372774189
 30
0.0
 41
0.9568456805154835
  0
SPLINE
  5
7D
330
1F
100
AcDbEntity
  8
Make2D$Visibile$Curve
100
AcDbSpline
210
0.0
220
0.0
230
1.0
 70
    12
 71
     2
 72
    10
 73
     7
 74
     0
 42
0.0000000001
 43
0.0000000001
 40
-88.40074547593213
 40
-88.40074547593213
 40
-88.40074547593213
 40
-74.56510203394144
 40
-74.56510203394144
 40
-57.81156864798478
 40
-57.81156864798478
 40
-41.05803526202811
 40
-41.05803526202811
 40
-41.05803526202811
 10
149.7455771750397
 20
488.1866372551764
 30
0.0
 41
0.9568361299803413
 10
149.7451740074268
 20
488.1864318310175
 30
0.0
 41
0.8760838566004054
 10
143.7714001665684
 20
488.1860918898466
 30
0.0
 41
1.0
 10
136.315365066491
 20
488.1856675997129
 30
0.0
 41
0.8499503652137049
 10
127.9346169211634
 20
488.1854788621584
 30
0.0
 41
1.0
 10
119.5538687758357
 20
488.1852901246039
 30
0.0
 41
0.8499503652137049
 10
119.5538665851574
 20
488.1855465020143
 30
0.0
 41
1.0
  0
SPLINE
  5
7E
330
1F
100
AcDbEntity
  8
Make2D$Visibile$Curve
100
AcDbSpline
210
0.0
220
0.0
230
1.0
 70
    24
 71
     2
 72
     6
 73
     3
 74
     0
 42
0.0000000001
 43
0.0000000001
 40
0.0
 40
0.0
 40
0.0
 40
5.461684884238173
 40
5.461684884238173
 40
5.461684884238173
 10
119.5536692637442
 20
493.6472313806379
 30
0.0
 10
119.5537679244508
 20
490.9163889413261
 30
0.0
 10
119.5538665851574
 20
488.1855465020143
 30
0.0
  0
SPLINE
  5
7F
330
1F
100
AcDbEntity
  8
Make2D$Visibile$Curve
100
AcDbSpline
210
0.0
220
0.0
230
1.0
 70
    28
 71
     2
 72
     8
 73
     5
 74
     0
 42
0.0000000001
 43
0.0000000001
 40
18.94039453821616
 40
18.94039453821616
 40
18.94039453821616
 40
41.86762261390899
 40
41.86762261390899
 40
64.79485068960183
 40
64.79485068960183
 40
64.79485068960183
 10
120.0535931113225
 20
494.155957583857
 30
0.0
 41
1.0
 10
120.0535930312655
 20
494.1559575838571
 30
0.0
 41
0.707106780216937
 10
134.6495197643783
 20
494.155957583857
 30
0.0
 41
1.0
 10
149.2454464974912
 20
494.1559575838571
 30
0.0
 41
0.707106780216937
 10
149.2454464974903
 20
494.155957583857
 30
0.0
 41
1.0
  0
SPLINE
  5
80
330
1F
100
AcDbEntity
  8
Make2D$Visibile$Curve
100
AcDbSpline
210
0.0
220
0.0
230
1.0
 70
    28
 71
     2
 72
     6
 73
     3
 74
     0
 42
0.0000000001
 43
0.0000000001
 40
0.0
 40
0.0
 40
0.0
 40
5.46168488423806
 40
5.46168488423806
 40
5.46168488423806
 10
149.8021273143895
 20
-632.4700276903941
 30
0.0
 41
0.9568456805154835
 10
149.8020286536829
 20
-635.2008701297059
 30
0.0
 41
0.9568456805154835
 10
149.8019299929763
 20
-637.9317125690178
 30
0.0
 41
0.9568456805154835
  0
SPLINE
  5
81
330
1F
100
AcDbEntity
  8
Make2D$Visibile$Curve
100
AcDbSpline
210
0.0
220
0.0
230
1.0
 70
    12
 71
     2
 72
     8
 73
     5
 74
     0
 42
0.0000000001
 43
0.0000000001
 40
-88.48304490113948
 40
-88.48304490113948
 40
-88.48304490113948
 40
-64.77054008158379
 40
-64.77054008158379
 40
-41.05803526202811
 40
-41.05803526202811
 40
-41.05803526202811
 10
149.8021273143895
 20
-632.4700276903936
 30
0.0
 41
1.0
 10
149.8021273293321
 20
-632.4696140948082
 30
0.0
 41
0.7071068223964709
 10
134.706273783039
 20
-632.4690687071695
 30
0.0
 41
1.0
 10
119.6104202367461
 20
-632.4685233195306
 30
0.0
 41
0.7071068223964709
 10
119.6104167026803
 20
-632.468936914989
 30
0.0
 41
1.0
  0
SPLINE
  5
82
330
1F
100
AcDbEntity
  8
Make2D$Visibile$Curve
100
AcDbSpline
210
0.0
220
0.0
230
1.0
 70
    24
 71
     2
 72
     6
 73
     3
 74
     0
 42
0.0000000001
 43
0.0000000001
 40
0.0
 40
0.0
 40
0.0
 40
5.461684884238173
 40
5.461684884238173
 40
5.461684884238173
 10
119.610219381267
 20
-637.9306217936128
 30
0.0
 10
119.6103180419736
 20
-635.1997793543009
 30
0.0
 10
119.6104167026803
 20
-632.468936914989
 30
0.0
  0
SPLINE
  5
83
330
1F
100
AcDbEntity
  8
Make2D$Visibile$Curve
100
AcDbSpline
210
0.0
220
0.0
230
1.0
 70
    28
 71
     2
 72
     8
 73
     5
 74
     0
 42
0.0000000001
 43
0.0000000001
 40
18.94039453821616
 40
18.94039453821616
 40
18.94039453821616
 40
41.86762261390913
 40
41.86762261390913
 40
64.79485068960211
 40
64.79485068960211
 40
64.79485068960211
 10
120.1101432288453
 20
-638.4393479968319
 30
0.0
 41
1.0
 10
120.1101431487882
 20
-638.4393479968318
 30
0.0
 41
0.7071067802169335
 10
134.7060698819014
 20
-638.4393479968319
 30
0.0
 41
1.0
 10
149.3019966150143
 20
-638.4393479968318
 30
0.0
 41
0.7071067802169335
 10
149.3019966150132
 20
-638.4393479968319
 30
0.0
 41
1.0
  0
SPLINE
  5
84
330
1F
100
AcDbEntity
  8
Make2D$Visibile$Curve
100
AcDbSpline
210
0.0
220
0.0
230
1.0
 70
    12
 71
     2
 72
     6
 73
     3
 74
     0
 42
0.0000000001
 43
0.0000000001
 40
-87.68403149408763
 40
-87.68403149408763
 40
-87.68403149408763
 40
-72.6736040854621
 40
-72.6736040854621
 40
-72.6736040854621
 10
92.15563700288705
 20
488.1866173090816
 30
0.0
 41
0.9569759017361448
 10
85.21076440770284
 20
488.1863775351783
 30
0.0
 41
0.8583977795046274
 10
85.21076440980619
 20
488.1860063496414
 30
0.0
 41
1.0
  0
SPLINE
  5
85
330
1F
100
AcDbEntity
  8
Make2D$Visibile$Curve
100
AcDbSpline
210
0.0
220
0.0
230
1.0
 70
    12
 71
     2
 72
     6
 73
     3
 74
     0
 42
0.0000000001
 43
0.0000000001
 40
-87.60179577824623
 40
-87.60179577824623
 40
-87.60179577824623
 40
-72.67360408546224
 40
-72.67360408546224
 40
-72.67360408546224
 10
92.15869848488404
 20
-632.4700053565475
 30
0.0
 41
0.9559029758982491
 10
85.28200352304643
 20
-632.4697655812658
 30
0.0
 41
0.8591735575454649
 10
85.28200352513636
 20
-632.4693967626163
 30
0.0
 41
1.0
  0
SPLINE
  5
86
330
1F
100
AcDbEntity
  8
Make2D$Visibile$Curve
100
AcDbSpline
210
0.0
220
0.0
230
1.0
 70
    28
 71
     2
 72
     8
 73
     5
 74
     0
 42
0.0000000001
 43
0.0000000001
 40
49.50896544281888
 40
49.50896544281888
 40
49.50896544281888
 40
66.62210529529023
 40
66.62210529529023
 40
83.73524514776159
 40
83.73524514776159
 40
83.73524514776159
 10
85.71066134655143
 20
494.155957583857
 30
0.0
 41
1.0
 10
85.7106613465519
 20
494.1559575838572
 30
0.0
 41
0.833032256943112
 10
94.64503997590748
 20
494.155957583857
 30
0.0
 41
1.0
 10
103.5794186052631
 20
494.1559575838572
 30
0.0
 41
0.833032256943112
 10
110.5104501311491
 20
494.155957583857
 30
0.0
 41
1.0
  0
SPLINE
  5
87
330
1F
100
AcDbEntity
  8
Make2D$Visibile$Curve
100
AcDbSpline
210
0.0
220
0.0
230
1.0
 70
    28
 71
     2
 72
     8
 73
     5
 74
     0
 42
0.0000000001
 43
0.0000000001
 40
0.0
 40
0.0
 40
0.0
 40
5.574919099745172
 40
5.574919099745172
 40
10.04049609160139
 40
10.04049609160139
 40
10.04049609160139
 10
112.3712973645304
 20
494.155957583857
 30
0.0
 41
1.0
 10
113.7216229171272
 20
494.155957583857
 30
0.0
 41
0.7772303537423505
 10
116.9648839802069
 20
494.155957583857
 30
0.0
 41
1.0
 10
119.4226016843844
 20
494.1559575838572
 30
0.0
 41
0.8215588443503009
 10
120.0699071184393
 20
494.155957583857
 30
0.0
 41
0.9289846958490837
  0
SPLINE
  5
88
330
1F
100
AcDbEntity
  8
Make2D$Visibile$Curve
100
AcDbSpline
210
0.0
220
0.0
230
1.0
 70
    28
 71
     2
 72
     6
 73
     3
 74
     0
 42
0.0000000001
 43
0.0000000001
 40
0.0
 40
0.0
 40
0.0
 40
5.461684884238173
 40
5.461684884238173
 40
5.461684884238173
 10
85.21076440980616
 20
488.1860063496414
 30
0.0
 41
0.9690018267425589
 10
85.2107489355853
 20
490.9168487889533
 30
0.0
 41
0.9690018267425589
 10
85.21073346136444
 20
493.6476912282652
 30
0.0
 41
0.9690018267425589
  0
SPLINE
  5
89
330
1F
100
AcDbEntity
  8
Make2D$Visibile$Curve
100
AcDbSpline
210
0.0
220
0.0
230
1.0
 70
     8
 71
     3
 72
    12
 73
     8
 74
     0
 42
0.0000000001
 43
0.0000000001
 40
0.0
 40
0.0
 40
0.0
 40
0.0
 40
0.4555736499024791
 40
0.4555736499024791
 40
0.68907001663753
 40
0.68907001663753
 40
0.7986187203173776
 40
0.7986187203173776
 40
0.7986187203173776
 40
0.7986187203173776
 10
85.2106613465528
 20
493.655957583857
 30
0.0
 10
85.2106613465528
 20
493.7883500330234
 30
0.0
 10
85.2631866975911
 20
493.9155897160819
 30
0.0
 10
85.4052456667182
 20
494.0576486852088
 30
0.0
 10
85.46288060457994
 20
494.0956202675897
 30
0.0
 10
85.55651557030887
 20
494.1326894966556
 30
0.0
 10
85.70973668058105
 20
494.155957583857
 30
0.0
 10
85.7106613465528
 20
494.155957583857
 30
0.0
  0
SPLINE
  5
8A
330
1F
100
AcDbEntity
  8
Make2D$Visibile$Curve
100
AcDbSpline
210
0.0
220
0.0
230
1.0
 70
    28
 71
     2
 72
     6
 73
     3
 74
     0
 42
0.0000000001
 43
0.0000000001
 40
0.0
 40
0.0
 40
0.0
 40
1.497582456986788
 40
1.497582456986788
 40
1.497582456986788
 10
110.5104501311491
 20
494.155957583857
 30
0.0
 41
1.0
 10
111.1362430052072
 20
494.1559575838569
 30
0.0
 41
0.7967945443744897
 10
111.8942145241622
 20
494.155957583857
 30
0.0
 41
1.0
  0
SPLINE
  5
8B
330
1F
100
AcDbEntity
  8
Make2D$Visibile$Curve
100
AcDbSpline
210
0.0
220
0.0
230
1.0
 70
    28
 71
     2
 72
     6
 73
     3
 74
     0
 42
0.0000000001
 43
0.0000000001
 40
1.497582456986788
 40
1.497582456986788
 40
1.497582456986788
 40
2.222173326587355
 40
2.222173326587355
 40
2.222173326587355
 10
111.8942145241622
 20
494.155957583857
 30
0.0
 41
1.0
 10
112.2187154202217
 20
494.1559575838568
 30
0.0
 41
0.9511280869760966
 10
112.3712973645304
 20
494.155957583857
 30
0.0
 41
1.0
  0
SPLINE
  5
8C
330
1F
100
AcDbEntity
  8
Make2D$Visibile$Curve
100
AcDbSpline
210
0.0
220
0.0
230
1.0
 70
    28
 71
     2
 72
     6
 73
     3
 74
     0
 42
0.0000000001
 43
0.0000000001
 40
0.0
 40
0.0
 40
0.0
 40
5.461684884237946
 40
5.461684884237946
 40
5.461684884237946
 10
85.28197257669457
 20
-637.9310816412402
 30
0.0
 41
0.9690018267425592
 10
85.28198805091537
 20
-635.2002392019284
 30
0.0
 41
0.9690018267425592
 10
85.28200352513618
 20
-632.4693967626166
 30
0.0
 41
0.9690018267425592
  0
SPLINE
  5
8D
330
1F
100
AcDbEntity
  8
Make2D$Visibile$Curve
100
AcDbSpline
210
0.0
220
0.0
230
1.0
 70
     8
 71
     3
 72
    10
 73
     6
 74
     0
 42
0.0000000001
 43
0.0000000001
 40
0.0
 40
0.0
 40
0.0
 40
0.0
 40
0.1708793849907277
 40
0.1708793849907277
 40
0.8035932118883761
 40
0.8035932118883761
 40
0.8035932118883761
 40
0.8035932118883761
 10
85.78190046188297
 20
-638.4393479968319
 30
0.0
 10
85.77618223213221
 20
-638.4393479968319
 30
0.0
 10
85.45371273612159
 20
-638.3182670522569
 30
0.0
 10
85.33442581292138
 20
-638.1989801290567
 30
0.0
 10
85.28190046188297
 20
-638.0717404459981
 30
0.0
 10
85.28190046188297
 20
-637.9393479968319
 30
0.0
  0
SPLINE
  5
8E
330
1F
100
AcDbEntity
  8
Make2D$Visibile$Curve
100
AcDbSpline
210
0.0
220
0.0
230
1.0
 70
    12
 71
     2
 72
     6
 73
     3
 74
     0
 42
0.0000000001
 43
0.0000000001
 40
2.356194490192343
 40
2.356194490192343
 40
2.356194490192343
 40
2.484110810259467
 40
2.484110810259467
 40
2.484110810259467
 10
118.2311616261013
 20
-638.4393479968317
 30
0.0
 41
1.0
 10
118.2616528040909
 20
-638.4388157445128
 30
0.0
 41
0.9522970329327447
 10
118.2912015362373
 20
-638.423759913484
 30
0.0
 41
0.9201326507206684
  0
SPLINE
  5
8F
330
1F
100
AcDbEntity
  8
Make2D$Visibile$Curve
100
AcDbSpline
210
0.0
220
0.0
230
1.0
 70
    12
 71
     2
 72
     6
 73
     3
 74
     0
 42
0.0000000001
 43
0.0000000001
 40
2.356194490193158
 40
2.356194490193158
 40
2.356194490193158
 40
2.484110810259756
 40
2.484110810259756
 40
2.484110810259756
 10
107.6748668864738
 20
-638.4393479968317
 30
0.0
 41
1.0
 10
107.7053580644634
 20
-638.4388157445126
 30
0.0
 41
0.9522970329329887
 10
107.7349067966096
 20
-638.4237599134837
 30
0.0
 41
0.9201326507210292
  0
SPLINE
  5
90
330
1F
100
AcDbEntity
  8
Make2D$Visibile$Curve
100
AcDbSpline
210
0.0
220
0.0
230
1.0
 70
    12
 71
     2
 72
     6
 73
     3
 74
     0
 42
0.0000000001
 43
0.0000000001
 40
-108.0721688058548
 40
-108.0721688058548
 40
-108.0721688058548
 40
-88.48304490113948
 40
-88.48304490113948
 40
-88.48304490113948
 10
138.7785732075167
 20
-632.4700276903914
 30
0.0
 41
1.0
 10
149.8021273030581
 20
-632.4703413413316
 30
0.0
 41
0.7967944739434828
 10
149.8021273143895
 20
-632.4700276903936
 30
0.0
 41
1.0
  0
SPLINE
  5
91
330
1F
100
AcDbEntity
  8
Make2D$Visibile$Curve
100
AcDbSpline
210
0.0
220
0.0
230
1.0
 70
    12
 71
     2
 72
     6
 73
     3
 74
     0
 42
0.0000000001
 43
0.0000000001
 40
-87.63778673262853
 40
-87.63778673262853
 40
-87.63778673262853
 40
-72.67470708953587
 40
-72.67470708953587
 40
-72.67470708953587
 10
177.1776641508082
 20
488.1866159810346
 30
0.0
 41
0.9563651149830581
 10
184.0832509779078
 20
488.1863762244945
 30
0.0
 41
0.8588485838969184
 10
184.0832509758134
 20
488.1860063992621
 30
0.0
 41
1.0
  0
SPLINE
  5
92
330
1F
100
AcDbEntity
  8
Make2D$Visibile$Curve
100
AcDbSpline
210
0.0
220
0.0
230
1.0
 70
    12
 71
     2
 72
     6
 73
     3
 74
     0
 42
0.0000000001
 43
0.0000000001
 40
-87.71993679020655
 40
-87.71993679020655
 40
-87.71993679020655
 40
-72.67470708953576
 40
-72.67470708953576
 40
-72.67470708953576
 10
177.1807296682232
 20
-632.4700087493001
 30
0.0
 41
0.9574430763005561
 10
184.1544900932514
 20
-632.4697690037096
 30
0.0
 41
0.8580736366777166
 10
184.1544900911435
 20
-632.4693968122369
 30
0.0
 41
1.0
  0
SPLINE
  5
93
330
1F
100
AcDbEntity
  8
Make2D$Visibile$Curve
100
AcDbSpline
210
0.0
220
0.0
230
1.0
 70
    28
 71
     2
 72
     6
 73
     3
 74
     0
 42
0.0000000001
 43
0.0000000001
 40
0.0
 40
0.0
 40
0.0
 40
5.461684884238173
 40
5.461684884238173
 40
5.461684884238173
 10
184.0832819063024
 20
493.6476912778857
 30
0.0
 41
0.9690172749619864
 10
184.0832664410579
 20
490.9168488385739
 30
0.0
 41
0.9690172749619864
 10
184.0832509758134
 20
488.1860063992621
 30
0.0
 41
0.9690172749619864
  0
SPLINE
  5
94
330
1F
100
AcDbEntity
  8
Make2D$Visibile$Curve
100
AcDbSpline
210
0.0
220
0.0
230
1.0
 70
     8
 71
     3
 72
    10
 73
     6
 74
     0
 42
0.0000000001
 43
0.0000000001
 40
0.0000000000004672
 40
0.0000000000004672
 40
0.0000000000004672
 40
0.0000000000004672
 40
0.3271220088461326
 40
0.3271220088461326
 40
0.7812821286618886
 40
0.7812821286618886
 40
0.7812821286618886
 40
0.7812821286618886
 10
183.5833540206809
 20
494.1559575838572
 30
0.0
 10
183.6717423683294
 20
494.1193459315053
 30
0.0
 10
183.8485190636256
 20
494.046122626802
 30
0.0
 10
184.030828669642
 20
493.9155897160821
 30
0.0
 10
184.0833540206805
 20
493.7883500330232
 30
0.0
 10
184.0833540206805
 20
493.655957583857
 30
0.0
  0
SPLINE
  5
95
330
1F
100
AcDbEntity
  8
Make2D$Visibile$Curve
100
AcDbSpline
210
0.0
220
0.0
230
1.0
 70
    12
 71
     2
 72
     6
 73
     3
 74
     0
 42
0.0000000001
 43
0.0000000001
 40
2.356194490192343
 40
2.356194490192343
 40
2.356194490192343
 40
2.484126282085055
 40
2.484126282085055
 40
2.484126282085055
 10
151.1345003619904
 20
494.1559575838568
 30
0.0
 41
1.0
 10
151.1040014513673
 20
494.1554252639356
 30
0.0
 41
0.9522912631295943
 10
151.0744454535619
 20
494.1403657308684
 30
0.0
 41
0.9201248702095914
  0
SPLINE
  5
96
330
1F
100
AcDbEntity
  8
Make2D$Visibile$Curve
100
AcDbSpline
210
0.0
220
0.0
230
1.0
 70
    12
 71
     2
 72
     6
 73
     3
 74
     0
 42
0.0000000001
 43
0.0000000001
 40
2.356194490193158
 40
2.356194490193158
 40
2.356194490193158
 40
2.484126282085493
 40
2.484126282085493
 40
2.484126282085493
 10
161.6894639810553
 20
494.155957583857
 30
0.0
 41
1.0
 10
161.6589650704323
 20
494.1554252639355
 30
0.0
 41
0.9522912631297829
 10
161.6294090726269
 20
494.1403657308683
 30
0.0
 41
0.9201248702098774
  0
SPLINE
  5
97
330
1F
100
AcDbEntity
  8
Make2D$Visibile$Curve
100
AcDbSpline
210
0.0
220
0.0
230
1.0
 70
    28
 71
     2
 72
     6
 73
     3
 74
     0
 42
0.0000000001
 43
0.0000000001
 40
1.497582456986788
 40
1.497582456986788
 40
1.497582456986788
 40
2.222173326587355
 40
2.222173326587355
 40
2.222173326587355
 10
157.4005507054453
 20
494.155957583857
 30
0.0
 41
1.0
 10
157.0760634970393
 20
494.1559575838568
 30
0.0
 41
0.9511280869760966
 10
156.9235065573305
 20
494.155957583857
 30
0.0
 41
1.0
  0
SPLINE
  5
98
330
1F
100
AcDbEntity
  8
Make2D$Visibile$Curve
100
AcDbSpline
210
0.0
220
0.0
230
1.0
 70
    28
 71
     2
 72
     8
 73
     5
 74
     0
 42
0.0000000001
 43
0.0000000001
 40
49.51003191910306
 40
49.51003191910306
 40
49.51003191910306
 40
66.62263853343232
 40
66.62263853343232
 40
83.73524514776159
 40
83.73524514776159
 40
83.73524514776159
 10
183.6545931360121
 20
-638.4393479968319
 30
0.0
 41
1.0
 10
183.6545931360115
 20
-638.4393479968318
 30
0.0
 41
0.8330423623756412
 10
174.720705992512
 20
-638.4393479968319
 30
0.0
 41
1.0
 10
165.7868188490126
 20
-638.4393479968318
 30
0.0
 41
0.8330423623756412
 10
158.855566945427
 20
-638.4393479968319
 30
0.0
 41
1.0
  0
SPLINE
  5
99
330
1F
100
AcDbEntity
  8
Make2D$Visibile$Curve
100
AcDbSpline
210
0.0
220
0.0
230
1.0
 70
    28
 71
     2
 72
     8
 73
     5
 74
     0
 42
0.0000000001
 43
0.0000000001
 40
0.0
 40
0.0
 40
0.0
 40
5.575068737680911
 40
5.575068737680911
 40
10.01771429336635
 40
10.01771429336635
 40
10.01771429336635
 10
156.9947456726605
 20
-638.4393479968319
 30
0.0
 41
1.0
 10
155.6445909773514
 20
-638.4393479968319
 30
0.0
 41
0.7772188599246205
 10
152.4011835540653
 20
-638.4393479968319
 30
0.0
 41
1.0
 10
149.958789117196
 20
-638.4393479968318
 30
0.0
 41
0.8224707732916444
 10
149.3019966150133
 20
-638.4393479968317
 30
0.0
 41
0.9278795576285941
  0
SPLINE
  5
9A
330
1F
100
AcDbEntity
  8
Make2D$Visibile$Curve
100
AcDbSpline
210
0.0
220
0.0
230
1.0
 70
    28
 71
     2
 72
     6
 73
     3
 74
     0
 42
0.0000000001
 43
0.0000000001
 40
0.0
 40
0.0
 40
0.0
 40
5.461684884237946
 40
5.461684884237946
 40
5.461684884237946
 10
184.1544900911435
 20
-632.4693968122372
 30
0.0
 41
0.9690172749619868
 10
184.154505556388
 20
-635.2002392515491
 30
0.0
 41
0.9690172749619868
 10
184.1545210216325
 20
-637.9310816908609
 30
0.0
 41
0.9690172749619868
  0
SPLINE
  5
9B
330
1F
100
AcDbEntity
  8
Make2D$Visibile$Curve
100
AcDbSpline
210
0.0
220
0.0
230
1.0
 70
     8
 71
     3
 72
    10
 73
     6
 74
     0
 42
0.0000000001
 43
0.0000000001
 40
0.0
 40
0.0
 40
0.0
 40
0.0
 40
0.6378805696310121
 40
0.6378805696310121
 40
0.8000180958054183
 40
0.8000180958054183
 40
0.8000180958054183
 40
0.8000180958054183
 10
184.1545931360107
 20
-637.9393479968319
 30
0.0
 10
184.1545931360107
 20
-638.0717404459983
 30
0.0
 10
184.1020677849724
 20
-638.1989801290565
 30
0.0
 10
183.9842734675831
 20
-638.3167744464458
 30
0.0
 10
183.6575533898447
 20
-638.4393479968317
 30
0.0
 10
183.6545931360107
 20
-638.4393479968319
 30
0.0
  0
SPLINE
  5
9C
330
1F
100
AcDbEntity
  8
Make2D$Visibile$Curve
100
AcDbSpline
210
0.0
220
0.0
230
1.0
 70
    28
 71
     2
 72
     6
 73
     3
 74
     0
 42
0.0000000001
 43
0.0000000001
 40
0.0
 40
0.0
 40
0.0
 40
1.497582456986788
 40
1.497582456986788
 40
1.497582456986788
 10
158.855566945427
 20
-638.4393479968319
 30
0.0
 41
1.0
 10
158.2297293680114
 20
-638.4393479968318
 30
0.0
 41
0.7967945443744897
 10
157.4717898207754
 20
-638.4393479968317
 30
0.0
 41
1.0
  0
SPLINE
  5
9D
330
1F
100
AcDbEntity
  8
Make2D$Visibile$Curve
100
AcDbSpline
210
0.0
220
0.0
230
1.0
 70
    28
 71
     2
 72
     6
 73
     3
 74
     0
 42
0.0000000001
 43
0.0000000001
 40
1.497582456986788
 40
1.497582456986788
 40
1.497582456986788
 40
2.222173326587355
 40
2.222173326587355
 40
2.222173326587355
 10
157.4717898207754
 20
-638.4393479968319
 30
0.0
 41
1.0
 10
157.1473026123693
 20
-638.4393479968319
 30
0.0
 41
0.9511280869760966
 10
156.9947456726605
 20
-638.4393479968319
 30
0.0
 41
1.0
  0
SPLINE
  5
9E
330
1F
100
AcDbEntity
  8
Make2D$Visibile$Curve
100
AcDbSpline
210
0.0
220
0.0
230
1.0
 70
    12
 71
     2
 72
     6
 73
     3
 74
     0
 42
0.0000000001
 43
0.0000000001
 40
1.259567716740008
 40
1.259567716740008
 40
1.259567716740008
 40
20.84869163825542
 40
20.84869163825542
 40
20.84869163825542
 10
138.7220230899939
 20
487.6180816866075
 30
0.0
 41
1.0
 10
149.7455771982756
 20
487.6183953375484
 30
0.0
 41
0.7967944736072486
 10
149.7455771968666
 20
487.6180816866093
 30
0.0
 41
1.0
  0
SPLINE
  5
9F
330
1F
100
AcDbEntity
  8
Make2D$Visibile$Curve
100
AcDbSpline
210
0.0
220
0.0
230
1.0
 70
    24
 71
     2
 72
     6
 73
     3
 74
     0
 42
0.0000000001
 43
0.0000000001
 40
708.6173585022467
 40
708.6173585022467
 40
708.6173585022467
 40
734.9735557190454
 40
734.9735557190454
 40
734.9735557190454
 10
149.8112716583128
 20
-637.1564934637956
 30
0.0
 10
162.9893702667121
 20
-637.1564934637956
 30
0.0
 10
176.1674688751115
 20
-637.1564934637956
 30
0.0
  0
SPLINE
  5
A0
330
1F
100
AcDbEntity
  8
Make2D$Visibile$Curve
100
AcDbSpline
210
0.0
220
0.0
230
1.0
 70
    28
 71
     2
 72
     6
 73
     3
 74
     0
 42
0.0000000001
 43
0.0000000001
 40
4.657970946944809
 40
4.657970946944809
 40
4.657970946944809
 40
5.226526537753789
 40
5.226526537753789
 40
5.226526537753789
 10
130.1884307983603
 20
488.1855355892443
 30
0.0
 41
1.0
 10
130.1884307983603
 20
487.9012577938398
 30
0.0
 41
1.0
 10
130.1884307983603
 20
487.6169799984353
 30
0.0
 41
1.0
  0
SPLINE
  5
A1
330
1F
100
AcDbEntity
  8
Make2D$Visibile$Curve
100
AcDbSpline
210
0.0
220
0.0
230
1.0
 70
    28
 71
     4
 72
    10
 73
     5
 74
     0
 42
0.0000000001
 43
0.0000000001
 40
410.4121649871228
 40
410.4121649871228
 40
410.4121649871228
 40
410.4121649871228
 40
410.4121649871228
 40
436.8139568625474
 40
436.8139568625474
 40
436.8139568625474
 40
436.8139568625474
 40
436.8139568625474
 10
149.7656769996859
 20
492.8435065361892
 30
0.0
 41
1.0
 10
156.3661249685422
 20
492.8435065361892
 30
0.0
 41
1.0
 10
162.9665729373983
 20
492.8435065361892
 30
0.0
 41
1.0
 10
169.5670209062545
 20
492.8435065361892
 30
0.0
 41
1.0
 10
176.1674688751107
 20
492.8435065361892
 30
0.0
 41
1.0
  0
SPLINE
  5
A2
330
1F
100
AcDbEntity
  8
Make2D$Visibile$Curve
100
AcDbSpline
210
0.0
220
0.0
230
1.0
 70
    28
 71
     2
 72
     6
 73
     3
 74
     0
 42
0.0000000001
 43
0.0000000001
 40
4.690646202750704
 40
4.690646202750704
 40
4.690646202750704
 40
5.312451047648245
 40
5.312451047648245
 40
5.312451047648245
 10
138.5916648743226
 20
-632.4658472610415
 30
0.0
 41
0.6979201911347677
 10
138.5916648743226
 20
-632.1549448385928
 30
0.0
 41
0.6979201911347677
 10
138.5916648743226
 20
-631.844042416144
 30
0.0
 41
0.6979201911347677
  0
SPLINE
  5
A3
330
1F
100
AcDbEntity
  8
Make2D$Visibile$Curve
100
AcDbSpline
210
0.0
220
0.0
230
1.0
 70
    28
 71
     2
 72
     6
 73
     3
 74
     0
 42
0.0000000001
 43
0.0000000001
 40
1124.776453722045
 40
1124.776453722045
 40
1124.776453722045
 40
1125.34232852362
 40
1125.34232852362
 40
1125.34232852362
 10
138.5916648743226
 20
487.6199602582526
 30
0.0
 41
0.6979201911347677
 10
138.5916648743226
 20
487.9028976590404
 30
0.0
 41
0.6979201911347677
 10
138.5916648743226
 20
488.1858350598282
 30
0.0
 41
0.6979201911347677
  0
SPLINE
  5
A4
330
1F
100
AcDbEntity
  8
Make2D$Visibile$Curve
100
AcDbSpline
210
0.0
220
0.0
230
1.0
 70
    28
 71
     2
 72
     6
 73
     3
 74
     0
 42
0.0000000001
 43
0.0000000001
 40
4.657956319387322
 40
4.657956319387322
 40
4.657956319387322
 40
5.226511910196342
 40
5.226511910196342
 40
5.226511910196342
 10
130.7073751257863
 20
488.1855502168021
 30
0.0
 41
0.6979201612464054
 10
130.7073751257863
 20
487.9012724213977
 30
0.0
 41
0.6979201612464054
 10
130.7073751257863
 20
487.6169946259932
 30
0.0
 41
0.6979201612464054
  0
SPLINE
  5
A5
330
1F
100
AcDbEntity
  8
Make2D$Visibile$Curve
100
AcDbSpline
210
0.0
220
0.0
230
1.0
 70
    28
 71
     2
 72
     6
 73
     3
 74
     0
 42
0.0000000001
 43
0.0000000001
 40
1124.687548952333
 40
1124.687548952333
 40
1124.687548952333
 40
1125.293183260628
 40
1125.293183260628
 40
1125.293183260628
 10
130.7073751257863
 20
-631.8440424161438
 30
0.0
 41
0.6979201612464054
 10
130.7073751257863
 20
-632.1468595702912
 30
0.0
 41
0.6979201612464054
 10
130.7073751257863
 20
-632.4496767244385
 30
0.0
 41
0.6979201612464054
  0
SPLINE
  5
A6
330
1F
100
AcDbEntity
  8
Make2D$Visibile$Curve
100
AcDbSpline
210
0.0
220
0.0
230
1.0
 70
    24
 71
     3
 72
    11
 73
     7
 74
     0
 42
0.0000000001
 43
0.0000000001
 40
136.3471507888845
 40
136.3471507888845
 40
136.3471507888845
 40
136.3471507888845
 40
150.2494449119102
 40
150.2494449119102
 40
150.2494449119102
 40
152.2050074969428
 40
152.2050074969428
 40
152.2050074969428
 40
152.2050074969428
 10
92.14182926914702
 20
-631.844042416144
 30
0.0
 10
88.44245532172408
 20
-631.844042416144
 30
0.0
 10
85.91217039702212
 20
-631.844042416144
 30
0.0
 10
85.34716948953803
 20
-631.844042416144
 30
0.0
 10
85.26769378391532
 20
-631.844042416144
 30
0.0
 10
85.22862581723223
 20
-631.844042416144
 30
0.0
 10
85.22849806308045
 20
-631.844042416144
 30
0.0
  0
SPLINE
  5
A7
330
1F
100
AcDbEntity
  8
Make2D$Visibile$Curve
100
AcDbSpline
210
0.0
220
0.0
230
1.0
 70
    12
 71
     2
 72
     6
 73
     3
 74
     0
 42
0.0000000001
 43
0.0000000001
 40
21.64485335567039
 40
21.64485335567039
 40
21.64485335567039
 40
36.65813244423943
 40
36.65813244423943
 40
36.65813244423943
 10
92.15800404479863
 20
487.6180617999817
 30
0.0
 41
0.9570133660779112
 10
85.21076440381724
 20
487.6178220265219
 30
0.0
 41
0.8583708778979396
 10
85.21076440980619
 20
487.617450758832
 30
0.0
 41
1.0
  0
SPLINE
  5
A8
330
1F
100
AcDbEntity
  8
Make2D$Visibile$Curve
100
AcDbSpline
210
0.0
220
0.0
230
1.0
 70
    24
 71
     3
 72
    11
 73
     7
 74
     0
 42
0.0000000001
 43
0.0000000001
 40
43.63386488699921
 40
43.63386488699921
 40
43.63386488699921
 40
43.63386488699921
 40
57.48692341191948
 40
57.48692341191948
 40
57.48692341191948
 40
59.44454602598105
 40
59.44454602598105
 40
59.44454602598105
 40
59.44454602598105
 10
177.1923719895849
 20
-631.844042416144
 30
0.0
 10
180.8702085163908
 20
-631.844042416144
 30
0.0
 10
183.384310694533
 20
-631.844042416144
 30
0.0
 10
183.9469840378133
 20
-631.844042416144
 30
0.0
 10
184.0264973134679
 20
-631.844042416144
 30
0.0
 10
184.0655177493728
 20
-631.844042416144
 30
0.0
 10
184.0655177493728
 20
-631.844042416144
 30
0.0
  0
SPLINE
  5
A9
330
1F
100
AcDbEntity
  8
Make2D$Visibile$Curve
100
AcDbSpline
210
0.0
220
0.0
230
1.0
 70
    12
 71
     2
 72
     6
 73
     3
 74
     0
 42
0.0000000001
 43
0.0000000001
 40
21.69680921000954
 40
21.69680921000954
 40
21.69680921000954
 40
36.65702944016781
 40
36.65702944016781
 40
36.65702944016781
 10
177.1800342290114
 20
487.6180603079241
 30
0.0
 41
0.9563278532361636
 10
184.0832509817779
 20
487.6178205513999
 30
0.0
 41
0.8588755576078712
 10
184.0832509758134
 20
487.6174508084526
 30
0.0
 41
1.0
  0
SPLINE
  5
AA
330
1F
100
AcDbEntity
  8
Make2D$Visibile$Curve
100
AcDbSpline
210
0.0
220
0.0
230
1.0
 70
    28
 71
     4
 72
    14
 73
     9
 74
     0
 42
0.0000000001
 43
0.0000000001
 40
338.1592937523492
 40
338.1592937523492
 40
338.1592937523492
 40
338.1592937523492
 40
338.1592937523492
 40
338.6425148660331
 40
338.6425148660331
 40
338.6425148660331
 40
338.6425148660331
 40
339.6897124297837
 40
339.6897124297837
 40
339.6897124297837
 40
339.6897124297837
 40
339.6897124297837
 10
92.13157087511043
 20
492.8435065361894
 30
0.0
 41
0.6768255021810743
 10
92.13157087511047
 20
492.8435065361893
 30
0.0
 41
0.6283684741481633
 10
92.15522014041491
 20
492.8435065361892
 30
0.0
 41
0.5903615140385902
 10
92.20087957119561
 20
492.843506536189
 30
0.0
 41
0.5610568779088536
 10
92.26554546504919
 20
492.8435065361894
 30
0.0
 41
0.538939297087483
 10
92.39952006003341
 20
492.8435065361894
 30
0.0
 41
0.5868707224666954
 10
92.60705181593882
 20
492.8435065361892
 30
0.0
 41
0.6685554626179903
 10
92.86362167931568
 20
492.8435065361891
 30
0.0
 41
0.799415414886338
 10
93.13157087511058
 20
492.843506536189
 30
0.0
 41
1.0
  0
SPLINE
  5
AB
330
1F
100
AcDbEntity
  8
Make2D$Visibile$Curve
100
AcDbSpline
210
0.0
220
0.0
230
1.0
 70
    28
 71
     4
 72
    14
 73
     9
 74
     0
 42
0.0000000001
 43
0.0000000001
 40
338.1592937523496
 40
338.1592937523496
 40
338.1592937523496
 40
338.1592937523496
 40
338.1592937523496
 40
338.6425148660331
 40
338.6425148660331
 40
338.6425148660331
 40
338.6425148660331
 40
339.6897124297837
 40
339.6897124297837
 40
339.6897124297837
 40
339.6897124297837
 40
339.6897124297837
 10
92.13157087511138
 20
-637.1564934637958
 30
0.0
 41
0.6768255021809149
 10
92.13157087511156
 20
-637.1564934637956
 30
0.0
 41
0.6283684741480695
 10
92.15522014041579
 20
-637.1564934637956
 30
0.0
 41
0.590361514038542
 10
92.20087957119668
 20
-637.1564934637959
 30
0.0
 41
0.5610568779088354
 10
92.26554546505002
 20
-637.1564934637955
 30
0.0
 41
0.538939297087483
 10
92.39952006003438
 20
-637.1564934637958
 30
0.0
 41
0.5868707224666954
 10
92.60705181593967
 20
-637.1564934637958
 30
0.0
 41
0.6685554626179903
 10
92.86362167931654
 20
-637.1564934637958
 30
0.0
 41
0.799415414886338
 10
93.13157087511149
 20
-637.1564934637956
 30
0.0
 41
1.0
  0
SPLINE
  5
AC
330
1F
100
AcDbEntity
  8
Make2D$Visibile$Curve
100
AcDbSpline
210
0.0
220
0.0
230
1.0
 70
    28
 71
     4
 72
    14
 73
     9
 74
     0
 42
0.0000000001
 43
0.0000000001
 40
436.8139568625474
 40
436.8139568625474
 40
436.8139568625474
 40
436.8139568625474
 40
436.8139568625474
 40
437.861154426298
 40
437.861154426298
 40
437.861154426298
 40
437.861154426298
 40
438.3443755399815
 40
438.3443755399815
 40
438.3443755399815
 40
438.3443755399815
 40
438.3443755399815
 10
176.1674688751115
 20
-637.1564934637956
 30
0.0
 41
1.0
 10
176.4354180709063
 20
-637.1564934637955
 30
0.0
 41
0.7994154148863511
 10
176.691987934283
 20
-637.1564934637956
 30
0.0
 41
0.668555462618005
 10
176.8995196901886
 20
-637.1564934637955
 30
0.0
 41
0.5868707224667049
 10
177.0334942851728
 20
-637.1564934637953
 30
0.0
 41
0.538939297087483
 10
177.0981601790262
 20
-637.1564934637953
 30
0.0
 41
0.5610568779088451
 10
177.143819609807
 20
-637.1564934637955
 30
0.0
 41
0.5903615140385634
 10
177.1674688751113
 20
-637.1564934637955
 30
0.0
 41
0.6283684741481059
 10
177.1674688751115
 20
-637.1564934637953
 30
0.0
 41
0.6768255021809702
  0
SPLINE
  5
AD
330
1F
100
AcDbEntity
  8
Make2D$Visibile$Curve
100
AcDbSpline
210
0.0
220
0.0
230
1.0
 70
    28
 71
     4
 72
    14
 73
     9
 74
     0
 42
0.0000000001
 43
0.0000000001
 40
436.8139568625474
 40
436.8139568625474
 40
436.8139568625474
 40
436.8139568625474
 40
436.8139568625474
 40
437.861154426298
 40
437.861154426298
 40
437.861154426298
 40
437.861154426298
 40
438.3443755399819
 40
438.3443755399819
 40
438.3443755399819
 40
438.3443755399819
 40
438.3443755399819
 10
176.1674688751107
 20
492.8435065361892
 30
0.0
 41
1.0
 10
176.4354180709055
 20
492.8435065361893
 30
0.0
 41
0.7994154148863511
 10
176.6919879342822
 20
492.8435065361894
 30
0.0
 41
0.668555462618005
 10
176.8995196901878
 20
492.8435065361894
 30
0.0
 41
0.5868707224667049
 10
177.033494285172
 20
492.8435065361894
 30
0.0
 41
0.538939297087483
 10
177.0981601790255
 20
492.8435065361897
 30
0.0
 41
0.5610568779088632
 10
177.1438196098061
 20
492.8435065361894
 30
0.0
 41
0.5903615140386116
 10
177.1674688751106
 20
492.8435065361894
 30
0.0
 41
0.6283684741481996
 10
177.1674688751105
 20
492.8435065361892
 30
0.0
 41
0.6768255021811295
  0
SPLINE
  5
AE
330
1F
100
AcDbEntity
  8
Make2D$Visibile$Curve
100
AcDbSpline
210
0.0
220
0.0
230
1.0
 70
    28
 71
     4
 72
    10
 73
     5
 74
     0
 42
0.0000000001
 43
0.0000000001
 40
339.6897124297837
 40
339.6897124297837
 40
339.6897124297837
 40
339.6897124297837
 40
339.6897124297837
 40
366.1683889038831
 40
366.1683889038831
 40
366.1683889038831
 40
366.1683889038831
 40
366.1683889038831
 10
93.13157087511149
 20
-637.1564934637956
 30
0.0
 41
1.0
 10
99.75123999363632
 20
-637.1564934637956
 30
0.0
 41
1.0
 10
106.3709091121611
 20
-637.1564934637956
 30
0.0
 41
1.0
 10
112.990578230686
 20
-637.1564934637956
 30
0.0
 41
1.0
 10
119.6102473492109
 20
-637.1564934637956
 30
0.0
 41
1.0
  0
SPLINE
  5
AF
330
1F
100
AcDbEntity
  8
Make2D$Visibile$Curve
100
AcDbSpline
210
0.0
220
0.0
230
1.0
 70
    28
 71
     4
 72
    10
 73
     5
 74
     0
 42
0.0000000001
 43
0.0000000001
 40
339.6897124297837
 40
339.6897124297837
 40
339.6897124297837
 40
339.6897124297837
 40
339.6897124297837
 40
366.1192074177667
 40
366.1192074177667
 40
366.1192074177667
 40
366.1192074177667
 40
366.1192074177667
 10
93.13157087511058
 20
492.843506536189
 30
0.0
 41
1.0
 10
99.73894462210637
 20
492.843506536189
 30
0.0
 41
1.0
 10
106.3463183691022
 20
492.8435065361892
 30
0.0
 41
1.0
 10
112.953692116098
 20
492.8435065361892
 30
0.0
 41
1.0
 10
119.5610658630937
 20
492.8435065361892
 30
0.0
 41
1.0
  0
SPLINE
  5
B0
330
1F
100
AcDbEntity
  8
Make2D$Visibile$Curve
100
AcDbSpline
210
0.0
220
0.0
230
1.0
 70
    28
 71
     2
 72
     6
 73
     3
 74
     0
 42
0.0000000001
 43
0.0000000001
 40
14.38990044947984
 40
14.38990044947984
 40
14.38990044947984
 40
178.0066797938885
 40
178.0066797938885
 40
178.0066797938885
 10
126.6495200675449
 20
494.1599943383043
 30
0.0
 41
1.0
 10
126.6495200675449
 20
575.9683840105087
 30
0.0
 41
1.0
 10
126.6495200675449
 20
657.776773682713
 30
0.0
 41
1.0
  0
SPLINE
  5
B1
330
1F
100
AcDbEntity
  8
Make2D$Visibile$Curve
100
AcDbSpline
210
0.0
220
0.0
230
1.0
 70
    28
 71
     2
 72
     6
 73
     3
 74
     0
 42
0.0000000001
 43
0.0000000001
 40
280.5389092308415
 40
280.5389092308415
 40
280.5389092308415
 40
1399.99994271337
 40
1399.99994271337
 40
1399.99994271337
 10
119.548838305725
 20
-631.8440424161442
 30
0.0
 41
1.0
 10
119.5513524454412
 20
-72.11352575246968
 30
0.0
 41
1.0
 10
119.5538665851574
 20
487.6169909112049
 30
0.0
 41
1.0
  0
SPLINE
  5
B2
330
1F
100
AcDbEntity
  8
Make2D$Visibile$Curve
100
AcDbSpline
210
0.0
220
0.0
230
1.0
 70
    28
 71
     2
 72
     6
 73
     3
 74
     0
 42
0.0000000001
 43
0.0000000001
 40
0.0
 40
0.0
 40
0.0
 40
1119.462124255809
 40
1119.462124255809
 40
1119.462124255809
 10
149.7455771968667
 20
487.6180816866093
 30
0.0
 41
0.9568456803178188
 10
149.7430630547007
 20
-72.11298036370519
 30
0.0
 41
0.9568456803178188
 10
149.7405489125348
 20
-631.8440424140197
 30
0.0
 41
0.9568456803178188
  0
SPLINE
  5
B3
330
1F
100
AcDbEntity
  8
Make2D$Visibile$Curve
100
AcDbSpline
210
0.0
220
0.0
230
1.0
 70
    28
 71
     2
 72
     6
 73
     3
 74
     0
 42
0.0000000001
 43
0.0000000001
 40
280.5384493884529
 40
280.5384493884529
 40
280.5384493884529
 40
1399.99994271337
 40
1399.99994271337
 40
1399.99994271337
 10
85.22882282167811
 20
-631.8440424109057
 30
0.0
 41
0.969001826643034
 10
85.21979361574213
 20
-72.1132958260368
 30
0.0
 41
0.969001826643034
 10
85.21076440980615
 20
487.617450758832
 30
0.0
 41
0.969001826643034
  0
SPLINE
  5
B4
330
1F
100
AcDbEntity
  8
Make2D$Visibile$Curve
100
AcDbSpline
210
0.0
220
0.0
230
1.0
 70
    28
 71
     2
 72
     6
 73
     3
 74
     0
 42
0.0000000001
 43
0.0000000001
 40
0.0
 40
0.0
 40
0.0
 40
1119.461493374542
 40
1119.461493374542
 40
1119.461493374542
 10
184.0832509758134
 20
487.6174508084529
 30
0.0
 41
0.9690172748624128
 10
184.0742219386252
 20
-72.11329580122845
 30
0.0
 41
0.9690172748624128
 10
184.0651929014369
 20
-631.8440424109098
 30
0.0
 41
0.9690172748624128
  0
SPLINE
  5
B5
330
1F
100
AcDbEntity
  8
Make2D$Visibile$Curve
100
AcDbSpline
210
0.0
220
0.0
230
1.0
 70
    28
 71
     2
 72
     6
 73
     3
 74
     0
 42
0.0000000001
 43
0.0000000001
 40
4.500000000003057
 40
4.500000000003057
 40
4.500000000003057
 40
168.114136304951
 40
168.114136304951
 40
168.114136304951
 10
142.6495200675449
 20
657.770093888805
 30
0.0
 41
1.0
 10
142.6495200675449
 20
575.9630257363309
 30
0.0
 41
1.0
 10
142.6495200675449
 20
494.1559575838568
 30
0.0
 41
1.0
  0
SPLINE
  5
B6
330
1F
100
AcDbEntity
  8
Make2D$Visibile$Curve
100
AcDbSpline
210
0.0
220
0.0
230
1.0
 70
    28
 71
     2
 72
    10
 73
     7
 74
     0
 42
0.0000000001
 43
0.0000000001
 40
196.7482215779028
 40
196.7482215779028
 40
196.7482215779028
 40
237.2005701760012
 40
237.2005701760012
 40
355.8008552640018
 40
355.8008552640018
 40
433.9487917539039
 40
433.9487917539039
 40
433.9487917539039
 10
59.14623357209166
 20
691.77009388881
 30
0.0
 41
0.8683475024126035
 10
59.14623357209174
 20
691.7700938888097
 30
0.0
 41
0.9000995774953694
 10
69.26175589326806
 20
691.7700938888098
 30
0.0
 41
1.0
 10
107.0133991409951
 20
691.7700938888099
 30
0.0
 41
0.7071067811865476
 10
172.4011633152718
 20
691.7700938888098
 30
0.0
 41
1.0
 10
210.1528065629981
 20
691.7700938888098
 30
0.0
 41
0.8070072036911783
 10
210.152806562998
 20
691.7700938888098
 30
0.0
 41
0.8683475024126035
  0
SPLINE
  5
B7
330
1F
100
AcDbEntity
  8
Make2D$Visibile$Curve
100
AcDbSpline
210
0.0
220
0.0
230
1.0
 70
    28
 71
     2
 72
     6
 73
     3
 74
     0
 42
0.0000000001
 43
0.0000000001
 40
0.0
 40
0.0
 40
0.0
 40
34.00000000000466
 40
34.00000000000466
 40
34.00000000000466
 10
210.152806562998
 20
691.77009388881
 30
0.0
 41
0.8683475024126033
 10
210.152806562998
 20
674.7700938888077
 30
0.0
 41
0.8683475024126033
 10
210.152806562998
 20
657.7700938888051
 30
0.0
 41
0.8683475024126033
  0
SPLINE
  5
B8
330
1F
100
AcDbEntity
  8
Make2D$Visibile$Curve
100
AcDbSpline
210
0.0
220
0.0
230
1.0
 70
    28
 71
     2
 72
     6
 73
     3
 74
     0
 42
0.0000000001
 43
0.0000000001
 40
0.0
 40
0.0
 40
0.0
 40
34.00000000000477
 40
34.00000000000477
 40
34.00000000000477
 10
59.14623357209167
 20
657.7700938888051
 30
0.0
 41
0.8683475024126033
 10
59.14623357209167
 20
674.7700938888074
 30
0.0
 41
0.8683475024126033
 10
59.14623357209167
 20
691.7700938888098
 30
0.0
 41
0.8683475024126033
  0
SPLINE
  5
B9
330
1F
100
AcDbEntity
  8
Make2D$Visibile$Curve
100
AcDbSpline
210
0.0
220
0.0
230
1.0
 70
     8
 71
     3
 72
    10
 73
     6
 74
     0
 42
0.0000000001
 43
0.0000000001
 40
0.0000000000001072
 40
0.0000000000001072
 40
0.0000000000001072
 40
0.0000000000001072
 40
0.1645297289272183
 40
0.1645297289272183
 40
0.8011560929067163
 40
0.8011560929067163
 40
0.8011560929067163
 40
0.8011560929067163
 10
149.2454464974896
 20
494.155957583857
 30
0.0
 10
149.2491457675077
 20
494.1559575838568
 30
0.0
 10
149.5747268763853
 20
494.0337839861478
 30
0.0
 10
149.6929211464512
 20
493.9155897160819
 30
0.0
 10
149.7454464974896
 20
493.7883500330232
 30
0.0
 10
149.7454464974896
 20
493.655957583857
 30
0.0
  0
SPLINE
  5
BA
330
1F
100
AcDbEntity
  8
Make2D$Visibile$Curve
100
AcDbSpline
210
0.0
220
0.0
230
1.0
 70
    12
 71
     2
 72
     6
 73
     3
 74
     0
 42
0.0000000001
 43
0.0000000001
 40
2.356194490193158
 40
2.356194490193158
 40
2.356194490193158
 40
3.141592653589793
 40
3.141592653589793
 40
3.141592653589793
 10
120.0535931113225
 20
494.155957583857
 30
0.0
 41
1.0
 10
119.5492680859241
 20
494.1515564060362
 30
0.0
 41
0.7071067811871489
 10
119.5536692637443
 20
493.6472313806379
 30
0.0
 41
1.0
  0
SPLINE
  5
BB
330
1F
100
AcDbEntity
  8
Make2D$Visibile$Curve
100
AcDbSpline
210
0.0
220
0.0
230
1.0
 70
     8
 71
     3
 72
    10
 73
     6
 74
     0
 42
0.0000000001
 43
0.0000000001
 40
0.0
 40
0.0
 40
0.0
 40
0.0
 40
0.6215017191312108
 40
0.6215017191312108
 40
0.8075728913270278
 40
0.8075728913270278
 40
0.8075728913270278
 40
0.8075728913270278
 10
149.8019966150125
 20
-637.9393479968319
 30
0.0
 10
149.8019966150125
 20
-638.0717404459979
 30
0.0
 10
149.7494712639741
 20
-638.1989801290567
 30
0.0
 10
149.6274309544418
 20
-638.3210204385891
 30
0.0
 10
149.3128024393186
 20
-638.4393479968319
 30
0.0
 10
149.3019966150125
 20
-638.4393479968319
 30
0.0
  0
SPLINE
  5
BC
330
1F
100
AcDbEntity
  8
Make2D$Visibile$Curve
100
AcDbSpline
210
0.0
220
0.0
230
1.0
 70
    12
 71
     2
 72
     6
 73
     3
 74
     0
 42
0.0000000001
 43
0.0000000001
 40
0.0
 40
0.0
 40
0.0
 40
0.9999999999998828
 40
0.9999999999998828
 40
0.9999999999998828
 10
120.1101432288461
 20
-638.4393479968319
 30
0.0
 41
1.0
 10
119.6101432288461
 20
-638.4393479968317
 30
0.0
 41
0.7071067811865476
 10
119.6101432288461
 20
-637.9393479968319
 30
0.0
 41
1.0
  0
SPLINE
  5
BD
330
1F
100
AcDbEntity
  8
Make2D$Visibile$Curve
100
AcDbSpline
210
0.0
220
0.0
230
1.0
 70
    28
 71
     2
 72
     6
 73
     3
 74
     0
 42
0.0000000001
 43
0.0000000001
 40
0.0
 40
0.0
 40
0.0
 40
1129.999999999981
 40
1129.999999999981
 40
1129.999999999981
 10
-114.3428132190146
 20
492.8865401443426
 30
0.0
 41
0.5439830367541313
 10
-114.3428132190146
 20
-72.113459855648
 30
0.0
 41
0.5439830367541313
 10
-114.3428132190146
 20
-637.1134598556387
 30
0.0
 41
0.5439830367541313
  0
SPLINE
  5
BE
330
1F
100
AcDbEntity
  8
Make2D$Visibile$Curve
100
AcDbSpline
210
0.0
220
0.0
230
1.0
 70
    28
 71
     4
 72
    10
 73
     5
 74
     0
 42
0.0000000001
 43
0.0000000001
 40
457.446643673642
 40
457.446643673642
 40
457.446643673642
 40
457.446643673642
 40
457.446643673642
 40
471.4719962829988
 40
471.4719962829988
 40
471.4719962829988
 40
471.4719962829988
 40
471.4719962829988
 10
-170.6993785465639
 20
492.8865401443427
 30
0.0
 41
0.538939297087483
 10
-167.662800651724
 20
492.8865401443427
 30
0.0
 41
0.538939297087483
 10
-164.6262227568841
 20
492.8865401443427
 30
0.0
 41
0.538939297087483
 10
-161.5896555479467
 20
492.8865401443427
 30
0.0
 41
0.538939297087483
 10
-158.5531097108145
 20
492.8865401443427
 30
0.0
 41
0.538939297087483
  0
SPLINE
  5
BF
330
1F
100
AcDbEntity
  8
Make2D$Visibile$Curve
100
AcDbSpline
210
0.0
220
0.0
230
1.0
 70
    28
 71
     4
 72
    10
 73
     5
 74
     0
 42
0.0000000001
 43
0.0000000001
 40
457.446643673642
 40
457.446643673642
 40
457.446643673642
 40
457.446643673642
 40
457.446643673642
 40
471.4612601500835
 40
471.4612601500835
 40
471.4612601500835
 40
471.4612601500835
 40
471.4612601500835
 10
-170.6993785465636
 20
-637.113459855642
 30
0.0
 41
0.538939297087483
 10
-167.6651250926697
 20
-637.113459855642
 30
0.0
 41
0.538939297087483
 10
-164.6308716387757
 20
-637.113459855642
 30
0.0
 41
0.538939297087483
 10
-161.5966288462634
 20
-637.113459855642
 30
0.0
 41
0.538939297087483
 10
-158.5624073765148
 20
-637.113459855642
 30
0.0
 41
0.538939297087483
  0
SPLINE
  5
C0
330
1F
100
AcDbEntity
  8
Make2D$Visibile$Curve
100
AcDbSpline
210
0.0
220
0.0
230
1.0
 70
     8
 71
     3
 72
    10
 73
     6
 74
     0
 42
0.0000000001
 43
0.0000000001
 40
0.0
 40
0.0
 40
0.0
 40
0.0
 40
0.554863344371508
 40
0.554863344371508
 40
0.8153886400421005
 40
0.8153886400421005
 40
0.8153886400421005
 40
0.8153886400421005
 10
-158.5545375574201
 20
493.6989911920103
 30
0.0
 10
-158.5545375574201
 20
493.8313836411768
 30
0.0
 10
-158.5020122063818
 20
493.9586233242352
 30
0.0
 10
-158.363992047168
 20
494.0966434834492
 30
0.0
 10
-158.0948702938326
 20
494.1989911920101
 30
0.0
 10
-158.0545375574202
 20
494.1989911920103
 30
0.0
  0
SPLINE
  5
C1
330
1F
100
AcDbEntity
  8
Make2D$Visibile$Curve
100
AcDbSpline
210
0.0
220
0.0
230
1.0
 70
     8
 71
     3
 72
    10
 73
     6
 74
     0
 42
0.0000000001
 43
0.0000000001
 40
0.0
 40
0.0
 40
0.0
 40
0.0
 40
0.152247875943048
 40
0.152247875943048
 40
0.7914872086749059
 40
0.7914872086749059
 40
0.7914872086749059
 40
0.7914872086749059
 10
-128.8626841712537
 20
494.1989911920103
 30
0.0
 10
-128.8625025720611
 20
494.1989911920103
 30
0.0
 10
-128.5315000426259
 20
494.0749138445691
 30
0.0
 10
-128.4152095222921
 20
493.9586233242354
 30
0.0
 10
-128.3626841712537
 20
493.8313836411766
 30
0.0
 10
-128.3626841712537
 20
493.6989911920103
 30
0.0
  0
SPLINE
  5
C2
330
1F
100
AcDbEntity
  8
Make2D$Visibile$Curve
100
AcDbSpline
210
0.0
220
0.0
230
1.0
 70
    12
 71
     2
 72
     6
 73
     3
 74
     0
 42
0.0000000001
 43
0.0000000001
 40
0.6185785497946596
 40
0.6185785497946596
 40
0.6185785497946596
 40
0.7941248096578791
 40
0.7941248096578791
 40
0.7941248096578791
 10
-154.0185948138042
 20
494.1688124733704
 30
0.0
 41
0.9616218887763099
 10
-153.9591778468593
 20
494.1990869301605
 30
0.0
 41
0.9656040756360466
 10
-153.895939865282
 20
494.1989911920106
 30
0.0
 41
1.0
  0
SPLINE
  5
C3
330
1F
100
AcDbEntity
  8
Make2D$Visibile$Curve
100
AcDbSpline
210
0.0
220
0.0
230
1.0
 70
    28
 71
     2
 72
     6
 73
     3
 74
     0
 42
0.0000000001
 43
0.0000000001
 40
4.657305909039802
 40
4.657305909039802
 40
4.657305909039802
 40
5.225861499848932
 40
5.225861499848932
 40
5.225861499848932
 10
-147.6997537917392
 20
488.2292342353029
 30
0.0
 41
1.0
 10
-147.6997537917392
 20
487.9449564398983
 30
0.0
 41
1.0
 10
-147.6997537917392
 20
487.6606786444937
 30
0.0
 41
1.0
  0
SPLINE
  5
C4
330
1F
100
AcDbEntity
  8
Make2D$Visibile$Curve
100
AcDbSpline
210
0.0
220
0.0
230
1.0
 70
    28
 71
     2
 72
     6
 73
     3
 74
     0
 42
0.0000000001
 43
0.0000000001
 40
4.656981572090377
 40
4.656981572090377
 40
4.656981572090377
 40
5.209277813055582
 40
5.209277813055582
 40
5.209277813055582
 10
-154.3954217858899
 20
488.2295585722524
 30
0.0
 41
0.5388739784751696
 10
-154.3954217858899
 20
487.9534104517697
 30
0.0
 41
0.5388739784751696
 10
-154.3954217858899
 20
487.6772623312871
 30
0.0
 41
0.5388739784751696
  0
SPLINE
  5
C5
330
1F
100
AcDbEntity
  8
Make2D$Visibile$Curve
100
AcDbSpline
210
0.0
220
0.0
230
1.0
 70
    28
 71
     4
 72
    14
 73
     9
 74
     0
 42
0.0000000001
 43
0.0000000001
 40
222.2778834838402
 40
222.2778834838402
 40
222.2778834838402
 40
222.2778834838402
 40
222.2778834838402
 40
237.8737406657922
 40
237.8737406657922
 40
237.8737406657922
 40
237.8737406657922
 40
239.0719747677367
 40
239.0719747677367
 40
239.0719747677367
 40
239.0719747677367
 40
239.0719747677367
 10
-128.3484985686798
 20
492.8865401443427
 30
0.0
 41
0.538939297087483
 10
-124.9719015223434
 20
492.8865401443427
 30
0.0
 41
0.538939297087483
 10
-121.5953223188653
 20
492.8865401443427
 30
0.0
 41
0.538939297087483
 10
-118.2188082442559
 20
492.8865401443427
 30
0.0
 41
0.538939297087483
 10
-114.8424065845254
 20
492.8865401443427
 30
0.0
 41
0.538939297087483
 10
-114.6282526678388
 20
492.8865401443429
 30
0.0
 41
0.5079536805283431
 10
-114.4479633158398
 20
492.8865401443425
 30
0.0
 41
0.4950154550524551
 10
-114.3428132190148
 20
492.8865401443427
 30
0.0
 41
0.5050966275286254
 10
-114.3428132190146
 20
492.8865401443425
 30
0.0
 41
0.5439830367540465
  0
SPLINE
  5
C6
330
1F
100
AcDbEntity
  8
Make2D$Visibile$Curve
100
AcDbSpline
210
0.0
220
0.0
230
1.0
 70
     8
 71
     3
 72
    10
 73
     6
 74
     0
 42
0.0000000001
 43
0.0000000001
 40
0.0
 40
0.0
 40
0.0
 40
0.0
 40
0.637746832670855
 40
0.637746832670855
 40
0.7890133046985471
 40
0.7890133046985471
 40
0.7890133046985471
 40
0.7890133046985471
 10
-128.3868527003044
 20
-637.8963143886785
 30
0.0
 10
-128.3868527003044
 20
-638.0287068378448
 30
0.0
 10
-128.4393780513427
 20
-638.1559465209034
 30
0.0
 10
-128.5555763900099
 20
-638.2721448595707
 30
0.0
 10
-128.8868414306208
 20
-638.3963143886781
 30
0.0
 10
-128.8868527003044
 20
-638.3963143886785
 30
0.0
  0
SPLINE
  5
C7
330
1F
100
AcDbEntity
  8
Make2D$Visibile$Curve
100
AcDbSpline
210
0.0
220
0.0
230
1.0
 70
     8
 71
     3
 72
    10
 73
     6
 74
     0
 42
0.0000000001
 43
0.0000000001
 40
0.0000000000001072
 40
0.0000000000001072
 40
0.0000000000001072
 40
0.0000000000001072
 40
0.228669788897484
 40
0.228669788897484
 40
0.8133477281968332
 40
0.8133477281968332
 40
0.8133477281968332
 40
0.8133477281968332
 10
-158.0787060864709
 20
-638.3963143886785
 30
0.0
 10
-158.1054283482905
 20
-638.3963143886785
 30
0.0
 10
-158.3955265119897
 20
-638.2866007443463
 30
0.0
 10
-158.5261807354327
 20
-638.1559465209032
 30
0.0
 10
-158.5787060864709
 20
-638.0287068378448
 30
0.0
 10
-158.5787060864709
 20
-637.8963143886783
 30
0.0
  0
SPLINE
  5
C8
330
1F
100
AcDbEntity
  8
Make2D$Visibile$Curve
100
AcDbSpline
210
0.0
220
0.0
230
1.0
 70
    28
 71
     2
 72
     8
 73
     5
 74
     0
 42
0.0000000001
 43
0.0000000001
 40
26.58280388343797
 40
26.58280388343797
 40
26.58280388343797
 40
49.51003191910249
 40
49.51003191910249
 40
72.437259954767
 40
72.437259954767
 40
72.437259954767
 10
-128.8868527003032
 20
-638.3963143886785
 30
0.0
 41
1.0
 10
-128.8868527003029
 20
-638.3963143886784
 30
0.0
 41
0.7071067811865328
 10
-143.4827793933875
 20
-638.3963143886785
 30
0.0
 41
1.0
 10
-158.0787060864721
 20
-638.3963143886784
 30
0.0
 41
0.7071067811865328
 10
-158.0787060864711
 20
-638.3963143886785
 30
0.0
 41
1.0
  0
SPLINE
  5
C9
330
1F
100
AcDbEntity
  8
Make2D$Visibile$Curve
100
AcDbSpline
210
0.0
220
0.0
230
1.0
 70
    12
 71
     2
 72
     8
 73
     5
 74
     0
 42
0.0000000001
 43
0.0000000001
 40
1.259567716740008
 40
1.259567716740008
 40
1.259567716740008
 40
22.91038296302826
 40
22.91038296302826
 40
44.56119820931651
 40
44.56119820931651
 40
44.56119820931651
 10
-188.3972542655476
 20
487.6611152947609
 30
0.0
 41
1.0
 10
-191.948179895573
 20
487.6614759378642
 30
0.0
 41
0.7537072402941508
 10
-204.9887464578627
 20
487.6610539055822
 30
0.0
 41
1.0
 10
-218.0293130201524
 20
487.6606318733004
 30
0.0
 41
0.7537072402941508
 10
-218.0293130125276
 20
487.6601563114749
 30
0.0
 41
1.0
  0
SPLINE
  5
CA
330
1F
100
AcDbEntity
  8
Make2D$Visibile$Curve
100
AcDbSpline
210
0.0
220
0.0
230
1.0
 70
    24
 71
     3
 72
    14
 73
    10
 74
     0
 42
0.0000000001
 43
0.0000000001
 40
22.23258936582751
 40
22.23258936582751
 40
22.23258936582751
 40
22.23258936582751
 40
39.85975638975093
 40
39.85975638975093
 40
39.85975638975093
 40
57.48692341191948
 40
57.48692341191948
 40
57.48692341191948
 40
67.8099169488654
 40
67.8099169488654
 40
67.8099169488654
 40
67.8099169488654
 10
-188.3793056669335
 20
-631.8010088079907
 30
0.0
 10
-189.9256850937406
 20
-631.8010088079907
 30
0.0
 10
-194.4650294709866
 20
-631.8010088079907
 30
0.0
 10
-200.0965632345186
 20
-631.8010088079907
 30
0.0
 10
-205.7280969975103
 20
-631.8010088079907
 30
0.0
 10
-211.4800171919999
 20
-631.8010088079907
 30
0.0
 10
-214.9438021398919
 20
-631.8010088079907
 30
0.0
 10
-216.9722976766966
 20
-631.8010088079907
 30
0.0
 10
-218.0110517130742
 20
-631.8010088079907
 30
0.0
 10
-218.0114596571144
 20
-631.8010088079907
 30
0.0
  0
SPLINE
  5
CB
330
1F
100
AcDbEntity
  8
Make2D$Visibile$Curve
100
AcDbSpline
210
0.0
220
0.0
230
1.0
 70
    28
 71
     2
 72
     6
 73
     3
 74
     0
 42
0.0000000001
 43
0.0000000001
 40
280.5387774402517
 40
280.5387774402517
 40
280.5387774402517
 40
1399.99994271337
 40
1399.99994271337
 40
1399.99994271337
 10
-218.0113644292892
 20
-631.801008806464
 30
0.0
 41
0.9270179637700797
 10
-218.0203387209084
 20
-72.07042624749451
 30
0.0
 41
0.9270179637700797
 10
-218.0293130125276
 20
487.660156311475
 30
0.0
 41
0.9270179637700797
  0
SPLINE
  5
CC
330
1F
100
AcDbEntity
  8
Make2D$Visibile$Curve
100
AcDbSpline
210
0.0
220
0.0
230
1.0
 70
    28
 71
     2
 72
     6
 73
     3
 74
     0
 42
0.0000000001
 43
0.0000000001
 40
0.0
 40
0.0
 40
0.0
 40
78.14793648990214
 40
78.14793648990214
 40
78.14793648990214
 10
-125.5319676166091
 20
657.8131274969584
 30
0.0
 41
1.0
 10
-87.78032436888283
 20
657.8131274969583
 30
0.0
 41
0.8070072036911783
 10
-87.78032436888289
 20
657.8131274969584
 30
0.0
 41
0.8683475024126035
  0
SPLINE
  5
CD
330
1F
100
AcDbEntity
  8
Make2D$Visibile$Curve
100
AcDbSpline
210
0.0
220
0.0
230
1.0
 70
    28
 71
     2
 72
     6
 73
     3
 74
     0
 42
0.0000000001
 43
0.0000000001
 40
0.0
 40
0.0
 40
0.0
 40
78.14793648990214
 40
78.14793648990214
 40
78.14793648990214
 10
-125.5319676166091
 20
691.8131274969631
 30
0.0
 41
1.0
 10
-87.78032436888283
 20
691.8131274969633
 30
0.0
 41
0.8070072036911783
 10
-87.78032436888289
 20
691.8131274969633
 30
0.0
 41
0.8683475024126035
  0
SPLINE
  5
CE
330
1F
100
AcDbEntity
  8
Make2D$Visibile$Curve
100
AcDbSpline
210
0.0
220
0.0
230
1.0
 70
    28
 71
     2
 72
     6
 73
     3
 74
     0
 42
0.0000000001
 43
0.0000000001
 40
0.0
 40
0.0
 40
0.0
 40
34.00000000000466
 40
34.00000000000466
 40
34.00000000000466
 10
-238.7868973597893
 20
657.8131274969584
 30
0.0
 41
0.8683475024126035
 10
-238.7868973597893
 20
674.8131274969609
 30
0.0
 41
0.8683475024126035
 10
-238.7868973597893
 20
691.8131274969633
 30
0.0
 41
0.8683475024126035
  0
SPLINE
  5
CF
330
1F
100
AcDbEntity
  8
Make2D$Visibile$Curve
100
AcDbSpline
210
0.0
220
0.0
230
1.0
 70
    28
 71
     2
 72
     6
 73
     3
 74
     0
 42
0.0000000001
 43
0.0000000001
 40
0.0
 40
0.0
 40
0.0
 40
34.00000000000466
 40
34.00000000000466
 40
34.00000000000466
 10
-87.78032436888289
 20
691.813127496963
 30
0.0
 41
0.8683475024126035
 10
-87.78032436888289
 20
674.8131274969609
 30
0.0
 41
0.8683475024126035
 10
-87.78032436888289
 20
657.8131274969586
 30
0.0
 41
0.8683475024126035
  0
SPLINE
  5
D0
330
1F
100
AcDbEntity
  8
Make2D$Visibile$Curve
100
AcDbSpline
210
0.0
220
0.0
230
1.0
 70
    28
 71
     2
 72
     8
 73
     5
 74
     0
 42
0.0000000001
 43
0.0000000001
 40
315.3485066659034
 40
315.3485066659034
 40
315.3485066659034
 40
355.8008552640018
 40
355.8008552640018
 40
474.4011403520024
 40
474.4011403520024
 40
474.4011403520024
 10
-238.7868973597893
 20
691.8131274969633
 30
0.0
 41
0.8683475024126035
 10
-238.7868973597893
 20
691.8131274969631
 30
0.0
 41
0.9000995774953693
 10
-228.6713750386128
 20
691.8131274969631
 30
0.0
 41
1.0
 10
-190.9197317908858
 20
691.8131274969633
 30
0.0
 41
0.7071067811865476
 10
-125.5319676166091
 20
691.8131274969631
 30
0.0
 41
1.0
  0
SPLINE
  5
D1
330
1F
100
AcDbEntity
  8
Make2D$Visibile$Curve
100
AcDbSpline
210
0.0
220
0.0
230
1.0
 70
    28
 71
     2
 72
     6
 73
     3
 74
     0
 42
0.0000000001
 43
0.0000000001
 40
4.500000000003056
 40
4.500000000003056
 40
4.500000000003056
 40
168.1141363049511
 40
168.1141363049511
 40
168.1141363049511
 10
-155.283610864336
 20
657.8131274969584
 30
0.0
 41
1.0
 10
-155.283610864336
 20
576.0060593444842
 30
0.0
 41
1.0
 10
-155.283610864336
 20
494.1989911920101
 30
0.0
 41
1.0
  0
SPLINE
  5
D2
330
1F
100
AcDbEntity
  8
Make2D$Visibile$Curve
100
AcDbSpline
210
0.0
220
0.0
230
1.0
 70
    28
 71
     2
 72
     6
 73
     3
 74
     0
 42
0.0000000001
 43
0.0000000001
 40
0.0
 40
0.0
 40
0.0
 40
1119.460899752854
 40
1119.460899752854
 40
1119.460899752854
 10
-128.3630071965116
 20
487.6598907897293
 30
0.0
 41
0.9252018640403115
 10
-128.3653170326045
 20
-72.07055900910765
 30
0.0
 41
0.9252018640403115
 10
-128.3676268686975
 20
-631.8010088079446
 30
0.0
 41
0.9252018640403115
  0
SPLINE
  5
D3
330
1F
100
AcDbEntity
  8
Make2D$Visibile$Curve
100
AcDbSpline
210
0.0
220
0.0
230
1.0
 70
    28
 71
     4
 72
    14
 73
     9
 74
     0
 42
0.0000000001
 43
0.0000000001
 40
222.2342302510557
 40
222.2342302510557
 40
222.2342302510557
 40
222.2342302510557
 40
222.2342302510557
 40
237.8737406657922
 40
237.8737406657922
 40
237.8737406657922
 40
237.8737406657922
 40
239.0719747677376
 40
239.0719747677376
 40
239.0719747677376
 40
239.0719747677376
 40
239.0719747677376
 10
-128.386303321164
 20
-637.1134598556418
 30
0.0
 41
0.538939297087483
 10
-125.0002549377823
 20
-637.1134598556418
 30
0.0
 41
0.538939297087483
 10
-121.6142242310903
 20
-637.1134598556418
 30
0.0
 41
0.538939297087483
 10
-118.2282588852754
 20
-637.1134598556418
 30
0.0
 41
0.538939297087483
 10
-114.8424065845249
 20
-637.113459855642
 30
0.0
 41
0.538939297087483
 10
-114.6282526678381
 20
-637.1134598556421
 30
0.0
 41
0.5079536805283189
 10
-114.4479633158389
 20
-637.1134598556421
 30
0.0
 41
0.4950154550524349
 10
-114.342813219014
 20
-637.1134598556421
 30
0.0
 41
0.505096627528649
 10
-114.3428132190142
 20
-637.113459855642
 30
0.0
 41
0.5439830367541683
  0
SPLINE
  5
D4
330
1F
100
AcDbEntity
  8
Make2D$Visibile$Curve
100
AcDbSpline
210
0.0
220
0.0
230
1.0
 70
    28
 71
     2
 72
     6
 73
     3
 74
     0
 42
0.0000000001
 43
0.0000000001
 40
1124.68754895233
 40
1124.68754895233
 40
1124.68754895233
 40
1125.3130964491
 40
1125.3130964491
 40
1125.3130964491
 10
-147.6997537917388
 20
-631.8010088079905
 30
0.0
 41
1.0
 10
-147.6997537917388
 20
-632.1137825563753
 30
0.0
 41
1.0
 10
-147.6997537917388
 20
-632.4265563047602
 30
0.0
 41
1.0
  0
SPLINE
  5
D5
330
1F
100
AcDbEntity
  8
Make2D$Visibile$Curve
100
AcDbSpline
210
0.0
220
0.0
230
1.0
 70
    28
 71
     2
 72
     6
 73
     3
 74
     0
 42
0.0000000001
 43
0.0000000001
 40
1124.687548952334
 40
1124.687548952334
 40
1124.687548952334
 40
1125.313420682472
 40
1125.313420682472
 40
1125.313420682472
 10
-154.3954217858899
 20
-631.8010088079908
 30
0.0
 41
0.5388739784751697
 10
-154.3954217858899
 20
-632.1139446730601
 30
0.0
 41
0.5388739784751697
 10
-154.3954217858899
 20
-632.4268805381295
 30
0.0
 41
0.5388739784751696
  0
SPLINE
  5
D6
330
1F
100
AcDbEntity
  8
Make2D$Visibile$Curve
100
AcDbSpline
210
0.0
220
0.0
230
1.0
 70
    12
 71
     2
 72
     6
 73
     3
 74
     0
 42
0.0000000001
 43
0.0000000001
 40
0.949087941233361
 40
0.949087941233361
 40
0.949087941233361
 40
1.259567716740008
 40
1.259567716740008
 40
1.259567716740008
 10
-188.2495956203063
 20
487.6607315726562
 30
0.0
 41
0.9057206955051597
 10
-188.355123609207
 20
487.6609435867678
 30
0.0
 41
0.925675098090849
 10
-188.3972542655475
 20
487.6611152947609
 30
0.0
 41
1.0
  0
SPLINE
  5
D7
330
1F
100
AcDbEntity
  8
Make2D$Visibile$Curve
100
AcDbSpline
210
0.0
220
0.0
230
1.0
 70
    24
 71
     3
 72
     8
 73
     4
 74
     0
 42
0.0000000001
 43
0.0000000001
 40
136.9379028603248
 40
136.9379028603248
 40
136.9379028603248
 40
136.9379028603248
 40
137.2277002316458
 40
137.2277002316458
 40
137.2277002316458
 40
137.2277002316458
 10
-188.2540100067903
 20
-631.8010088079907
 30
0.0
 10
-188.3108009958161
 20
-631.8010088079907
 30
0.0
 10
-188.3541013311882
 20
-631.8010088079907
 30
0.0
 10
-188.3793056669335
 20
-631.8010088079907
 30
0.0
  0
SPLINE
  5
D8
330
1F
100
AcDbEntity
  8
Make2D$Visibile$Curve
100
AcDbSpline
210
0.0
220
0.0
230
1.0
 70
    28
 71
     2
 72
     6
 73
     3
 74
     0
 42
0.0000000001
 43
0.0000000001
 40
13.0734126473651
 40
13.0734126473651
 40
13.0734126473651
 40
178.0066797938885
 40
178.0066797938885
 40
178.0066797938885
 10
-171.283610864336
 20
492.8865401443428
 30
0.0
 41
1.0
 10
-171.283610864336
 20
575.3531737176045
 30
0.0
 41
1.0
 10
-171.283610864336
 20
657.8198072908662
 30
0.0
 41
1.0
  0
SPLINE
  5
D9
330
1F
100
AcDbEntity
  8
Make2D$Visibile$Curve
100
AcDbSpline
210
0.0
220
0.0
230
1.0
 70
    28
 71
     2
 72
     6
 73
     3
 74
     0
 42
0.0000000001
 43
0.0000000001
 40
280.5376847241097
 40
280.5376847241097
 40
280.5376847241097
 40
1399.99994271337
 40
1399.99994271337
 40
1399.99994271337
 10
-158.5593374751647
 20
-631.8010088095922
 30
0.0
 41
0.9361701108747139
 10
-158.5570276362691
 20
-72.06987989255167
 30
0.0
 41
0.9361701108747139
 10
-158.5547177973736
 20
487.6612490244888
 30
0.0
 41
0.9361701108747139
  0
SPLINE
  5
DA
330
1F
100
AcDbEntity
  8
Make2D$Visibile$Curve
100
AcDbSpline
210
0.0
220
0.0
230
1.0
 70
    28
 71
     2
 72
     6
 73
     3
 74
     0
 42
0.0000000001
 43
0.0000000001
 40
0.0
 40
0.0
 40
0.0
 40
1.497582456986788
 40
1.497582456986788
 40
1.497582456986788
 10
-188.8788031023782
 20
494.1989911920103
 30
0.0
 41
1.0
 10
-188.6427082732456
 20
494.1989911920102
 30
0.0
 41
0.7967945443744897
 10
-187.7675150699932
 20
494.1989911920103
 30
0.0
 41
1.0
  0
SPLINE
  5
DB
330
1F
100
AcDbEntity
  8
Make2D$Visibile$Curve
100
AcDbSpline
210
0.0
220
0.0
230
1.0
 70
     8
 71
     3
 72
    10
 73
     6
 74
     0
 42
0.0000000001
 43
0.0000000001
 40
0.0
 40
0.0
 40
0.0
 40
0.0
 40
0.6373131602359088
 40
0.6373131602359088
 40
0.8005700835102644
 40
0.8005700835102644
 40
0.8005700835102644
 40
0.8005700835102644
 10
-218.0295376365133
 20
493.6989911920103
 30
0.0
 10
-218.0295376365133
 20
493.8313836411768
 30
0.0
 10
-217.9770122854751
 20
493.9586233242352
 30
0.0
 10
-217.8590317472612
 20
494.0766038624491
 30
0.0
 10
-217.532841981564
 20
494.1989911920101
 30
0.0
 10
-217.5295376365134
 20
494.1989911920103
 30
0.0
  0
SPLINE
  5
DC
330
1F
100
AcDbEntity
  8
Make2D$Visibile$Curve
100
AcDbSpline
210
0.0
220
0.0
230
1.0
 70
    12
 71
     3
 72
    11
 73
     7
 74
     0
 42
0.0000000001
 43
0.0000000001
 40
0.0
 40
0.0
 40
0.0
 40
0.0
 40
0.3826834323650913
 40
0.3826834323650913
 40
0.3826834323650913
 40
0.7855554188288
 40
0.7855554188288
 40
0.7855554188288
 40
0.7855554188288
 10
-180.5876842503477
 20
494.1989911920103
 30
0.0
 41
1.0
 10
-180.4992959026994
 20
494.1623795396587
 30
0.0
 41
1.0
 10
-180.3225192074027
 20
494.0891562349553
 30
0.0
 41
1.0
 10
-180.2341308597544
 20
494.0525445826037
 30
0.0
 41
1.0
 10
-180.1364997868166
 20
493.954913509666
 30
0.0
 41
1.0
 10
-180.0876842503476
 20
493.8295931294921
 30
0.0
 41
1.057190958417937
 10
-180.0876842503476
 20
493.6989911920101
 30
0.0
 41
1.17157287525381
  0
SPLINE
  5
DD
330
1F
100
AcDbEntity
  8
Make2D$Visibile$Curve
100
AcDbSpline
210
0.0
220
0.0
230
1.0
 70
    28
 71
     2
 72
     6
 73
     3
 74
     0
 42
0.0000000001
 43
0.0000000001
 40
0.0
 40
0.0
 40
0.0
 40
5.461684884238173
 40
5.461684884238173
 40
5.461684884238173
 10
-218.0293130125274
 20
488.2287119022836
 30
0.0
 41
0.9270179637879669
 10
-218.0293878320384
 20
490.9595543415956
 30
0.0
 41
0.9270179637879669
 10
-218.0294626515493
 20
493.6903967809076
 30
0.0
 41
0.9270179637879669
  0
SPLINE
  5
DE
330
1F
100
AcDbEntity
  8
Make2D$Visibile$Curve
100
AcDbSpline
210
0.0
220
0.0
230
1.0
 70
    28
 71
     2
 72
     6
 73
     3
 74
     0
 42
0.0000000001
 43
0.0000000001
 40
0.0
 40
0.0
 40
0.0
 40
0.7917158635858674
 40
0.7917158635858674
 40
0.7917158635858674
 10
-180.087757145621
 20
493.6906333089145
 30
0.0
 41
0.9513858919519305
 10
-180.0877462999214
 20
493.2947753775286
 30
0.0
 41
0.9513858919519305
 10
-180.0877354542218
 20
492.8989174461427
 30
0.0
 41
0.9513858919519305
  0
SPLINE
  5
DF
330
1F
100
AcDbEntity
  8
Make2D$Visibile$Curve
100
AcDbSpline
210
0.0
220
0.0
230
1.0
 70
    28
 71
     2
 72
     8
 73
     5
 74
     0
 42
0.0000000001
 43
0.0000000001
 40
0.0
 40
0.0
 40
0.0
 40
4.502757648194323
 40
4.502757648194323
 40
9.005515296388646
 40
9.005515296388646
 40
9.005515296388646
 10
-187.0896005161591
 20
494.1989911920103
 30
0.0
 41
1.0
 10
-185.0588230382428
 20
494.1989911920102
 30
0.0
 41
0.8527006868139165
 10
-182.8232536442952
 20
494.1989911920103
 30
0.0
 41
1.0
 10
-180.5876842503476
 20
494.1989911920102
 30
0.0
 41
0.8527006868139165
 10
-180.5876842503477
 20
494.1989911920103
 30
0.0
 41
1.0
  0
SPLINE
  5
E0
330
1F
100
AcDbEntity
  8
Make2D$Visibile$Curve
100
AcDbSpline
210
0.0
220
0.0
230
1.0
 70
    12
 71
     2
 72
     8
 73
     5
 74
     0
 42
0.0000000001
 43
0.0000000001
 40
-108.0721688058548
 40
-108.0721688058548
 40
-108.0721688058548
 40
-86.42135355646744
 40
-86.42135355646744
 40
-64.7705383070801
 40
-64.7705383070801
 40
-64.7705383070801
 10
-188.3972542655476
 20
488.2296708855698
 30
0.0
 41
1.0
 10
-191.9481798963089
 20
488.2300315286732
 30
0.0
 41
0.7537072402266902
 10
-204.9887464609329
 20
488.2296094963912
 30
0.0
 41
1.0
 10
-218.0293130255571
 20
488.2291874641092
 30
0.0
 41
0.7537072402266902
 10
-218.0293130125276
 20
488.2287119022839
 30
0.0
 41
1.0
  0
SPLINE
  5
E1
330
1F
100
AcDbEntity
  8
Make2D$Visibile$Curve
100
AcDbSpline
210
0.0
220
0.0
230
1.0
 70
    28
 71
     2
 72
     8
 73
     5
 74
     0
 42
0.0000000001
 43
0.0000000001
 40
41.86762265393715
 40
41.86762265393715
 40
41.86762265393715
 40
62.80143390084937
 40
62.80143390084937
 40
83.73524514776159
 40
83.73524514776159
 40
83.73524514776159
 10
-217.5295376365149
 20
494.1989911920103
 30
0.0
 41
1.0
 10
-217.5295376365148
 20
494.1989911920103
 30
0.0
 41
0.7537072795924797
 10
-204.9208365341094
 20
494.1989911920103
 30
0.0
 41
1.0
 10
-192.312135431704
 20
494.1989911920103
 30
0.0
 41
0.7537072795924797
 10
-188.8788031023782
 20
494.1989911920103
 30
0.0
 41
1.0
  0
SPLINE
  5
E2
330
1F
100
AcDbEntity
  8
Make2D$Visibile$Curve
100
AcDbSpline
210
0.0
220
0.0
230
1.0
 70
    12
 71
     2
 72
     6
 73
     3
 74
     0
 42
0.0000000001
 43
0.0000000001
 40
-108.379337201009
 40
-108.379337201009
 40
-108.379337201009
 40
-108.0721688058548
 40
-108.0721688058548
 40
-108.0721688058548
 10
-188.2518891167143
 20
488.2292917822111
 30
0.0
 41
0.9061525221532032
 10
-188.3556086113383
 20
488.2295011542549
 30
0.0
 41
0.9264678003513331
 10
-188.3972542655476
 20
488.2296708855698
 30
0.0
 41
1.0
  0
SPLINE
  5
E3
330
1F
100
AcDbEntity
  8
Make2D$Visibile$Curve
100
AcDbSpline
210
0.0
220
0.0
230
1.0
 70
    28
 71
     2
 72
     6
 73
     3
 74
     0
 42
0.0000000001
 43
0.0000000001
 40
1.497582456986788
 40
1.497582456986788
 40
1.497582456986788
 40
2.222173326587355
 40
2.222173326587355
 40
2.222173326587355
 10
-187.817125689397
 20
-638.3963143886785
 30
0.0
 41
1.0
 10
-187.4424401351533
 20
-638.3963143886784
 30
0.0
 41
0.9511280869760966
 10
-187.1392111355628
 20
-638.3963143886785
 30
0.0
 41
1.0
  0
SPLINE
  5
E4
330
1F
100
AcDbEntity
  8
Make2D$Visibile$Curve
100
AcDbSpline
210
0.0
220
0.0
230
1.0
 70
     8
 71
     3
 72
    10
 73
     6
 74
     0
 42
0.0000000001
 43
0.0000000001
 40
0.0
 40
0.0
 40
0.0
 40
0.0
 40
0.1511998314715168
 40
0.1511998314715168
 40
0.7887555914221087
 40
0.7887555914221087
 40
0.7887555914221087
 40
0.7887555914221087
 10
-217.5791482559171
 20
-638.3963143886785
 30
0.0
 10
-217.5791537221941
 20
-638.3963143886785
 30
0.0
 10
-217.9104277069918
 20
-638.2721417187904
 30
0.0
 10
-218.0266229048789
 20
-638.1559465209032
 30
0.0
 10
-218.0791482559171
 20
-638.0287068378448
 30
0.0
 10
-218.0791482559171
 20
-637.8963143886785
 30
0.0
  0
SPLINE
  5
E5
330
1F
100
AcDbEntity
  8
Make2D$Visibile$Curve
100
AcDbSpline
210
0.0
220
0.0
230
1.0
 70
    12
 71
     3
 72
    11
 73
     7
 74
     0
 42
0.0000000001
 43
0.0000000001
 40
0.0
 40
0.0
 40
0.0
 40
0.0
 40
0.4028719864636887
 40
0.4028719864636887
 40
0.4028719864636887
 40
0.7958632578498932
 40
0.7958632578498932
 40
0.7958632578498932
 40
0.7958632578498932
 10
-180.1372948697515
 20
-637.8963143886783
 30
0.0
 41
0.9999999977281064
 10
-180.1372948697515
 20
-638.0269163261603
 30
0.0
 41
0.9023689250120963
 10
-180.1861104062204
 20
-638.152236706334
 30
0.0
 41
0.8535533886540912
 10
-180.2837414791582
 20
-638.249867779272
 30
0.0
 41
0.8535533886540911
 10
-180.3066057746618
 20
-638.2727320747754
 30
0.0
 41
0.8535533886540911
 10
-180.6361985678513
 20
-638.3963143886785
 30
0.0
 41
0.8535533886540911
 10
-180.6372948697514
 20
-638.3963143886785
 30
0.0
 41
0.8535533886540911
  0
SPLINE
  5
E6
330
1F
100
AcDbEntity
  8
Make2D$Visibile$Curve
100
AcDbSpline
210
0.0
220
0.0
230
1.0
 70
    28
 71
     2
 72
     6
 73
     3
 74
     0
 42
0.0000000001
 43
0.0000000001
 40
0.0
 40
0.0
 40
0.0
 40
5.46168488423806
 40
5.46168488423806
 40
5.46168488423806
 10
-218.0790732709532
 20
-637.8877199775761
 30
0.0
 41
0.9270179637879669
 10
-218.0789984514424
 20
-635.1568775382643
 30
0.0
 41
0.9270179637879669
 10
-218.0789236319315
 20
-632.4260350989525
 30
0.0
 41
0.9270179637879669
  0
SPLINE
  5
E7
330
1F
100
AcDbEntity
  8
Make2D$Visibile$Curve
100
AcDbSpline
210
0.0
220
0.0
230
1.0
 70
    28
 71
     2
 72
     6
 73
     3
 74
     0
 42
0.0000000001
 43
0.0000000001
 40
0.0
 40
0.0
 40
0.0
 40
1.497582456986788
 40
1.497582456986788
 40
1.497582456986788
 10
-188.928413721782
 20
-638.3963143886785
 30
0.0
 41
1.0
 10
-188.6923188926494
 20
-638.3963143886784
 30
0.0
 41
0.7967945443744897
 10
-187.817125689397
 20
-638.3963143886783
 30
0.0
 41
1.0
  0
SPLINE
  5
E8
330
1F
100
AcDbEntity
  8
Make2D$Visibile$Curve
100
AcDbSpline
210
0.0
220
0.0
230
1.0
 70
    28
 71
     2
 72
     8
 73
     5
 74
     0
 42
0.0000000001
 43
0.0000000001
 40
0.0
 40
0.0
 40
0.0
 40
4.502757648194468
 40
4.502757648194468
 40
9.005515296388937
 40
9.005515296388937
 40
9.005515296388937
 10
-187.139211135563
 20
-638.3963143886785
 30
0.0
 41
1.0
 10
-185.1084336576467
 20
-638.3963143886784
 30
0.0
 41
0.8527006868139072
 10
-182.8728642636989
 20
-638.3963143886785
 30
0.0
 41
1.0
 10
-180.6372948697513
 20
-638.3963143886784
 30
0.0
 41
0.8527006868139072
 10
-180.6372948697516
 20
-638.3963143886785
 30
0.0
 41
1.0
  0
SPLINE
  5
E9
330
1F
100
AcDbEntity
  8
Make2D$Visibile$Curve
100
AcDbSpline
210
0.0
220
0.0
230
1.0
 70
    12
 71
     2
 72
     8
 73
     5
 74
     0
 42
0.0000000001
 43
0.0000000001
 40
-108.0721688058548
 40
-108.0721688058548
 40
-108.0721688058548
 40
-86.42135355646744
 40
-86.42135355646744
 40
-64.7705383070801
 40
-64.7705383070801
 40
-64.7705383070801
 10
-188.4468648849514
 20
-632.426994082238
 30
0.0
 41
1.0
 10
-191.9977905157126
 20
-632.4273547253413
 30
0.0
 41
0.7537072402266902
 10
-205.0383570803367
 20
-632.4269326930591
 30
0.0
 41
1.0
 10
-218.0789236449608
 20
-632.426510660777
 30
0.0
 41
0.7537072402266902
 10
-218.0789236319314
 20
-632.4260350989521
 30
0.0
 41
1.0
  0
SPLINE
  5
EA
330
1F
100
AcDbEntity
  8
Make2D$Visibile$Curve
100
AcDbSpline
210
0.0
220
0.0
230
1.0
 70
    28
 71
     2
 72
     8
 73
     5
 74
     0
 42
0.0000000001
 43
0.0000000001
 40
41.86762265393759
 40
41.86762265393759
 40
41.86762265393759
 40
62.80143390084959
 40
62.80143390084959
 40
83.73524514776159
 40
83.73524514776159
 40
83.73524514776159
 10
-217.5791482559187
 20
-638.3963143886785
 30
0.0
 41
1.0
 10
-217.5791482559181
 20
-638.3963143886783
 30
0.0
 41
0.7537072795924847
 10
-204.970447153513
 20
-638.3963143886785
 30
0.0
 41
1.0
 10
-192.3617460511077
 20
-638.3963143886783
 30
0.0
 41
0.7537072795924847
 10
-188.928413721782
 20
-638.3963143886785
 30
0.0
 41
1.0
  0
SPLINE
  5
EB
330
1F
100
AcDbEntity
  8
Make2D$Visibile$Curve
100
AcDbSpline
210
0.0
220
0.0
230
1.0
 70
    28
 71
     2
 72
     6
 73
     3
 74
     0
 42
0.0000000001
 43
0.0000000001
 40
4.687188233501319
 40
4.687188233501319
 40
4.687188233501319
 40
5.46168488423806
 40
5.46168488423806
 40
5.46168488423806
 10
-180.1373465453969
 20
-637.1134598556423
 30
0.0
 41
0.9513858919519305
 10
-180.1373571552108
 20
-637.5007081806126
 30
0.0
 41
0.9513858919519305
 10
-180.1373677650247
 20
-637.8879565055829
 30
0.0
 41
0.9513858919519305
  0
SPLINE
  5
EC
330
1F
100
AcDbEntity
  8
Make2D$Visibile$Curve
100
AcDbSpline
210
0.0
220
0.0
230
1.0
 70
    12
 71
     2
 72
     6
 73
     3
 74
     0
 42
0.0000000001
 43
0.0000000001
 40
-108.4442979297695
 40
-108.4442979297695
 40
-108.4442979297695
 40
-108.0721688058548
 40
-108.0721688058548
 40
-108.0721688058548
 10
-188.2540100067906
 20
-632.4265233716237
 30
0.0
 41
0.8999399898933709
 10
-188.3955505943698
 20
-632.4267849453619
 30
0.0
 41
0.9109170296604172
 10
-188.4468648849514
 20
-632.4269940822378
 30
0.0
 41
1.0
  0
SPLINE
  5
ED
330
1F
100
AcDbEntity
  8
Make2D$Visibile$Curve
100
AcDbSpline
210
0.0
220
0.0
230
1.0
 70
    28
 71
     4
 72
    14
 73
     9
 74
     0
 42
0.0000000001
 43
0.0000000001
 40
436.8139568625474
 40
436.8139568625474
 40
436.8139568625474
 40
436.8139568625474
 40
436.8139568625474
 40
437.861154426298
 40
437.861154426298
 40
437.861154426298
 40
437.861154426298
 40
438.9083519900485
 40
438.9083519900485
 40
438.9083519900485
 40
438.9083519900485
 40
438.9083519900485
 10
-188.2540100067905
 20
492.8865401443426
 30
0.0
 41
1.0
 10
-188.2540100067904
 20
492.8865401443426
 30
0.0
 41
0.7994154148863511
 10
-188.1625036536445
 20
492.8865401443427
 30
0.0
 41
0.668555462618005
 10
-187.9860608080824
 20
492.8865401443427
 30
0.0
 41
0.5868707224667049
 10
-187.7540099959184
 20
492.8865401443427
 30
0.0
 41
0.538939297087483
 10
-187.5219591837545
 20
492.8865401443427
 30
0.0
 41
0.5868707224667049
 10
-187.2540099870363
 20
492.8865401443429
 30
0.0
 41
0.6685554626180052
 10
-186.9860607921647
 20
492.8865401443426
 30
0.0
 41
0.7994154148863514
 10
-186.7540099850465
 20
492.8865401443428
 30
0.0
 41
1.0
  0
SPLINE
  5
EE
330
1F
100
AcDbEntity
  8
Make2D$Visibile$Curve
100
AcDbSpline
210
0.0
220
0.0
230
1.0
 70
    28
 71
     4
 72
    14
 73
     9
 74
     0
 42
0.0000000001
 43
0.0000000001
 40
436.8139568625474
 40
436.8139568625474
 40
436.8139568625474
 40
436.8139568625474
 40
436.8139568625474
 40
437.861154426298
 40
437.861154426298
 40
437.861154426298
 40
437.861154426298
 40
438.9083519900485
 40
438.9083519900485
 40
438.9083519900485
 40
438.9083519900485
 40
438.9083519900485
 10
-188.2540100067901
 20
-637.1134598556423
 30
0.0
 41
1.0
 10
-188.2540100067901
 20
-637.1134598556422
 30
0.0
 41
0.7994154148863511
 10
-188.1625036536441
 20
-637.1134598556423
 30
0.0
 41
0.668555462618005
 10
-187.986060808082
 20
-637.1134598556422
 30
0.0
 41
0.5868707224667049
 10
-187.754009995918
 20
-637.113459855642
 30
0.0
 41
0.538939297087483
 10
-187.5219591837542
 20
-637.1134598556422
 30
0.0
 41
0.5868707224667049
 10
-187.2540099870359
 20
-637.1134598556422
 30
0.0
 41
0.6685554626180052
 10
-186.9860607921643
 20
-637.1134598556422
 30
0.0
 41
0.7994154148863514
 10
-186.7540099850461
 20
-637.1134598556423
 30
0.0
 41
1.0
  0
SPLINE
  5
EF
330
1F
100
AcDbEntity
  8
Make2D$Visibile$Curve
100
AcDbSpline
210
0.0
220
0.0
230
1.0
 70
    28
 71
     4
 72
    10
 73
     5
 74
     0
 42
0.0000000001
 43
0.0000000001
 40
438.9083519900485
 40
438.9083519900485
 40
438.9083519900485
 40
438.9083519900485
 40
438.9083519900485
 40
457.446643673642
 40
457.446643673642
 40
457.446643673642
 40
457.446643673642
 40
457.446643673642
 10
-186.7540099850465
 20
492.8865401443428
 30
0.0
 41
1.0
 10
-182.740352125426
 20
492.8865401443426
 30
0.0
 41
0.8568108607842306
 10
-178.7266942658054
 20
492.8865401443431
 30
0.0
 41
0.7341248511578142
 10
-174.7130364061846
 20
492.8865401443427
 30
0.0
 41
0.629006145643622
 10
-170.6993785465639
 20
492.8865401443427
 30
0.0
 41
0.538939297087483
  0
SPLINE
  5
F0
330
1F
100
AcDbEntity
  8
Make2D$Visibile$Curve
100
AcDbSpline
210
0.0
220
0.0
230
1.0
 70
    28
 71
     4
 72
    10
 73
     5
 74
     0
 42
0.0000000001
 43
0.0000000001
 40
438.9083519900485
 40
438.9083519900485
 40
438.9083519900485
 40
438.9083519900485
 40
438.9083519900485
 40
457.446643673642
 40
457.446643673642
 40
457.446643673642
 40
457.446643673642
 40
457.446643673642
 10
-186.7540099850461
 20
-637.1134598556423
 30
0.0
 41
1.0
 10
-182.7403521254256
 20
-637.1134598556421
 30
0.0
 41
0.8568108607842306
 10
-178.726694265805
 20
-637.113459855642
 30
0.0
 41
0.7341248511578142
 10
-174.7130364061842
 20
-637.1134598556422
 30
0.0
 41
0.629006145643622
 10
-170.6993785465636
 20
-637.113459855642
 30
0.0
 41
0.538939297087483
  0
SPLINE
  5
F1
330
1F
100
AcDbEntity
  8
Make2D$Visibile$Curve
100
AcDbSpline
210
0.0
220
0.0
230
1.0
 70
    28
 71
     2
 72
     6
 73
     3
 74
     0
 42
0.0000000001
 43
0.0000000001
 40
0.0
 40
0.0
 40
0.0
 40
1129.999999999981
 40
1129.999999999981
 40
1129.999999999981
 10
-188.2540100067905
 20
492.8865401443426
 30
0.0
 41
1.0
 10
-188.2540100067905
 20
-72.11345985564805
 30
0.0
 41
1.0
 10
-188.2540100067905
 20
-637.1134598556387
 30
0.0
 41
1.0
  0
SPLINE
  5
F2
330
1F
100
AcDbEntity
  8
Make2D$Visibile$Curve
100
AcDbSpline
210
0.0
220
0.0
230
1.0
 70
    12
 71
     2
 72
     6
 73
     3
 74
     0
 42
0.0000000001
 43
0.0000000001
 40
-108.0721688058548
 40
-108.0721688058548
 40
-108.0721688058548
 40
-96.38721367249879
 40
-96.38721367249879
 40
-96.38721367249879
 10
-154.2536804477132
 20
488.2296708855698
 30
0.0
 41
1.0
 10
-158.5547177958061
 20
488.229839459683
 30
0.0
 41
0.9260358754202622
 10
-158.5547177973737
 20
488.2298046152979
 30
0.0
 41
1.0
  0
SPLINE
  5
F3
330
1F
100
AcDbEntity
  8
Make2D$Visibile$Curve
100
AcDbSpline
210
0.0
220
0.0
230
1.0
 70
    12
 71
     2
 72
    12
 73
     9
 74
     0
 42
0.0000000001
 43
0.0000000001
 40
-96.38721367249879
 40
-96.38721367249879
 40
-96.38721367249879
 40
-82.55491906988112
 40
-82.55491906988112
 40
-68.72262446726344
 40
-68.72262446726344
 40
-54.89032986464578
 40
-54.89032986464578
 40
-48.94516144311221
 40
-48.94516144311221
 40
-48.94516144311221
 10
-158.5547177973737
 20
488.2298046152979
 30
0.0
 41
1.0
 10
-158.5547177992703
 20
488.2297624560505
 30
0.0
 41
0.8968727547444535
 10
-152.6486376602927
 20
488.2294710942441
 30
0.0
 41
1.0
 10
-146.7425575213151
 20
488.2291797324376
 30
0.0
 41
0.8968727547444535
 10
-139.5517693890683
 20
488.2288671519976
 30
0.0
 41
1.0
 10
-132.3609812568217
 20
488.2285545715579
 30
0.0
 41
0.8968727547444535
 10
-129.5121117959836
 20
488.2284653595042
 30
0.0
 41
1.0
 10
-128.3629985317659
 20
488.2284293751406
 30
0.0
 41
0.9556755506221652
 10
-128.3630071965742
 20
488.228446380785
 30
0.0
 41
0.9494527068438958
  0
SPLINE
  5
F4
330
1F
100
AcDbEntity
  8
Make2D$Visibile$Curve
100
AcDbSpline
210
0.0
220
0.0
230
1.0
 70
    28
 71
     2
 72
     8
 73
     5
 74
     0
 42
0.0000000001
 43
0.0000000001
 40
26.58280388343812
 40
26.58280388343812
 40
26.58280388343812
 40
49.5100319191024
 40
49.5100319191024
 40
72.43725995476669
 40
72.43725995476669
 40
72.43725995476669
 10
-128.8626841712526
 20
494.1989911920103
 30
0.0
 41
1.0
 10
-128.8626841712524
 20
494.1989911920103
 30
0.0
 41
0.7071067811865384
 10
-143.4586108643368
 20
494.1989911920103
 30
0.0
 41
1.0
 10
-158.0545375574212
 20
494.1989911920103
 30
0.0
 41
0.7071067811865384
 10
-158.0545375574205
 20
494.1989911920103
 30
0.0
 41
1.0
  0
SPLINE
  5
F5
330
1F
100
AcDbEntity
  8
Make2D$Visibile$Curve
100
AcDbSpline
210
0.0
220
0.0
230
1.0
 70
    28
 71
     2
 72
     6
 73
     3
 74
     0
 42
0.0000000001
 43
0.0000000001
 40
0.0
 40
0.0
 40
0.0
 40
5.46168488423823
 40
5.46168488423823
 40
5.46168488423823
 10
-128.3627614916441
 20
493.6901312591623
 30
0.0
 41
0.9252018640369599
 10
-128.3628843440778
 20
490.9592888198504
 30
0.0
 41
0.9252018640369599
 10
-128.3630071965114
 20
488.2284463805385
 30
0.0
 41
0.9252018640369599
  0
SPLINE
  5
F6
330
1F
100
AcDbEntity
  8
Make2D$Visibile$Curve
100
AcDbSpline
210
0.0
220
0.0
230
1.0
 70
    28
 71
     2
 72
     6
 73
     3
 74
     0
 42
0.0000000001
 43
0.0000000001
 40
0.0
 40
0.0
 40
0.0
 40
5.461684884238116
 40
5.461684884238116
 40
5.461684884238116
 10
-158.5547177973736
 20
488.2298046152981
 30
0.0
 41
0.9361701108508818
 10
-158.55459494494
 20
490.9606470546098
 30
0.0
 41
0.9361701108508818
 10
-158.5544720925063
 20
493.6914894939216
 30
0.0
 41
0.9361701108508818
  0
SPLINE
  5
F7
330
1F
100
AcDbEntity
  8
Make2D$Visibile$Curve
100
AcDbSpline
210
0.0
220
0.0
230
1.0
 70
    12
 71
     2
 72
    12
 73
     9
 74
     0
 42
0.0000000001
 43
0.0000000001
 40
-96.45941480839514
 40
-96.45941480839514
 40
-96.45941480839514
 40
-91.3186354198981
 40
-91.3186354198981
 40
-74.56510203394144
 40
-74.56510203394144
 40
-57.81156864798478
 40
-57.81156864798478
 40
-48.97418903262496
 40
-48.97418903262496
 40
-48.97418903262496
 10
-158.5788863254918
 20
-632.4271278110156
 30
0.0
 41
0.9361712557160065
 10
-158.5788578886537
 20
-632.4271133217229
 30
0.0
 41
0.9539576486947237
 10
-157.7359378602694
 20
-632.4270617222653
 30
0.0
 41
1.0
 10
-154.652754515809
 20
-632.4268729848018
 30
0.0
 41
0.8499503652137049
 10
-145.3684897062863
 20
-632.4264486946679
 30
0.0
 41
1.0
 10
-136.0842248967635
 20
-632.4260244045345
 30
0.0
 41
0.8499503652137049
 10
-130.9075460622552
 20
-632.4258356669798
 30
0.0
 41
1.0
 10
-128.3871250838774
 20
-632.4257437744544
 30
0.0
 41
0.9208497960875451
 10
-128.3871757264947
 20
-632.425769578157
 30
0.0
 41
0.9252020250641223
  0
SPLINE
  5
F8
330
1F
100
AcDbEntity
  8
Make2D$Visibile$Curve
100
AcDbSpline
210
0.0
220
0.0
230
1.0
 70
    28
 71
     2
 72
     6
 73
     3
 74
     0
 42
0.0000000001
 43
0.0000000001
 40
0.0
 40
0.0
 40
0.0
 40
5.46168488423806
 40
5.46168488423806
 40
5.46168488423806
 10
-128.3871757255621
 20
-632.4257695772071
 30
0.0
 41
0.9252018640369599
 10
-128.3870528731284
 20
-635.1566120165189
 30
0.0
 41
0.9252018640369599
 10
-128.3869300206948
 20
-637.8874544558306
 30
0.0
 41
0.9252018640369599
  0
SPLINE
  5
F9
330
1F
100
AcDbEntity
  8
Make2D$Visibile$Curve
100
AcDbSpline
210
0.0
220
0.0
230
1.0
 70
    28
 71
     2
 72
     6
 73
     3
 74
     0
 42
0.0000000001
 43
0.0000000001
 40
0.0
 40
0.0
 40
0.0
 40
5.461684884237832
 40
5.461684884237832
 40
5.461684884237832
 10
-158.578640621557
 20
-637.8888126905898
 30
0.0
 41
0.9361701108508818
 10
-158.5787634739906
 20
-635.157970251278
 30
0.0
 41
0.9361701108508818
 10
-158.5788863264243
 20
-632.4271278119662
 30
0.0
 41
0.9361701108508818
  0
SPLINE
  5
FA
330
1F
100
AcDbEntity
  8
Make2D$Visibile$Curve
100
AcDbSpline
210
0.0
220
0.0
230
1.0
 70
    28
 71
     2
 72
     8
 73
     5
 74
     0
 42
0.0000000001
 43
0.0000000001
 40
315.3485066659032
 40
315.3485066659032
 40
315.3485066659032
 40
355.8008552640018
 40
355.8008552640018
 40
474.4011403520024
 40
474.4011403520024
 40
474.4011403520024
 10
-238.7868973597893
 20
657.8131274969584
 30
0.0
 41
0.8683475024126033
 10
-238.7868973597892
 20
657.8131274969583
 30
0.0
 41
0.9000995774953691
 10
-228.6713750386128
 20
657.8131274969584
 30
0.0
 41
1.0
 10
-190.9197317908858
 20
657.8131274969585
 30
0.0
 41
0.7071067811865476
 10
-125.5319676166091
 20
657.8131274969584
 30
0.0
 41
1.0
  0
SPLINE
  5
FB
330
1F
100
AcDbEntity
  8
Make2D$Visibile$Curve
100
AcDbSpline
210
0.0
220
0.0
230
1.0
 70
    12
 71
     2
 72
     6
 73
     3
 74
     0
 42
0.0000000001
 43
0.0000000001
 40
1.259567716740008
 40
1.259567716740008
 40
1.259567716740008
 40
12.94452285358915
 40
12.94452285358915
 40
12.94452285358915
 10
-154.2536804477132
 20
487.6611152947609
 30
0.0
 41
1.0
 10
-158.55471779723
 20
487.661283868874
 30
0.0
 41
0.926035875376593
 10
-158.5547177973737
 20
487.6612490244889
 30
0.0
 41
1.0
  0
SPLINE
  5
FC
330
1F
100
AcDbEntity
  8
Make2D$Visibile$Curve
100
AcDbSpline
210
0.0
220
0.0
230
1.0
 70
    12
 71
     2
 72
     8
 73
     5
 74
     0
 42
0.0000000001
 43
0.0000000001
 40
12.94452285358915
 40
12.94452285358915
 40
12.94452285358915
 40
36.65702943270611
 40
36.65702943270611
 40
60.36953601182308
 40
60.36953601182308
 40
60.36953601182308
 10
-158.5547177973737
 20
487.6612490244889
 30
0.0
 41
1.0
 10
-158.5547177977265
 20
487.6611635339862
 30
0.0
 41
0.7071067811865478
 10
-143.4588624972954
 20
487.6604844166062
 30
0.0
 41
1.0
 10
-128.3630071968643
 20
487.6598052992265
 30
0.0
 41
0.7071067811865478
 10
-128.3630071965115
 20
487.6598907897293
 30
0.0
 41
1.0
  0
SPLINE
  5
FD
330
1F
100
AcDbEntity
  8
Make2D$Visibile$Curve
100
AcDbSpline
210
0.0
220
0.0
230
1.0
 70
    24
 71
     3
 72
    17
 73
    13
 74
     0
 42
0.0000000001
 43
0.0000000001
 40
34.56303624630957
 40
34.56303624630957
 40
34.56303624630957
 40
34.56303624630957
 40
39.85975638975093
 40
39.85975638975093
 40
39.85975638975093
 40
57.48692341191948
 40
57.48692341191948
 40
57.48692341191948
 40
75.11409042700397
 40
75.11409042700397
 40
75.11409042700397
 40
84.43171210207763
 40
84.43171210207763
 40
84.43171210207763
 40
84.43171210207763
 10
-158.5597253346383
 20
-631.8010088079907
 30
0.0
 10
-158.5599672732393
 20
-631.8010088079907
 30
0.0
 10
-158.2839284965048
 20
-631.8010088079907
 30
0.0
 10
-157.716389008737
 20
-631.8010088079907
 30
0.0
 10
-155.8276516256637
 20
-631.8010088079907
 30
0.0
 10
-151.03641904644
 20
-631.8010088079907
 30
0.0
 10
-145.3489408522241
 20
-631.8010088079907
 30
0.0
 10
-139.6614626602111
 20
-631.8010088079907
 30
0.0
 10
-134.0591958485384
 20
-631.8010088079907
 30
0.0
 10
-130.8879972056633
 20
-631.8010088079907
 30
0.0
 10
-129.2117193792318
 20
-631.8010088079907
 30
0.0
 10
-128.3676156887095
 20
-631.8010088079907
 30
0.0
 10
-128.3676156887095
 20
-631.8010088079907
 30
0.0
  0
SPLINE
  5
FE
330
1F
100
AcDbEntity
  8
Make2D$Visibile$Curve
100
AcDbSpline
210
0.0
220
0.0
230
1.0
 70
    28
 71
     2
 72
     6
 73
     3
 74
     0
 42
0.0000000001
 43
0.0000000001
 40
1.497582456986788
 40
1.497582456986788
 40
1.497582456986788
 40
2.222173326587355
 40
2.222173326587355
 40
2.222173326587355
 10
-187.7675150699932
 20
494.1989911920103
 30
0.0
 41
1.0
 10
-187.3928295157495
 20
494.1989911920101
 30
0.0
 41
0.9511280869760966
 10
-187.0896005161591
 20
494.1989911920103
 30
0.0
 41
1.0
  0
SPLINE
  5
FF
330
1F
100
AcDbEntity
  8
Make2D$Visibile$Curve
100
AcDbSpline
210
0.0
220
0.0
230
1.0
 70
    15
 71
     2
 72
    12
 73
     9
 74
     0
 42
0.0000000001
 43
0.0000000001
 40
0.0
 40
0.0
 40
0.0
 40
118.6002850880006
 40
118.6002850880006
 40
237.2005701760012
 40
237.2005701760012
 40
355.8008552640018
 40
355.8008552640018
 40
474.4011403520024
 40
474.4011403520024
 40
474.4011403520024
 10
200.0372842418217
 20
-774.6595908092302
 30
0.0
 41
1.0
 10
162.2856409940947
 20
-709.2718266349533
 30
0.0
 41
0.7071067811865476
 10
96.89787681981784
 20
-747.0234698826803
 30
0.0
 41
1.0
 10
31.51011264554113
 20
-784.7751131304072
 30
0.0
 41
0.7071067811865476
 10
69.26175589326806
 20
-850.1628773046841
 30
0.0
 41
1.0
 10
107.0133991409951
 20
-915.5506414789608
 30
0.0
 41
0.7071067811865476
 10
172.4011633152718
 20
-877.7989982312339
 30
0.0
 41
1.0
 10
237.7889274895487
 20
-840.0473549835069
 30
0.0
 41
0.7071067811865476
 10
200.0372842418217
 20
-774.6595908092302
 30
0.0
 41
1.0
  0
SPLINE
  5
100
330
1F
100
AcDbEntity
  8
Make2D$Visibile$Curve
100
AcDbSpline
210
0.0
220
0.0
230
1.0
 70
    12
 71
     2
 72
    24
 73
    21
 74
     0
 42
0.0000000001
 43
0.0000000001
 40
0.0
 40
0.0
 40
0.0
 40
1.753286928236397
 40
1.753286928236397
 40
3.656982096184021
 40
3.656982096184021
 40
5.560677264131645
 40
5.560677264131645
 40
7.313964192368047
 40
7.313964192368047
 40
9.067251120604451
 40
9.067251120604451
 40
10.97094628855207
 40
10.97094628855207
 40
12.8746414564997
 40
12.8746414564997
 40
14.62792838473609
 40
14.62792838473609
 40
16.3812153129725
 40
16.3812153129725
 40
17.55935303807808
 40
17.55935303807808
 40
17.55935303807808
 10
151.0128463971452
 20
868.0178670485649
 30
0.0
 41
1.0
 10
150.2536508871569
 20
868.4561887806238
 30
0.0
 41
0.9267766952966369
 10
149.7091036944083
 20
869.1431910499435
 30
0.0
 41
0.8901650429449552
 10
149.1178417378733
 20
869.8891287965896
 30
0.0
 41
0.8535533905932737
 10
148.871485455106
 20
870.8085429606409
 30
0.0
 41
0.8535533905932737
 10
148.6251291723393
 20
871.7279571246919
 30
0.0
 41
0.8535533905932737
 10
148.7642081736663
 20
872.6695891411969
 30
0.0
 41
0.8901650429449552
 10
148.8922987414862
 20
873.5368241552595
 30
0.0
 41
0.9267766952966369
 10
149.3306204735455
 20
874.2960196652476
 30
0.0
 41
1.0
 10
149.7689422056046
 20
875.0552151752355
 30
0.0
 41
0.9267766952966369
 10
150.4559444749245
 20
875.5997623679845
 30
0.0
 41
0.8901650429449552
 10
151.2018822215708
 20
876.1910243245192
 30
0.0
 41
0.8535533905932737
 10
152.1212963856215
 20
876.4373806072864
 30
0.0
 41
0.8535533905932737
 10
153.0407105496728
 20
876.6837368900536
 30
0.0
 41
0.8535533905932737
 10
153.9823425661776
 20
876.5446578887265
 30
0.0
 41
0.8901650429449552
 10
154.8495775802405
 20
876.416567320906
 30
0.0
 41
0.9267766952966369
 10
155.6087730902283
 20
875.978245588847
 30
0.0
 41
1.0
 10
156.367968600216
 20
875.5399238567878
 30
0.0
 41
0.9267766952966369
 10
156.9125157929655
 20
874.8529215874682
 30
0.0
 41
0.8901650429449552
 10
157.2725437119184
 20
874.3987093527298
 30
0.0
 41
0.8675072301080036
 10
157.508531035378
 20
873.869333456246
 30
0.0
 41
0.8588716328657751
  0
SPLINE
  5
101
330
1F
100
AcDbEntity
  8
Make2D$Visibile$Curve
100
AcDbSpline
210
0.0
220
0.0
230
1.0
 70
    12
 71
     2
 72
     8
 73
     5
 74
     0
 42
0.0000000001
 43
0.0000000001
 40
4.382539539026172
 40
4.382539539026172
 40
4.382539539026172
 40
5.560677264131643
 40
5.560677264131643
 40
7.313964192368048
 40
7.313964192368048
 40
7.313964192368048
 10
153.7890968509017
 20
867.4270844733251
 30
0.0
 41
0.8588716328657766
 10
153.2126502146659
 20
867.3667675421699
 30
0.0
 41
0.8675072301080056
 10
152.6392769211961
 20
867.4514547486855
 30
0.0
 41
0.8901650429449552
 10
151.7720419071329
 20
867.5795453165055
 30
0.0
 41
0.9267766952966369
 10
151.0128463971452
 20
868.0178670485649
 30
0.0
 41
1.0
  0
SPLINE
  5
102
330
1F
100
AcDbEntity
  8
Make2D$Visibile$Curve
100
AcDbSpline
210
0.0
220
0.0
230
1.0
 70
    12
 71
     2
 72
    28
 73
    25
 74
     0
 42
0.0000000001
 43
0.0000000001
 40
28.25961071388176
 40
28.25961071388176
 40
28.25961071388176
 40
29.78258082976381
 40
29.78258082976381
 40
36.03551840262892
 40
36.03551840262892
 40
42.28845597549402
 40
42.28845597549402
 40
48.04735787017188
 40
48.04735787017188
 40
53.80625976484975
 40
53.80625976484975
 40
60.05919733771486
 40
60.05919733771486
 40
66.31213491057997
 40
66.31213491057997
 40
72.07103680525783
 40
72.07103680525783
 40
77.8299386999357
 40
77.8299386999357
 40
84.08287627280082
 40
84.08287627280082
 40
90.33581384566591
 40
90.33581384566591
 40
96.09471574034379
 40
96.09471574034379
 40
96.09471574034379
 10
158.5631551360866
 20
873.6679278457412
 30
0.0
 41
0.9120897962986703
 10
159.1239776403765
 20
874.2161646418785
 30
0.0
 41
0.899847175657826
 10
159.7385922861428
 20
874.7033343280947
 30
0.0
 41
0.8901650429449552
 10
162.1887230852087
 20
876.6454121174746
 30
0.0
 41
0.8535533905932737
 10
165.2086600311105
 20
877.4546017833218
 30
0.0
 41
0.8535533905932737
 10
168.2285969770124
 20
878.2637914491692
 30
0.0
 41
0.8535533905932737
 10
171.321511386289
 20
877.8069681469739
 30
0.0
 41
0.8901650429449552
 10
174.1700590399471
 20
877.3862378022534
 30
0.0
 41
0.9267766952966369
 10
176.6637367092936
 20
875.9465123285839
 30
0.0
 41
1.0
 10
179.15741437864
 20
874.5067868549145
 30
0.0
 41
0.9267766952966369
 10
180.9460513721405
 20
872.2502373953162
 30
0.0
 41
0.8901650429449552
 10
182.8881291615203
 20
869.8001065962494
 30
0.0
 41
0.8535533905932737
 10
183.6973188273675
 20
866.7801696503475
 30
0.0
 41
0.8535533905932737
 10
184.5065084932147
 20
863.7602327044457
 30
0.0
 41
0.8535533905932737
 10
184.0496851910197
 20
860.6673182951697
 30
0.0
 41
0.8901650429449552
 10
183.6289548462991
 20
857.8187706415112
 30
0.0
 41
0.9267766952966369
 10
182.1892293726297
 20
855.3250929721647
 30
0.0
 41
1.0
 10
180.7495038989599
 20
852.831415302818
 30
0.0
 41
0.9267766952966369
 10
178.4929544393622
 20
851.0427783093181
 30
0.0
 41
0.8901650429449552
 10
176.0428236402954
 20
849.1007005199377
 30
0.0
 41
0.8535533905932737
 10
173.0228866943935
 20
848.2915108540906
 30
0.0
 41
0.8535533905932737
 10
170.0029497484917
 20
847.4823211882431
 30
0.0
 41
0.8535533905932737
 10
166.9100353392154
 20
847.9391444904387
 30
0.0
 41
0.8901650429449552
 10
164.0614876855568
 20
848.3598748351591
 30
0.0
 41
0.9267766952966369
 10
161.5678100162105
 20
849.7996003088286
 30
0.0
 41
1.0
  0
SPLINE
  5
103
330
1F
100
AcDbEntity
  8
Make2D$Visibile$Curve
100
AcDbSpline
210
0.0
220
0.0
230
1.0
 70
    12
 71
     2
 72
     6
 73
     3
 74
     0
 42
0.0000000001
 43
0.0000000001
 40
-108.9210254154666
 40
-108.9210254154666
 40
-108.9210254154666
 40
-108.0721688058548
 40
-108.0721688058548
 40
-108.0721688058548
 10
157.7788586643888
 20
873.5691358408889
 30
0.0
 41
1.0
 10
158.2084716899925
 20
873.3211038782084
 30
0.0
 41
0.7967945443744971
 10
158.5632017153076
 20
873.6678801972154
 30
0.0
 41
1.0
  0
SPLINE
  5
104
330
1F
100
AcDbEntity
  8
Make2D$Visibile$Curve
100
AcDbSpline
210
0.0
220
0.0
230
1.0
 70
    12
 71
     2
 72
    24
 73
    21
 74
     0
 42
0.0000000001
 43
0.0000000001
 40
11.69650373139401
 40
11.69650373139401
 40
11.69650373139401
 40
12.87464145649958
 40
12.87464145649958
 40
14.62792838473597
 40
14.62792838473597
 40
16.38121531297235
 40
16.38121531297235
 40
18.28491048091997
 40
18.28491048091997
 40
20.18860564886757
 40
20.18860564886757
 40
21.94189257710396
 40
21.94189257710396
 40
23.69517950534035
 40
23.69517950534035
 40
25.59887467328795
 40
25.59887467328795
 40
27.50256984123556
 40
27.50256984123556
 40
29.25585676947194
 40
29.25585676947194
 40
29.25585676947194
 10
138.4826111115213
 20
906.8231932163952
 30
0.0
 41
0.8588716328657751
 10
138.8230704268699
 20
906.3541342529336
 30
0.0
 41
0.8675072301080036
 10
139.0364158043426
 20
905.8152348128496
 30
0.0
 41
0.8901650429449552
 10
139.3591036301269
 20
905.0001419774793
 30
0.0
 41
0.9267766952966369
 10
139.3591036349354
 20
904.1234985133611
 30
0.0
 41
1.0
 10
139.3591036397436
 20
903.2468550492428
 30
0.0
 41
0.9267766952966369
 10
139.0364158229005
 20
902.4317622103333
 30
0.0
 41
0.8901650429449552
 10
138.6860457677846
 20
901.546745460438
 30
0.0
 41
0.8535533905932737
 10
138.0129878901921
 20
900.8736875754624
 30
0.0
 41
0.8535533905932737
 10
137.3399300125997
 20
900.2006296904868
 30
0.0
 41
0.8535533905932737
 10
136.4549132665483
 20
899.850259625663
 30
0.0
 41
0.8901650429449552
 10
135.6398204311778
 20
899.5275717998782
 30
0.0
 41
0.9267766952966369
 10
134.7631769670598
 20
899.52757179507
 30
0.0
 41
1.0
 10
133.8865335029415
 20
899.5275717902617
 30
0.0
 41
0.9267766952966369
 10
133.0714406640323
 20
899.8502596071052
 30
0.0
 41
0.8901650429449552
 10
132.1864239141367
 20
900.2006296622208
 30
0.0
 41
0.8535533905932737
 10
131.5133660291611
 20
900.8736875398132
 30
0.0
 41
0.8535533905932737
 10
130.8403081441855
 20
901.5467454174054
 30
0.0
 41
0.8535533905932737
 10
130.4899380793618
 20
902.4317621634573
 30
0.0
 41
0.8901650429449552
 10
130.167250253577
 20
903.2468549988273
 30
0.0
 41
0.9267766952966369
 10
130.1672502487687
 20
904.1234984629456
 30
0.0
 41
1.0
  0
SPLINE
  5
105
330
1F
100
AcDbEntity
  8
Make2D$Visibile$Curve
100
AcDbSpline
210
0.0
220
0.0
230
1.0
 70
    12
 71
     2
 72
     8
 73
     5
 74
     0
 42
0.0000000001
 43
0.0000000001
 40
0.0
 40
0.0
 40
0.0
 40
1.753286928236388
 40
1.753286928236388
 40
2.931424653341903
 40
2.931424653341903
 40
2.931424653341903
 10
130.1672502487687
 20
904.1234984629456
 30
0.0
 41
1.0
 10
130.1672502439607
 20
905.0001419270635
 30
0.0
 41
0.9267766952966369
 10
130.4899380608038
 20
905.8152347659735
 30
0.0
 41
0.8901650429449552
 10
130.7032834323649
 20
906.3541342083978
 30
0.0
 41
0.8675072301080047
 10
131.0437427425686
 20
906.8231931755942
 30
0.0
 41
0.858871632865776
  0
SPLINE
  5
106
330
1F
100
AcDbEntity
  8
Make2D$Visibile$Curve
100
AcDbSpline
210
0.0
220
0.0
230
1.0
 70
    12
 71
     2
 72
    28
 73
    25
 74
     0
 42
0.0000000001
 43
0.0000000001
 40
0.0
 40
0.0
 40
0.0
 40
5.758901894677848
 40
5.758901894677848
 40
12.01183946754293
 40
12.01183946754293
 40
18.26477704040802
 40
18.26477704040802
 40
24.02367893508585
 40
24.02367893508585
 40
29.7825808297637
 40
29.7825808297637
 40
36.03551840262878
 40
36.03551840262878
 40
42.28845597549386
 40
42.28845597549386
 40
48.04735787017171
 40
48.04735787017171
 40
53.80625976484954
 40
53.80625976484954
 40
60.05919733771464
 40
60.05919733771464
 40
66.31213491057972
 40
66.31213491057972
 40
67.83510502646182
 40
67.83510502646182
 40
67.83510502646182
 10
119.6672501486706
 20
922.3734984053539
 30
0.0
 41
1.0
 10
119.6672501328774
 20
925.2529493526927
 30
0.0
 41
0.9267766952966369
 10
120.7271607783517
 20
927.9302291628252
 30
0.0
 41
0.8901650429449552
 10
121.8779973823035
 20
930.8371832703991
 30
0.0
 41
0.8535533905932737
 10
124.0887446502323
 20
933.047930562579
 30
0.0
 41
0.8535533905932737
 10
126.2994919181611
 20
935.2586778547593
 30
0.0
 41
0.8535533905932737
 10
129.2064460131113
 20
936.4095144905997
 30
0.0
 41
0.8901650429449552
 10
131.8837258116161
 20
937.4694251654424
 30
0.0
 41
0.9267766952966369
 10
134.7631767589552
 20
937.4694251812358
 30
0.0
 41
1.0
 10
137.642627706294
 20
937.469425197029
 30
0.0
 41
0.9267766952966369
 10
140.3199075164269
 20
936.4095145515552
 30
0.0
 41
0.8901650429449552
 10
143.2268616240002
 20
935.2586779476029
 30
0.0
 41
0.8535533905932737
 10
145.4376089161807
 20
933.0479306796741
 30
0.0
 41
0.8535533905932737
 10
147.6483562083607
 20
930.8371834117451
 30
0.0
 41
0.8535533905932737
 10
148.7991928442013
 20
927.9302293167956
 30
0.0
 41
0.8901650429449552
 10
149.8591035190437
 20
925.25294951829
 30
0.0
 41
0.9267766952966369
 10
149.8591035348369
 20
922.3734985709513
 30
0.0
 41
1.0
 10
149.85910355063
 20
919.4940476236121
 30
0.0
 41
0.9267766952966369
 10
148.7991929051568
 20
916.81676781348
 30
0.0
 41
0.8901650429449552
 10
147.6483563012043
 20
913.9098137059059
 30
0.0
 41
0.8535533905932737
 10
145.4376090332755
 20
911.6990664137256
 30
0.0
 41
0.8535533905932737
 10
143.2268617653467
 20
909.4883191215457
 30
0.0
 41
0.8535533905932737
 10
140.3199076703972
 20
908.3374824857056
 30
0.0
 41
0.8901650429449552
 10
139.5906990248807
 20
908.0487954280429
 30
0.0
 41
0.8998471756578263
 10
138.8355007811522
 20
907.8372272862406
 30
0.0
 41
0.9120897962986712
  0
SPLINE
  5
107
330
1F
100
AcDbEntity
  8
Make2D$Visibile$Curve
100
AcDbSpline
210
0.0
220
0.0
230
1.0
 70
    12
 71
     2
 72
     6
 73
     3
 74
     0
 42
0.0000000001
 43
0.0000000001
 40
-108.9210254154666
 40
-108.9210254154666
 40
-108.9210254154666
 40
-108.0721688058548
 40
-108.0721688058548
 40
-108.0721688058548
 10
138.3577961628645
 20
907.2074026174577
 30
0.0
 41
1.0
 10
138.3578006923136
 20
907.7034743927672
 30
0.0
 41
0.7967945443744971
 10
138.8354828059279
 20
907.8372914492919
 30
0.0
 41
1.0
  0
SPLINE
  5
108
330
1F
100
AcDbEntity
  8
Make2D$Visibile$Curve
100
AcDbSpline
210
0.0
220
0.0
230
1.0
 70
    12
 71
     2
 72
    24
 73
    21
 74
     0
 42
0.0000000001
 43
0.0000000001
 40
11.69650373139403
 40
11.69650373139403
 40
11.69650373139403
 40
12.87464145649953
 40
12.87464145649953
 40
14.62792838473592
 40
14.62792838473592
 40
16.38121531297229
 40
16.38121531297229
 40
18.28491048091989
 40
18.28491048091989
 40
20.18860564886749
 40
20.18860564886749
 40
21.94189257710387
 40
21.94189257710387
 40
23.69517950534025
 40
23.69517950534025
 40
25.59887467328785
 40
25.59887467328785
 40
27.50256984123545
 40
27.50256984123545
 40
29.25585676947183
 40
29.25585676947183
 40
29.25585676947183
 10
112.0429798329286
 20
873.870994465277
 30
0.0
 41
0.858871632865776
 10
112.2790058355113
 20
874.4003531175316
 30
0.0
 41
0.8675072301080048
 10
112.639066941295
 20
874.8545390450034
 30
0.0
 41
0.8901650429449552
 10
113.1836643295827
 20
875.5415015242195
 30
0.0
 41
0.9267766952966369
 10
113.9428918642694
 20
875.9797677831936
 30
0.0
 41
1.0
 10
114.7021193989558
 20
876.4180340421676
 30
0.0
 41
0.9267766952966369
 10
115.5693637698598
 20
876.5460612436403
 30
0.0
 41
0.8901650429449552
 10
116.5110059458949
 20
876.6850714426465
 30
0.0
 41
0.8535533905932737
 10
117.4304021070498
 20
876.4386479819726
 30
0.0
 41
0.8535533905932737
 10
118.3497982682048
 20
876.1922245212987
 30
0.0
 41
0.8535533905932737
 10
119.0956928112964
 20
875.6009080631285
 30
0.0
 41
0.8901650429449552
 10
119.7826552905121
 20
875.0563106748402
 30
0.0
 41
0.9267766952966369
 10
120.2209215494864
 20
874.2970831401539
 30
0.0
 41
1.0
 10
120.6591878084602
 20
873.5378556054674
 30
0.0
 41
0.9267766952966369
 10
120.7872150099336
 20
872.6706112345637
 30
0.0
 41
0.8901650429449552
 10
120.9262252089395
 20
871.7289690585282
 30
0.0
 41
0.8535533905932737
 10
120.6798017482653
 20
870.8095728973732
 30
0.0
 41
0.8535533905932737
 10
120.4333782875917
 20
869.8901767362185
 30
0.0
 41
0.8535533905932737
 10
119.8420618294214
 20
869.1442821931271
 30
0.0
 41
0.8901650429449552
 10
119.2974644411331
 20
868.4573197139106
 30
0.0
 41
0.9267766952966369
 10
118.538236906447
 20
868.0190534549366
 30
0.0
 41
1.0
  0
SPLINE
  5
109
330
1F
100
AcDbEntity
  8
Make2D$Visibile$Curve
100
AcDbSpline
210
0.0
220
0.0
230
1.0
 70
    12
 71
     2
 72
     8
 73
     5
 74
     0
 42
0.0000000001
 43
0.0000000001
 40
0.0
 40
0.0
 40
0.0
 40
1.753286928236383
 40
1.753286928236383
 40
2.93142465334188
 40
2.93142465334188
 40
2.93142465334188
 10
118.538236906447
 20
868.0190534549366
 30
0.0
 41
1.0
 10
117.77900937176
 20
867.5807871959624
 30
0.0
 41
0.9267766952966369
 10
116.9117650008567
 20
867.4527599944901
 30
0.0
 41
0.8901650429449552
 10
116.3383855211022
 20
867.3681146826985
 30
0.0
 41
0.8675072301080049
 10
115.7619432935644
 20
867.4284737327492
 30
0.0
 41
0.8588716328657761
  0
SPLINE
  5
10A
330
1F
100
AcDbEntity
  8
Make2D$Visibile$Curve
100
AcDbSpline
210
0.0
220
0.0
230
1.0
 70
    12
 71
     2
 72
    28
 73
    25
 74
     0
 42
0.0000000001
 43
0.0000000001
 40
0.0
 40
0.0
 40
0.0
 40
5.758901894677834
 40
5.758901894677834
 40
12.0118394675429
 40
12.0118394675429
 40
18.26477704040797
 40
18.26477704040797
 40
24.0236789350858
 40
24.0236789350858
 40
29.78258082976363
 40
29.78258082976363
 40
36.0355184026287
 40
36.0355184026287
 40
42.28845597549377
 40
42.28845597549377
 40
48.0473578701716
 40
48.0473578701716
 40
53.80625976484941
 40
53.80625976484941
 40
60.0591973377145
 40
60.0591973377145
 40
66.31213491057957
 40
66.31213491057957
 40
67.83510502646165
 40
67.83510502646165
 40
67.83510502646165
 10
107.9819421668186
 20
849.8015579802542
 30
0.0
 41
1.0
 10
105.488159308131
 20
848.3620147152407
 30
0.0
 41
0.9267766952966369
 10
102.6395809206962
 20
847.9414925056373
 30
0.0
 41
0.8901650429449552
 10
99.54663314110218
 20
847.4848951937286
 30
0.0
 41
0.8535533905932737
 10
96.52675532808504
 20
848.2943055142606
 30
0.0
 41
0.8535533905932737
 10
93.50687751506791
 20
849.1037158347923
 30
0.0
 41
0.8535533905932737
 10
91.05688862376861
 20
851.0459726419749
 30
0.0
 41
0.8901650429449552
 10
88.80046986000632
 20
852.834774509336
 30
0.0
 41
0.9267766952966369
 10
87.3609265949932
 20
855.3285573680238
 30
0.0
 41
1.0
 10
85.92138332997942
 20
857.8223402267116
 30
0.0
 41
0.9267766952966369
 10
85.50086112037633
 20
860.6709186141467
 30
0.0
 41
0.8901650429449552
 10
85.04426380846745
 20
863.7638663937403
 30
0.0
 41
0.8535533905932737
 10
85.85367412899943
 20
866.7837442067574
 30
0.0
 41
0.8535533905932737
 10
86.66308444953114
 20
869.8036220197746
 30
0.0
 41
0.8535533905932737
 10
88.60534125671376
 20
872.2536109110741
 30
0.0
 41
0.8901650429449552
 10
90.39414312407496
 20
874.510029674836
 30
0.0
 41
0.9267766952966369
 10
92.8879259827628
 20
875.9495729398494
 30
0.0
 41
1.0
 10
95.38170884145067
 20
877.389116204863
 30
0.0
 41
0.9267766952966369
 10
98.23028722888549
 20
877.8096384144667
 30
0.0
 41
0.8901650429449552
 10
101.3232350084792
 20
878.266235726375
 30
0.0
 41
0.8535533905932737
 10
104.3431128214963
 20
877.4568254058431
 30
0.0
 41
0.8535533905932737
 10
107.3629906345134
 20
876.6474150853111
 30
0.0
 41
0.8535533905932737
 10
109.8129795258135
 20
874.705158278129
 30
0.0
 41
0.8901650429449552
 10
110.4275585740539
 20
874.2179436853462
 30
0.0
 41
0.8998471756578263
 10
110.98834101899
 20
873.6696659132195
 30
0.0
 41
0.9120897962986708
  0
SPLINE
  5
10B
330
1F
100
AcDbEntity
  8
Make2D$Visibile$Curve
100
AcDbSpline
210
0.0
220
0.0
230
1.0
 70
    12
 71
     2
 72
     8
 73
     5
 74
     0
 42
0.0000000001
 43
0.0000000001
 40
-130.8006513990317
 40
-130.8006513990317
 40
-130.8006513990317
 40
-130.1708675406617
 40
-130.1708675406617
 40
-129.5410836822918
 40
-129.5410836822918
 40
-129.5410836822918
 10
115.0600849381859
 20
866.6158800411273
 30
0.0
 41
1.0
 10
114.9754222906903
 20
866.9469227823938
 30
0.0
 41
0.8863586191788156
 10
115.1987665696739
 20
867.2055236205048
 30
0.0
 41
1.0
 10
115.4221108486574
 20
867.4641244586157
 30
0.0
 41
0.8863586191788156
 10
115.7619502327822
 20
867.4285400038071
 30
0.0
 41
1.0
  0
SPLINE
  5
10C
330
1F
100
AcDbEntity
  8
Make2D$Visibile$Curve
100
AcDbSpline
210
0.0
220
0.0
230
1.0
 70
    12
 71
     2
 72
     6
 73
     3
 74
     0
 42
0.0000000001
 43
0.0000000001
 40
-108.9210254154666
 40
-108.9210254154666
 40
-108.9210254154666
 40
-108.0721688058548
 40
-108.0721688058548
 40
-108.0721688058548
 10
111.7726302701882
 20
873.5708166026706
 30
0.0
 41
1.0
 10
111.3429991228523
 20
873.3228160310609
 30
0.0
 41
0.7967945443744971
 10
110.9882944362877
 20
873.6696182680965
 30
0.0
 41
1.0
  0
SPLINE
  5
10D
330
1F
100
AcDbEntity
  8
Make2D$Visibile$Curve
100
AcDbSpline
210
0.0
220
0.0
230
1.0
 70
    12
 71
     4
 72
    14
 73
     9
 74
     0
 42
0.0000000001
 43
0.0000000001
 40
398.6106691299323
 40
398.6106691299323
 40
398.6106691299323
 40
398.6106691299323
 40
398.6106691299323
 40
399.1744109962398
 40
399.1744109962398
 40
399.1744109962398
 40
399.1744109962398
 40
399.7381528625474
 40
399.7381528625474
 40
399.7381528625474
 40
399.7381528625474
 40
399.7381528625474
 10
138.7374620684515
 20
906.8599907254589
 30
0.0
 41
1.0
 10
138.6639040015263
 20
906.9664119853567
 30
0.0
 41
0.8568108607842306
 10
138.6183293017455
 20
907.1119450134395
 30
0.0
 41
0.7239337426837882
 10
138.645885377091
 20
907.2619369406718
 30
0.0
 41
0.629006145643622
 10
138.7059693014696
 20
907.3765065518222
 30
0.0
 41
0.538939297087483
 10
138.7660532258479
 20
907.4910761629726
 30
0.0
 41
0.6290061456436221
 10
138.8737713223783
 20
907.5990285932509
 30
0.0
 41
0.7239337426837886
 10
139.01940304381
 20
907.6442869321094
 30
0.0
 41
0.8568108607842303
 10
139.1487717949359
 20
907.6442869321089
 30
0.0
 41
1.0
  0
SPLINE
  5
10E
330
1F
100
AcDbEntity
  8
Make2D$Visibile$Curve
100
AcDbSpline
210
0.0
220
0.0
230
1.0
 70
    12
 71
     2
 72
     8
 73
     5
 74
     0
 42
0.0000000001
 43
0.0000000001
 40
0.0
 40
0.0
 40
0.0
 40
12.50587514573022
 40
12.50587514573022
 40
20.41243301533118
 40
20.41243301533118
 40
20.41243301533118
 10
161.5678100162105
 20
849.7996003088286
 30
0.0
 41
1.0
 10
156.1526072298309
 20
852.9260690952611
 30
0.0
 41
0.8535533905932737
 10
154.5342278981366
 20
858.9659429870648
 30
0.0
 41
0.8535533905932737
 10
153.5110440192072
 20
862.7845172087132
 30
0.0
 41
0.8535533905932737
 10
154.490831276418
 20
866.6144560159198
 30
0.0
 41
0.9120897962986709
  0
SPLINE
  5
10F
330
1F
100
AcDbEntity
  8
Make2D$Visibile$Curve
100
AcDbSpline
210
0.0
220
0.0
230
1.0
 70
    12
 71
     2
 72
     6
 73
     3
 74
     0
 42
0.0000000001
 43
0.0000000001
 40
-109.3317365225948
 40
-109.3317365225948
 40
-109.3317365225948
 40
-108.9210254154666
 40
-108.9210254154666
 40
-108.9210254154666
 10
157.5084701753314
 20
873.8693063258087
 30
0.0
 41
1.0
 10
157.5949370323671
 20
873.6753282779466
 30
0.0
 41
0.9511280869760951
 10
157.7788586643888
 20
873.5691358408886
 30
0.0
 41
1.0
  0
SPLINE
  5
110
330
1F
100
AcDbEntity
  8
Make2D$Visibile$Curve
100
AcDbSpline
210
0.0
220
0.0
230
1.0
 70
    12
 71
     2
 72
     8
 73
     5
 74
     0
 42
0.0000000001
 43
0.0000000001
 40
-130.8006513990317
 40
-130.8006513990317
 40
-130.8006513990317
 40
-130.1708675406617
 40
-130.1708675406617
 40
-129.5410836822918
 40
-129.5410836822918
 40
-129.5410836822918
 10
154.4908958308621
 20
866.614439501394
 30
0.0
 41
1.0
 10
154.575582666335
 20
866.9454760557562
 30
0.0
 41
0.8863586191788156
 10
154.3522572830585
 20
867.2040932122076
 30
0.0
 41
1.0
 10
154.1289318997827
 20
867.4627103686588
 30
0.0
 41
0.8863586191788156
 10
153.789089916526
 20
867.4271507448897
 30
0.0
 41
1.0
  0
SPLINE
  5
111
330
1F
100
AcDbEntity
  8
Make2D$Visibile$Curve
100
AcDbSpline
210
0.0
220
0.0
230
1.0
 70
    15
 71
     2
 72
    12
 73
     9
 74
     0
 42
0.0000000001
 43
0.0000000001
 40
0.0
 40
0.0
 40
0.0
 40
118.6002850880006
 40
118.6002850880006
 40
237.2005701760012
 40
237.2005701760012
 40
355.8008552640018
 40
355.8008552640018
 40
474.4011403520024
 40
474.4011403520024
 40
474.4011403520024
 10
200.0943911616461
 20
844.9222445419276
 30
0.0
 41
1.0
 10
162.342747913919
 20
779.5344803676516
 30
0.0
 41
0.7071067811865476
 10
96.95498373964267
 20
817.286123615378
 30
0.0
 41
1.0
 10
31.56721956536546
 20
855.0377668631054
 30
0.0
 41
0.7071067811865476
 10
69.31886281309255
 20
920.4255310373816
 30
0.0
 41
1.0
 10
107.0705060608196
 20
985.8132952116587
 30
0.0
 41
0.7071067811865476
 10
172.4582702350964
 20
948.0616519639315
 30
0.0
 41
1.0
 10
237.8460344093732
 20
910.3100087162045
 30
0.0
 41
0.7071067811865476
 10
200.0943911616461
 20
844.9222445419276
 30
0.0
 41
1.0
  0
SPLINE
  5
112
330
1F
100
AcDbEntity
  8
Make2D$Visibile$Curve
100
AcDbSpline
210
0.0
220
0.0
230
1.0
 70
    12
 71
     2
 72
     6
 73
     3
 74
     0
 42
0.0000000001
 43
0.0000000001
 40
-109.3317365225948
 40
-109.3317365225948
 40
-109.3317365225948
 40
-108.9210254154666
 40
-108.9210254154666
 40
-108.9210254154666
 10
112.0430406909924
 20
873.8709673303932
 30
0.0
 41
1.0
 10
111.9565596608508
 20
873.676995600897
 30
0.0
 41
0.9511280869760951
 10
111.7726302701882
 20
873.5708166026706
 30
0.0
 41
1.0
  0
SPLINE
  5
113
330
1F
100
AcDbEntity
  8
Make2D$Visibile$Curve
100
AcDbSpline
210
0.0
220
0.0
230
1.0
 70
    12
 71
     2
 72
     8
 73
     5
 74
     0
 42
0.0000000001
 43
0.0000000001
 40
4.599317276129283
 40
4.599317276129283
 40
4.599317276129283
 40
12.50587514573017
 40
12.50587514573017
 40
25.01175029146034
 40
25.01175029146034
 40
25.01175029146034
 10
130.6908530618139
 20
907.8372272415678
 30
0.0
 41
0.9120897962986704
 10
126.8841351253789
 20
908.9036759692436
 30
0.0
 41
0.8535533905932737
 10
124.0887447673271
 20
911.6990662966309
 30
0.0
 41
0.8535533905932737
 10
119.6672501829672
 20
916.1205608324888
 30
0.0
 41
0.8535533905932737
 10
119.6672501486706
 20
922.3734984053539
 30
0.0
 41
1.0
  0
SPLINE
  5
114
330
1F
100
AcDbEntity
  8
Make2D$Visibile$Curve
100
AcDbSpline
210
0.0
220
0.0
230
1.0
 70
    12
 71
     2
 72
     6
 73
     3
 74
     0
 42
0.0000000001
 43
0.0000000001
 40
-109.3317365225948
 40
-109.3317365225948
 40
-109.3317365225948
 40
-108.9210254154666
 40
-108.9210254154666
 40
-108.9210254154666
 10
138.4825571858502
 20
906.8231540752669
 30
0.0
 41
1.0
 10
138.3578006962003
 20
906.9950255932927
 30
0.0
 41
0.9511280869760951
 10
138.3577961628645
 20
907.2074026174577
 30
0.0
 41
1.0
  0
SPLINE
  5
115
330
1F
100
AcDbEntity
  8
Make2D$Visibile$Curve
100
AcDbSpline
210
0.0
220
0.0
230
1.0
 70
    12
 71
     2
 72
     8
 73
     5
 74
     0
 42
0.0000000001
 43
0.0000000001
 40
-130.8006513990317
 40
-130.8006513990317
 40
-130.8006513990317
 40
-130.1708675406617
 40
-130.1708675406617
 40
-129.5410836822918
 40
-129.5410836822918
 40
-129.5410836822918
 10
130.6908710370373
 20
907.83729140462
 30
0.0
 41
1.0
 10
131.019900520938
 20
907.7451140801287
 30
0.0
 41
0.8863586191788156
 10
131.132206858411
 20
907.4224000472922
 30
0.0
 41
1.0
 10
131.2445131958845
 20
907.0996860144555
 30
0.0
 41
0.8863586191788156
 10
131.0437966682399
 20
906.8231540344667
 30
0.0
 41
1.0
  0
SPLINE
  5
116
330
1F
100
AcDbEntity
  8
Make2D$Visibile$Curve
100
AcDbSpline
210
0.0
220
0.0
230
1.0
 70
    12
 71
     2
 72
     8
 73
     5
 74
     0
 42
0.0000000001
 43
0.0000000001
 40
4.599317276129286
 40
4.599317276129286
 40
4.599317276129286
 40
12.50587514573014
 40
12.50587514573014
 40
25.01175029146029
 40
25.01175029146029
 40
25.01175029146029
 10
115.060149493837
 20
866.6158965509361
 30
0.0
 41
0.91208979629867
 10
116.0396569074195
 20
862.7858861641256
 30
0.0
 41
0.8535533905932737
 10
115.0161940205822
 20
858.967386713346
 30
0.0
 41
0.8535533905932737
 10
113.3973733795182
 20
852.9276310873116
 30
0.0
 41
0.8535533905932737
 10
107.9819421668186
 20
849.8015579802542
 30
0.0
 41
1.0
  0
SPLINE
  5
117
330
1F
100
AcDbEntity
  8
Make2D$Visibile$Curve
100
AcDbSpline
210
0.0
220
0.0
230
1.0
 70
    24
 71
     2
 72
     6
 73
     3
 74
     0
 42
0.0000000001
 43
0.0000000001
 40
697.8977517190453
 40
697.8977517190453
 40
697.8977517190453
 40
734.9735557190454
 40
734.9735557190454
 40
734.9735557190454
 10
139.1487717949359
 20
907.6442869321089
 30
0.0
 10
157.6866737949359
 20
907.6442869321088
 30
0.0
 10
176.224575794936
 20
907.6442869321087
 30
0.0
  0
SPLINE
  5
118
330
1F
100
AcDbEntity
  8
Make2D$Visibile$Curve
100
AcDbSpline
210
0.0
220
0.0
230
1.0
 70
    28
 71
     4
 72
    10
 73
     5
 74
     0
 42
0.0000000001
 43
0.0000000001
 40
498.956699219288
 40
498.956699219288
 40
498.956699219288
 40
498.956699219288
 40
498.956699219288
 40
517.495019370789
 40
517.495019370789
 40
517.495019370789
 40
517.495019370789
 40
517.495019370789
 10
154.110554490551
 20
866.3416779212365
 30
0.0
 41
1.0
 10
151.7932643967461
 20
862.3280139110766
 30
0.0
 41
0.8568108607842306
 10
149.4759743029417
 20
858.3143499009161
 30
0.0
 41
0.7341248511578142
 10
147.1586842091366
 20
854.3006858907564
 30
0.0
 41
0.629006145643622
 10
144.8413941153316
 20
850.2870218805961
 30
0.0
 41
0.538939297087483
  0
SPLINE
  5
119
330
1F
100
AcDbEntity
  8
Make2D$Visibile$Curve
100
AcDbSpline
210
0.0
220
0.0
230
1.0
 70
    12
 71
     4
 72
    14
 73
     9
 74
     0
 42
0.0000000001
 43
0.0000000001
 40
497.8292154768079
 40
497.8292154768079
 40
497.8292154768079
 40
497.8292154768079
 40
497.8292154768079
 40
498.392957348048
 40
498.392957348048
 40
498.392957348048
 40
498.392957348048
 40
498.956699219288
 40
498.956699219288
 40
498.956699219288
 40
498.956699219288
 40
498.956699219288
 10
153.6369889239819
 20
867.0900307170574
 30
0.0
 41
1.0
 10
153.7659314737985
 20
867.1005232314703
 30
0.0
 41
0.8568108607842296
 10
153.9147541242845
 20
867.0672255635316
 30
0.0
 41
0.7239337423615454
 10
154.0308729056613
 20
866.9683653359407
 30
0.0
 41
0.629006145643622
 10
154.1000511359537
 20
866.8590463235703
 30
0.0
 41
0.538939297087483
 10
154.1692293662458
 20
866.7497273112002
 30
0.0
 41
0.6290061456436221
 10
154.208859862768
 20
866.6024644858397
 30
0.0
 41
0.723933742361545
 10
154.1752388693988
 20
866.4537145453602
 30
0.0
 41
0.8568108607842309
 10
154.110554490551
 20
866.3416779212365
 30
0.0
 41
1.0
  0
SPLINE
  5
11A
330
1F
100
AcDbEntity
  8
Make2D$Visibile$Curve
100
AcDbSpline
210
0.0
220
0.0
230
1.0
 70
    28
 71
     4
 72
    10
 73
     5
 74
     0
 42
0.0000000001
 43
0.0000000001
 40
496.5968770630877
 40
496.5968770630877
 40
496.5968770630877
 40
496.5968770630877
 40
496.5968770630877
 40
497.8292154768079
 40
497.8292154768079
 40
497.8292154768079
 40
497.8292154768079
 40
497.8292154768079
 10
152.4217846070075
 20
867.2948145883394
 30
0.0
 41
1.0
 10
152.7255856862513
 20
867.243618620519
 30
0.0
 41
1.0
 10
153.0293867654947
 20
867.1924226526984
 30
0.0
 41
1.0
 10
153.3331878447385
 20
867.141226684878
 30
0.0
 41
1.0
 10
153.6369889239819
 20
867.0900307170574
 30
0.0
 41
1.0
  0
SPLINE
  5
11B
330
1F
100
AcDbEntity
  8
Make2D$Visibile$Curve
100
AcDbSpline
210
0.0
220
0.0
230
1.0
 70
    12
 71
     4
 72
    22
 73
    17
 74
     0
 42
0.0000000001
 43
0.0000000001
 40
478.3438853334413
 40
478.3438853334413
 40
478.3438853334413
 40
478.3438853334413
 40
478.3438853334413
 40
482.907133265853
 40
482.907133265853
 40
482.907133265853
 40
482.907133265853
 40
487.4703811982645
 40
487.4703811982645
 40
487.4703811982645
 40
487.4703811982645
 40
492.0336291306761
 40
492.0336291306761
 40
492.0336291306761
 40
492.0336291306761
 40
496.5968770630877
 40
496.5968770630877
 40
496.5968770630877
 40
496.5968770630877
 40
496.5968770630877
 10
156.8828738761891
 20
875.021647859662
 30
0.0
 41
1.0
 10
156.136483861877
 20
875.9138851423987
 30
0.0
 41
0.8083312146480761
 10
155.1366346900728
 20
876.5392199131142
 30
0.0
 41
0.6787410013759031
 10
153.9880570160788
 20
876.806635822564
 30
0.0
 41
0.5934160326397341
 10
152.8291426238636
 20
876.7061228697365
 30
0.0
 41
0.538939297087483
 10
151.6702282316479
 20
876.6056099169087
 30
0.0
 41
0.5084453017292138
 10
150.5848408587253
 20
876.1444416260176
 30
0.0
 41
0.4982806366097907
 10
149.7075824521996
 20
875.3563048168251
 30
0.0
 41
0.5084453017292138
 10
149.1259499603779
 20
874.3488877896576
 30
0.0
 41
0.538939297087483
 10
148.5443174685563
 20
873.3414707624895
 30
0.0
 41
0.5084453017292138
 10
148.3004001734014
 20
872.1876742921588
 30
0.0
 41
0.4982806366097907
 10
148.4437104045304
 20
871.0171171088151
 30
0.0
 41
0.5084453017292138
 10
148.9361208300805
 20
869.9632113279317
 30
0.0
 41
0.538939297087483
 10
149.4285312556301
 20
868.9093055470478
 30
0.0
 41
0.5934160326397342
 10
150.2344090635864
 20
868.0483160578746
 30
0.0
 41
0.6787410013759032
 10
151.2758894467978
 20
867.495088660497
 30
0.0
 41
0.8083312146480763
 10
152.4217846070075
 20
867.2948145883394
 30
0.0
 41
1.0
  0
SPLINE
  5
11C
330
1F
100
AcDbEntity
  8
Make2D$Visibile$Curve
100
AcDbSpline
210
0.0
220
0.0
230
1.0
 70
    28
 71
     4
 72
    10
 73
     5
 74
     0
 42
0.0000000001
 43
0.0000000001
 40
477.1115471747342
 40
477.1115471747342
 40
477.1115471747342
 40
477.1115471747342
 40
477.1115471747342
 40
478.3438853334413
 40
478.3438853334413
 40
478.3438853334413
 40
478.3438853334413
 40
478.3438853334413
 10
157.6678240078955
 20
874.0716422659206
 30
0.0
 41
1.0
 10
157.4715864749688
 20
874.3091436643559
 30
0.0
 41
1.0
 10
157.2753489420421
 20
874.5466450627913
 30
0.0
 41
1.0
 10
157.0791114091159
 20
874.7841464612267
 30
0.0
 41
1.0
 10
156.8828738761891
 20
875.021647859662
 30
0.0
 41
1.0
  0
SPLINE
  5
11D
330
1F
100
AcDbEntity
  8
Make2D$Visibile$Curve
100
AcDbSpline
210
0.0
220
0.0
230
1.0
 70
    12
 71
     4
 72
    18
 73
    13
 74
     0
 42
0.0000000001
 43
0.0000000001
 40
457.446643673642
 40
457.446643673642
 40
457.446643673642
 40
457.446643673642
 40
457.446643673642
 40
475.9849353572356
 40
475.9849353572356
 40
475.9849353572356
 40
475.9849353572356
 40
476.5482412659849
 40
476.5482412659849
 40
476.5482412659849
 40
476.5482412659849
 40
477.1115471747342
 40
477.1115471747342
 40
477.1115471747342
 40
477.1115471747342
 40
477.1115471747342
 10
167.8214551640705
 20
890.0896554718826
 30
0.0
 41
0.538939297087483
 10
165.5041686585468
 20
886.0759976122617
 30
0.0
 41
0.538939297087483
 10
163.1868821530226
 20
882.0623397526412
 30
0.0
 41
0.538939297087483
 10
160.8695529101523
 20
878.04870656926
 30
0.0
 41
0.538939297087483
 10
158.5521381925883
 20
874.0351227383582
 30
0.0
 41
0.538939297087483
 10
158.4874919953942
 20
873.9231605031048
 30
0.0
 41
0.538939297087483
 10
158.3754333576744
 20
873.8199192900994
 30
0.0
 41
0.5314786368938083
 10
158.2281788014016
 20
873.7807787483632
 30
0.0
 41
0.538939297087483
 10
158.0990040681933
 20
873.7861266639899
 30
0.0
 41
0.538939297087483
 10
157.9698293349849
 20
873.7914745796162
 30
0.0
 41
0.6290061456436221
 10
157.8263140481641
 20
873.8426531766979
 30
0.0
 41
0.7239621926101459
 10
157.7231727687472
 20
873.9548038023346
 30
0.0
 41
0.8568108607842309
 10
157.6678240078955
 20
874.0716422659206
 30
0.0
 41
1.0
  0
SPLINE
  5
11E
330
1F
100
AcDbEntity
  8
Make2D$Visibile$Curve
100
AcDbSpline
210
0.0
220
0.0
230
1.0
 70
    28
 71
     4
 72
    10
 73
     5
 74
     0
 42
0.0000000001
 43
0.0000000001
 40
438.9083519900485
 40
438.9083519900485
 40
438.9083519900485
 40
438.9083519900485
 40
438.9083519900485
 40
457.446643673642
 40
457.446643673642
 40
457.446643673642
 40
457.446643673642
 40
457.446643673642
 10
177.0906011861667
 20
906.1442869103647
 30
0.0
 41
1.0
 10
174.7733146806427
 20
902.1306290507445
 30
0.0
 41
0.8568108607842306
 10
172.4560281751188
 20
898.1169711911235
 30
0.0
 41
0.7341248511578142
 10
170.1387416695948
 20
894.1033133315033
 30
0.0
 41
0.629006145643622
 10
167.8214551640705
 20
890.0896554718826
 30
0.0
 41
0.538939297087483
  0
SPLINE
  5
11F
330
1F
100
AcDbEntity
  8
Make2D$Visibile$Curve
100
AcDbSpline
210
0.0
220
0.0
230
1.0
 70
    12
 71
     4
 72
    14
 73
     9
 74
     0
 42
0.0000000001
 43
0.0000000001
 40
436.8139568625474
 40
436.8139568625474
 40
436.8139568625474
 40
436.8139568625474
 40
436.8139568625474
 40
437.861154426298
 40
437.861154426298
 40
437.861154426298
 40
437.861154426298
 40
438.9083519900485
 40
438.9083519900485
 40
438.9083519900485
 40
438.9083519900485
 40
438.9083519900485
 10
176.224575794936
 20
907.6442869321087
 30
0.0
 41
1.0
 10
176.4925249907309
 20
907.6442869321089
 30
0.0
 41
0.7994154148863511
 10
176.7490948541074
 20
907.5527805789626
 30
0.0
 41
0.668555462618005
 10
176.956626610013
 20
907.3763377334008
 30
0.0
 41
0.5868707224667049
 10
177.0906012049974
 20
907.1442869212369
 30
0.0
 41
0.538939297087483
 10
177.2245757999818
 20
906.912236109073
 30
0.0
 41
0.5868707224667049
 10
177.2736139018742
 20
906.6442869123545
 30
0.0
 41
0.6685554626180052
 10
177.2245757898905
 20
906.3763377174832
 30
0.0
 41
0.7994154148863514
 10
177.0906011861667
 20
906.1442869103647
 30
0.0
 41
1.0
  0
SPLINE
  5
120
330
1F
100
AcDbEntity
  8
Make2D$Visibile$Curve
100
AcDbSpline
210
0.0
220
0.0
230
1.0
 70
    28
 71
     4
 72
    10
 73
     5
 74
     0
 42
0.0000000001
 43
0.0000000001
 40
397.3783306379078
 40
397.3783306379078
 40
397.3783306379078
 40
397.3783306379078
 40
397.3783306379078
 40
398.6106691299323
 40
398.6106691299323
 40
398.6106691299323
 40
398.6106691299323
 40
398.6106691299323
 10
139.1677162565485
 20
905.7052009209705
 30
0.0
 41
1.0
 10
139.0601527095242
 20
905.9938983720925
 30
0.0
 41
1.0
 10
138.9525891625
 20
906.2825958232146
 30
0.0
 41
1.0
 10
138.8450256154757
 20
906.5712932743367
 30
0.0
 41
1.0
 10
138.7374620684515
 20
906.8599907254589
 30
0.0
 41
1.0
  0
SPLINE
  5
121
330
1F
100
AcDbEntity
  8
Make2D$Visibile$Curve
100
AcDbSpline
210
0.0
220
0.0
230
1.0
 70
    12
 71
     4
 72
    22
 73
    17
 74
     0
 42
0.0000000001
 43
0.0000000001
 40
379.1253389082617
 40
379.1253389082617
 40
379.1253389082617
 40
379.1253389082617
 40
379.1253389082617
 40
383.6885868406732
 40
383.6885868406732
 40
383.6885868406732
 40
383.6885868406732
 40
388.2518347730847
 40
388.2518347730847
 40
388.2518347730847
 40
388.2518347730847
 40
392.8150827054963
 40
392.8150827054963
 40
392.8150827054963
 40
392.8150827054963
 40
397.3783306379078
 40
397.3783306379078
 40
397.3783306379078
 40
397.3783306379078
 40
397.3783306379078
 10
130.2455377181856
 20
905.7052009209705
 30
0.0
 41
1.0
 10
129.8460325722879
 20
904.6126895660769
 30
0.0
 41
0.8083312146480767
 10
129.8044013608813
 20
903.4341273979837
 30
0.0
 41
0.6787410013759035
 10
130.1471012269186
 20
902.305721999361
 30
0.0
 41
0.5934160326397345
 10
130.813605193584
 20
901.3523291713045
 30
0.0
 41
0.538939297087483
 10
131.4801091602498
 20
900.3989363432482
 30
0.0
 41
0.5084453017292141
 10
132.4221863020429
 20
899.6895474507963
 30
0.0
 41
0.4982806366097911
 10
133.5433620037239
 20
899.3238877896575
 30
0.0
 41
0.5084453017292141
 10
134.7066269873671
 20
899.3238877896576
 30
0.0
 41
0.538939297087483
 10
135.8698919710101
 20
899.3238877896575
 30
0.0
 41
0.5084453017292141
 10
136.9910676726908
 20
899.6895474507963
 30
0.0
 41
0.4982806366097911
 10
137.9331448144842
 20
900.3989363432482
 30
0.0
 41
0.5084453017292141
 10
138.5996487811497
 20
901.3523291713045
 30
0.0
 41
0.538939297087483
 10
139.2661527478157
 20
902.3057219993608
 30
0.0
 41
0.5934160326397346
 10
139.6088526138533
 20
903.434127397984
 30
0.0
 41
0.6787410013759038
 10
139.5672214024461
 20
904.612689566077
 30
0.0
 41
0.8083312146480769
 10
139.1677162565485
 20
905.7052009209705
 30
0.0
 41
1.0
  0
SPLINE
  5
122
330
1F
100
AcDbEntity
  8
Make2D$Visibile$Curve
100
AcDbSpline
210
0.0
220
0.0
230
1.0
 70
    28
 71
     4
 72
    10
 73
     5
 74
     0
 42
0.0000000001
 43
0.0000000001
 40
377.8930006009691
 40
377.8930006009691
 40
377.8930006009691
 40
377.8930006009691
 40
377.8930006009691
 40
379.1253389082617
 40
379.1253389082617
 40
379.1253389082617
 40
379.1253389082617
 40
379.1253389082617
 10
130.6757916901021
 20
906.8599906088665
 30
0.0
 41
1.0
 10
130.5682281971232
 20
906.5712931868924
 30
0.0
 41
1.0
 10
130.4606647041438
 20
906.2825957649185
 30
0.0
 41
1.0
 10
130.3531012111649
 20
905.9938983429444
 30
0.0
 41
1.0
 10
130.2455377181856
 20
905.7052009209705
 30
0.0
 41
1.0
  0
SPLINE
  5
123
330
1F
100
AcDbEntity
  8
Make2D$Visibile$Curve
100
AcDbSpline
210
0.0
220
0.0
230
1.0
 70
    12
 71
     4
 72
    14
 73
     9
 74
     0
 42
0.0000000001
 43
0.0000000001
 40
376.7655164297836
 40
376.7655164297836
 40
376.7655164297836
 40
376.7655164297836
 40
376.7655164297836
 40
377.3292585153764
 40
377.3292585153764
 40
377.3292585153764
 40
377.3292585153764
 40
377.8930006009691
 40
377.8930006009691
 40
377.8930006009691
 40
377.8930006009691
 40
377.8930006009691
 10
130.2644817949359
 20
907.6442869960985
 30
0.0
 41
1.0
 10
130.3938505879911
 20
907.6442869967685
 30
0.0
 41
0.8568108607842306
 10
130.5394823935558
 20
907.5990287004664
 30
0.0
 41
0.7239337283578129
 10
130.6472005570677
 20
907.4910762413665
 30
0.0
 41
0.629006145643622
 10
130.7072845132717
 20
907.3765065995608
 30
0.0
 41
0.538939297087483
 10
130.7673684694756
 20
907.2619369577556
 30
0.0
 41
0.6290061456436221
 10
130.7949245627864
 20
907.1119449649772
 30
0.0
 41
0.723933728357813
 10
130.7493498115409
 20
906.9664118820544
 30
0.0
 41
0.8568108607842309
 10
130.6757916901021
 20
906.8599906088665
 30
0.0
 41
1.0
  0
SPLINE
  5
124
330
1F
100
AcDbEntity
  8
Make2D$Visibile$Curve
100
AcDbSpline
210
0.0
220
0.0
230
1.0
 70
    12
 71
     4
 72
    10
 73
     5
 74
     0
 42
0.0000000001
 43
0.0000000001
 40
339.6897124297837
 40
339.6897124297837
 40
339.6897124297837
 40
339.6897124297837
 40
339.6897124297837
 40
376.7655164297836
 40
376.7655164297836
 40
376.7655164297836
 40
376.7655164297836
 40
376.7655164297836
 10
93.18867779493587
 20
907.6442869321087
 30
0.0
 41
1.0
 10
102.4576287949359
 20
907.6442869321087
 30
0.0
 41
1.0
 10
111.7265797949359
 20
907.6442869321087
 30
0.0
 41
1.0
 10
120.9955307949359
 20
907.6442869481062
 30
0.0
 41
1.0
 10
130.2644817949359
 20
907.6442869960985
 30
0.0
 41
1.0
  0
SPLINE
  5
125
330
1F
100
AcDbEntity
  8
Make2D$Visibile$Curve
100
AcDbSpline
210
0.0
220
0.0
230
1.0
 70
    12
 71
     4
 72
    14
 73
     9
 74
     0
 42
0.0000000001
 43
0.0000000001
 40
337.5953173022825
 40
337.5953173022825
 40
337.5953173022825
 40
337.5953173022825
 40
337.5953173022825
 40
338.6425148660331
 40
338.6425148660331
 40
338.6425148660331
 40
338.6425148660331
 40
339.6897124297837
 40
339.6897124297837
 40
339.6897124297837
 40
339.6897124297837
 40
339.6897124297837
 10
92.32265240370555
 20
906.1442869103647
 30
0.0
 41
1.0
 10
92.18867779998185
 20
906.3763377174834
 30
0.0
 41
0.799415414886338
 10
92.13963968799803
 20
906.6442869123546
 30
0.0
 41
0.66855546261799
 10
92.18867778989004
 20
906.9122361090729
 30
0.0
 41
0.586870722466695
 10
92.32265238487466
 20
907.1442869212369
 30
0.0
 41
0.538939297087483
 10
92.45662697985925
 20
907.3763377334006
 30
0.0
 41
0.5868707224666954
 10
92.66415873576406
 20
907.5527805789627
 30
0.0
 41
0.6685554626179903
 10
92.9207285991414
 20
907.6442869321091
 30
0.0
 41
0.799415414886338
 10
93.18867779493587
 20
907.6442869321087
 30
0.0
 41
1.0
  0
SPLINE
  5
126
330
1F
100
AcDbEntity
  8
Make2D$Visibile$Curve
100
AcDbSpline
210
0.0
220
0.0
230
1.0
 70
    12
 71
     4
 72
    14
 73
     9
 74
     0
 42
0.0000000001
 43
0.0000000001
 40
299.3919373118882
 40
299.3919373118882
 40
299.3919373118882
 40
299.3919373118882
 40
299.3919373118882
 40
299.9561152712778
 40
299.9561152712778
 40
299.9561152712778
 40
299.9561152712778
 40
300.5202932306674
 40
300.5202932306674
 40
300.5202932306674
 40
300.5202932306674
 40
300.5202932306674
 10
111.7454293923257
 20
874.0716423557623
 30
0.0
 41
1.0
 10
111.6900092121453
 20
873.9546532186241
 30
0.0
 41
0.8568108607842306
 10
111.5866545206224
 20
873.8423330226709
 30
0.0
 41
0.723905221215882
 10
111.4428199686202
 20
873.7912483837978
 30
0.0
 41
0.629006145643622
 10
111.3134704431712
 20
873.786095244385
 30
0.0
 41
0.538939297087483
 10
111.1841209177227
 20
873.7809421049724
 30
0.0
 41
0.6290061456436221
 10
111.0366783531208
 20
873.8204225915737
 30
0.0
 41
0.7239052212158821
 10
110.9247159788246
 20
873.9241647981274
 30
0.0
 41
0.8568108607842309
 10
110.8599935739768
 20
874.0362755728128
 30
0.0
 41
1.0
  0
SPLINE
  5
127
330
1F
100
AcDbEntity
  8
Make2D$Visibile$Curve
100
AcDbSpline
210
0.0
220
0.0
230
1.0
 70
    28
 71
     4
 72
    10
 73
     5
 74
     0
 42
0.0000000001
 43
0.0000000001
 40
298.1595988564978
 40
298.1595988564978
 40
298.1595988564978
 40
298.1595988564978
 40
298.1595988564978
 40
299.3919373118882
 40
299.3919373118882
 40
299.3919373118882
 40
299.3919373118882
 40
299.3919373118882
 10
112.5303800985449
 20
875.021647859662
 30
0.0
 41
1.0
 10
112.3341424219904
 20
874.7841464836871
 30
0.0
 41
1.0
 10
112.1379047454353
 20
874.5466451077122
 30
0.0
 41
1.0
 10
111.9416670688807
 20
874.3091437317372
 30
0.0
 41
1.0
 10
111.7454293923257
 20
874.0716423557623
 30
0.0
 41
1.0
  0
SPLINE
  5
128
330
1F
100
AcDbEntity
  8
Make2D$Visibile$Curve
100
AcDbSpline
210
0.0
220
0.0
230
1.0
 70
    12
 71
     4
 72
    22
 73
    17
 74
     0
 42
0.0000000001
 43
0.0000000001
 40
279.9066071268514
 40
279.9066071268514
 40
279.9066071268514
 40
279.9066071268514
 40
279.9066071268514
 40
284.469855059263
 40
284.469855059263
 40
284.469855059263
 40
284.469855059263
 40
289.0331029916746
 40
289.0331029916746
 40
289.0331029916746
 40
289.0331029916746
 40
293.5963509240862
 40
293.5963509240862
 40
293.5963509240862
 40
293.5963509240862
 40
298.1595988564978
 40
298.1595988564978
 40
298.1595988564978
 40
298.1595988564978
 40
298.1595988564978
 10
116.9914693677266
 20
867.2948145883396
 30
0.0
 41
1.0
 10
118.137364527936
 20
867.4950886604962
 30
0.0
 41
0.808331214648076
 10
119.1788449111477
 20
868.0483160578743
 30
0.0
 41
0.6787410013759029
 10
119.9847227191038
 20
868.9093055470479
 30
0.0
 41
0.5934160326397341
 10
120.4771331446536
 20
869.9632113279317
 30
0.0
 41
0.538939297087483
 10
120.9695435702034
 20
871.0171171088155
 30
0.0
 41
0.5084453017292137
 10
121.1128538013331
 20
872.1876742921589
 30
0.0
 41
0.4982806366097906
 10
120.8689365061775
 20
873.3414707624895
 30
0.0
 41
0.5084453017292138
 10
120.2873040143562
 20
874.3488877896576
 30
0.0
 41
0.538939297087483
 10
119.7056715225347
 20
875.3563048168254
 30
0.0
 41
0.5084453017292137
 10
118.8284131160091
 20
876.1444416260175
 30
0.0
 41
0.4982806366097906
 10
117.7430257430864
 20
876.6056099169087
 30
0.0
 41
0.5084453017292138
 10
116.5841113508709
 20
876.7061228697365
 30
0.0
 41
0.538939297087483
 10
115.4251969586553
 20
876.8066358225642
 30
0.0
 41
0.5934160326397341
 10
114.2766192846619
 20
876.5392199131143
 30
0.0
 41
0.678741001375903
 10
113.2767701128569
 20
875.9138851423994
 30
0.0
 41
0.8083312146480763
 10
112.5303800985449
 20
875.021647859662
 30
0.0
 41
1.0
  0
SPLINE
  5
129
330
1F
100
AcDbEntity
  8
Make2D$Visibile$Curve
100
AcDbSpline
210
0.0
220
0.0
230
1.0
 70
    28
 71
     4
 72
    10
 73
     5
 74
     0
 42
0.0000000001
 43
0.0000000001
 40
278.6742683983477
 40
278.6742683983477
 40
278.6742683983477
 40
278.6742683983477
 40
278.6742683983477
 40
279.9066071268514
 40
279.9066071268514
 40
279.9066071268514
 40
279.9066071268514
 40
279.9066071268514
 10
115.7762646872649
 20
867.0900309797318
 30
0.0
 41
1.0
 10
116.0800658573804
 20
867.1412268818837
 30
0.0
 41
1.0
 10
116.3838670274955
 20
867.1924227840356
 30
0.0
 41
1.0
 10
116.6876681976111
 20
867.2436186861875
 30
0.0
 41
1.0
 10
116.9914693677266
 20
867.2948145883396
 30
0.0
 41
1.0
  0
SPLINE
  5
12A
330
1F
100
AcDbEntity
  8
Make2D$Visibile$Curve
100
AcDbSpline
210
0.0
220
0.0
230
1.0
 70
    12
 71
     4
 72
    14
 73
     9
 74
     0
 42
0.0000000001
 43
0.0000000001
 40
277.546784047276
 40
277.546784047276
 40
277.546784047276
 40
277.546784047276
 40
277.546784047276
 40
278.1105262228119
 40
278.1105262228119
 40
278.1105262228119
 40
278.1105262228119
 40
278.6742683983477
 40
278.6742683983477
 40
278.6742683983477
 40
278.6742683983477
 40
278.6742683983477
 10
115.3026990216482
 20
866.3416778763923
 30
0.0
 41
1.0
 10
115.2380146136763
 20
866.4537145508857
 30
0.0
 41
0.8568108607842301
 10
115.2043935107902
 20
866.6024645629467
 30
0.0
 41
0.7239337224817886
 10
115.2440239954754
 20
866.7497274887997
 30
0.0
 41
0.629006145643622
 10
115.3132022405254
 20
866.8590465606858
 30
0.0
 41
0.538939297087483
 10
115.3823804855759
 20
866.9683656325714
 30
0.0
 41
0.6290061456436221
 10
115.4984993332585
 20
867.0672259272305
 30
0.0
 41
0.7239337224817923
 10
115.6473220853561
 20
867.1005235713716
 30
0.0
 41
0.856810860784224
 10
115.7762646872649
 20
867.0900309797318
 30
0.0
 41
1.0
  0
SPLINE
  5
12B
330
1F
100
AcDbEntity
  8
Make2D$Visibile$Curve
100
AcDbSpline
210
0.0
220
0.0
230
1.0
 70
    12
 71
     4
 72
    14
 73
     9
 74
     0
 42
0.0000000001
 43
0.0000000001
 40
240.4718163170658
 40
240.4718163170658
 40
240.4718163170658
 40
240.4718163170658
 40
240.4718163170658
 40
259.0093001821709
 40
259.0093001821709
 40
259.0093001821709
 40
259.0093001821709
 40
277.546784047276
 40
277.546784047276
 40
277.546784047276
 40
277.546784047276
 40
277.546784047276
 10
133.8396334204741
 20
834.2334967807252
 30
0.0
 41
1.0
 10
131.5228604696132
 20
838.2472178918748
 30
0.0
 41
0.8568108607842306
 10
129.2058124473259
 20
842.2607802281553
 30
0.0
 41
0.7341248511578142
 10
126.8886268868979
 20
846.274263175601
 30
0.0
 41
0.629006145643622
 10
124.571441321615
 20
850.2877461202437
 30
0.0
 41
0.538939297087483
 10
122.2542557563323
 20
854.3012290648863
 30
0.0
 41
0.6290061456436221
 10
119.9370701861954
 20
858.3147120067262
 30
0.0
 41
0.7341248511578143
 10
117.6198846087764
 20
862.3281949443622
 30
0.0
 41
0.8568108607842309
 10
115.3026990216482
 20
866.3416778763923
 30
0.0
 41
1.0
  0
SPLINE
  5
12C
330
1F
100
AcDbEntity
  8
Make2D$Visibile$Curve
100
AcDbSpline
210
0.0
220
0.0
230
1.0
 70
    12
 71
     4
 72
    14
 73
     9
 74
     0
 42
0.0000000001
 43
0.0000000001
 40
219.3354205142911
 40
219.3354205142911
 40
219.3354205142911
 40
219.3354205142911
 40
219.3354205142911
 40
237.8737406657922
 40
237.8737406657922
 40
237.8737406657922
 40
237.8737406657922
 40
240.4718163170658
 40
240.4718163170658
 40
240.4718163170658
 40
240.4718163170658
 40
240.4718163170658
 10
144.8413941153316
 20
850.2870218805961
 30
0.0
 41
0.538939297087483
 10
142.5241040215268
 20
846.2733578704358
 30
0.0
 41
0.538939297087483
 10
140.2068139277221
 20
842.2596938602759
 30
0.0
 41
0.538939297087483
 10
137.8893863114758
 20
838.2461092675876
 30
0.0
 41
0.538939297087483
 10
135.5716836503471
 20
834.2326835098436
 30
0.0
 41
0.538939297087483
 10
135.2829571958466
 20
833.7327133415959
 30
0.0
 41
0.471754616071178
 10
134.7055814369552
 20
833.4830903855262
 30
0.0
 41
0.4894165780802715
 10
134.1282570770328
 20
833.7334672620474
 30
0.0
 41
0.6426081549032938
 10
133.8396334204741
 20
834.2334967807252
 30
0.0
 41
1.0
  0
SPLINE
  5
12D
330
1F
100
AcDbEntity
  8
Make2D$Visibile$Curve
100
AcDbSpline
210
0.0
220
0.0
230
1.0
 70
    28
 71
     4
 72
    10
 73
     5
 74
     0
 42
0.0000000001
 43
0.0000000001
 40
319.0578052664749
 40
319.0578052664749
 40
319.0578052664749
 40
319.0578052664749
 40
319.0578052664749
 40
337.5953173022825
 40
337.5953173022825
 40
337.5953173022825
 40
337.5953173022825
 40
337.5953173022825
 10
101.5914086018985
 20
890.0903306666595
 30
0.0
 41
0.538939297087483
 10
99.27421955235043
 20
894.1038197275857
 30
0.0
 41
0.6290061456436221
 10
96.95703050280217
 20
898.1173087885121
 30
0.0
 41
0.7341248511578143
 10
94.63984145325401
 20
902.1307978494384
 30
0.0
 41
0.8568108607842309
 10
92.32265240370555
 20
906.1442869103647
 30
0.0
 41
1.0
  0
SPLINE
  5
12E
330
1F
100
AcDbEntity
  8
Make2D$Visibile$Curve
100
AcDbSpline
210
0.0
220
0.0
230
1.0
 70
    12
 71
     4
 72
    10
 73
     5
 74
     0
 42
0.0000000001
 43
0.0000000001
 40
300.5202932306674
 40
300.5202932306674
 40
300.5202932306674
 40
300.5202932306674
 40
300.5202932306674
 40
319.0578052664749
 40
319.0578052664749
 40
319.0578052664749
 40
319.0578052664749
 40
319.0578052664749
 10
110.8599935739768
 20
874.0362755728128
 30
0.0
 41
1.0
 10
108.5429329440147
 20
878.0498387713454
 30
0.0
 41
0.8568108607842306
 10
106.2257867009951
 20
882.063352544807
 30
0.0
 41
0.7341248511578142
 10
103.9085976514469
 20
886.0768416057333
 30
0.0
 41
0.629006145643622
 10
101.5914086018985
 20
890.0903306666595
 30
0.0
 41
0.538939297087483
  0
SPLINE
  5
12F
330
1F
100
AcDbEntity
  8
Make2D$Visibile$Curve
100
AcDbSpline
210
0.0
220
0.0
230
1.0
 70
    28
 71
     2
 72
     6
 73
     3
 74
     0
 42
0.0000000001
 43
0.0000000001
 40
0.7851800455892195
 40
0.7851800455892195
 40
0.7851800455892195
 40
0.7941248096578105
 40
0.7941248096578105
 40
0.7941248096578105
 10
112.0429798329287
 20
873.8709944652769
 30
0.0
 41
0.9965737511397494
 10
112.0429755231998
 20
873.8709963868627
 30
0.0
 41
0.9982473939997569
 10
112.0430406909924
 20
873.8709673303932
 30
0.0
 41
1.0
  0
SPLINE
  5
130
330
1F
100
AcDbEntity
  8
Make2D$Visibile$Curve
100
AcDbSpline
210
0.0
220
0.0
230
1.0
 70
    28
 71
     2
 72
     6
 73
     3
 74
     0
 42
0.0000000001
 43
0.0000000001
 40
0.0
 40
0.0
 40
0.0
 40
0.0083901632385136
 40
0.0083901632385136
 40
0.0083901632385136
 10
110.9882944362877
 20
873.6696182680965
 30
0.0
 41
1.0
 10
110.9883412199057
 20
873.669666118717
 30
0.0
 41
0.9983560605598889
 10
110.9883412236022
 20
873.6696661224979
 30
0.0
 41
0.996781595943327
  0
SPLINE
  5
131
330
1F
100
AcDbEntity
  8
Make2D$Visibile$Curve
100
AcDbSpline
210
0.0
220
0.0
230
1.0
 70
    31
 71
     2
 72
     6
 73
     3
 74
     0
 42
0.0000000001
 43
0.0000000001
 40
0.0
 40
0.0
 40
0.0
 40
0.016755224404907
 40
0.016755224404907
 40
0.016755224404907
 10
115.7619502327822
 20
867.4285400038071
 30
0.0
 41
1.0
 10
115.7619362924523
 20
867.428406870585
 30
0.0
 41
0.9967170395325927
 10
115.7619502327823
 20
867.4285400038071
 30
0.0
 41
0.9937111475495087
  0
SPLINE
  5
132
330
1F
100
AcDbEntity
  8
Make2D$Visibile$Curve
100
AcDbSpline
210
0.0
220
0.0
230
1.0
 70
    31
 71
     2
 72
     6
 73
     3
 74
     0
 42
0.0000000001
 43
0.0000000001
 40
0.7773695849685847
 40
0.7773695849685847
 40
0.7773695849685847
 40
0.7941248096578448
 40
0.7941248096578448
 40
0.7941248096578448
 10
115.0600849381815
 20
866.6158800411264
 30
0.0
 41
0.9937111474474873
 10
115.0602146252959
 20
866.6159132080049
 30
0.0
 41
0.9967170394768801
 10
115.0600849381859
 20
866.6158800411273
 30
0.0
 41
1.0
  0
SPLINE
  5
133
330
1F
100
AcDbEntity
  8
Make2D$Visibile$Curve
100
AcDbSpline
210
0.0
220
0.0
230
1.0
 70
    28
 71
     2
 72
     6
 73
     3
 74
     0
 42
0.0000000001
 43
0.0000000001
 40
0.4829375850234682
 40
0.4829375850234682
 40
0.4829375850234682
 40
0.4834072677703865
 40
0.4834072677703865
 40
0.4834072677703865
 10
157.4267722916063
 20
873.8328867135056
 30
0.0
 41
0.9736259969496364
 10
157.4268947334967
 20
873.8329412961455
 30
0.0
 41
0.9735737758934437
 10
157.4270170100141
 20
873.8329958050646
 30
0.0
 41
0.9735217725560081
  0
SPLINE
  5
134
330
1F
100
AcDbEntity
  8
Make2D$Visibile$Curve
100
AcDbSpline
210
0.0
220
0.0
230
1.0
 70
    31
 71
     2
 72
     6
 73
     3
 74
     0
 42
0.0000000001
 43
0.0000000001
 40
0.7773695852506465
 40
0.7773695852506465
 40
0.7773695852506465
 40
0.7941248096578105
 40
0.7941248096578105
 40
0.7941248096578105
 10
157.5084701753313
 20
873.8693063258085
 30
0.0
 41
0.9937111475487008
 10
157.5085924382668
 20
873.869360828673
 30
0.0
 41
0.9967170395321515
 10
157.5084701753314
 20
873.8693063258087
 30
0.0
 41
1.0
  0
SPLINE
  5
135
330
1F
100
AcDbEntity
  8
Make2D$Visibile$Curve
100
AcDbSpline
210
0.0
220
0.0
230
1.0
 70
    28
 71
     2
 72
     6
 73
     3
 74
     0
 42
0.0000000001
 43
0.0000000001
 40
0.0
 40
0.0
 40
0.0
 40
0.0083908251570282
 40
0.0083908251570282
 40
0.0083908251570282
 10
153.789089916526
 20
867.4271507448897
 30
0.0
 41
1.0
 10
153.7890968813604
 20
867.4270841822299
 30
0.0
 41
0.9983559308658748
 10
153.7890968813604
 20
867.4270841822296
 30
0.0
 41
0.9967813475177759
  0
SPLINE
  5
136
330
1F
100
AcDbEntity
  8
Make2D$Visibile$Curve
100
AcDbSpline
210
0.0
220
0.0
230
1.0
 70
    28
 71
     2
 72
     6
 73
     3
 74
     0
 42
0.0000000001
 43
0.0000000001
 40
-130.3308630371897
 40
-130.3308630371897
 40
-130.3308630371897
 40
-130.3308493032876
 40
-130.3308493032876
 40
-130.3308493032876
 10
154.3687521969276
 20
867.0496205657983
 30
0.0
 41
0.9569281565824227
 10
154.3687490636132
 20
867.0496267155946
 30
0.0
 41
0.9569293756248182
 10
154.3687459301692
 20
867.049632865325
 30
0.0
 41
0.9569305947753001
  0
SPLINE
  5
137
330
1F
100
AcDbEntity
  8
Make2D$Visibile$Curve
100
AcDbSpline
210
0.0
220
0.0
230
1.0
 70
    28
 71
     2
 72
     6
 73
     3
 74
     0
 42
0.0000000001
 43
0.0000000001
 40
-21.01110343214982
 40
-21.01110343214982
 40
-21.01110343214982
 40
-21.01108972648742
 40
-21.01108972648742
 40
-21.01108972648742
 10
154.3560531402177
 20
867.0434418164575
 30
0.0
 41
0.9548841774517827
 10
154.3560501204017
 20
867.0434480233599
 30
0.0
 41
0.9548852999224774
 10
154.3560471004547
 20
867.0434542301989
 30
0.0
 41
0.9548864225008146
  0
SPLINE
  5
138
330
1F
100
AcDbEntity
  8
Make2D$Visibile$Curve
100
AcDbSpline
210
0.0
220
0.0
230
1.0
 70
     8
 71
     3
 72
     8
 73
     4
 74
     0
 42
0.0000000001
 43
0.0000000001
 40
113.7352263816487
 40
113.7352263816487
 40
113.7352263816487
 40
113.7352263816487
 40
113.7355431490784
 40
113.7355431490784
 40
113.7355431490784
 40
113.7355431490784
 10
154.4014917673466
 20
866.5948395227061
 30
0.0
 10
154.4015170773539
 20
866.5949384666925
 30
0.0
 10
154.4015423884016
 20
866.595037410607
 30
0.0
 10
154.4015677004896
 20
866.5951363544499
 30
0.0
  0
SPLINE
  5
139
330
1F
100
AcDbEntity
  8
Make2D$Visibile$Curve
100
AcDbSpline
210
0.0
220
0.0
230
1.0
 70
    28
 71
     2
 72
     6
 73
     3
 74
     0
 42
0.0000000001
 43
0.0000000001
 40
0.7851800455506187
 40
0.7851800455506187
 40
0.7851800455506187
 40
0.7941248096578448
 40
0.7941248096578448
 40
0.7941248096578448
 10
154.490831276418
 20
866.6144560159197
 30
0.0
 41
0.9965737511252928
 10
154.4908267049255
 20
866.6144571854134
 30
0.0
 41
0.9982473939921876
 10
154.4908958308621
 20
866.614439501394
 30
0.0
 41
1.0
  0
SPLINE
  5
13A
330
1F
100
AcDbEntity
  8
Make2D$Visibile$Curve
100
AcDbSpline
210
0.0
220
0.0
230
1.0
 70
    12
 71
     2
 72
     6
 73
     3
 74
     0
 42
0.0000000001
 43
0.0000000001
 40
-53.81376841004444
 40
-53.81376841004444
 40
-53.81376841004444
 40
-53.78996797152296
 40
-53.78996797152296
 40
-53.78996797152296
 10
173.8918141996156
 20
848.5526917051861
 30
0.0
 41
0.9454771408238867
 10
173.8804952963434
 20
848.5488539510557
 30
0.0
 41
0.9453657091422045
 10
173.8691703303472
 20
848.5450341247187
 30
0.0
 41
0.9452548831109462
  0
SPLINE
  5
13B
330
1F
100
AcDbEntity
  8
Make2D$Visibile$Curve
100
AcDbSpline
210
0.0
220
0.0
230
1.0
 70
     8
 71
     3
 72
     8
 73
     4
 74
     0
 42
0.0000000001
 43
0.0000000001
 40
88.04007975471293
 40
88.04007975471293
 40
88.04007975471293
 40
88.04007975471293
 40
88.04128112735422
 40
88.04128112735422
 40
88.04128112735422
 40
88.04128112735422
 10
165.6566067924309
 20
848.1383623018172
 30
0.0
 10
165.6562375063604
 20
848.1384468279531
 30
0.0
 10
165.6558682226457
 20
848.1385313681984
 30
0.0
 10
165.6554989412878
 20
848.1386159225532
 30
0.0
  0
SPLINE
  5
13C
330
1F
100
AcDbEntity
  8
Make2D$Visibile$Curve
100
AcDbSpline
210
0.0
220
0.0
230
1.0
 70
    31
 71
     2
 72
     6
 73
     3
 74
     0
 42
0.0000000001
 43
0.0000000001
 40
0.0
 40
0.0
 40
0.0
 40
0.0167552244017176
 40
0.0167552244017176
 40
0.0167552244017176
 10
158.5632017153076
 20
873.6678801972154
 30
0.0
 41
1.0
 10
158.5631081414014
 20
873.6679759192699
 30
0.0
 41
0.9967170395332171
 10
158.5632017153077
 20
873.6678801972156
 30
0.0
 41
0.9937111475506519
  0
SPLINE
  5
13D
330
1F
100
AcDbEntity
  8
Make2D$Visibile$Curve
100
AcDbSpline
210
0.0
220
0.0
230
1.0
 70
    28
 71
     2
 72
     6
 73
     3
 74
     0
 42
0.0000000001
 43
0.0000000001
 40
0.0
 40
0.0
 40
0.0
 40
0.0083908252004315
 40
0.0083908252004315
 40
0.0083908252004315
 10
131.0437966682399
 20
906.8231540344667
 30
0.0
 41
1.0
 10
131.0437425057023
 20
906.8231933475201
 30
0.0
 41
0.9983559308573705
 10
131.0437425057025
 20
906.82319334752
 30
0.0
 41
0.9967813475014862
  0
SPLINE
  5
13E
330
1F
100
AcDbEntity
  8
Make2D$Visibile$Curve
100
AcDbSpline
210
0.0
220
0.0
230
1.0
 70
    31
 71
     2
 72
     6
 73
     3
 74
     0
 42
0.0000000001
 43
0.0000000001
 40
-20.30045292417532
 40
-20.30045292417532
 40
-20.30045292417532
 40
-20.30045288504027
 40
-20.30045288504027
 40
-20.30045288504027
 10
131.0296198276362
 20
906.8307601608213
 30
0.0
 41
0.9718771961001058
 10
131.0296198184907
 20
906.8307601437521
 30
0.0
 41
0.9718772011187065
 10
131.0296198093452
 20
906.8307601266828
 30
0.0
 41
0.971877206137308
  0
SPLINE
  5
13F
330
1F
100
AcDbEntity
  8
Make2D$Visibile$Curve
100
AcDbSpline
210
0.0
220
0.0
230
1.0
 70
    28
 71
     2
 72
     6
 73
     3
 74
     0
 42
0.0000000001
 43
0.0000000001
 40
0.7851800463054603
 40
0.7851800463054603
 40
0.7851800463054603
 40
0.7941248096578448
 40
0.7941248096578448
 40
0.7941248096578448
 10
130.690853061814
 20
907.8372272415683
 30
0.0
 41
0.9965737514077677
 10
130.690851788881
 20
907.8372226977991
 30
0.0
 41
0.9982473941400887
 10
130.6908710370373
 20
907.83729140462
 30
0.0
 41
1.0
  0
SPLINE
  5
140
330
1F
100
AcDbEntity
  8
Make2D$Visibile$Curve
100
AcDbSpline
210
0.0
220
0.0
230
1.0
 70
     8
 71
     3
 72
     8
 73
     4
 74
     0
 42
0.0000000001
 43
0.0000000001
 40
80.90267113212249
 40
80.90267113212249
 40
80.90267113212249
 40
80.90267113212249
 40
80.92336232268826
 40
80.92336232268826
 40
80.92336232268826
 40
80.92336232268826
 10
123.5875482629837
 20
932.5218411710063
 30
0.0
 10
123.5831489066688
 20
932.5170534623174
 30
0.0
 10
123.5787527658522
 20
932.5122630425516
 30
0.0
 10
123.5743598427325
 20
932.5074699152559
 30
0.0
  0
SPLINE
  5
141
330
1F
100
AcDbEntity
  8
Make2D$Visibile$Curve
100
AcDbSpline
210
0.0
220
0.0
230
1.0
 70
    27
 71
     3
 72
     8
 73
     4
 74
     0
 42
0.0000000001
 43
0.0000000001
 40
113.7355431410624
 40
113.7355431410624
 40
113.7355431410624
 40
113.7355431410624
 40
113.7355431490784
 40
113.7355431490784
 40
113.7355431490784
 40
113.7355431490784
 10
130.6294899491298
 20
907.7695825496722
 30
0.0
 10
130.6294899516184
 20
907.7695825489749
 30
0.0
 10
130.629489954107
 20
907.7695825482775
 30
0.0
 10
130.6294899565956
 20
907.7695825475802
 30
0.0
  0
SPLINE
  5
142
330
1F
100
AcDbEntity
  8
Make2D$Visibile$Curve
100
AcDbSpline
210
0.0
220
0.0
230
1.0
 70
    28
 71
     2
 72
     6
 73
     3
 74
     0
 42
0.0000000001
 43
0.0000000001
 40
0.0
 40
0.0
 40
0.0
 40
0.0089447638607287
 40
0.0089447638607287
 40
0.0089447638607287
 10
138.8354828059279
 20
907.8372914492919
 30
0.0
 41
1.0
 10
138.8355020540861
 20
907.8372227424671
 30
0.0
 41
0.9982473940404839
 10
138.8355007811518
 20
907.8372272862408
 30
0.0
 41
0.9965737512175333
  0
SPLINE
  5
143
330
1F
100
AcDbEntity
  8
Make2D$Visibile$Curve
100
AcDbSpline
210
0.0
220
0.0
230
1.0
 70
    28
 71
     2
 72
     6
 73
     3
 74
     0
 42
0.0000000001
 43
0.0000000001
 40
1.497582456986788
 40
1.497582456986788
 40
1.497582456986788
 40
2.222173326587355
 40
2.222173326587355
 40
2.222173326587355
 10
111.9654536394922
 20
-638.4393479968319
 30
0.0
 41
1.0
 10
112.2899545355518
 20
-638.4393479968319
 30
0.0
 41
0.9511280869760966
 10
112.4425364798606
 20
-638.4393479968319
 30
0.0
 41
1.0
  0
ENDSEC
  0
SECTION
  2
OBJECTS
  0
DICTIONARY
  5
C
330
0
100
AcDbDictionary
281
     1
  3
ACAD_DETAILVIEWSTYLE
350
17F
  3
ACAD_GROUP
350
D
  3
ACAD_LAYOUT
350
1A
  3
ACAD_MATERIAL
350
43
  3
ACAD_MLEADERSTYLE
350
5B
  3
ACAD_MLINESTYLE
350
17
  3
ACAD_PLOTSETTINGS
350
19
  3
ACAD_PLOTSTYLENAME
350
E
  3
ACAD_SCALELIST
350
47
  3
ACAD_SECTIONVIEWSTYLE
350
180
  3
ACAD_TABLESTYLE
350
59
  3
ACAD_VISUALSTYLE
350
2A
  3
ACDB_RECOMPOSE_DATA
350
17C
  3
AcDbVariableDictionary
350
144
  0
SUN
  5
5D
330
29
100
AcDbSun
 90
        1
290
     0
 63
     7
421
 16777215
 40
1.0
291
     1
 91
  2455826
 92
 54000000
292
     0
 70
     2
 71
   256
280
     1
  0
DICTIONARY
  5
17F
102
{ACAD_REACTORS
330
C
102
}
330
C
100
AcDbDictionary
281
     1
  0
DICTIONARY
  5
D
102
{ACAD_REACTORS
330
C
102
}
330
C
100
AcDbDictionary
281
     1
  0
DICTIONARY
  5
1A
102
{ACAD_REACTORS
330
C
102
}
330
C
100
AcDbDictionary
281
     1
  3
Layout1
350
1E
  3
Layout2
350
26
  3
Model
350
22
  0
DICTIONARY
  5
43
102
{ACAD_REACTORS
330
C
102
}
330
C
100
AcDbDictionary
281
     1
  3
ByBlock
350
45
  3
ByLayer
350
44
  3
Global
350
46
  0
DICTIONARY
  5
5B
102
{ACAD_REACTORS
330
C
102
}
330
C
100
AcDbDictionary
281
     1
  3
Standard
350
5C
  0
DICTIONARY
  5
17
102
{ACAD_REACTORS
330
C
102
}
330
C
100
AcDbDictionary
281
     1
  3
Standard
350
18
  0
DICTIONARY
  5
19
102
{ACAD_REACTORS
330
C
102
}
330
C
100
AcDbDictionary
281
     1
  0
ACDBDICTIONARYWDFLT
  5
E
102
{ACAD_REACTORS
330
C
102
}
330
C
100
AcDbDictionary
281
     1
  3
Normal
350
F
100
AcDbDictionaryWithDefault
340
F
  0
DICTIONARY
  5
47
102
{ACAD_REACTORS
330
C
102
}
330
C
100
AcDbDictionary
281
     1
  3
A0
350
48
  3
A1
350
49
  3
A2
350
4A
  3
A3
350
4B
  3
A4
350
4C
  3
A5
350
4D
  3
A6
350
4E
  3
A7
350
4F
  3
A8
350
50
  3
A9
350
51
  3
B1
350
52
  3
B2
350
53
  3
B3
350
54
  3
B4
350
55
  3
B5
350
56
  3
B6
350
57
  3
B7
350
58
  0
DICTIONARY
  5
180
102
{ACAD_REACTORS
330
C
102
}
330
C
100
AcDbDictionary
281
     1
  0
DICTIONARY
  5
59
102
{ACAD_REACTORS
330
C
102
}
330
C
100
AcDbDictionary
281
     1
  3
Standard
350
5A
  0
DICTIONARY
  5
2A
102
{ACAD_REACTORS
330
C
102
}
330
C
100
AcDbDictionary
281
     1
  3
2dWireframe
350
2F
  3
Basic
350
32
  3
Brighten
350
36
  3
ColorChange
350
3A
  3
Conceptual
350
34
  3
Dim
350
35
  3
EdgeColorOff
350
3D
  3
Facepattern
350
39
  3
Flat
350
2B
  3
FlatWithEdges
350
2C
  3
Gouraud
350
2D
  3
GouraudWithEdges
350
2E
  3
Hidden
350
31
  3
JitterOff
350
3B
  3
Linepattern
350
38
  3
OverhangOff
350
3C
  3
Realistic
350
33
  3
Shaded
350
42
  3
Shaded with edges
350
41
  3
Shades of Gray
350
3E
  3
Sketchy
350
3F
  3
Thicken
350
37
  3
Wireframe
350
30
  3
X-Ray
350
40
  0
XRECORD
  5
17C
102
{ACAD_REACTORS
330
C
102
}
330
C
100
AcDbXrecord
280
     1
 90
        1
330
5A
  0
DICTIONARY
  5
144
102
{ACAD_REACTORS
330
C
102
}
330
C
100
AcDbDictionary
281
     1
  3
CANNOSCALE
350
145
  3
CMLEADERSTYLE
350
17E
  3
CTABLESTYLE
350
17D
  3
XCLIPFRAME
350
146
  0
LAYOUT
  5
1E
102
{ACAD_REACTORS
330
1A
102
}
330
1A
100
AcDbPlotSettings
  1

  2
none_device
  4

  6

 40
0.0
 41
0.0
 42
0.0
 43
0.0
 44
0.0
 45
0.0
 46
0.0
 47
0.0
 48
0.0
 49
0.0
140
0.0
141
0.0
142
1.0
143
1.0
 70
   688
 72
     0
 73
     0
 74
     5
  7

 75
    16
 76
     0
 77
     2
 78
   300
147
1.0
148
0.0
149
0.0
100
AcDbLayout
  1
Layout1
 70
     1
 71
     1
 10
0.0
 20
0.0
 11
12.0
 21
9.0
 12
0.0
 22
0.0
 32
0.0
 14
1.000000000000000E+20
 24
1.000000000000000E+20
 34
1.000000000000000E+20
 15
-1.000000000000000E+20
 25
-1.000000000000000E+20
 35
-1.000000000000000E+20
146
0.0
 13
0.0
 23
0.0
 33
0.0
 16
1.0
 26
0.0
 36
0.0
 17
0.0
 27
1.0
 37
0.0
 76
     0
330
1B
  0
LAYOUT
  5
26
102
{ACAD_REACTORS
330
1A
102
}
330
1A
100
AcDbPlotSettings
  1

  2
none_device
  4

  6

 40
0.0
 41
0.0
 42
0.0
 43
0.0
 44
0.0
 45
0.0
 46
0.0
 47
0.0
 48
0.0
 49
0.0
140
0.0
141
0.0
142
1.0
143
1.0
 70
   688
 72
     0
 73
     0
 74
     5
  7

 75
    16
 76
     0
 77
     2
 78
   300
147
1.0
148
0.0
149
0.0
100
AcDbLayout
  1
Layout2
 70
     1
 71
     2
 10
0.0
 20
0.0
 11
0.0
 21
0.0
 12
0.0
 22
0.0
 32
0.0
 14
0.0
 24
0.0
 34
0.0
 15
0.0
 25
0.0
 35
0.0
146
0.0
 13
0.0
 23
0.0
 33
0.0
 16
1.0
 26
0.0
 36
0.0
 17
0.0
 27
1.0
 37
0.0
 76
     0
330
23
  0
LAYOUT
  5
22
102
{ACAD_REACTORS
330
1A
102
}
330
1A
100
AcDbPlotSettings
  1

  2
none_device
  4
Letter_(8.50_x_11.00_Inches)
  6

 40
6.35
 41
6.35
 42
6.35000508
 43
6.35000508
 44
215.9
 45
279.4
 46
0.0
 47
0.0
 48
0.0
 49
0.0
140
0.0
141
0.0
142
1.0
143
1.0
 70
  1712
 72
     0
 73
     0
 74
     0
  7

 75
     0
 76
     0
 77
     2
 78
   300
147
1.0
148
0.0
149
0.0
100
AcDbLayout
  1
Model
 70
     1
 71
     0
 10
0.0
 20
0.0
 11
12.0
 21
9.0
 12
0.0
 22
0.0
 32
0.0
 14
-238.7868973597893
 24
-887.8332648379828
 34
0.0
 15
210.152806562998
 25
958.0959185706804
 35
0.0
146
0.0
 13
0.0
 23
0.0
 33
0.0
 16
1.0
 26
0.0
 36
0.0
 17
0.0
 27
1.0
 37
0.0
 76
     0
330
1F
331
29
  0
MATERIAL
  5
45
102
{ACAD_REACTORS
330
43
102
}
330
43
100
AcDbMaterial
  1
ByBlock
 72
     1
 94
      127
  0
MATERIAL
  5
44
102
{ACAD_REACTORS
330
43
102
}
330
43
100
AcDbMaterial
  1
ByLayer
 72
     1
 94
      127
  0
MATERIAL
  5
46
102
{ACAD_REACTORS
330
43
102
}
330
43
100
AcDbMaterial
  1
Global
 72
     1
 94
      127
  0
MLEADERSTYLE
  5
5C
102
{ACAD_REACTORS
330
5B
102
}
102
{ACAD_XDICTIONARY
360
17A
102
}
330
5B
100
AcDbMLeaderStyle
170
     2
171
     1
172
     0
 90
        2
 40
0.0
 41
0.0
173
     1
 91
-1056964608
340
14
 92
       -2
290
     1
 42
0.09
291
     1
 43
0.36
  3
Standard
341
0
 44
0.18
300

342
11
174
     1
178
     6
175
     1
176
     0
 93
-1056964608
 45
0.18
292
     0
297
     0
 46
0.18
343
0
 94
-1056964608
 47
1.0
 49
1.0
140
1.0
293
     1
141
0.0
294
     1
177
     0
142
1.0
295
     0
296
     0
143
0.125
1001
ACAD_MLEADERVER
1070
     2
  0
MLINESTYLE
  5
18
102
{ACAD_REACTORS
330
17
102
}
330
17
100
AcDbMlineStyle
  2
Standard
 70
     0
  3

 62
   256
 51
90.0
 52
90.0
 71
     2
 49
0.5
 62
   256
  6
BYLAYER
 49
-0.5
 62
   256
  6
BYLAYER
  0
ACDBPLACEHOLDER
  5
F
102
{ACAD_REACTORS
330
E
102
}
330
E
  0
SCALE
  5
48
102
{ACAD_REACTORS
330
47
102
}
330
47
100
AcDbScale
 70
     0
300
1:1
140
1.0
141
1.0
290
     1
  0
SCALE
  5
49
102
{ACAD_REACTORS
330
47
102
}
330
47
100
AcDbScale
 70
     0
300
1/128" = 1'-0"
140
0.0078125
141
12.0
290
     0
  0
SCALE
  5
4A
102
{ACAD_REACTORS
330
47
102
}
330
47
100
AcDbScale
 70
     0
300
1/64" = 1'-0"
140
0.015625
141
12.0
290
     0
  0
SCALE
  5
4B
102
{ACAD_REACTORS
330
47
102
}
330
47
100
AcDbScale
 70
     0
300
1/32" = 1'-0"
140
0.03125
141
12.0
290
     0
  0
SCALE
  5
4C
102
{ACAD_REACTORS
330
47
102
}
330
47
100
AcDbScale
 70
     0
300
1/16" = 1'-0"
140
0.0625
141
12.0
290
     0
  0
SCALE
  5
4D
102
{ACAD_REACTORS
330
47
102
}
330
47
100
AcDbScale
 70
     0
300
3/32" = 1'-0"
140
0.09375
141
12.0
290
     0
  0
SCALE
  5
4E
102
{ACAD_REACTORS
330
47
102
}
330
47
100
AcDbScale
 70
     0
300
1/8" = 1'-0"
140
0.125
141
12.0
290
     0
  0
SCALE
  5
4F
102
{ACAD_REACTORS
330
47
102
}
330
47
100
AcDbScale
 70
     0
300
3/16" = 1'-0"
140
0.1875
141
12.0
290
     0
  0
SCALE
  5
50
102
{ACAD_REACTORS
330
47
102
}
330
47
100
AcDbScale
 70
     0
300
1/4" = 1'-0"
140
0.25
141
12.0
290
     0
  0
SCALE
  5
51
102
{ACAD_REACTORS
330
47
102
}
330
47
100
AcDbScale
 70
     0
300
3/8" = 1'-0"
140
0.375
141
12.0
290
     0
  0
SCALE
  5
52
102
{ACAD_REACTORS
330
47
102
}
330
47
100
AcDbScale
 70
     0
300
1/2" = 1'-0"
140
0.5
141
12.0
290
     0
  0
SCALE
  5
53
102
{ACAD_REACTORS
330
47
102
}
330
47
100
AcDbScale
 70
     0
300
3/4" = 1'-0"
140
0.75
141
12.0
290
     0
  0
SCALE
  5
54
102
{ACAD_REACTORS
330
47
102
}
330
47
100
AcDbScale
 70
     0
300
1" = 1'-0"
140
1.0
141
12.0
290
     0
  0
SCALE
  5
55
102
{ACAD_REACTORS
330
47
102
}
330
47
100
AcDbScale
 70
     0
300
1-1/2" = 1'-0"
140
1.5
141
12.0
290
     0
  0
SCALE
  5
56
102
{ACAD_REACTORS
330
47
102
}
330
47
100
AcDbScale
 70
     0
300
3" = 1'-0"
140
3.0
141
12.0
290
     0
  0
SCALE
  5
57
102
{ACAD_REACTORS
330
47
102
}
330
47
100
AcDbScale
 70
     0
300
6" = 1'-0"
140
6.0
141
12.0
290
     0
  0
SCALE
  5
58
102
{ACAD_REACTORS
330
47
102
}
330
47
100
AcDbScale
 70
     0
300
1'-0" = 1'-0"
140
12.0
141
12.0
290
     0
  0
TABLESTYLE
  5
5A
102
{ACAD_REACTORS
330
59
102
}
102
{ACAD_XDICTIONARY
360
177
102
}
330
59
100
AcDbTableStyle
  3
Standard
 70
     0
 71
     0
 40
0.06
 41
0.06
280
     0
281
     0
  7
Standard
140
0.18
170
     2
 62
     0
 63
   257
283
     0
 90
        4
 91
        0
  1

274
    -2
284
     1
 64
     0
275
    -2
285
     1
 65
     0
276
    -2
286
     1
 66
     0
277
    -2
287
     1
 67
     0
278
    -2
288
     1
 68
     0
279
    -2
289
     1
 69
     0
  7
Standard
140
0.25
170
     5
 62
     0
 63
   257
283
     0
 90
        4
 91
        0
  1

274
    -2
284
     1
 64
     0
275
    -2
285
     1
 65
     0
276
    -2
286
     1
 66
     0
277
    -2
287
     1
 67
     0
278
    -2
288
     1
 68
     0
279
    -2
289
     1
 69
     0
  7
Standard
140
0.18
170
     5
 62
     0
 63
   257
283
     0
 90
        4
 91
        0
  1

274
    -2
284
     1
 64
     0
275
    -2
285
     1
 65
     0
276
    -2
286
     1
 66
     0
277
    -2
287
     1
 67
     0
278
    -2
288
     1
 68
     0
279
    -2
289
     1
 69
     0
  0
VISUALSTYLE
  5
2F
102
{ACAD_REACTORS
330
2A
102
}
102
{ACAD_XDICTIONARY
360
14F
102
}
330
2A
100
AcDbVisualStyle
  2
2dWireframe
 70
     4
 71
     0
 72
     2
 73
     0
 90
        0
 40
0.6
 41
30.0
 62
     5
 63
     7
421
 16777215
 74
     1
 91
        4
 64
     7
 65
   257
 75
     1
175
     1
 42
1.0
 92
        0
 66
   257
 43
1.0
 76
     1
 77
     6
 78
     2
 67
     7
 79
     5
170
     0
171
     0
290
     0
174
     0
 93
        1
 44
0.0
173
     0
291
     0
 45
0.0
  0
VISUALSTYLE
  5
32
102
{ACAD_REACTORS
330
2A
102
}
102
{ACAD_XDICTIONARY
360
155
102
}
330
2A
100
AcDbVisualStyle
  2
Basic
 70
     7
 71
     1
 72
     0
 73
     1
 90
        0
 40
0.6
 41
30.0
 62
     5
 63
     7
421
 16777215
 74
     0
 91
        4
 64
     7
 65
   257
 75
     1
175
     1
 42
1.0
 92
        8
 66
     7
 43
1.0
 76
     1
 77
     6
 78
     2
 67
     7
 79
     5
170
     0
171
     0
290
     0
174
     0
 93
        1
 44
0.0
173
     0
291
     1
 45
0.0
  0
VISUALSTYLE
  5
36
102
{ACAD_REACTORS
330
2A
102
}
102
{ACAD_XDICTIONARY
360
15D
102
}
330
2A
100
AcDbVisualStyle
  2
Brighten
 70
    12
 71
     2
 72
     2
 73
     0
 90
        0
 40
0.6
 41
30.0
 62
     5
 63
     7
421
 16777215
 74
     1
 91
        4
 64
     7
 65
   257
 75
     1
175
     1
 42
1.0
 92
        8
 66
     7
 43
1.0
 76
     1
 77
     6
 78
     2
 67
     7
 79
     5
170
     0
171
     0
290
     0
174
     0
 93
        1
 44
50.0
173
     0
291
     1
 45
0.0
  0
VISUALSTYLE
  5
3A
102
{ACAD_REACTORS
330
2A
102
}
102
{ACAD_XDICTIONARY
360
165
102
}
330
2A
100
AcDbVisualStyle
  2
ColorChange
 70
    16
 71
     2
 72
     2
 73
     3
 90
        0
 40
0.6
 41
30.0
 62
     5
 63
     8
421
  8421504
 74
     1
 91
        4
 64
     7
 65
   257
 75
     1
175
     1
 42
1.0
 92
        8
 66
     8
424
  8421504
 43
1.0
 76
     1
 77
     6
 78
     2
 67
     7
 79
     5
170
     0
171
     0
290
     0
174
     0
 93
        1
 44
0.0
173
     0
291
     1
 45
0.0
  0
VISUALSTYLE
  5
34
102
{ACAD_REACTORS
330
2A
102
}
102
{ACAD_XDICTIONARY
360
159
102
}
330
2A
100
AcDbVisualStyle
  2
Conceptual
 70
     9
 71
     3
 72
     2
 73
     0
 90
        0
 40
0.6
 41
30.0
 62
     5
 63
     7
421
 16777215
 74
     2
 91
        2
 64
     7
 65
   257
 75
     1
175
     1
 42
179.0
 92
        8
 66
     7
 43
1.0
 76
     1
 77
     6
 78
     2
 67
     7
 79
     3
170
     0
171
     0
290
     0
174
     0
 93
        1
 44
0.0
173
     0
291
     0
 45
0.0
  0
VISUALSTYLE
  5
35
102
{ACAD_REACTORS
330
2A
102
}
102
{ACAD_XDICTIONARY
360
15B
102
}
330
2A
100
AcDbVisualStyle
  2
Dim
 70
    11
 71
     2
 72
     2
 73
     0
 90
        0
 40
0.6
 41
30.0
 62
     5
 63
     7
421
 16777215
 74
     1
 91
        4
 64
     7
 65
   257
 75
     1
175
     1
 42
1.0
 92
        8
 66
     7
 43
1.0
 76
     1
 77
     6
 78
     2
 67
     7
 79
     5
170
     0
171
     0
290
     0
174
     0
 93
        1
 44
-50.0
173
     0
291
     1
 45
0.0
  0
VISUALSTYLE
  5
3D
102
{ACAD_REACTORS
330
2A
102
}
102
{ACAD_XDICTIONARY
360
16B
102
}
330
2A
100
AcDbVisualStyle
  2
EdgeColorOff
 70
    22
 71
     2
 72
     2
 73
     0
 90
        0
 40
0.6
 41
30.0
 62
     5
 63
     7
421
 16777215
 74
     1
 91
        4
 64
     7
 65
   257
 75
     1
175
     1
 42
1.0
 92
        8
 66
     7
 43
1.0
 76
     1
 77
     6
 78
     2
 67
     7
 79
     5
170
     0
171
     0
290
     0
174
     0
 93
        1
 44
0.0
173
     0
291
     1
 45
0.0
  0
VISUALSTYLE
  5
39
102
{ACAD_REACTORS
330
2A
102
}
102
{ACAD_XDICTIONARY
360
163
102
}
330
2A
100
AcDbVisualStyle
  2
Facepattern
 70
    15
 71
     2
 72
     2
 73
     0
 90
        0
 40
0.6
 41
30.0
 62
     5
 63
     7
421
 16777215
 74
     1
 91
        4
 64
     7
 65
   257
 75
     1
175
     1
 42
1.0
 92
        8
 66
     7
 43
1.0
 76
     1
 77
     6
 78
     2
 67
     7
 79
     5
170
     0
171
     0
290
     0
174
     0
 93
        1
 44
0.0
173
     0
291
     1
 45
0.0
  0
VISUALSTYLE
  5
2B
102
{ACAD_REACTORS
330
2A
102
}
102
{ACAD_XDICTIONARY
360
147
102
}
330
2A
100
AcDbVisualStyle
  2
Flat
 70
     0
 71
     2
 72
     1
 73
     1
 90
        2
 40
0.6
 41
30.0
 62
     5
 63
     7
421
 16777215
 74
     0
 91
        0
 64
     7
 65
   257
 75
     1
175
     1
 42
1.0
 92
        8
 66
     7
 43
1.0
 76
     1
 77
     6
 78
     2
 67
     7
 79
     5
170
     0
171
     0
290
     0
174
     0
 93
       13
 44
0.0
173
     0
291
     1
 45
0.0
  0
VISUALSTYLE
  5
2C
102
{ACAD_REACTORS
330
2A
102
}
102
{ACAD_XDICTIONARY
360
149
102
}
330
2A
100
AcDbVisualStyle
  2
FlatWithEdges
 70
     1
 71
     2
 72
     1
 73
     1
 90
        2
 40
0.6
 41
30.0
 62
     5
 63
     7
421
 16777215
 74
     1
 91
        0
 64
     7
 65
   257
 75
     1
175
     1
 42
1.0
 92
        0
 66
   257
 43
1.0
 76
     1
 77
     6
 78
     2
 67
     7
 79
     5
170
     0
171
     0
290
     0
174
     0
 93
       13
 44
0.0
173
     0
291
     1
 45
0.0
  0
VISUALSTYLE
  5
2D
102
{ACAD_REACTORS
330
2A
102
}
102
{ACAD_XDICTIONARY
360
14B
102
}
330
2A
100
AcDbVisualStyle
  2
Gouraud
 70
     2
 71
     2
 72
     2
 73
     1
 90
        2
 40
0.6
 41
30.0
 62
     5
 63
     7
421
 16777215
 74
     0
 91
        0
 64
     7
 65
   257
 75
     1
175
     1
 42
1.0
 92
        0
 66
     7
 43
1.0
 76
     1
 77
     6
 78
     2
 67
     7
 79
     5
170
     0
171
     0
290
     0
174
     0
 93
       13
 44
0.0
173
     0
291
     1
 45
0.0
  0
VISUALSTYLE
  5
2E
102
{ACAD_REACTORS
330
2A
102
}
102
{ACAD_XDICTIONARY
360
14D
102
}
330
2A
100
AcDbVisualStyle
  2
GouraudWithEdges
 70
     3
 71
     2
 72
     2
 73
     1
 90
        2
 40
0.6
 41
30.0
 62
     5
 63
     7
421
 16777215
 74
     1
 91
        0
 64
     7
 65
   257
 75
     1
175
     1
 42
1.0
 92
        0
 66
   257
 43
1.0
 76
     1
 77
     6
 78
     2
 67
     7
 79
     5
170
     0
171
     0
290
     0
174
     0
 93
       13
 44
0.0
173
     0
291
     1
 45
0.0
  0
VISUALSTYLE
  5
31
102
{ACAD_REACTORS
330
2A
102
}
102
{ACAD_XDICTIONARY
360
153
102
}
330
2A
100
AcDbVisualStyle
  2
Hidden
 70
     6
 71
     1
 72
     2
 73
     2
 90
        0
 40
0.6
 41
30.0
 62
     5
 63
     7
421
 16777215
 74
     2
 91
        2
 64
     7
 65
   257
 75
     2
175
     1
 42
40.0
 92
        0
 66
   257
 43
1.0
 76
     1
 77
     6
 78
     2
 67
     7
 79
     3
170
     0
171
     0
290
     0
174
     0
 93
        1
 44
0.0
173
     0
291
     0
 45
0.0
  0
VISUALSTYLE
  5
3B
102
{ACAD_REACTORS
330
2A
102
}
102
{ACAD_XDICTIONARY
360
167
102
}
330
2A
100
AcDbVisualStyle
  2
JitterOff
 70
    20
 71
     2
 72
     2
 73
     0
 90
        0
 40
0.6
 41
30.0
 62
     5
 63
     7
421
 16777215
 74
     1
 91
        4
 64
     7
 65
   257
 75
     1
175
     1
 42
1.0
 92
       10
 66
     7
 43
1.0
 76
     1
 77
     6
 78
     2
 67
     7
 79
     5
170
     0
171
     0
290
     0
174
     0
 93
        1
 44
0.0
173
     0
291
     1
 45
0.0
  0
VISUALSTYLE
  5
38
102
{ACAD_REACTORS
330
2A
102
}
102
{ACAD_XDICTIONARY
360
161
102
}
330
2A
100
AcDbVisualStyle
  2
Linepattern
 70
    14
 71
     2
 72
     2
 73
     0
 90
        0
 40
0.6
 41
30.0
 62
     5
 63
     7
421
 16777215
 74
     1
 91
        4
 64
     7
 65
   257
 75
     7
175
     7
 42
1.0
 92
        8
 66
     7
 43
1.0
 76
     1
 77
     6
 78
     2
 67
     7
 79
     5
170
     0
171
     0
290
     0
174
     0
 93
        1
 44
0.0
173
     0
291
     1
 45
0.0
  0
VISUALSTYLE
  5
3C
102
{ACAD_REACTORS
330
2A
102
}
102
{ACAD_XDICTIONARY
360
169
102
}
330
2A
100
AcDbVisualStyle
  2
OverhangOff
 70
    21
 71
     2
 72
     2
 73
     0
 90
        0
 40
0.6
 41
30.0
 62
     5
 63
     7
421
 16777215
 74
     1
 91
        4
 64
     7
 65
   257
 75
     1
175
     1
 42
1.0
 92
        9
 66
     7
 43
1.0
 76
     1
 77
     6
 78
     2
 67
     7
 79
     5
170
     0
171
     0
290
     0
174
     0
 93
        1
 44
0.0
173
     0
291
     1
 45
0.0
  0
VISUALSTYLE
  5
33
102
{ACAD_REACTORS
330
2A
102
}
102
{ACAD_XDICTIONARY
360
157
102
}
330
2A
100
AcDbVisualStyle
  2
Realistic
 70
     8
 71
     2
 72
     3
 73
     0
 90
        2
 40
0.6
 41
30.0
 62
     5
 63
     7
421
 16777215
 74
     0
 91
        0
 64
     7
 65
   257
 75
     1
175
     1
 42
1.0
 92
        8
 66
   257
 43
1.0
 76
     1
 77
     6
 78
     2
 67
     7
 79
     3
170
     0
171
     0
290
     0
174
     0
 93
       13
 44
0.0
173
     0
291
     0
 45
0.0
  0
VISUALSTYLE
  5
42
102
{ACAD_REACTORS
330
2A
102
}
102
{ACAD_XDICTIONARY
360
175
102
}
330
2A
100
AcDbVisualStyle
  2
Shaded
 70
    27
 71
     2
 72
     2
 73
     1
 90
        2
 40
0.6
 41
30.0
 62
     5
 63
     7
421
 16777215
 74
     0
 91
        4
 64
     7
 65
   257
 75
     1
175
     1
 42
1.0
 92
        8
 66
   257
 43
1.0
 76
     1
 77
     6
 78
     2
 67
     8
425
  7895160
 79
     3
170
     0
171
     0
290
     0
174
     0
 93
        5
 44
0.0
173
     0
291
     0
 45
0.0
  0
VISUALSTYLE
  5
41
102
{ACAD_REACTORS
330
2A
102
}
102
{ACAD_XDICTIONARY
360
173
102
}
330
2A
100
AcDbVisualStyle
  2
Shaded with edges
 70
    26
 71
     2
 72
     2
 73
     1
 90
        2
 40
0.6
 41
30.0
 62
     5
 63
     7
421
 16777215
 74
     1
 91
       10
 64
     7
 65
   257
 75
     2
175
     1
 42
1.0
 92
        8
 66
   257
 43
1.0
 76
     1
 77
     6
 78
     2
 67
     7
 79
     3
170
     0
171
     0
290
     0
174
     0
 93
        5
 44
0.0
173
     0
291
     0
 45
0.0
  0
VISUALSTYLE
  5
3E
102
{ACAD_REACTORS
330
2A
102
}
102
{ACAD_XDICTIONARY
360
16D
102
}
330
2A
100
AcDbVisualStyle
  2
Shades of Gray
 70
    23
 71
     2
 72
     2
 73
     3
 90
        0
 40
0.6
 41
30.0
 62
     5
 63
     7
421
 16777215
 74
     2
 91
        2
 64
     7
 65
     7
 75
     1
175
     1
 42
40.0
 92
        8
 66
     7
 43
1.0
 76
     1
 77
     6
 78
     2
 67
     7
 79
     3
170
     0
171
     0
290
     0
174
     0
 93
        1
 44
0.0
173
     0
291
     0
 45
0.0
  0
VISUALSTYLE
  5
3F
102
{ACAD_REACTORS
330
2A
102
}
102
{ACAD_XDICTIONARY
360
16F
102
}
330
2A
100
AcDbVisualStyle
  2
Sketchy
 70
    24
 71
     1
 72
     2
 73
     2
 90
        0
 40
0.6
 41
30.0
 62
     5
 63
     7
421
 16777215
 74
     2
 91
        2
 64
     7
 65
     7
 75
     1
175
     1
 42
40.0
 92
       11
 66
     7
 43
1.0
 76
     1
 77
     6
 78
     2
 67
     7
 79
     6
170
     0
171
     0
290
     0
174
     0
 93
        1
 44
0.0
173
     0
291
     0
 45
0.0
  0
VISUALSTYLE
  5
37
102
{ACAD_REACTORS
330
2A
102
}
102
{ACAD_XDICTIONARY
360
15F
102
}
330
2A
100
AcDbVisualStyle
  2
Thicken
 70
    13
 71
     2
 72
     2
 73
     0
 90
        0
 40
0.6
 41
30.0
 62
     5
 63
     7
421
 16777215
 74
     1
 91
        4
 64
     7
 65
   257
 75
     1
175
     1
 42
1.0
 92
       12
 66
     7
 43
1.0
 76
     1
 77
     6
 78
     2
 67
     7
 79
     5
170
     0
171
     0
290
     0
174
     0
 93
        1
 44
0.0
173
     0
291
     1
 45
0.0
  0
VISUALSTYLE
  5
30
102
{ACAD_REACTORS
330
2A
102
}
102
{ACAD_XDICTIONARY
360
151
102
}
330
2A
100
AcDbVisualStyle
  2
Wireframe
 70
     5
 71
     0
 72
     2
 73
     0
 90
        0
 40
0.6
 41
30.0
 62
     5
 63
     7
421
 16777215
 74
     1
 91
        4
 64
     7
 65
   257
 75
     1
175
     1
 42
1.0
 92
        0
 66
   257
 43
1.0
 76
     1
 77
     6
 78
     2
 67
     7
 79
     3
170
     0
171
     0
290
     0
174
     0
 93
        1
 44
0.0
173
     0
291
     0
 45
0.0
  0
VISUALSTYLE
  5
40
102
{ACAD_REACTORS
330
2A
102
}
102
{ACAD_XDICTIONARY
360
171
102
}
330
2A
100
AcDbVisualStyle
  2
X-Ray
 70
    25
 71
     2
 72
     2
 73
     1
 90
        1
 40
0.5
 41
30.0
 62
     5
 63
     7
421
 16777215
 74
     1
 91
        0
 64
     7
 65
   257
 75
     1
175
     1
 42
1.0
 92
        8
 66
     7
 43
1.0
 76
     1
 77
     6
 78
     2
 67
     7
 79
     3
170
     0
171
     0
290
     0
174
     0
 93
       13
 44
0.0
173
     0
291
     0
 45
0.0
  0
DICTIONARYVAR
  5
145
102
{ACAD_REACTORS
330
144
102
}
330
144
100
DictionaryVariables
280
     0
  1
1:1
  0
DICTIONARYVAR
  5
17E
102
{ACAD_REACTORS
330
144
102
}
330
144
100
DictionaryVariables
280
     0
  1
Standard
  0
DICTIONARYVAR
  5
17D
102
{ACAD_REACTORS
330
144
102
}
330
144
100
DictionaryVariables
280
     0
  1
Standard
  0
DICTIONARYVAR
  5
146
102
{ACAD_REACTORS
330
144
102
}
330
144
100
DictionaryVariables
280
     0
  1
2
  0
DICTIONARY
  5
17A
330
5C
100
AcDbDictionary
280
     1
281
     1
  3
ACAD_XREC_ROUNDTRIP
360
17B
  0
DICTIONARY
  5
177
330
5A
100
AcDbDictionary
280
     1
281
     1
  3
ACAD_ROUNDTRIP_2008_TABLESTYLE_CELLSTYLEMAP
360
178
  0
DICTIONARY
  5
14F
330
2F
100
AcDbDictionary
280
     1
281
     1
  3
ACAD_XREC_ROUNDTRIP
360
150
  0
DICTIONARY
  5
155
330
32
100
AcDbDictionary
280
     1
281
     1
  3
ACAD_XREC_ROUNDTRIP
360
156
  0
DICTIONARY
  5
15D
330
36
100
AcDbDictionary
280
     1
281
     1
  3
ACAD_XREC_ROUNDTRIP
360
15E
  0
DICTIONARY
  5
165
330
3A
100
AcDbDictionary
280
     1
281
     1
  3
ACAD_XREC_ROUNDTRIP
360
166
  0
DICTIONARY
  5
159
330
34
100
AcDbDictionary
280
     1
281
     1
  3
ACAD_XREC_ROUNDTRIP
360
15A
  0
DICTIONARY
  5
15B
330
35
100
AcDbDictionary
280
     1
281
     1
  3
ACAD_XREC_ROUNDTRIP
360
15C
  0
DICTIONARY
  5
16B
330
3D
100
AcDbDictionary
280
     1
281
     1
  3
ACAD_XREC_ROUNDTRIP
360
16C
  0
DICTIONARY
  5
163
330
39
100
AcDbDictionary
280
     1
281
     1
  3
ACAD_XREC_ROUNDTRIP
360
164
  0
DICTIONARY
  5
147
330
2B
100
AcDbDictionary
280
     1
281
     1
  3
ACAD_XREC_ROUNDTRIP
360
148
  0
DICTIONARY
  5
149
330
2C
100
AcDbDictionary
280
     1
281
     1
  3
ACAD_XREC_ROUNDTRIP
360
14A
  0
DICTIONARY
  5
14B
330
2D
100
AcDbDictionary
280
     1
281
     1
  3
ACAD_XREC_ROUNDTRIP
360
14C
  0
DICTIONARY
  5
14D
330
2E
100
AcDbDictionary
280
     1
281
     1
  3
ACAD_XREC_ROUNDTRIP
360
14E
  0
DICTIONARY
  5
153
330
31
100
AcDbDictionary
280
     1
281
     1
  3
ACAD_XREC_ROUNDTRIP
360
154
  0
DICTIONARY
  5
167
330
3B
100
AcDbDictionary
280
     1
281
     1
  3
ACAD_XREC_ROUNDTRIP
360
168
  0
DICTIONARY
  5
161
330
38
100
AcDbDictionary
280
     1
281
     1
  3
ACAD_XREC_ROUNDTRIP
360
162
  0
DICTIONARY
  5
169
330
3C
100
AcDbDictionary
280
     1
281
     1
  3
ACAD_XREC_ROUNDTRIP
360
16A
  0
DICTIONARY
  5
157
330
33
100
AcDbDictionary
280
     1
281
     1
  3
ACAD_XREC_ROUNDTRIP
360
158
  0
DICTIONARY
  5
175
330
42
100
AcDbDictionary
280
     1
281
     1
  3
ACAD_XREC_ROUNDTRIP
360
176
  0
DICTIONARY
  5
173
330
41
100
AcDbDictionary
280
     1
281
     1
  3
ACAD_XREC_ROUNDTRIP
360
174
  0
DICTIONARY
  5
16D
330
3E
100
AcDbDictionary
280
     1
281
     1
  3
ACAD_XREC_ROUNDTRIP
360
16E
  0
DICTIONARY
  5
16F
330
3F
100
AcDbDictionary
280
     1
281
     1
  3
ACAD_XREC_ROUNDTRIP
360
170
  0
DICTIONARY
  5
15F
330
37
100
AcDbDictionary
280
     1
281
     1
  3
ACAD_XREC_ROUNDTRIP
360
160
  0
DICTIONARY
  5
151
330
30
100
AcDbDictionary
280
     1
281
     1
  3
ACAD_XREC_ROUNDTRIP
360
152
  0
DICTIONARY
  5
171
330
40
100
AcDbDictionary
280
     1
281
     1
  3
ACAD_XREC_ROUNDTRIP
360
172
  0
XRECORD
  5
17B
102
{ACAD_REACTORS
330
17A
102
}
330
17A
100
AcDbXrecord
280
     1
102
ACAD_ROUNDTRIP_2010_MLEADER_STYLE
  0
CELLSTYLEMAP
  5
178
102
{ACAD_REACTORS
330
177
102
}
330
177
100
AcDbCellStyleMap
 90
        3
300
CELLSTYLE
  1
TABLEFORMAT_BEGIN
 90
        5
170
     1
 91
        0
 92
    32768
 62
   257
 93
        1
300
CONTENTFORMAT
  1
CONTENTFORMAT_BEGIN
 90
        0
 91
        0
 92
        4
 93
        0
300

 40
0.0
140
1.0
 94
        5
 62
     0
340
11
144
0.25
309
CONTENTFORMAT_END
171
     1
301
MARGIN
  1
CELLMARGIN_BEGIN
 40
0.06
 40
0.06
 40
0.06
 40
0.06
 40
0.06
 40
0.06
309
CELLMARGIN_END
 94
        6
 95
        1
302
GRIDFORMAT
  1
GRIDFORMAT_BEGIN
 90
        0
 91
        1
 62
     0
 92
       -2
340
14
 93
        0
 40
0.045
309
GRIDFORMAT_END
 95
        2
302
GRIDFORMAT
  1
GRIDFORMAT_BEGIN
 90
        0
 91
        1
 62
     0
 92
       -2
340
14
 93
        0
 40
0.045
309
GRIDFORMAT_END
 95
        4
302
GRIDFORMAT
  1
GRIDFORMAT_BEGIN
 90
        0
 91
        1
 62
     0
 92
       -2
340
14
 93
        0
 40
0.045
309
GRIDFORMAT_END
 95
        8
302
GRIDFORMAT
  1
GRIDFORMAT_BEGIN
 90
        0
 91
        1
 62
     0
 92
       -2
340
14
 93
        0
 40
0.045
309
GRIDFORMAT_END
 95
       16
302
GRIDFORMAT
  1
GRIDFORMAT_BEGIN
 90
        0
 91
        1
 62
     0
 92
       -2
340
14
 93
        0
 40
0.045
309
GRIDFORMAT_END
 95
       32
302
GRIDFORMAT
  1
GRIDFORMAT_BEGIN
 90
        0
 91
        1
 62
     0
 92
       -2
340
14
 93
        0
 40
0.045
309
GRIDFORMAT_END
309
TABLEFORMAT_END
  1
CELLSTYLE_BEGIN
 90
        1
 91
        1
300
_TITLE
309
CELLSTYLE_END
300
CELLSTYLE
  1
TABLEFORMAT_BEGIN
 90
        5
170
     1
 91
        0
 92
        0
 62
   257
 93
        1
300
CONTENTFORMAT
  1
CONTENTFORMAT_BEGIN
 90
        0
 91
        0
 92
        4
 93
        0
300

 40
0.0
140
1.0
 94
        5
 62
     0
340
11
144
0.18
309
CONTENTFORMAT_END
171
     1
301
MARGIN
  1
CELLMARGIN_BEGIN
 40
0.06
 40
0.06
 40
0.06
 40
0.06
 40
0.06
 40
0.06
309
CELLMARGIN_END
 94
        6
 95
        1
302
GRIDFORMAT
  1
GRIDFORMAT_BEGIN
 90
        0
 91
        1
 62
     0
 92
       -2
340
14
 93
        0
 40
0.045
309
GRIDFORMAT_END
 95
        2
302
GRIDFORMAT
  1
GRIDFORMAT_BEGIN
 90
        0
 91
        1
 62
     0
 92
       -2
340
14
 93
        0
 40
0.045
309
GRIDFORMAT_END
 95
        4
302
GRIDFORMAT
  1
GRIDFORMAT_BEGIN
 90
        0
 91
        1
 62
     0
 92
       -2
340
14
 93
        0
 40
0.045
309
GRIDFORMAT_END
 95
        8
302
GRIDFORMAT
  1
GRIDFORMAT_BEGIN
 90
        0
 91
        1
 62
     0
 92
       -2
340
14
 93
        0
 40
0.045
309
GRIDFORMAT_END
 95
       16
302
GRIDFORMAT
  1
GRIDFORMAT_BEGIN
 90
        0
 91
        1
 62
     0
 92
       -2
340
14
 93
        0
 40
0.045
309
GRIDFORMAT_END
 95
       32
302
GRIDFORMAT
  1
GRIDFORMAT_BEGIN
 90
        0
 91
        1
 62
     0
 92
       -2
340
14
 93
        0
 40
0.045
309
GRIDFORMAT_END
309
TABLEFORMAT_END
  1
CELLSTYLE_BEGIN
 90
        2
 91
        1
300
_HEADER
309
CELLSTYLE_END
300
CELLSTYLE
  1
TABLEFORMAT_BEGIN
 90
        5
170
     1
 91
        0
 92
        0
 62
   257
 93
        1
300
CONTENTFORMAT
  1
CONTENTFORMAT_BEGIN
 90
        0
 91
        0
 92
        4
 93
        0
300

 40
0.0
140
1.0
 94
        2
 62
     0
340
11
144
0.18
309
CONTENTFORMAT_END
171
     1
301
MARGIN
  1
CELLMARGIN_BEGIN
 40
0.06
 40
0.06
 40
0.06
 40
0.06
 40
0.06
 40
0.06
309
CELLMARGIN_END
 94
        6
 95
        1
302
GRIDFORMAT
  1
GRIDFORMAT_BEGIN
 90
        0
 91
        1
 62
     0
 92
       -2
340
14
 93
        0
 40
0.045
309
GRIDFORMAT_END
 95
        2
302
GRIDFORMAT
  1
GRIDFORMAT_BEGIN
 90
        0
 91
        1
 62
     0
 92
       -2
340
14
 93
        0
 40
0.045
309
GRIDFORMAT_END
 95
        4
302
GRIDFORMAT
  1
GRIDFORMAT_BEGIN
 90
        0
 91
        1
 62
     0
 92
       -2
340
14
 93
        0
 40
0.045
309
GRIDFORMAT_END
 95
        8
302
GRIDFORMAT
  1
GRIDFORMAT_BEGIN
 90
        0
 91
        1
 62
     0
 92
       -2
340
14
 93
        0
 40
0.045
309
GRIDFORMAT_END
 95
       16
302
GRIDFORMAT
  1
GRIDFORMAT_BEGIN
 90
        0
 91
        1
 62
     0
 92
       -2
340
14
 93
        0
 40
0.045
309
GRIDFORMAT_END
 95
       32
302
GRIDFORMAT
  1
GRIDFORMAT_BEGIN
 90
        0
 91
        1
 62
     0
 92
       -2
340
14
 93
        0
 40
0.045
309
GRIDFORMAT_END
309
TABLEFORMAT_END
  1
CELLSTYLE_BEGIN
 90
        3
 91
        2
300
_DATA
309
CELLSTYLE_END
  0
XRECORD
  5
150
102
{ACAD_REACTORS
330
14F
102
}
330
14F
100
AcDbXrecord
280
     1
102
RTVSPropertyOp0
 70
     1
102
RTVSPropertyOp1
 70
     1
102
RTVSPropertyOp2
 70
     1
102
RTVSPropertyOp3
 70
     1
102
RTVSPropertyOp4
 70
     1
102
RTVSPropertyOp5
 70
     1
102
RTVSPropertyOp6
 70
     1
102
RTVSPropertyOp7
 70
     1
102
RTVSPropertyOp8
 70
     1
102
RTVSPropertyOp9
 70
     1
102
RTVSPropertyOp10
 70
     1
102
RTVSPropertyOp11
 70
     1
102
RTVSPropertyOp12
 70
     1
102
RTVSPropertyOp13
 70
     1
102
RTVSPropertyOp14
 70
     1
102
RTVSPropertyOp15
 70
     1
102
RTVSPropertyOp16
 70
     1
102
RTVSPropertyOp17
 70
     1
102
RTVSPropertyOp18
 70
     1
102
RTVSPropertyOp19
 70
     1
102
RTVSPropertyOp20
 70
     1
102
RTVSPropertyOp21
 70
     1
102
RTVSPropertyOp22
 70
     1
102
RTVSPropertyOp23
 70
     1
102
RTVSPropertyOp24
 70
     1
102
RTVSPropertyOp25
 70
     1
102
RTVSPropertyOp26
 70
     1
102
RTVSPropertyOp27
 70
     1
102
RTVSPropertyOp28
 70
     1
102
RTVSPropertyOp29
 70
     1
102
RTVSPropertyOp30
 70
     1
102
RTVSPropertyOp31
 70
     1
102
RTVSPropertyOp32
 70
     1
102
RTVSPropertyOp33
 70
     1
102
RTVSPropertyOp34
 70
     1
102
RTVSPropertyOp35
 70
     1
102
RTVSPropertyOp36
 70
     1
102
RTVSPropertyOp37
 70
     1
102
RTVSPropertyOp38
 70
     1
102
RTVSPropertyOp39
 70
     1
102
RTVSPropertyOp40
 70
     1
102
RTVSPropertyOp41
 70
     1
102
RTVSPropertyOp42
 70
     1
102
RTVSPropertyOp43
 70
     1
102
RTVSPropertyOp44
 70
     1
102
RTVSPropertyOp45
 70
     1
102
RTVSPropertyOp46
 70
     1
102
RTVSPropertyOp47
 70
     1
102
RTVSPropertyOp48
 70
     1
102
RTVSPropertyOp49
 70
     1
102
RTVSPropertyOp50
 70
     1
102
RTVSPropertyOp51
 70
     0
102
RTVSPropertyOp52
 70
     0
102
RTVSPropertyOp53
 70
     1
102
RTVSPropertyOp54
 70
     1
102
RTVSPropertyOp55
 70
     1
102
RTVSPropertyOp56
 70
     1
102
RTVSPropertyOp57
 70
     1
102
RTVSPost2010Prop28
280
     1
102
RTVSPost2010PropOp28
 70
     1
102
RTVSPost2010Prop29
280
     1
102
RTVSPost2010PropOp29
 70
     1
102
RTVSPost2010Prop30
280
     0
102
RTVSPost2010PropOp30
 70
     1
102
RTVSPost2010Prop31
280
     0
102
RTVSPost2010PropOp31
 70
     1
102
RTVSPost2010Prop32
280
     0
102
RTVSPost2010PropOp32
 70
     1
102
RTVSPost2010Prop33
280
     0
102
RTVSPost2010PropOp33
 70
     1
102
RTVSPost2010Prop34
280
     0
102
RTVSPost2010PropOp34
 70
     1
102
RTVSPost2010Prop35
280
     0
102
RTVSPost2010PropOp35
 70
     1
102
RTVSPost2010Prop36
280
     0
102
RTVSPost2010PropOp36
 70
     1
102
RTVSPost2010Prop37
 90
       50
102
RTVSPost2010PropOp37
 70
     1
102
RTVSPost2010Prop38
140
0.0
102
RTVSPost2010PropOp38
 70
     1
102
RTVSPost2010Prop39
140
1.0
102
RTVSPost2010PropOp39
 70
     1
102
RTVSPost2010Prop40
 90
        0
102
RTVSPost2010PropOp40
 70
     1
102
RTVSPost2010Prop41ColorIndex
 90
       18
102
RTVSPost2010Prop41ColorRGB
 90
        0
102
RTVSPost2010PropOp41
 70
     1
102
RTVSPost2010Prop42
 90
       50
102
RTVSPost2010PropOp42
 70
     1
102
RTVSPost2010Prop43
 90
        3
102
RTVSPost2010PropOp43
 70
     1
102
RTVSPost2010Prop44ColorIndex
 90
        5
102
RTVSPost2010Prop44ColorRGB
 90
      255
102
RTVSPost2010PropOp44
 70
     1
102
RTVSPost2010Prop45
280
     0
102
RTVSPost2010PropOp45
 70
     1
102
RTVSPost2010Prop46
 90
       50
102
RTVSPost2010PropOp46
 70
     1
102
RTVSPost2010Prop47
 90
       50
102
RTVSPost2010PropOp47
 70
     1
102
RTVSPost2010Prop48
 90
       50
102
RTVSPost2010PropOp48
 70
     1
102
RTVSPost2010Prop49
280
     0
102
RTVSPost2010PropOp49
 70
     1
102
RTVSPost2010Prop50
 90
       50
102
RTVSPost2010PropOp50
 70
     1
102
RTVSPost2010Prop51ColorIndex
 90
      256
102
RTVSPost2010Prop51ColorRGB
 90
-16777216
102
RTVSPost2010PropOp51
 70
     0
102
RTVSPost2010Prop52
140
1.0
102
RTVSPost2010PropOp52
 70
     0
102
RTVSPost2010Prop53
 90
        2
102
RTVSPost2010PropOp53
 70
     1
102
RTVSPost2010Prop54
  1
strokes_ogs.tif
102
RTVSPost2010PropOp54
 70
     1
102
RTVSPost2010Prop55
280
     0
102
RTVSPost2010PropOp55
 70
     1
102
RTVSPost2010Prop56
140
1.0
102
RTVSPost2010PropOp56
 70
     1
102
RTVSPost2010Prop57
140
1.0
102
RTVSPost2010PropOp57
 70
     1
  0
XRECORD
  5
156
102
{ACAD_REACTORS
330
155
102
}
330
155
100
AcDbXrecord
280
     1
102
RTVSPropertyOp0
 70
     1
102
RTVSPropertyOp1
 70
     1
102
RTVSPropertyOp2
 70
     1
102
RTVSPropertyOp3
 70
     1
102
RTVSPropertyOp4
 70
     1
102
RTVSPropertyOp5
 70
     1
102
RTVSPropertyOp6
 70
     1
102
RTVSPropertyOp7
 70
     1
102
RTVSPropertyOp8
 70
     1
102
RTVSPropertyOp9
 70
     1
102
RTVSPropertyOp10
 70
     1
102
RTVSPropertyOp11
 70
     1
102
RTVSPropertyOp12
 70
     1
102
RTVSPropertyOp13
 70
     1
102
RTVSPropertyOp14
 70
     1
102
RTVSPropertyOp15
 70
     1
102
RTVSPropertyOp16
 70
     1
102
RTVSPropertyOp17
 70
     1
102
RTVSPropertyOp18
 70
     1
102
RTVSPropertyOp19
 70
     1
102
RTVSPropertyOp20
 70
     1
102
RTVSPropertyOp21
 70
     1
102
RTVSPropertyOp22
 70
     1
102
RTVSPropertyOp23
 70
     1
102
RTVSPropertyOp24
 70
     1
102
RTVSPropertyOp25
 70
     1
102
RTVSPropertyOp26
 70
     1
102
RTVSPropertyOp27
 70
     1
102
RTVSPropertyOp28
 70
     1
102
RTVSPropertyOp29
 70
     1
102
RTVSPropertyOp30
 70
     1
102
RTVSPropertyOp31
 70
     1
102
RTVSPropertyOp32
 70
     1
102
RTVSPropertyOp33
 70
     1
102
RTVSPropertyOp34
 70
     1
102
RTVSPropertyOp35
 70
     1
102
RTVSPropertyOp36
 70
     1
102
RTVSPropertyOp37
 70
     1
102
RTVSPropertyOp38
 70
     1
102
RTVSPropertyOp39
 70
     1
102
RTVSPropertyOp40
 70
     1
102
RTVSPropertyOp41
 70
     1
102
RTVSPropertyOp42
 70
     1
102
RTVSPropertyOp43
 70
     1
102
RTVSPropertyOp44
 70
     1
102
RTVSPropertyOp45
 70
     1
102
RTVSPropertyOp46
 70
     1
102
RTVSPropertyOp47
 70
     1
102
RTVSPropertyOp48
 70
     1
102
RTVSPropertyOp49
 70
     1
102
RTVSPropertyOp50
 70
     1
102
RTVSPropertyOp51
 70
     0
102
RTVSPropertyOp52
 70
     0
102
RTVSPropertyOp53
 70
     1
102
RTVSPropertyOp54
 70
     1
102
RTVSPropertyOp55
 70
     1
102
RTVSPropertyOp56
 70
     1
102
RTVSPropertyOp57
 70
     1
102
RTVSPost2010Prop28
280
     0
102
RTVSPost2010PropOp28
 70
     1
102
RTVSPost2010Prop29
280
     1
102
RTVSPost2010PropOp29
 70
     1
102
RTVSPost2010Prop30
280
     1
102
RTVSPost2010PropOp30
 70
     1
102
RTVSPost2010Prop31
280
     0
102
RTVSPost2010PropOp31
 70
     1
102
RTVSPost2010Prop32
280
     0
102
RTVSPost2010PropOp32
 70
     1
102
RTVSPost2010Prop33
280
     0
102
RTVSPost2010PropOp33
 70
     1
102
RTVSPost2010Prop34
280
     0
102
RTVSPost2010PropOp34
 70
     1
102
RTVSPost2010Prop35
280
     0
102
RTVSPost2010PropOp35
 70
     1
102
RTVSPost2010Prop36
280
     0
102
RTVSPost2010PropOp36
 70
     1
102
RTVSPost2010Prop37
 90
       50
102
RTVSPost2010PropOp37
 70
     1
102
RTVSPost2010Prop38
140
0.0
102
RTVSPost2010PropOp38
 70
     1
102
RTVSPost2010Prop39
140
1.0
102
RTVSPost2010PropOp39
 70
     1
102
RTVSPost2010Prop40
 90
        0
102
RTVSPost2010PropOp40
 70
     1
102
RTVSPost2010Prop41ColorIndex
 90
       18
102
RTVSPost2010Prop41ColorRGB
 90
        0
102
RTVSPost2010PropOp41
 70
     1
102
RTVSPost2010Prop42
 90
       50
102
RTVSPost2010PropOp42
 70
     1
102
RTVSPost2010Prop43
 90
        3
102
RTVSPost2010PropOp43
 70
     1
102
RTVSPost2010Prop44ColorIndex
 90
        5
102
RTVSPost2010Prop44ColorRGB
 90
      255
102
RTVSPost2010PropOp44
 70
     1
102
RTVSPost2010Prop45
280
     0
102
RTVSPost2010PropOp45
 70
     1
102
RTVSPost2010Prop46
 90
       50
102
RTVSPost2010PropOp46
 70
     1
102
RTVSPost2010Prop47
 90
       50
102
RTVSPost2010PropOp47
 70
     1
102
RTVSPost2010Prop48
 90
       50
102
RTVSPost2010PropOp48
 70
     1
102
RTVSPost2010Prop49
280
     0
102
RTVSPost2010PropOp49
 70
     1
102
RTVSPost2010Prop50
 90
       50
102
RTVSPost2010PropOp50
 70
     1
102
RTVSPost2010Prop51ColorIndex
 90
      256
102
RTVSPost2010Prop51ColorRGB
 90
-16777216
102
RTVSPost2010PropOp51
 70
     0
102
RTVSPost2010Prop52
140
1.0
102
RTVSPost2010PropOp52
 70
     0
102
RTVSPost2010Prop53
 90
        2
102
RTVSPost2010PropOp53
 70
     1
102
RTVSPost2010Prop54
  1
strokes_ogs.tif
102
RTVSPost2010PropOp54
 70
     1
102
RTVSPost2010Prop55
280
     0
102
RTVSPost2010PropOp55
 70
     1
102
RTVSPost2010Prop56
140
1.0
102
RTVSPost2010PropOp56
 70
     1
102
RTVSPost2010Prop57
140
1.0
102
RTVSPost2010PropOp57
 70
     1
  0
XRECORD
  5
15E
102
{ACAD_REACTORS
330
15D
102
}
330
15D
100
AcDbXrecord
280
     1
102
RTVSPropertyOp0
 70
     1
102
RTVSPropertyOp1
 70
     1
102
RTVSPropertyOp2
 70
     1
102
RTVSPropertyOp3
 70
     1
102
RTVSPropertyOp4
 70
     1
102
RTVSPropertyOp5
 70
     1
102
RTVSPropertyOp6
 70
     1
102
RTVSPropertyOp7
 70
     1
102
RTVSPropertyOp8
 70
     1
102
RTVSPropertyOp9
 70
     1
102
RTVSPropertyOp10
 70
     1
102
RTVSPropertyOp11
 70
     1
102
RTVSPropertyOp12
 70
     1
102
RTVSPropertyOp13
 70
     1
102
RTVSPropertyOp14
 70
     1
102
RTVSPropertyOp15
 70
     1
102
RTVSPropertyOp16
 70
     1
102
RTVSPropertyOp17
 70
     1
102
RTVSPropertyOp18
 70
     1
102
RTVSPropertyOp19
 70
     1
102
RTVSPropertyOp20
 70
     1
102
RTVSPropertyOp21
 70
     1
102
RTVSPropertyOp22
 70
     1
102
RTVSPropertyOp23
 70
     1
102
RTVSPropertyOp24
 70
     1
102
RTVSPropertyOp25
 70
     1
102
RTVSPropertyOp26
 70
     1
102
RTVSPropertyOp27
 70
     1
102
RTVSPropertyOp28
 70
     1
102
RTVSPropertyOp29
 70
     1
102
RTVSPropertyOp30
 70
     1
102
RTVSPropertyOp31
 70
     1
102
RTVSPropertyOp32
 70
     1
102
RTVSPropertyOp33
 70
     1
102
RTVSPropertyOp34
 70
     1
102
RTVSPropertyOp35
 70
     1
102
RTVSPropertyOp36
 70
     1
102
RTVSPropertyOp37
 70
     1
102
RTVSPropertyOp38
 70
     1
102
RTVSPropertyOp39
 70
     1
102
RTVSPropertyOp40
 70
     1
102
RTVSPropertyOp41
 70
     1
102
RTVSPropertyOp42
 70
     1
102
RTVSPropertyOp43
 70
     1
102
RTVSPropertyOp44
 70
     1
102
RTVSPropertyOp45
 70
     1
102
RTVSPropertyOp46
 70
     1
102
RTVSPropertyOp47
 70
     1
102
RTVSPropertyOp48
 70
     1
102
RTVSPropertyOp49
 70
     1
102
RTVSPropertyOp50
 70
     1
102
RTVSPropertyOp51
 70
     0
102
RTVSPropertyOp52
 70
     0
102
RTVSPropertyOp53
 70
     1
102
RTVSPropertyOp54
 70
     1
102
RTVSPropertyOp55
 70
     1
102
RTVSPropertyOp56
 70
     1
102
RTVSPropertyOp57
 70
     1
102
RTVSPost2010Prop28
280
     0
102
RTVSPost2010PropOp28
 70
     1
102
RTVSPost2010Prop29
280
     1
102
RTVSPost2010PropOp29
 70
     1
102
RTVSPost2010Prop30
280
     1
102
RTVSPost2010PropOp30
 70
     1
102
RTVSPost2010Prop31
280
     0
102
RTVSPost2010PropOp31
 70
     1
102
RTVSPost2010Prop32
280
     0
102
RTVSPost2010PropOp32
 70
     1
102
RTVSPost2010Prop33
280
     0
102
RTVSPost2010PropOp33
 70
     1
102
RTVSPost2010Prop34
280
     0
102
RTVSPost2010PropOp34
 70
     1
102
RTVSPost2010Prop35
280
     0
102
RTVSPost2010PropOp35
 70
     1
102
RTVSPost2010Prop36
280
     0
102
RTVSPost2010PropOp36
 70
     1
102
RTVSPost2010Prop37
 90
       50
102
RTVSPost2010PropOp37
 70
     1
102
RTVSPost2010Prop38
140
0.0
102
RTVSPost2010PropOp38
 70
     1
102
RTVSPost2010Prop39
140
1.0
102
RTVSPost2010PropOp39
 70
     1
102
RTVSPost2010Prop40
 90
        0
102
RTVSPost2010PropOp40
 70
     1
102
RTVSPost2010Prop41ColorIndex
 90
       18
102
RTVSPost2010Prop41ColorRGB
 90
        0
102
RTVSPost2010PropOp41
 70
     1
102
RTVSPost2010Prop42
 90
       50
102
RTVSPost2010PropOp42
 70
     1
102
RTVSPost2010Prop43
 90
        3
102
RTVSPost2010PropOp43
 70
     1
102
RTVSPost2010Prop44ColorIndex
 90
        5
102
RTVSPost2010Prop44ColorRGB
 90
      255
102
RTVSPost2010PropOp44
 70
     1
102
RTVSPost2010Prop45
280
     0
102
RTVSPost2010PropOp45
 70
     1
102
RTVSPost2010Prop46
 90
       50
102
RTVSPost2010PropOp46
 70
     1
102
RTVSPost2010Prop47
 90
       50
102
RTVSPost2010PropOp47
 70
     1
102
RTVSPost2010Prop48
 90
       50
102
RTVSPost2010PropOp48
 70
     1
102
RTVSPost2010Prop49
280
     0
102
RTVSPost2010PropOp49
 70
     1
102
RTVSPost2010Prop50
 90
       50
102
RTVSPost2010PropOp50
 70
     1
102
RTVSPost2010Prop51ColorIndex
 90
      256
102
RTVSPost2010Prop51ColorRGB
 90
-16777216
102
RTVSPost2010PropOp51
 70
     0
102
RTVSPost2010Prop52
140
1.0
102
RTVSPost2010PropOp52
 70
     0
102
RTVSPost2010Prop53
 90
        2
102
RTVSPost2010PropOp53
 70
     1
102
RTVSPost2010Prop54
  1
strokes_ogs.tif
102
RTVSPost2010PropOp54
 70
     1
102
RTVSPost2010Prop55
280
     0
102
RTVSPost2010PropOp55
 70
     1
102
RTVSPost2010Prop56
140
1.0
102
RTVSPost2010PropOp56
 70
     1
102
RTVSPost2010Prop57
140
1.0
102
RTVSPost2010PropOp57
 70
     1
  0
XRECORD
  5
166
102
{ACAD_REACTORS
330
165
102
}
330
165
100
AcDbXrecord
280
     1
102
RTVSPropertyOp0
 70
     1
102
RTVSPropertyOp1
 70
     1
102
RTVSPropertyOp2
 70
     1
102
RTVSPropertyOp3
 70
     1
102
RTVSPropertyOp4
 70
     1
102
RTVSPropertyOp5
 70
     1
102
RTVSPropertyOp6
 70
     1
102
RTVSPropertyOp7
 70
     1
102
RTVSPropertyOp8
 70
     1
102
RTVSPropertyOp9
 70
     1
102
RTVSPropertyOp10
 70
     1
102
RTVSPropertyOp11
 70
     1
102
RTVSPropertyOp12
 70
     1
102
RTVSPropertyOp13
 70
     1
102
RTVSPropertyOp14
 70
     1
102
RTVSPropertyOp15
 70
     1
102
RTVSPropertyOp16
 70
     1
102
RTVSPropertyOp17
 70
     1
102
RTVSPropertyOp18
 70
     1
102
RTVSPropertyOp19
 70
     1
102
RTVSPropertyOp20
 70
     1
102
RTVSPropertyOp21
 70
     1
102
RTVSPropertyOp22
 70
     1
102
RTVSPropertyOp23
 70
     1
102
RTVSPropertyOp24
 70
     1
102
RTVSPropertyOp25
 70
     1
102
RTVSPropertyOp26
 70
     1
102
RTVSPropertyOp27
 70
     1
102
RTVSPropertyOp28
 70
     1
102
RTVSPropertyOp29
 70
     1
102
RTVSPropertyOp30
 70
     1
102
RTVSPropertyOp31
 70
     1
102
RTVSPropertyOp32
 70
     1
102
RTVSPropertyOp33
 70
     1
102
RTVSPropertyOp34
 70
     1
102
RTVSPropertyOp35
 70
     1
102
RTVSPropertyOp36
 70
     1
102
RTVSPropertyOp37
 70
     1
102
RTVSPropertyOp38
 70
     1
102
RTVSPropertyOp39
 70
     1
102
RTVSPropertyOp40
 70
     1
102
RTVSPropertyOp41
 70
     1
102
RTVSPropertyOp42
 70
     1
102
RTVSPropertyOp43
 70
     1
102
RTVSPropertyOp44
 70
     1
102
RTVSPropertyOp45
 70
     1
102
RTVSPropertyOp46
 70
     1
102
RTVSPropertyOp47
 70
     1
102
RTVSPropertyOp48
 70
     1
102
RTVSPropertyOp49
 70
     1
102
RTVSPropertyOp50
 70
     1
102
RTVSPropertyOp51
 70
     0
102
RTVSPropertyOp52
 70
     0
102
RTVSPropertyOp53
 70
     1
102
RTVSPropertyOp54
 70
     1
102
RTVSPropertyOp55
 70
     1
102
RTVSPropertyOp56
 70
     1
102
RTVSPropertyOp57
 70
     1
102
RTVSPost2010Prop28
280
     0
102
RTVSPost2010PropOp28
 70
     1
102
RTVSPost2010Prop29
280
     1
102
RTVSPost2010PropOp29
 70
     1
102
RTVSPost2010Prop30
280
     1
102
RTVSPost2010PropOp30
 70
     1
102
RTVSPost2010Prop31
280
     0
102
RTVSPost2010PropOp31
 70
     1
102
RTVSPost2010Prop32
280
     0
102
RTVSPost2010PropOp32
 70
     1
102
RTVSPost2010Prop33
280
     0
102
RTVSPost2010PropOp33
 70
     1
102
RTVSPost2010Prop34
280
     0
102
RTVSPost2010PropOp34
 70
     1
102
RTVSPost2010Prop35
280
     0
102
RTVSPost2010PropOp35
 70
     1
102
RTVSPost2010Prop36
280
     0
102
RTVSPost2010PropOp36
 70
     1
102
RTVSPost2010Prop37
 90
       50
102
RTVSPost2010PropOp37
 70
     1
102
RTVSPost2010Prop38
140
0.0
102
RTVSPost2010PropOp38
 70
     1
102
RTVSPost2010Prop39
140
1.0
102
RTVSPost2010PropOp39
 70
     1
102
RTVSPost2010Prop40
 90
        0
102
RTVSPost2010PropOp40
 70
     1
102
RTVSPost2010Prop41ColorIndex
 90
       18
102
RTVSPost2010Prop41ColorRGB
 90
        0
102
RTVSPost2010PropOp41
 70
     1
102
RTVSPost2010Prop42
 90
       50
102
RTVSPost2010PropOp42
 70
     1
102
RTVSPost2010Prop43
 90
        3
102
RTVSPost2010PropOp43
 70
     1
102
RTVSPost2010Prop44ColorIndex
 90
        5
102
RTVSPost2010Prop44ColorRGB
 90
      255
102
RTVSPost2010PropOp44
 70
     1
102
RTVSPost2010Prop45
280
     0
102
RTVSPost2010PropOp45
 70
     1
102
RTVSPost2010Prop46
 90
       50
102
RTVSPost2010PropOp46
 70
     1
102
RTVSPost2010Prop47
 90
       50
102
RTVSPost2010PropOp47
 70
     1
102
RTVSPost2010Prop48
 90
       50
102
RTVSPost2010PropOp48
 70
     1
102
RTVSPost2010Prop49
280
     0
102
RTVSPost2010PropOp49
 70
     1
102
RTVSPost2010Prop50
 90
       50
102
RTVSPost2010PropOp50
 70
     1
102
RTVSPost2010Prop51ColorIndex
 90
      256
102
RTVSPost2010Prop51ColorRGB
 90
-16777216
102
RTVSPost2010PropOp51
 70
     0
102
RTVSPost2010Prop52
140
1.0
102
RTVSPost2010PropOp52
 70
     0
102
RTVSPost2010Prop53
 90
        2
102
RTVSPost2010PropOp53
 70
     1
102
RTVSPost2010Prop54
  1
strokes_ogs.tif
102
RTVSPost2010PropOp54
 70
     1
102
RTVSPost2010Prop55
280
     0
102
RTVSPost2010PropOp55
 70
     1
102
RTVSPost2010Prop56
140
1.0
102
RTVSPost2010PropOp56
 70
     1
102
RTVSPost2010Prop57
140
1.0
102
RTVSPost2010PropOp57
 70
     1
  0
XRECORD
  5
15A
102
{ACAD_REACTORS
330
159
102
}
330
159
100
AcDbXrecord
280
     1
102
RTVSPropertyOp0
 70
     1
102
RTVSPropertyOp1
 70
     1
102
RTVSPropertyOp2
 70
     1
102
RTVSPropertyOp3
 70
     1
102
RTVSPropertyOp4
 70
     1
102
RTVSPropertyOp5
 70
     1
102
RTVSPropertyOp6
 70
     1
102
RTVSPropertyOp7
 70
     1
102
RTVSPropertyOp8
 70
     1
102
RTVSPropertyOp9
 70
     1
102
RTVSPropertyOp10
 70
     1
102
RTVSPropertyOp11
 70
     1
102
RTVSPropertyOp12
 70
     1
102
RTVSPropertyOp13
 70
     1
102
RTVSPropertyOp14
 70
     1
102
RTVSPropertyOp15
 70
     1
102
RTVSPropertyOp16
 70
     1
102
RTVSPropertyOp17
 70
     1
102
RTVSPropertyOp18
 70
     1
102
RTVSPropertyOp19
 70
     1
102
RTVSPropertyOp20
 70
     1
102
RTVSPropertyOp21
 70
     1
102
RTVSPropertyOp22
 70
     1
102
RTVSPropertyOp23
 70
     1
102
RTVSPropertyOp24
 70
     1
102
RTVSPropertyOp25
 70
     1
102
RTVSPropertyOp26
 70
     1
102
RTVSPropertyOp27
 70
     1
102
RTVSPropertyOp28
 70
     1
102
RTVSPropertyOp29
 70
     1
102
RTVSPropertyOp30
 70
     1
102
RTVSPropertyOp31
 70
     1
102
RTVSPropertyOp32
 70
     1
102
RTVSPropertyOp33
 70
     1
102
RTVSPropertyOp34
 70
     1
102
RTVSPropertyOp35
 70
     1
102
RTVSPropertyOp36
 70
     1
102
RTVSPropertyOp37
 70
     1
102
RTVSPropertyOp38
 70
     1
102
RTVSPropertyOp39
 70
     1
102
RTVSPropertyOp40
 70
     1
102
RTVSPropertyOp41
 70
     1
102
RTVSPropertyOp42
 70
     1
102
RTVSPropertyOp43
 70
     1
102
RTVSPropertyOp44
 70
     1
102
RTVSPropertyOp45
 70
     1
102
RTVSPropertyOp46
 70
     1
102
RTVSPropertyOp47
 70
     1
102
RTVSPropertyOp48
 70
     1
102
RTVSPropertyOp49
 70
     1
102
RTVSPropertyOp50
 70
     1
102
RTVSPropertyOp51
 70
     0
102
RTVSPropertyOp52
 70
     0
102
RTVSPropertyOp53
 70
     1
102
RTVSPropertyOp54
 70
     1
102
RTVSPropertyOp55
 70
     1
102
RTVSPropertyOp56
 70
     1
102
RTVSPropertyOp57
 70
     1
102
RTVSPost2010Prop28
280
     0
102
RTVSPost2010PropOp28
 70
     1
102
RTVSPost2010Prop29
280
     1
102
RTVSPost2010PropOp29
 70
     1
102
RTVSPost2010Prop30
280
     1
102
RTVSPost2010PropOp30
 70
     1
102
RTVSPost2010Prop31
280
     0
102
RTVSPost2010PropOp31
 70
     1
102
RTVSPost2010Prop32
280
     0
102
RTVSPost2010PropOp32
 70
     1
102
RTVSPost2010Prop33
280
     0
102
RTVSPost2010PropOp33
 70
     1
102
RTVSPost2010Prop34
280
     0
102
RTVSPost2010PropOp34
 70
     1
102
RTVSPost2010Prop35
280
     0
102
RTVSPost2010PropOp35
 70
     1
102
RTVSPost2010Prop36
280
     0
102
RTVSPost2010PropOp36
 70
     1
102
RTVSPost2010Prop37
 90
       50
102
RTVSPost2010PropOp37
 70
     1
102
RTVSPost2010Prop38
140
0.0
102
RTVSPost2010PropOp38
 70
     1
102
RTVSPost2010Prop39
140
1.0
102
RTVSPost2010PropOp39
 70
     1
102
RTVSPost2010Prop40
 90
        0
102
RTVSPost2010PropOp40
 70
     1
102
RTVSPost2010Prop41ColorIndex
 90
       18
102
RTVSPost2010Prop41ColorRGB
 90
        0
102
RTVSPost2010PropOp41
 70
     1
102
RTVSPost2010Prop42
 90
       50
102
RTVSPost2010PropOp42
 70
     1
102
RTVSPost2010Prop43
 90
        3
102
RTVSPost2010PropOp43
 70
     1
102
RTVSPost2010Prop44ColorIndex
 90
        5
102
RTVSPost2010Prop44ColorRGB
 90
      255
102
RTVSPost2010PropOp44
 70
     1
102
RTVSPost2010Prop45
280
     0
102
RTVSPost2010PropOp45
 70
     1
102
RTVSPost2010Prop46
 90
       50
102
RTVSPost2010PropOp46
 70
     1
102
RTVSPost2010Prop47
 90
       50
102
RTVSPost2010PropOp47
 70
     1
102
RTVSPost2010Prop48
 90
       50
102
RTVSPost2010PropOp48
 70
     1
102
RTVSPost2010Prop49
280
     0
102
RTVSPost2010PropOp49
 70
     1
102
RTVSPost2010Prop50
 90
       50
102
RTVSPost2010PropOp50
 70
     1
102
RTVSPost2010Prop51ColorIndex
 90
      256
102
RTVSPost2010Prop51ColorRGB
 90
-16777216
102
RTVSPost2010PropOp51
 70
     0
102
RTVSPost2010Prop52
140
1.0
102
RTVSPost2010PropOp52
 70
     0
102
RTVSPost2010Prop53
 90
        2
102
RTVSPost2010PropOp53
 70
     1
102
RTVSPost2010Prop54
  1
strokes_ogs.tif
102
RTVSPost2010PropOp54
 70
     1
102
RTVSPost2010Prop55
280
     0
102
RTVSPost2010PropOp55
 70
     1
102
RTVSPost2010Prop56
140
1.0
102
RTVSPost2010PropOp56
 70
     1
102
RTVSPost2010Prop57
140
1.0
102
RTVSPost2010PropOp57
 70
     1
  0
XRECORD
  5
15C
102
{ACAD_REACTORS
330
15B
102
}
330
15B
100
AcDbXrecord
280
     1
102
RTVSPropertyOp0
 70
     1
102
RTVSPropertyOp1
 70
     1
102
RTVSPropertyOp2
 70
     1
102
RTVSPropertyOp3
 70
     1
102
RTVSPropertyOp4
 70
     1
102
RTVSPropertyOp5
 70
     1
102
RTVSPropertyOp6
 70
     1
102
RTVSPropertyOp7
 70
     1
102
RTVSPropertyOp8
 70
     1
102
RTVSPropertyOp9
 70
     1
102
RTVSPropertyOp10
 70
     1
102
RTVSPropertyOp11
 70
     1
102
RTVSPropertyOp12
 70
     1
102
RTVSPropertyOp13
 70
     1
102
RTVSPropertyOp14
 70
     1
102
RTVSPropertyOp15
 70
     1
102
RTVSPropertyOp16
 70
     1
102
RTVSPropertyOp17
 70
     1
102
RTVSPropertyOp18
 70
     1
102
RTVSPropertyOp19
 70
     1
102
RTVSPropertyOp20
 70
     1
102
RTVSPropertyOp21
 70
     1
102
RTVSPropertyOp22
 70
     1
102
RTVSPropertyOp23
 70
     1
102
RTVSPropertyOp24
 70
     1
102
RTVSPropertyOp25
 70
     1
102
RTVSPropertyOp26
 70
     1
102
RTVSPropertyOp27
 70
     1
102
RTVSPropertyOp28
 70
     1
102
RTVSPropertyOp29
 70
     1
102
RTVSPropertyOp30
 70
     1
102
RTVSPropertyOp31
 70
     1
102
RTVSPropertyOp32
 70
     1
102
RTVSPropertyOp33
 70
     1
102
RTVSPropertyOp34
 70
     1
102
RTVSPropertyOp35
 70
     1
102
RTVSPropertyOp36
 70
     1
102
RTVSPropertyOp37
 70
     1
102
RTVSPropertyOp38
 70
     1
102
RTVSPropertyOp39
 70
     1
102
RTVSPropertyOp40
 70
     1
102
RTVSPropertyOp41
 70
     1
102
RTVSPropertyOp42
 70
     1
102
RTVSPropertyOp43
 70
     1
102
RTVSPropertyOp44
 70
     1
102
RTVSPropertyOp45
 70
     1
102
RTVSPropertyOp46
 70
     1
102
RTVSPropertyOp47
 70
     1
102
RTVSPropertyOp48
 70
     1
102
RTVSPropertyOp49
 70
     1
102
RTVSPropertyOp50
 70
     1
102
RTVSPropertyOp51
 70
     0
102
RTVSPropertyOp52
 70
     0
102
RTVSPropertyOp53
 70
     1
102
RTVSPropertyOp54
 70
     1
102
RTVSPropertyOp55
 70
     1
102
RTVSPropertyOp56
 70
     1
102
RTVSPropertyOp57
 70
     1
102
RTVSPost2010Prop28
280
     0
102
RTVSPost2010PropOp28
 70
     1
102
RTVSPost2010Prop29
280
     1
102
RTVSPost2010PropOp29
 70
     1
102
RTVSPost2010Prop30
280
     1
102
RTVSPost2010PropOp30
 70
     1
102
RTVSPost2010Prop31
280
     0
102
RTVSPost2010PropOp31
 70
     1
102
RTVSPost2010Prop32
280
     0
102
RTVSPost2010PropOp32
 70
     1
102
RTVSPost2010Prop33
280
     0
102
RTVSPost2010PropOp33
 70
     1
102
RTVSPost2010Prop34
280
     0
102
RTVSPost2010PropOp34
 70
     1
102
RTVSPost2010Prop35
280
     0
102
RTVSPost2010PropOp35
 70
     1
102
RTVSPost2010Prop36
280
     0
102
RTVSPost2010PropOp36
 70
     1
102
RTVSPost2010Prop37
 90
       50
102
RTVSPost2010PropOp37
 70
     1
102
RTVSPost2010Prop38
140
0.0
102
RTVSPost2010PropOp38
 70
     1
102
RTVSPost2010Prop39
140
1.0
102
RTVSPost2010PropOp39
 70
     1
102
RTVSPost2010Prop40
 90
        0
102
RTVSPost2010PropOp40
 70
     1
102
RTVSPost2010Prop41ColorIndex
 90
       18
102
RTVSPost2010Prop41ColorRGB
 90
        0
102
RTVSPost2010PropOp41
 70
     1
102
RTVSPost2010Prop42
 90
       50
102
RTVSPost2010PropOp42
 70
     1
102
RTVSPost2010Prop43
 90
        3
102
RTVSPost2010PropOp43
 70
     1
102
RTVSPost2010Prop44ColorIndex
 90
        5
102
RTVSPost2010Prop44ColorRGB
 90
      255
102
RTVSPost2010PropOp44
 70
     1
102
RTVSPost2010Prop45
280
     0
102
RTVSPost2010PropOp45
 70
     1
102
RTVSPost2010Prop46
 90
       50
102
RTVSPost2010PropOp46
 70
     1
102
RTVSPost2010Prop47
 90
       50
102
RTVSPost2010PropOp47
 70
     1
102
RTVSPost2010Prop48
 90
       50
102
RTVSPost2010PropOp48
 70
     1
102
RTVSPost2010Prop49
280
     0
102
RTVSPost2010PropOp49
 70
     1
102
RTVSPost2010Prop50
 90
       50
102
RTVSPost2010PropOp50
 70
     1
102
RTVSPost2010Prop51ColorIndex
 90
      256
102
RTVSPost2010Prop51ColorRGB
 90
-16777216
102
RTVSPost2010PropOp51
 70
     0
102
RTVSPost2010Prop52
140
1.0
102
RTVSPost2010PropOp52
 70
     0
102
RTVSPost2010Prop53
 90
        2
102
RTVSPost2010PropOp53
 70
     1
102
RTVSPost2010Prop54
  1
strokes_ogs.tif
102
RTVSPost2010PropOp54
 70
     1
102
RTVSPost2010Prop55
280
     0
102
RTVSPost2010PropOp55
 70
     1
102
RTVSPost2010Prop56
140
1.0
102
RTVSPost2010PropOp56
 70
     1
102
RTVSPost2010Prop57
140
1.0
102
RTVSPost2010PropOp57
 70
     1
  0
XRECORD
  5
16C
102
{ACAD_REACTORS
330
16B
102
}
330
16B
100
AcDbXrecord
280
     1
102
RTVSPropertyOp0
 70
     0
102
RTVSPropertyOp1
 70
     0
102
RTVSPropertyOp2
 70
     0
102
RTVSPropertyOp3
 70
     0
102
RTVSPropertyOp4
 70
     0
102
RTVSPropertyOp5
 70
     0
102
RTVSPropertyOp6
 70
     0
102
RTVSPropertyOp7
 70
     0
102
RTVSPropertyOp8
 70
     0
102
RTVSPropertyOp9
 70
     0
102
RTVSPropertyOp10
 70
     0
102
RTVSPropertyOp11
 70
     0
102
RTVSPropertyOp12
 70
     0
102
RTVSPropertyOp13
 70
     0
102
RTVSPropertyOp14
 70
     2
102
RTVSPropertyOp15
 70
     0
102
RTVSPropertyOp16
 70
     0
102
RTVSPropertyOp17
 70
     0
102
RTVSPropertyOp18
 70
     0
102
RTVSPropertyOp19
 70
     0
102
RTVSPropertyOp20
 70
     0
102
RTVSPropertyOp21
 70
     0
102
RTVSPropertyOp22
 70
     0
102
RTVSPropertyOp23
 70
     0
102
RTVSPropertyOp24
 70
     0
102
RTVSPropertyOp25
 70
     0
102
RTVSPropertyOp26
 70
     0
102
RTVSPropertyOp27
 70
     0
102
RTVSPropertyOp28
 70
     0
102
RTVSPropertyOp29
 70
     0
102
RTVSPropertyOp30
 70
     0
102
RTVSPropertyOp31
 70
     0
102
RTVSPropertyOp32
 70
     0
102
RTVSPropertyOp33
 70
     0
102
RTVSPropertyOp34
 70
     0
102
RTVSPropertyOp35
 70
     0
102
RTVSPropertyOp36
 70
     0
102
RTVSPropertyOp37
 70
     0
102
RTVSPropertyOp38
 70
     0
102
RTVSPropertyOp39
 70
     0
102
RTVSPropertyOp40
 70
     0
102
RTVSPropertyOp41
 70
     0
102
RTVSPropertyOp42
 70
     0
102
RTVSPropertyOp43
 70
     0
102
RTVSPropertyOp44
 70
     0
102
RTVSPropertyOp45
 70
     0
102
RTVSPropertyOp46
 70
     0
102
RTVSPropertyOp47
 70
     0
102
RTVSPropertyOp48
 70
     0
102
RTVSPropertyOp49
 70
     0
102
RTVSPropertyOp50
 70
     0
102
RTVSPropertyOp51
 70
     0
102
RTVSPropertyOp52
 70
     0
102
RTVSPropertyOp53
 70
     0
102
RTVSPropertyOp54
 70
     0
102
RTVSPropertyOp55
 70
     0
102
RTVSPropertyOp56
 70
     0
102
RTVSPropertyOp57
 70
     0
102
RTVSPost2010Prop28
280
     0
102
RTVSPost2010PropOp28
 70
     0
102
RTVSPost2010Prop29
280
     1
102
RTVSPost2010PropOp29
 70
     0
102
RTVSPost2010Prop30
280
     1
102
RTVSPost2010PropOp30
 70
     0
102
RTVSPost2010Prop31
280
     0
102
RTVSPost2010PropOp31
 70
     0
102
RTVSPost2010Prop32
280
     0
102
RTVSPost2010PropOp32
 70
     0
102
RTVSPost2010Prop33
280
     0
102
RTVSPost2010PropOp33
 70
     0
102
RTVSPost2010Prop34
280
     0
102
RTVSPost2010PropOp34
 70
     0
102
RTVSPost2010Prop35
280
     0
102
RTVSPost2010PropOp35
 70
     0
102
RTVSPost2010Prop36
280
     0
102
RTVSPost2010PropOp36
 70
     0
102
RTVSPost2010Prop37
 90
       50
102
RTVSPost2010PropOp37
 70
     0
102
RTVSPost2010Prop38
140
0.0
102
RTVSPost2010PropOp38
 70
     0
102
RTVSPost2010Prop39
140
1.0
102
RTVSPost2010PropOp39
 70
     0
102
RTVSPost2010Prop40
 90
        0
102
RTVSPost2010PropOp40
 70
     0
102
RTVSPost2010Prop41ColorIndex
 90
       18
102
RTVSPost2010Prop41ColorRGB
 90
        0
102
RTVSPost2010PropOp41
 70
     0
102
RTVSPost2010Prop42
 90
       50
102
RTVSPost2010PropOp42
 70
     0
102
RTVSPost2010Prop43
 90
        3
102
RTVSPost2010PropOp43
 70
     0
102
RTVSPost2010Prop44ColorIndex
 90
        5
102
RTVSPost2010Prop44ColorRGB
 90
      255
102
RTVSPost2010PropOp44
 70
     0
102
RTVSPost2010Prop45
280
     0
102
RTVSPost2010PropOp45
 70
     0
102
RTVSPost2010Prop46
 90
       50
102
RTVSPost2010PropOp46
 70
     0
102
RTVSPost2010Prop47
 90
       50
102
RTVSPost2010PropOp47
 70
     0
102
RTVSPost2010Prop48
 90
       50
102
RTVSPost2010PropOp48
 70
     0
102
RTVSPost2010Prop49
280
     0
102
RTVSPost2010PropOp49
 70
     0
102
RTVSPost2010Prop50
 90
       50
102
RTVSPost2010PropOp50
 70
     0
102
RTVSPost2010Prop51ColorIndex
 90
      256
102
RTVSPost2010Prop51ColorRGB
 90
-16777216
102
RTVSPost2010PropOp51
 70
     0
102
RTVSPost2010Prop52
140
1.0
102
RTVSPost2010PropOp52
 70
     0
102
RTVSPost2010Prop53
 90
        2
102
RTVSPost2010PropOp53
 70
     0
102
RTVSPost2010Prop54
  1
strokes_ogs.tif
102
RTVSPost2010PropOp54
 70
     0
102
RTVSPost2010Prop55
280
     0
102
RTVSPost2010PropOp55
 70
     0
102
RTVSPost2010Prop56
140
1.0
102
RTVSPost2010PropOp56
 70
     0
102
RTVSPost2010Prop57
140
1.0
102
RTVSPost2010PropOp57
 70
     0
  0
XRECORD
  5
164
102
{ACAD_REACTORS
330
163
102
}
330
163
100
AcDbXrecord
280
     1
102
RTVSPropertyOp0
 70
     1
102
RTVSPropertyOp1
 70
     1
102
RTVSPropertyOp2
 70
     1
102
RTVSPropertyOp3
 70
     1
102
RTVSPropertyOp4
 70
     1
102
RTVSPropertyOp5
 70
     1
102
RTVSPropertyOp6
 70
     1
102
RTVSPropertyOp7
 70
     1
102
RTVSPropertyOp8
 70
     1
102
RTVSPropertyOp9
 70
     1
102
RTVSPropertyOp10
 70
     1
102
RTVSPropertyOp11
 70
     1
102
RTVSPropertyOp12
 70
     1
102
RTVSPropertyOp13
 70
     1
102
RTVSPropertyOp14
 70
     1
102
RTVSPropertyOp15
 70
     1
102
RTVSPropertyOp16
 70
     1
102
RTVSPropertyOp17
 70
     1
102
RTVSPropertyOp18
 70
     1
102
RTVSPropertyOp19
 70
     1
102
RTVSPropertyOp20
 70
     1
102
RTVSPropertyOp21
 70
     1
102
RTVSPropertyOp22
 70
     1
102
RTVSPropertyOp23
 70
     1
102
RTVSPropertyOp24
 70
     1
102
RTVSPropertyOp25
 70
     1
102
RTVSPropertyOp26
 70
     1
102
RTVSPropertyOp27
 70
     1
102
RTVSPropertyOp28
 70
     1
102
RTVSPropertyOp29
 70
     1
102
RTVSPropertyOp30
 70
     1
102
RTVSPropertyOp31
 70
     1
102
RTVSPropertyOp32
 70
     1
102
RTVSPropertyOp33
 70
     1
102
RTVSPropertyOp34
 70
     1
102
RTVSPropertyOp35
 70
     1
102
RTVSPropertyOp36
 70
     1
102
RTVSPropertyOp37
 70
     1
102
RTVSPropertyOp38
 70
     1
102
RTVSPropertyOp39
 70
     1
102
RTVSPropertyOp40
 70
     1
102
RTVSPropertyOp41
 70
     1
102
RTVSPropertyOp42
 70
     1
102
RTVSPropertyOp43
 70
     1
102
RTVSPropertyOp44
 70
     1
102
RTVSPropertyOp45
 70
     1
102
RTVSPropertyOp46
 70
     1
102
RTVSPropertyOp47
 70
     1
102
RTVSPropertyOp48
 70
     1
102
RTVSPropertyOp49
 70
     1
102
RTVSPropertyOp50
 70
     1
102
RTVSPropertyOp51
 70
     0
102
RTVSPropertyOp52
 70
     0
102
RTVSPropertyOp53
 70
     1
102
RTVSPropertyOp54
 70
     1
102
RTVSPropertyOp55
 70
     1
102
RTVSPropertyOp56
 70
     1
102
RTVSPropertyOp57
 70
     1
102
RTVSPost2010Prop28
280
     0
102
RTVSPost2010PropOp28
 70
     1
102
RTVSPost2010Prop29
280
     1
102
RTVSPost2010PropOp29
 70
     1
102
RTVSPost2010Prop30
280
     1
102
RTVSPost2010PropOp30
 70
     1
102
RTVSPost2010Prop31
280
     0
102
RTVSPost2010PropOp31
 70
     1
102
RTVSPost2010Prop32
280
     0
102
RTVSPost2010PropOp32
 70
     1
102
RTVSPost2010Prop33
280
     0
102
RTVSPost2010PropOp33
 70
     1
102
RTVSPost2010Prop34
280
     0
102
RTVSPost2010PropOp34
 70
     1
102
RTVSPost2010Prop35
280
     0
102
RTVSPost2010PropOp35
 70
     1
102
RTVSPost2010Prop36
280
     0
102
RTVSPost2010PropOp36
 70
     1
102
RTVSPost2010Prop37
 90
       50
102
RTVSPost2010PropOp37
 70
     1
102
RTVSPost2010Prop38
140
0.0
102
RTVSPost2010PropOp38
 70
     1
102
RTVSPost2010Prop39
140
1.0
102
RTVSPost2010PropOp39
 70
     1
102
RTVSPost2010Prop40
 90
        0
102
RTVSPost2010PropOp40
 70
     1
102
RTVSPost2010Prop41ColorIndex
 90
       18
102
RTVSPost2010Prop41ColorRGB
 90
        0
102
RTVSPost2010PropOp41
 70
     1
102
RTVSPost2010Prop42
 90
       50
102
RTVSPost2010PropOp42
 70
     1
102
RTVSPost2010Prop43
 90
        3
102
RTVSPost2010PropOp43
 70
     1
102
RTVSPost2010Prop44ColorIndex
 90
        5
102
RTVSPost2010Prop44ColorRGB
 90
      255
102
RTVSPost2010PropOp44
 70
     1
102
RTVSPost2010Prop45
280
     0
102
RTVSPost2010PropOp45
 70
     1
102
RTVSPost2010Prop46
 90
       50
102
RTVSPost2010PropOp46
 70
     1
102
RTVSPost2010Prop47
 90
       50
102
RTVSPost2010PropOp47
 70
     1
102
RTVSPost2010Prop48
 90
       50
102
RTVSPost2010PropOp48
 70
     1
102
RTVSPost2010Prop49
280
     0
102
RTVSPost2010PropOp49
 70
     1
102
RTVSPost2010Prop50
 90
       50
102
RTVSPost2010PropOp50
 70
     1
102
RTVSPost2010Prop51ColorIndex
 90
      256
102
RTVSPost2010Prop51ColorRGB
 90
-16777216
102
RTVSPost2010PropOp51
 70
     0
102
RTVSPost2010Prop52
140
1.0
102
RTVSPost2010PropOp52
 70
     0
102
RTVSPost2010Prop53
 90
        2
102
RTVSPost2010PropOp53
 70
     1
102
RTVSPost2010Prop54
  1
strokes_ogs.tif
102
RTVSPost2010PropOp54
 70
     1
102
RTVSPost2010Prop55
280
     0
102
RTVSPost2010PropOp55
 70
     1
102
RTVSPost2010Prop56
140
1.0
102
RTVSPost2010PropOp56
 70
     1
102
RTVSPost2010Prop57
140
1.0
102
RTVSPost2010PropOp57
 70
     1
  0
XRECORD
  5
148
102
{ACAD_REACTORS
330
147
102
}
330
147
100
AcDbXrecord
280
     1
102
RTVSPropertyOp0
 70
     1
102
RTVSPropertyOp1
 70
     1
102
RTVSPropertyOp2
 70
     1
102
RTVSPropertyOp3
 70
     1
102
RTVSPropertyOp4
 70
     1
102
RTVSPropertyOp5
 70
     1
102
RTVSPropertyOp6
 70
     1
102
RTVSPropertyOp7
 70
     1
102
RTVSPropertyOp8
 70
     1
102
RTVSPropertyOp9
 70
     1
102
RTVSPropertyOp10
 70
     1
102
RTVSPropertyOp11
 70
     1
102
RTVSPropertyOp12
 70
     1
102
RTVSPropertyOp13
 70
     1
102
RTVSPropertyOp14
 70
     1
102
RTVSPropertyOp15
 70
     1
102
RTVSPropertyOp16
 70
     1
102
RTVSPropertyOp17
 70
     1
102
RTVSPropertyOp18
 70
     1
102
RTVSPropertyOp19
 70
     1
102
RTVSPropertyOp20
 70
     1
102
RTVSPropertyOp21
 70
     1
102
RTVSPropertyOp22
 70
     1
102
RTVSPropertyOp23
 70
     1
102
RTVSPropertyOp24
 70
     1
102
RTVSPropertyOp25
 70
     1
102
RTVSPropertyOp26
 70
     1
102
RTVSPropertyOp27
 70
     1
102
RTVSPropertyOp28
 70
     1
102
RTVSPropertyOp29
 70
     1
102
RTVSPropertyOp30
 70
     1
102
RTVSPropertyOp31
 70
     1
102
RTVSPropertyOp32
 70
     1
102
RTVSPropertyOp33
 70
     1
102
RTVSPropertyOp34
 70
     1
102
RTVSPropertyOp35
 70
     1
102
RTVSPropertyOp36
 70
     1
102
RTVSPropertyOp37
 70
     1
102
RTVSPropertyOp38
 70
     1
102
RTVSPropertyOp39
 70
     1
102
RTVSPropertyOp40
 70
     1
102
RTVSPropertyOp41
 70
     1
102
RTVSPropertyOp42
 70
     1
102
RTVSPropertyOp43
 70
     1
102
RTVSPropertyOp44
 70
     1
102
RTVSPropertyOp45
 70
     1
102
RTVSPropertyOp46
 70
     1
102
RTVSPropertyOp47
 70
     1
102
RTVSPropertyOp48
 70
     1
102
RTVSPropertyOp49
 70
     1
102
RTVSPropertyOp50
 70
     1
102
RTVSPropertyOp51
 70
     0
102
RTVSPropertyOp52
 70
     0
102
RTVSPropertyOp53
 70
     1
102
RTVSPropertyOp54
 70
     1
102
RTVSPropertyOp55
 70
     1
102
RTVSPropertyOp56
 70
     1
102
RTVSPropertyOp57
 70
     1
102
RTVSPost2010Prop28
280
     0
102
RTVSPost2010PropOp28
 70
     1
102
RTVSPost2010Prop29
280
     1
102
RTVSPost2010PropOp29
 70
     1
102
RTVSPost2010Prop30
280
     1
102
RTVSPost2010PropOp30
 70
     1
102
RTVSPost2010Prop31
280
     0
102
RTVSPost2010PropOp31
 70
     1
102
RTVSPost2010Prop32
280
     0
102
RTVSPost2010PropOp32
 70
     1
102
RTVSPost2010Prop33
280
     0
102
RTVSPost2010PropOp33
 70
     1
102
RTVSPost2010Prop34
280
     0
102
RTVSPost2010PropOp34
 70
     1
102
RTVSPost2010Prop35
280
     0
102
RTVSPost2010PropOp35
 70
     1
102
RTVSPost2010Prop36
280
     0
102
RTVSPost2010PropOp36
 70
     1
102
RTVSPost2010Prop37
 90
       50
102
RTVSPost2010PropOp37
 70
     1
102
RTVSPost2010Prop38
140
0.0
102
RTVSPost2010PropOp38
 70
     1
102
RTVSPost2010Prop39
140
1.0
102
RTVSPost2010PropOp39
 70
     1
102
RTVSPost2010Prop40
 90
        0
102
RTVSPost2010PropOp40
 70
     1
102
RTVSPost2010Prop41ColorIndex
 90
       18
102
RTVSPost2010Prop41ColorRGB
 90
        0
102
RTVSPost2010PropOp41
 70
     1
102
RTVSPost2010Prop42
 90
       50
102
RTVSPost2010PropOp42
 70
     1
102
RTVSPost2010Prop43
 90
        3
102
RTVSPost2010PropOp43
 70
     1
102
RTVSPost2010Prop44ColorIndex
 90
        5
102
RTVSPost2010Prop44ColorRGB
 90
      255
102
RTVSPost2010PropOp44
 70
     1
102
RTVSPost2010Prop45
280
     0
102
RTVSPost2010PropOp45
 70
     1
102
RTVSPost2010Prop46
 90
       50
102
RTVSPost2010PropOp46
 70
     1
102
RTVSPost2010Prop47
 90
       50
102
RTVSPost2010PropOp47
 70
     1
102
RTVSPost2010Prop48
 90
       50
102
RTVSPost2010PropOp48
 70
     1
102
RTVSPost2010Prop49
280
     0
102
RTVSPost2010PropOp49
 70
     1
102
RTVSPost2010Prop50
 90
       50
102
RTVSPost2010PropOp50
 70
     1
102
RTVSPost2010Prop51ColorIndex
 90
      256
102
RTVSPost2010Prop51ColorRGB
 90
-16777216
102
RTVSPost2010PropOp51
 70
     0
102
RTVSPost2010Prop52
140
1.0
102
RTVSPost2010PropOp52
 70
     0
102
RTVSPost2010Prop53
 90
        2
102
RTVSPost2010PropOp53
 70
     1
102
RTVSPost2010Prop54
  1
strokes_ogs.tif
102
RTVSPost2010PropOp54
 70
     1
102
RTVSPost2010Prop55
280
     0
102
RTVSPost2010PropOp55
 70
     1
102
RTVSPost2010Prop56
140
1.0
102
RTVSPost2010PropOp56
 70
     1
102
RTVSPost2010Prop57
140
1.0
102
RTVSPost2010PropOp57
 70
     1
  0
XRECORD
  5
14A
102
{ACAD_REACTORS
330
149
102
}
330
149
100
AcDbXrecord
280
     1
102
RTVSPropertyOp0
 70
     1
102
RTVSPropertyOp1
 70
     1
102
RTVSPropertyOp2
 70
     1
102
RTVSPropertyOp3
 70
     1
102
RTVSPropertyOp4
 70
     1
102
RTVSPropertyOp5
 70
     1
102
RTVSPropertyOp6
 70
     1
102
RTVSPropertyOp7
 70
     1
102
RTVSPropertyOp8
 70
     1
102
RTVSPropertyOp9
 70
     1
102
RTVSPropertyOp10
 70
     1
102
RTVSPropertyOp11
 70
     1
102
RTVSPropertyOp12
 70
     1
102
RTVSPropertyOp13
 70
     1
102
RTVSPropertyOp14
 70
     1
102
RTVSPropertyOp15
 70
     1
102
RTVSPropertyOp16
 70
     1
102
RTVSPropertyOp17
 70
     1
102
RTVSPropertyOp18
 70
     1
102
RTVSPropertyOp19
 70
     1
102
RTVSPropertyOp20
 70
     1
102
RTVSPropertyOp21
 70
     1
102
RTVSPropertyOp22
 70
     1
102
RTVSPropertyOp23
 70
     1
102
RTVSPropertyOp24
 70
     1
102
RTVSPropertyOp25
 70
     1
102
RTVSPropertyOp26
 70
     1
102
RTVSPropertyOp27
 70
     1
102
RTVSPropertyOp28
 70
     1
102
RTVSPropertyOp29
 70
     1
102
RTVSPropertyOp30
 70
     1
102
RTVSPropertyOp31
 70
     1
102
RTVSPropertyOp32
 70
     1
102
RTVSPropertyOp33
 70
     1
102
RTVSPropertyOp34
 70
     1
102
RTVSPropertyOp35
 70
     1
102
RTVSPropertyOp36
 70
     1
102
RTVSPropertyOp37
 70
     1
102
RTVSPropertyOp38
 70
     1
102
RTVSPropertyOp39
 70
     1
102
RTVSPropertyOp40
 70
     1
102
RTVSPropertyOp41
 70
     1
102
RTVSPropertyOp42
 70
     1
102
RTVSPropertyOp43
 70
     1
102
RTVSPropertyOp44
 70
     1
102
RTVSPropertyOp45
 70
     1
102
RTVSPropertyOp46
 70
     1
102
RTVSPropertyOp47
 70
     1
102
RTVSPropertyOp48
 70
     1
102
RTVSPropertyOp49
 70
     1
102
RTVSPropertyOp50
 70
     1
102
RTVSPropertyOp51
 70
     0
102
RTVSPropertyOp52
 70
     0
102
RTVSPropertyOp53
 70
     1
102
RTVSPropertyOp54
 70
     1
102
RTVSPropertyOp55
 70
     1
102
RTVSPropertyOp56
 70
     1
102
RTVSPropertyOp57
 70
     1
102
RTVSPost2010Prop28
280
     0
102
RTVSPost2010PropOp28
 70
     1
102
RTVSPost2010Prop29
280
     1
102
RTVSPost2010PropOp29
 70
     1
102
RTVSPost2010Prop30
280
     1
102
RTVSPost2010PropOp30
 70
     1
102
RTVSPost2010Prop31
280
     0
102
RTVSPost2010PropOp31
 70
     1
102
RTVSPost2010Prop32
280
     0
102
RTVSPost2010PropOp32
 70
     1
102
RTVSPost2010Prop33
280
     0
102
RTVSPost2010PropOp33
 70
     1
102
RTVSPost2010Prop34
280
     0
102
RTVSPost2010PropOp34
 70
     1
102
RTVSPost2010Prop35
280
     0
102
RTVSPost2010PropOp35
 70
     1
102
RTVSPost2010Prop36
280
     0
102
RTVSPost2010PropOp36
 70
     1
102
RTVSPost2010Prop37
 90
       50
102
RTVSPost2010PropOp37
 70
     1
102
RTVSPost2010Prop38
140
0.0
102
RTVSPost2010PropOp38
 70
     1
102
RTVSPost2010Prop39
140
1.0
102
RTVSPost2010PropOp39
 70
     1
102
RTVSPost2010Prop40
 90
        0
102
RTVSPost2010PropOp40
 70
     1
102
RTVSPost2010Prop41ColorIndex
 90
       18
102
RTVSPost2010Prop41ColorRGB
 90
        0
102
RTVSPost2010PropOp41
 70
     1
102
RTVSPost2010Prop42
 90
       50
102
RTVSPost2010PropOp42
 70
     1
102
RTVSPost2010Prop43
 90
        3
102
RTVSPost2010PropOp43
 70
     1
102
RTVSPost2010Prop44ColorIndex
 90
        5
102
RTVSPost2010Prop44ColorRGB
 90
      255
102
RTVSPost2010PropOp44
 70
     1
102
RTVSPost2010Prop45
280
     0
102
RTVSPost2010PropOp45
 70
     1
102
RTVSPost2010Prop46
 90
       50
102
RTVSPost2010PropOp46
 70
     1
102
RTVSPost2010Prop47
 90
       50
102
RTVSPost2010PropOp47
 70
     1
102
RTVSPost2010Prop48
 90
       50
102
RTVSPost2010PropOp48
 70
     1
102
RTVSPost2010Prop49
280
     0
102
RTVSPost2010PropOp49
 70
     1
102
RTVSPost2010Prop50
 90
       50
102
RTVSPost2010PropOp50
 70
     1
102
RTVSPost2010Prop51ColorIndex
 90
      256
102
RTVSPost2010Prop51ColorRGB
 90
-16777216
102
RTVSPost2010PropOp51
 70
     0
102
RTVSPost2010Prop52
140
1.0
102
RTVSPost2010PropOp52
 70
     0
102
RTVSPost2010Prop53
 90
        2
102
RTVSPost2010PropOp53
 70
     1
102
RTVSPost2010Prop54
  1
strokes_ogs.tif
102
RTVSPost2010PropOp54
 70
     1
102
RTVSPost2010Prop55
280
     0
102
RTVSPost2010PropOp55
 70
     1
102
RTVSPost2010Prop56
140
1.0
102
RTVSPost2010PropOp56
 70
     1
102
RTVSPost2010Prop57
140
1.0
102
RTVSPost2010PropOp57
 70
     1
  0
XRECORD
  5
14C
102
{ACAD_REACTORS
330
14B
102
}
330
14B
100
AcDbXrecord
280
     1
102
RTVSPropertyOp0
 70
     1
102
RTVSPropertyOp1
 70
     1
102
RTVSPropertyOp2
 70
     1
102
RTVSPropertyOp3
 70
     1
102
RTVSPropertyOp4
 70
     1
102
RTVSPropertyOp5
 70
     1
102
RTVSPropertyOp6
 70
     1
102
RTVSPropertyOp7
 70
     1
102
RTVSPropertyOp8
 70
     1
102
RTVSPropertyOp9
 70
     1
102
RTVSPropertyOp10
 70
     1
102
RTVSPropertyOp11
 70
     1
102
RTVSPropertyOp12
 70
     1
102
RTVSPropertyOp13
 70
     1
102
RTVSPropertyOp14
 70
     1
102
RTVSPropertyOp15
 70
     1
102
RTVSPropertyOp16
 70
     1
102
RTVSPropertyOp17
 70
     1
102
RTVSPropertyOp18
 70
     1
102
RTVSPropertyOp19
 70
     1
102
RTVSPropertyOp20
 70
     1
102
RTVSPropertyOp21
 70
     1
102
RTVSPropertyOp22
 70
     1
102
RTVSPropertyOp23
 70
     1
102
RTVSPropertyOp24
 70
     1
102
RTVSPropertyOp25
 70
     1
102
RTVSPropertyOp26
 70
     1
102
RTVSPropertyOp27
 70
     1
102
RTVSPropertyOp28
 70
     1
102
RTVSPropertyOp29
 70
     1
102
RTVSPropertyOp30
 70
     1
102
RTVSPropertyOp31
 70
     1
102
RTVSPropertyOp32
 70
     1
102
RTVSPropertyOp33
 70
     1
102
RTVSPropertyOp34
 70
     1
102
RTVSPropertyOp35
 70
     1
102
RTVSPropertyOp36
 70
     1
102
RTVSPropertyOp37
 70
     1
102
RTVSPropertyOp38
 70
     1
102
RTVSPropertyOp39
 70
     1
102
RTVSPropertyOp40
 70
     1
102
RTVSPropertyOp41
 70
     1
102
RTVSPropertyOp42
 70
     1
102
RTVSPropertyOp43
 70
     1
102
RTVSPropertyOp44
 70
     1
102
RTVSPropertyOp45
 70
     1
102
RTVSPropertyOp46
 70
     1
102
RTVSPropertyOp47
 70
     1
102
RTVSPropertyOp48
 70
     1
102
RTVSPropertyOp49
 70
     1
102
RTVSPropertyOp50
 70
     1
102
RTVSPropertyOp51
 70
     0
102
RTVSPropertyOp52
 70
     0
102
RTVSPropertyOp53
 70
     1
102
RTVSPropertyOp54
 70
     1
102
RTVSPropertyOp55
 70
     1
102
RTVSPropertyOp56
 70
     1
102
RTVSPropertyOp57
 70
     1
102
RTVSPost2010Prop28
280
     0
102
RTVSPost2010PropOp28
 70
     1
102
RTVSPost2010Prop29
280
     1
102
RTVSPost2010PropOp29
 70
     1
102
RTVSPost2010Prop30
280
     1
102
RTVSPost2010PropOp30
 70
     1
102
RTVSPost2010Prop31
280
     0
102
RTVSPost2010PropOp31
 70
     1
102
RTVSPost2010Prop32
280
     0
102
RTVSPost2010PropOp32
 70
     1
102
RTVSPost2010Prop33
280
     0
102
RTVSPost2010PropOp33
 70
     1
102
RTVSPost2010Prop34
280
     0
102
RTVSPost2010PropOp34
 70
     1
102
RTVSPost2010Prop35
280
     0
102
RTVSPost2010PropOp35
 70
     1
102
RTVSPost2010Prop36
280
     0
102
RTVSPost2010PropOp36
 70
     1
102
RTVSPost2010Prop37
 90
       50
102
RTVSPost2010PropOp37
 70
     1
102
RTVSPost2010Prop38
140
0.0
102
RTVSPost2010PropOp38
 70
     1
102
RTVSPost2010Prop39
140
1.0
102
RTVSPost2010PropOp39
 70
     1
102
RTVSPost2010Prop40
 90
        0
102
RTVSPost2010PropOp40
 70
     1
102
RTVSPost2010Prop41ColorIndex
 90
       18
102
RTVSPost2010Prop41ColorRGB
 90
        0
102
RTVSPost2010PropOp41
 70
     1
102
RTVSPost2010Prop42
 90
       50
102
RTVSPost2010PropOp42
 70
     1
102
RTVSPost2010Prop43
 90
        3
102
RTVSPost2010PropOp43
 70
     1
102
RTVSPost2010Prop44ColorIndex
 90
        5
102
RTVSPost2010Prop44ColorRGB
 90
      255
102
RTVSPost2010PropOp44
 70
     1
102
RTVSPost2010Prop45
280
     0
102
RTVSPost2010PropOp45
 70
     1
102
RTVSPost2010Prop46
 90
       50
102
RTVSPost2010PropOp46
 70
     1
102
RTVSPost2010Prop47
 90
       50
102
RTVSPost2010PropOp47
 70
     1
102
RTVSPost2010Prop48
 90
       50
102
RTVSPost2010PropOp48
 70
     1
102
RTVSPost2010Prop49
280
     0
102
RTVSPost2010PropOp49
 70
     1
102
RTVSPost2010Prop50
 90
       50
102
RTVSPost2010PropOp50
 70
     1
102
RTVSPost2010Prop51ColorIndex
 90
      256
102
RTVSPost2010Prop51ColorRGB
 90
-16777216
102
RTVSPost2010PropOp51
 70
     0
102
RTVSPost2010Prop52
140
1.0
102
RTVSPost2010PropOp52
 70
     0
102
RTVSPost2010Prop53
 90
        2
102
RTVSPost2010PropOp53
 70
     1
102
RTVSPost2010Prop54
  1
strokes_ogs.tif
102
RTVSPost2010PropOp54
 70
     1
102
RTVSPost2010Prop55
280
     0
102
RTVSPost2010PropOp55
 70
     1
102
RTVSPost2010Prop56
140
1.0
102
RTVSPost2010PropOp56
 70
     1
102
RTVSPost2010Prop57
140
1.0
102
RTVSPost2010PropOp57
 70
     1
  0
XRECORD
  5
14E
102
{ACAD_REACTORS
330
14D
102
}
330
14D
100
AcDbXrecord
280
     1
102
RTVSPropertyOp0
 70
     1
102
RTVSPropertyOp1
 70
     1
102
RTVSPropertyOp2
 70
     1
102
RTVSPropertyOp3
 70
     1
102
RTVSPropertyOp4
 70
     1
102
RTVSPropertyOp5
 70
     1
102
RTVSPropertyOp6
 70
     1
102
RTVSPropertyOp7
 70
     1
102
RTVSPropertyOp8
 70
     1
102
RTVSPropertyOp9
 70
     1
102
RTVSPropertyOp10
 70
     1
102
RTVSPropertyOp11
 70
     1
102
RTVSPropertyOp12
 70
     1
102
RTVSPropertyOp13
 70
     1
102
RTVSPropertyOp14
 70
     1
102
RTVSPropertyOp15
 70
     1
102
RTVSPropertyOp16
 70
     1
102
RTVSPropertyOp17
 70
     1
102
RTVSPropertyOp18
 70
     1
102
RTVSPropertyOp19
 70
     1
102
RTVSPropertyOp20
 70
     1
102
RTVSPropertyOp21
 70
     1
102
RTVSPropertyOp22
 70
     1
102
RTVSPropertyOp23
 70
     1
102
RTVSPropertyOp24
 70
     1
102
RTVSPropertyOp25
 70
     1
102
RTVSPropertyOp26
 70
     1
102
RTVSPropertyOp27
 70
     1
102
RTVSPropertyOp28
 70
     1
102
RTVSPropertyOp29
 70
     1
102
RTVSPropertyOp30
 70
     1
102
RTVSPropertyOp31
 70
     1
102
RTVSPropertyOp32
 70
     1
102
RTVSPropertyOp33
 70
     1
102
RTVSPropertyOp34
 70
     1
102
RTVSPropertyOp35
 70
     1
102
RTVSPropertyOp36
 70
     1
102
RTVSPropertyOp37
 70
     1
102
RTVSPropertyOp38
 70
     1
102
RTVSPropertyOp39
 70
     1
102
RTVSPropertyOp40
 70
     1
102
RTVSPropertyOp41
 70
     1
102
RTVSPropertyOp42
 70
     1
102
RTVSPropertyOp43
 70
     1
102
RTVSPropertyOp44
 70
     1
102
RTVSPropertyOp45
 70
     1
102
RTVSPropertyOp46
 70
     1
102
RTVSPropertyOp47
 70
     1
102
RTVSPropertyOp48
 70
     1
102
RTVSPropertyOp49
 70
     1
102
RTVSPropertyOp50
 70
     1
102
RTVSPropertyOp51
 70
     0
102
RTVSPropertyOp52
 70
     0
102
RTVSPropertyOp53
 70
     1
102
RTVSPropertyOp54
 70
     1
102
RTVSPropertyOp55
 70
     1
102
RTVSPropertyOp56
 70
     1
102
RTVSPropertyOp57
 70
     1
102
RTVSPost2010Prop28
280
     0
102
RTVSPost2010PropOp28
 70
     1
102
RTVSPost2010Prop29
280
     1
102
RTVSPost2010PropOp29
 70
     1
102
RTVSPost2010Prop30
280
     1
102
RTVSPost2010PropOp30
 70
     1
102
RTVSPost2010Prop31
280
     0
102
RTVSPost2010PropOp31
 70
     1
102
RTVSPost2010Prop32
280
     0
102
RTVSPost2010PropOp32
 70
     1
102
RTVSPost2010Prop33
280
     0
102
RTVSPost2010PropOp33
 70
     1
102
RTVSPost2010Prop34
280
     0
102
RTVSPost2010PropOp34
 70
     1
102
RTVSPost2010Prop35
280
     0
102
RTVSPost2010PropOp35
 70
     1
102
RTVSPost2010Prop36
280
     0
102
RTVSPost2010PropOp36
 70
     1
102
RTVSPost2010Prop37
 90
       50
102
RTVSPost2010PropOp37
 70
     1
102
RTVSPost2010Prop38
140
0.0
102
RTVSPost2010PropOp38
 70
     1
102
RTVSPost2010Prop39
140
1.0
102
RTVSPost2010PropOp39
 70
     1
102
RTVSPost2010Prop40
 90
        0
102
RTVSPost2010PropOp40
 70
     1
102
RTVSPost2010Prop41ColorIndex
 90
       18
102
RTVSPost2010Prop41ColorRGB
 90
        0
102
RTVSPost2010PropOp41
 70
     1
102
RTVSPost2010Prop42
 90
       50
102
RTVSPost2010PropOp42
 70
     1
102
RTVSPost2010Prop43
 90
        3
102
RTVSPost2010PropOp43
 70
     1
102
RTVSPost2010Prop44ColorIndex
 90
        5
102
RTVSPost2010Prop44ColorRGB
 90
      255
102
RTVSPost2010PropOp44
 70
     1
102
RTVSPost2010Prop45
280
     0
102
RTVSPost2010PropOp45
 70
     1
102
RTVSPost2010Prop46
 90
       50
102
RTVSPost2010PropOp46
 70
     1
102
RTVSPost2010Prop47
 90
       50
102
RTVSPost2010PropOp47
 70
     1
102
RTVSPost2010Prop48
 90
       50
102
RTVSPost2010PropOp48
 70
     1
102
RTVSPost2010Prop49
280
     0
102
RTVSPost2010PropOp49
 70
     1
102
RTVSPost2010Prop50
 90
       50
102
RTVSPost2010PropOp50
 70
     1
102
RTVSPost2010Prop51ColorIndex
 90
      256
102
RTVSPost2010Prop51ColorRGB
 90
-16777216
102
RTVSPost2010PropOp51
 70
     0
102
RTVSPost2010Prop52
140
1.0
102
RTVSPost2010PropOp52
 70
     0
102
RTVSPost2010Prop53
 90
        2
102
RTVSPost2010PropOp53
 70
     1
102
RTVSPost2010Prop54
  1
strokes_ogs.tif
102
RTVSPost2010PropOp54
 70
     1
102
RTVSPost2010Prop55
280
     0
102
RTVSPost2010PropOp55
 70
     1
102
RTVSPost2010Prop56
140
1.0
102
RTVSPost2010PropOp56
 70
     1
102
RTVSPost2010Prop57
140
1.0
102
RTVSPost2010PropOp57
 70
     1
  0
XRECORD
  5
154
102
{ACAD_REACTORS
330
153
102
}
330
153
100
AcDbXrecord
280
     1
102
RTVSPropertyOp0
 70
     1
102
RTVSPropertyOp1
 70
     1
102
RTVSPropertyOp2
 70
     1
102
RTVSPropertyOp3
 70
     1
102
RTVSPropertyOp4
 70
     1
102
RTVSPropertyOp5
 70
     1
102
RTVSPropertyOp6
 70
     1
102
RTVSPropertyOp7
 70
     1
102
RTVSPropertyOp8
 70
     1
102
RTVSPropertyOp9
 70
     1
102
RTVSPropertyOp10
 70
     1
102
RTVSPropertyOp11
 70
     1
102
RTVSPropertyOp12
 70
     1
102
RTVSPropertyOp13
 70
     1
102
RTVSPropertyOp14
 70
     1
102
RTVSPropertyOp15
 70
     1
102
RTVSPropertyOp16
 70
     1
102
RTVSPropertyOp17
 70
     1
102
RTVSPropertyOp18
 70
     1
102
RTVSPropertyOp19
 70
     1
102
RTVSPropertyOp20
 70
     1
102
RTVSPropertyOp21
 70
     1
102
RTVSPropertyOp22
 70
     1
102
RTVSPropertyOp23
 70
     1
102
RTVSPropertyOp24
 70
     1
102
RTVSPropertyOp25
 70
     1
102
RTVSPropertyOp26
 70
     1
102
RTVSPropertyOp27
 70
     1
102
RTVSPropertyOp28
 70
     1
102
RTVSPropertyOp29
 70
     1
102
RTVSPropertyOp30
 70
     1
102
RTVSPropertyOp31
 70
     1
102
RTVSPropertyOp32
 70
     1
102
RTVSPropertyOp33
 70
     1
102
RTVSPropertyOp34
 70
     1
102
RTVSPropertyOp35
 70
     1
102
RTVSPropertyOp36
 70
     1
102
RTVSPropertyOp37
 70
     1
102
RTVSPropertyOp38
 70
     1
102
RTVSPropertyOp39
 70
     1
102
RTVSPropertyOp40
 70
     1
102
RTVSPropertyOp41
 70
     1
102
RTVSPropertyOp42
 70
     1
102
RTVSPropertyOp43
 70
     1
102
RTVSPropertyOp44
 70
     1
102
RTVSPropertyOp45
 70
     1
102
RTVSPropertyOp46
 70
     1
102
RTVSPropertyOp47
 70
     1
102
RTVSPropertyOp48
 70
     1
102
RTVSPropertyOp49
 70
     1
102
RTVSPropertyOp50
 70
     1
102
RTVSPropertyOp51
 70
     0
102
RTVSPropertyOp52
 70
     0
102
RTVSPropertyOp53
 70
     1
102
RTVSPropertyOp54
 70
     1
102
RTVSPropertyOp55
 70
     1
102
RTVSPropertyOp56
 70
     1
102
RTVSPropertyOp57
 70
     1
102
RTVSPost2010Prop28
280
     0
102
RTVSPost2010PropOp28
 70
     1
102
RTVSPost2010Prop29
280
     1
102
RTVSPost2010PropOp29
 70
     1
102
RTVSPost2010Prop30
280
     1
102
RTVSPost2010PropOp30
 70
     1
102
RTVSPost2010Prop31
280
     0
102
RTVSPost2010PropOp31
 70
     1
102
RTVSPost2010Prop32
280
     0
102
RTVSPost2010PropOp32
 70
     1
102
RTVSPost2010Prop33
280
     0
102
RTVSPost2010PropOp33
 70
     1
102
RTVSPost2010Prop34
280
     0
102
RTVSPost2010PropOp34
 70
     1
102
RTVSPost2010Prop35
280
     0
102
RTVSPost2010PropOp35
 70
     1
102
RTVSPost2010Prop36
280
     0
102
RTVSPost2010PropOp36
 70
     1
102
RTVSPost2010Prop37
 90
       50
102
RTVSPost2010PropOp37
 70
     1
102
RTVSPost2010Prop38
140
0.0
102
RTVSPost2010PropOp38
 70
     1
102
RTVSPost2010Prop39
140
1.0
102
RTVSPost2010PropOp39
 70
     1
102
RTVSPost2010Prop40
 90
        0
102
RTVSPost2010PropOp40
 70
     1
102
RTVSPost2010Prop41ColorIndex
 90
       18
102
RTVSPost2010Prop41ColorRGB
 90
        0
102
RTVSPost2010PropOp41
 70
     1
102
RTVSPost2010Prop42
 90
       50
102
RTVSPost2010PropOp42
 70
     1
102
RTVSPost2010Prop43
 90
        3
102
RTVSPost2010PropOp43
 70
     1
102
RTVSPost2010Prop44ColorIndex
 90
        5
102
RTVSPost2010Prop44ColorRGB
 90
      255
102
RTVSPost2010PropOp44
 70
     1
102
RTVSPost2010Prop45
280
     0
102
RTVSPost2010PropOp45
 70
     1
102
RTVSPost2010Prop46
 90
       50
102
RTVSPost2010PropOp46
 70
     1
102
RTVSPost2010Prop47
 90
       50
102
RTVSPost2010PropOp47
 70
     1
102
RTVSPost2010Prop48
 90
       50
102
RTVSPost2010PropOp48
 70
     1
102
RTVSPost2010Prop49
280
     0
102
RTVSPost2010PropOp49
 70
     1
102
RTVSPost2010Prop50
 90
       50
102
RTVSPost2010PropOp50
 70
     1
102
RTVSPost2010Prop51ColorIndex
 90
      256
102
RTVSPost2010Prop51ColorRGB
 90
-16777216
102
RTVSPost2010PropOp51
 70
     0
102
RTVSPost2010Prop52
140
1.0
102
RTVSPost2010PropOp52
 70
     0
102
RTVSPost2010Prop53
 90
        2
102
RTVSPost2010PropOp53
 70
     1
102
RTVSPost2010Prop54
  1
strokes_ogs.tif
102
RTVSPost2010PropOp54
 70
     1
102
RTVSPost2010Prop55
280
     0
102
RTVSPost2010PropOp55
 70
     1
102
RTVSPost2010Prop56
140
1.0
102
RTVSPost2010PropOp56
 70
     1
102
RTVSPost2010Prop57
140
1.0
102
RTVSPost2010PropOp57
 70
     1
  0
XRECORD
  5
168
102
{ACAD_REACTORS
330
167
102
}
330
167
100
AcDbXrecord
280
     1
102
RTVSPropertyOp0
 70
     0
102
RTVSPropertyOp1
 70
     0
102
RTVSPropertyOp2
 70
     0
102
RTVSPropertyOp3
 70
     0
102
RTVSPropertyOp4
 70
     0
102
RTVSPropertyOp5
 70
     0
102
RTVSPropertyOp6
 70
     0
102
RTVSPropertyOp7
 70
     0
102
RTVSPropertyOp8
 70
     0
102
RTVSPropertyOp9
 70
     0
102
RTVSPropertyOp10
 70
     0
102
RTVSPropertyOp11
 70
     0
102
RTVSPropertyOp12
 70
     0
102
RTVSPropertyOp13
 70
     0
102
RTVSPropertyOp14
 70
     2
102
RTVSPropertyOp15
 70
     0
102
RTVSPropertyOp16
 70
     0
102
RTVSPropertyOp17
 70
     0
102
RTVSPropertyOp18
 70
     0
102
RTVSPropertyOp19
 70
     0
102
RTVSPropertyOp20
 70
     0
102
RTVSPropertyOp21
 70
     0
102
RTVSPropertyOp22
 70
     0
102
RTVSPropertyOp23
 70
     0
102
RTVSPropertyOp24
 70
     0
102
RTVSPropertyOp25
 70
     0
102
RTVSPropertyOp26
 70
     0
102
RTVSPropertyOp27
 70
     0
102
RTVSPropertyOp28
 70
     0
102
RTVSPropertyOp29
 70
     0
102
RTVSPropertyOp30
 70
     0
102
RTVSPropertyOp31
 70
     0
102
RTVSPropertyOp32
 70
     0
102
RTVSPropertyOp33
 70
     0
102
RTVSPropertyOp34
 70
     0
102
RTVSPropertyOp35
 70
     0
102
RTVSPropertyOp36
 70
     0
102
RTVSPropertyOp37
 70
     0
102
RTVSPropertyOp38
 70
     0
102
RTVSPropertyOp39
 70
     0
102
RTVSPropertyOp40
 70
     0
102
RTVSPropertyOp41
 70
     0
102
RTVSPropertyOp42
 70
     0
102
RTVSPropertyOp43
 70
     0
102
RTVSPropertyOp44
 70
     0
102
RTVSPropertyOp45
 70
     0
102
RTVSPropertyOp46
 70
     0
102
RTVSPropertyOp47
 70
     0
102
RTVSPropertyOp48
 70
     0
102
RTVSPropertyOp49
 70
     0
102
RTVSPropertyOp50
 70
     0
102
RTVSPropertyOp51
 70
     0
102
RTVSPropertyOp52
 70
     0
102
RTVSPropertyOp53
 70
     0
102
RTVSPropertyOp54
 70
     0
102
RTVSPropertyOp55
 70
     0
102
RTVSPropertyOp56
 70
     0
102
RTVSPropertyOp57
 70
     0
102
RTVSPost2010Prop28
280
     0
102
RTVSPost2010PropOp28
 70
     0
102
RTVSPost2010Prop29
280
     1
102
RTVSPost2010PropOp29
 70
     0
102
RTVSPost2010Prop30
280
     1
102
RTVSPost2010PropOp30
 70
     0
102
RTVSPost2010Prop31
280
     0
102
RTVSPost2010PropOp31
 70
     0
102
RTVSPost2010Prop32
280
     0
102
RTVSPost2010PropOp32
 70
     0
102
RTVSPost2010Prop33
280
     0
102
RTVSPost2010PropOp33
 70
     0
102
RTVSPost2010Prop34
280
     0
102
RTVSPost2010PropOp34
 70
     0
102
RTVSPost2010Prop35
280
     0
102
RTVSPost2010PropOp35
 70
     0
102
RTVSPost2010Prop36
280
     0
102
RTVSPost2010PropOp36
 70
     0
102
RTVSPost2010Prop37
 90
       50
102
RTVSPost2010PropOp37
 70
     0
102
RTVSPost2010Prop38
140
0.0
102
RTVSPost2010PropOp38
 70
     0
102
RTVSPost2010Prop39
140
1.0
102
RTVSPost2010PropOp39
 70
     0
102
RTVSPost2010Prop40
 90
        0
102
RTVSPost2010PropOp40
 70
     0
102
RTVSPost2010Prop41ColorIndex
 90
       18
102
RTVSPost2010Prop41ColorRGB
 90
        0
102
RTVSPost2010PropOp41
 70
     0
102
RTVSPost2010Prop42
 90
       50
102
RTVSPost2010PropOp42
 70
     0
102
RTVSPost2010Prop43
 90
        3
102
RTVSPost2010PropOp43
 70
     0
102
RTVSPost2010Prop44ColorIndex
 90
        5
102
RTVSPost2010Prop44ColorRGB
 90
      255
102
RTVSPost2010PropOp44
 70
     0
102
RTVSPost2010Prop45
280
     0
102
RTVSPost2010PropOp45
 70
     0
102
RTVSPost2010Prop46
 90
       50
102
RTVSPost2010PropOp46
 70
     0
102
RTVSPost2010Prop47
 90
       50
102
RTVSPost2010PropOp47
 70
     0
102
RTVSPost2010Prop48
 90
       50
102
RTVSPost2010PropOp48
 70
     0
102
RTVSPost2010Prop49
280
     0
102
RTVSPost2010PropOp49
 70
     0
102
RTVSPost2010Prop50
 90
       50
102
RTVSPost2010PropOp50
 70
     0
102
RTVSPost2010Prop51ColorIndex
 90
      256
102
RTVSPost2010Prop51ColorRGB
 90
-16777216
102
RTVSPost2010PropOp51
 70
     0
102
RTVSPost2010Prop52
140
1.0
102
RTVSPost2010PropOp52
 70
     0
102
RTVSPost2010Prop53
 90
        2
102
RTVSPost2010PropOp53
 70
     0
102
RTVSPost2010Prop54
  1
strokes_ogs.tif
102
RTVSPost2010PropOp54
 70
     0
102
RTVSPost2010Prop55
280
     0
102
RTVSPost2010PropOp55
 70
     0
102
RTVSPost2010Prop56
140
1.0
102
RTVSPost2010PropOp56
 70
     0
102
RTVSPost2010Prop57
140
1.0
102
RTVSPost2010PropOp57
 70
     0
  0
XRECORD
  5
162
102
{ACAD_REACTORS
330
161
102
}
330
161
100
AcDbXrecord
280
     1
102
RTVSPropertyOp0
 70
     1
102
RTVSPropertyOp1
 70
     1
102
RTVSPropertyOp2
 70
     1
102
RTVSPropertyOp3
 70
     1
102
RTVSPropertyOp4
 70
     1
102
RTVSPropertyOp5
 70
     1
102
RTVSPropertyOp6
 70
     1
102
RTVSPropertyOp7
 70
     1
102
RTVSPropertyOp8
 70
     1
102
RTVSPropertyOp9
 70
     1
102
RTVSPropertyOp10
 70
     1
102
RTVSPropertyOp11
 70
     1
102
RTVSPropertyOp12
 70
     1
102
RTVSPropertyOp13
 70
     1
102
RTVSPropertyOp14
 70
     1
102
RTVSPropertyOp15
 70
     1
102
RTVSPropertyOp16
 70
     1
102
RTVSPropertyOp17
 70
     1
102
RTVSPropertyOp18
 70
     1
102
RTVSPropertyOp19
 70
     1
102
RTVSPropertyOp20
 70
     1
102
RTVSPropertyOp21
 70
     1
102
RTVSPropertyOp22
 70
     1
102
RTVSPropertyOp23
 70
     1
102
RTVSPropertyOp24
 70
     1
102
RTVSPropertyOp25
 70
     1
102
RTVSPropertyOp26
 70
     1
102
RTVSPropertyOp27
 70
     1
102
RTVSPropertyOp28
 70
     1
102
RTVSPropertyOp29
 70
     1
102
RTVSPropertyOp30
 70
     1
102
RTVSPropertyOp31
 70
     1
102
RTVSPropertyOp32
 70
     1
102
RTVSPropertyOp33
 70
     1
102
RTVSPropertyOp34
 70
     1
102
RTVSPropertyOp35
 70
     1
102
RTVSPropertyOp36
 70
     1
102
RTVSPropertyOp37
 70
     1
102
RTVSPropertyOp38
 70
     1
102
RTVSPropertyOp39
 70
     1
102
RTVSPropertyOp40
 70
     1
102
RTVSPropertyOp41
 70
     1
102
RTVSPropertyOp42
 70
     1
102
RTVSPropertyOp43
 70
     1
102
RTVSPropertyOp44
 70
     1
102
RTVSPropertyOp45
 70
     1
102
RTVSPropertyOp46
 70
     1
102
RTVSPropertyOp47
 70
     1
102
RTVSPropertyOp48
 70
     1
102
RTVSPropertyOp49
 70
     1
102
RTVSPropertyOp50
 70
     1
102
RTVSPropertyOp51
 70
     0
102
RTVSPropertyOp52
 70
     0
102
RTVSPropertyOp53
 70
     1
102
RTVSPropertyOp54
 70
     1
102
RTVSPropertyOp55
 70
     1
102
RTVSPropertyOp56
 70
     1
102
RTVSPropertyOp57
 70
     1
102
RTVSPost2010Prop28
280
     0
102
RTVSPost2010PropOp28
 70
     1
102
RTVSPost2010Prop29
280
     1
102
RTVSPost2010PropOp29
 70
     1
102
RTVSPost2010Prop30
280
     1
102
RTVSPost2010PropOp30
 70
     1
102
RTVSPost2010Prop31
280
     0
102
RTVSPost2010PropOp31
 70
     1
102
RTVSPost2010Prop32
280
     0
102
RTVSPost2010PropOp32
 70
     1
102
RTVSPost2010Prop33
280
     0
102
RTVSPost2010PropOp33
 70
     1
102
RTVSPost2010Prop34
280
     0
102
RTVSPost2010PropOp34
 70
     1
102
RTVSPost2010Prop35
280
     0
102
RTVSPost2010PropOp35
 70
     1
102
RTVSPost2010Prop36
280
     0
102
RTVSPost2010PropOp36
 70
     1
102
RTVSPost2010Prop37
 90
       50
102
RTVSPost2010PropOp37
 70
     1
102
RTVSPost2010Prop38
140
0.0
102
RTVSPost2010PropOp38
 70
     1
102
RTVSPost2010Prop39
140
1.0
102
RTVSPost2010PropOp39
 70
     1
102
RTVSPost2010Prop40
 90
        0
102
RTVSPost2010PropOp40
 70
     1
102
RTVSPost2010Prop41ColorIndex
 90
       18
102
RTVSPost2010Prop41ColorRGB
 90
        0
102
RTVSPost2010PropOp41
 70
     1
102
RTVSPost2010Prop42
 90
       50
102
RTVSPost2010PropOp42
 70
     1
102
RTVSPost2010Prop43
 90
        3
102
RTVSPost2010PropOp43
 70
     1
102
RTVSPost2010Prop44ColorIndex
 90
        5
102
RTVSPost2010Prop44ColorRGB
 90
      255
102
RTVSPost2010PropOp44
 70
     1
102
RTVSPost2010Prop45
280
     0
102
RTVSPost2010PropOp45
 70
     1
102
RTVSPost2010Prop46
 90
       50
102
RTVSPost2010PropOp46
 70
     1
102
RTVSPost2010Prop47
 90
       50
102
RTVSPost2010PropOp47
 70
     1
102
RTVSPost2010Prop48
 90
       50
102
RTVSPost2010PropOp48
 70
     1
102
RTVSPost2010Prop49
280
     0
102
RTVSPost2010PropOp49
 70
     1
102
RTVSPost2010Prop50
 90
       50
102
RTVSPost2010PropOp50
 70
     1
102
RTVSPost2010Prop51ColorIndex
 90
      256
102
RTVSPost2010Prop51ColorRGB
 90
-16777216
102
RTVSPost2010PropOp51
 70
     0
102
RTVSPost2010Prop52
140
1.0
102
RTVSPost2010PropOp52
 70
     0
102
RTVSPost2010Prop53
 90
        2
102
RTVSPost2010PropOp53
 70
     1
102
RTVSPost2010Prop54
  1
strokes_ogs.tif
102
RTVSPost2010PropOp54
 70
     1
102
RTVSPost2010Prop55
280
     0
102
RTVSPost2010PropOp55
 70
     1
102
RTVSPost2010Prop56
140
1.0
102
RTVSPost2010PropOp56
 70
     1
102
RTVSPost2010Prop57
140
1.0
102
RTVSPost2010PropOp57
 70
     1
  0
XRECORD
  5
16A
102
{ACAD_REACTORS
330
169
102
}
330
169
100
AcDbXrecord
280
     1
102
RTVSPropertyOp0
 70
     0
102
RTVSPropertyOp1
 70
     0
102
RTVSPropertyOp2
 70
     0
102
RTVSPropertyOp3
 70
     0
102
RTVSPropertyOp4
 70
     0
102
RTVSPropertyOp5
 70
     0
102
RTVSPropertyOp6
 70
     0
102
RTVSPropertyOp7
 70
     0
102
RTVSPropertyOp8
 70
     0
102
RTVSPropertyOp9
 70
     0
102
RTVSPropertyOp10
 70
     0
102
RTVSPropertyOp11
 70
     0
102
RTVSPropertyOp12
 70
     0
102
RTVSPropertyOp13
 70
     0
102
RTVSPropertyOp14
 70
     2
102
RTVSPropertyOp15
 70
     0
102
RTVSPropertyOp16
 70
     0
102
RTVSPropertyOp17
 70
     0
102
RTVSPropertyOp18
 70
     0
102
RTVSPropertyOp19
 70
     0
102
RTVSPropertyOp20
 70
     0
102
RTVSPropertyOp21
 70
     0
102
RTVSPropertyOp22
 70
     0
102
RTVSPropertyOp23
 70
     0
102
RTVSPropertyOp24
 70
     0
102
RTVSPropertyOp25
 70
     0
102
RTVSPropertyOp26
 70
     0
102
RTVSPropertyOp27
 70
     0
102
RTVSPropertyOp28
 70
     0
102
RTVSPropertyOp29
 70
     0
102
RTVSPropertyOp30
 70
     0
102
RTVSPropertyOp31
 70
     0
102
RTVSPropertyOp32
 70
     0
102
RTVSPropertyOp33
 70
     0
102
RTVSPropertyOp34
 70
     0
102
RTVSPropertyOp35
 70
     0
102
RTVSPropertyOp36
 70
     0
102
RTVSPropertyOp37
 70
     0
102
RTVSPropertyOp38
 70
     0
102
RTVSPropertyOp39
 70
     0
102
RTVSPropertyOp40
 70
     0
102
RTVSPropertyOp41
 70
     0
102
RTVSPropertyOp42
 70
     0
102
RTVSPropertyOp43
 70
     0
102
RTVSPropertyOp44
 70
     0
102
RTVSPropertyOp45
 70
     0
102
RTVSPropertyOp46
 70
     0
102
RTVSPropertyOp47
 70
     0
102
RTVSPropertyOp48
 70
     0
102
RTVSPropertyOp49
 70
     0
102
RTVSPropertyOp50
 70
     0
102
RTVSPropertyOp51
 70
     0
102
RTVSPropertyOp52
 70
     0
102
RTVSPropertyOp53
 70
     0
102
RTVSPropertyOp54
 70
     0
102
RTVSPropertyOp55
 70
     0
102
RTVSPropertyOp56
 70
     0
102
RTVSPropertyOp57
 70
     0
102
RTVSPost2010Prop28
280
     0
102
RTVSPost2010PropOp28
 70
     0
102
RTVSPost2010Prop29
280
     1
102
RTVSPost2010PropOp29
 70
     0
102
RTVSPost2010Prop30
280
     1
102
RTVSPost2010PropOp30
 70
     0
102
RTVSPost2010Prop31
280
     0
102
RTVSPost2010PropOp31
 70
     0
102
RTVSPost2010Prop32
280
     0
102
RTVSPost2010PropOp32
 70
     0
102
RTVSPost2010Prop33
280
     0
102
RTVSPost2010PropOp33
 70
     0
102
RTVSPost2010Prop34
280
     0
102
RTVSPost2010PropOp34
 70
     0
102
RTVSPost2010Prop35
280
     0
102
RTVSPost2010PropOp35
 70
     0
102
RTVSPost2010Prop36
280
     0
102
RTVSPost2010PropOp36
 70
     0
102
RTVSPost2010Prop37
 90
       50
102
RTVSPost2010PropOp37
 70
     0
102
RTVSPost2010Prop38
140
0.0
102
RTVSPost2010PropOp38
 70
     0
102
RTVSPost2010Prop39
140
1.0
102
RTVSPost2010PropOp39
 70
     0
102
RTVSPost2010Prop40
 90
        0
102
RTVSPost2010PropOp40
 70
     0
102
RTVSPost2010Prop41ColorIndex
 90
       18
102
RTVSPost2010Prop41ColorRGB
 90
        0
102
RTVSPost2010PropOp41
 70
     0
102
RTVSPost2010Prop42
 90
       50
102
RTVSPost2010PropOp42
 70
     0
102
RTVSPost2010Prop43
 90
        3
102
RTVSPost2010PropOp43
 70
     0
102
RTVSPost2010Prop44ColorIndex
 90
        5
102
RTVSPost2010Prop44ColorRGB
 90
      255
102
RTVSPost2010PropOp44
 70
     0
102
RTVSPost2010Prop45
280
     0
102
RTVSPost2010PropOp45
 70
     0
102
RTVSPost2010Prop46
 90
       50
102
RTVSPost2010PropOp46
 70
     0
102
RTVSPost2010Prop47
 90
       50
102
RTVSPost2010PropOp47
 70
     0
102
RTVSPost2010Prop48
 90
       50
102
RTVSPost2010PropOp48
 70
     0
102
RTVSPost2010Prop49
280
     0
102
RTVSPost2010PropOp49
 70
     0
102
RTVSPost2010Prop50
 90
       50
102
RTVSPost2010PropOp50
 70
     0
102
RTVSPost2010Prop51ColorIndex
 90
      256
102
RTVSPost2010Prop51ColorRGB
 90
-16777216
102
RTVSPost2010PropOp51
 70
     0
102
RTVSPost2010Prop52
140
1.0
102
RTVSPost2010PropOp52
 70
     0
102
RTVSPost2010Prop53
 90
        2
102
RTVSPost2010PropOp53
 70
     0
102
RTVSPost2010Prop54
  1
strokes_ogs.tif
102
RTVSPost2010PropOp54
 70
     0
102
RTVSPost2010Prop55
280
     0
102
RTVSPost2010PropOp55
 70
     0
102
RTVSPost2010Prop56
140
1.0
102
RTVSPost2010PropOp56
 70
     0
102
RTVSPost2010Prop57
140
1.0
102
RTVSPost2010PropOp57
 70
     0
  0
XRECORD
  5
158
102
{ACAD_REACTORS
330
157
102
}
330
157
100
AcDbXrecord
280
     1
102
RTVSPropertyOp0
 70
     1
102
RTVSPropertyOp1
 70
     1
102
RTVSPropertyOp2
 70
     1
102
RTVSPropertyOp3
 70
     1
102
RTVSPropertyOp4
 70
     1
102
RTVSPropertyOp5
 70
     1
102
RTVSPropertyOp6
 70
     1
102
RTVSPropertyOp7
 70
     1
102
RTVSPropertyOp8
 70
     1
102
RTVSPropertyOp9
 70
     1
102
RTVSPropertyOp10
 70
     1
102
RTVSPropertyOp11
 70
     1
102
RTVSPropertyOp12
 70
     1
102
RTVSPropertyOp13
 70
     1
102
RTVSPropertyOp14
 70
     1
102
RTVSPropertyOp15
 70
     1
102
RTVSPropertyOp16
 70
     1
102
RTVSPropertyOp17
 70
     1
102
RTVSPropertyOp18
 70
     1
102
RTVSPropertyOp19
 70
     1
102
RTVSPropertyOp20
 70
     1
102
RTVSPropertyOp21
 70
     1
102
RTVSPropertyOp22
 70
     1
102
RTVSPropertyOp23
 70
     1
102
RTVSPropertyOp24
 70
     1
102
RTVSPropertyOp25
 70
     1
102
RTVSPropertyOp26
 70
     1
102
RTVSPropertyOp27
 70
     1
102
RTVSPropertyOp28
 70
     1
102
RTVSPropertyOp29
 70
     1
102
RTVSPropertyOp30
 70
     1
102
RTVSPropertyOp31
 70
     1
102
RTVSPropertyOp32
 70
     1
102
RTVSPropertyOp33
 70
     1
102
RTVSPropertyOp34
 70
     1
102
RTVSPropertyOp35
 70
     1
102
RTVSPropertyOp36
 70
     1
102
RTVSPropertyOp37
 70
     1
102
RTVSPropertyOp38
 70
     1
102
RTVSPropertyOp39
 70
     1
102
RTVSPropertyOp40
 70
     1
102
RTVSPropertyOp41
 70
     1
102
RTVSPropertyOp42
 70
     1
102
RTVSPropertyOp43
 70
     1
102
RTVSPropertyOp44
 70
     1
102
RTVSPropertyOp45
 70
     1
102
RTVSPropertyOp46
 70
     1
102
RTVSPropertyOp47
 70
     1
102
RTVSPropertyOp48
 70
     1
102
RTVSPropertyOp49
 70
     1
102
RTVSPropertyOp50
 70
     1
102
RTVSPropertyOp51
 70
     0
102
RTVSPropertyOp52
 70
     0
102
RTVSPropertyOp53
 70
     1
102
RTVSPropertyOp54
 70
     1
102
RTVSPropertyOp55
 70
     1
102
RTVSPropertyOp56
 70
     1
102
RTVSPropertyOp57
 70
     1
102
RTVSPost2010Prop28
280
     0
102
RTVSPost2010PropOp28
 70
     1
102
RTVSPost2010Prop29
280
     1
102
RTVSPost2010PropOp29
 70
     1
102
RTVSPost2010Prop30
280
     1
102
RTVSPost2010PropOp30
 70
     1
102
RTVSPost2010Prop31
280
     0
102
RTVSPost2010PropOp31
 70
     1
102
RTVSPost2010Prop32
280
     0
102
RTVSPost2010PropOp32
 70
     1
102
RTVSPost2010Prop33
280
     0
102
RTVSPost2010PropOp33
 70
     1
102
RTVSPost2010Prop34
280
     0
102
RTVSPost2010PropOp34
 70
     1
102
RTVSPost2010Prop35
280
     0
102
RTVSPost2010PropOp35
 70
     1
102
RTVSPost2010Prop36
280
     0
102
RTVSPost2010PropOp36
 70
     1
102
RTVSPost2010Prop37
 90
       50
102
RTVSPost2010PropOp37
 70
     1
102
RTVSPost2010Prop38
140
0.0
102
RTVSPost2010PropOp38
 70
     1
102
RTVSPost2010Prop39
140
1.0
102
RTVSPost2010PropOp39
 70
     1
102
RTVSPost2010Prop40
 90
        0
102
RTVSPost2010PropOp40
 70
     1
102
RTVSPost2010Prop41ColorIndex
 90
       18
102
RTVSPost2010Prop41ColorRGB
 90
        0
102
RTVSPost2010PropOp41
 70
     1
102
RTVSPost2010Prop42
 90
       50
102
RTVSPost2010PropOp42
 70
     1
102
RTVSPost2010Prop43
 90
        3
102
RTVSPost2010PropOp43
 70
     1
102
RTVSPost2010Prop44ColorIndex
 90
        5
102
RTVSPost2010Prop44ColorRGB
 90
      255
102
RTVSPost2010PropOp44
 70
     1
102
RTVSPost2010Prop45
280
     0
102
RTVSPost2010PropOp45
 70
     1
102
RTVSPost2010Prop46
 90
       50
102
RTVSPost2010PropOp46
 70
     1
102
RTVSPost2010Prop47
 90
       50
102
RTVSPost2010PropOp47
 70
     1
102
RTVSPost2010Prop48
 90
       50
102
RTVSPost2010PropOp48
 70
     1
102
RTVSPost2010Prop49
280
     0
102
RTVSPost2010PropOp49
 70
     1
102
RTVSPost2010Prop50
 90
       50
102
RTVSPost2010PropOp50
 70
     1
102
RTVSPost2010Prop51ColorIndex
 90
      256
102
RTVSPost2010Prop51ColorRGB
 90
-16777216
102
RTVSPost2010PropOp51
 70
     0
102
RTVSPost2010Prop52
140
1.0
102
RTVSPost2010PropOp52
 70
     0
102
RTVSPost2010Prop53
 90
        2
102
RTVSPost2010PropOp53
 70
     1
102
RTVSPost2010Prop54
  1
strokes_ogs.tif
102
RTVSPost2010PropOp54
 70
     1
102
RTVSPost2010Prop55
280
     0
102
RTVSPost2010PropOp55
 70
     1
102
RTVSPost2010Prop56
140
1.0
102
RTVSPost2010PropOp56
 70
     1
102
RTVSPost2010Prop57
140
1.0
102
RTVSPost2010PropOp57
 70
     1
  0
XRECORD
  5
176
102
{ACAD_REACTORS
330
175
102
}
330
175
100
AcDbXrecord
280
     1
102
RTVSPropertyOp0
 70
     1
102
RTVSPropertyOp1
 70
     1
102
RTVSPropertyOp2
 70
     1
102
RTVSPropertyOp3
 70
     1
102
RTVSPropertyOp4
 70
     1
102
RTVSPropertyOp5
 70
     1
102
RTVSPropertyOp6
 70
     1
102
RTVSPropertyOp7
 70
     1
102
RTVSPropertyOp8
 70
     1
102
RTVSPropertyOp9
 70
     1
102
RTVSPropertyOp10
 70
     1
102
RTVSPropertyOp11
 70
     1
102
RTVSPropertyOp12
 70
     1
102
RTVSPropertyOp13
 70
     1
102
RTVSPropertyOp14
 70
     1
102
RTVSPropertyOp15
 70
     1
102
RTVSPropertyOp16
 70
     1
102
RTVSPropertyOp17
 70
     1
102
RTVSPropertyOp18
 70
     1
102
RTVSPropertyOp19
 70
     1
102
RTVSPropertyOp20
 70
     1
102
RTVSPropertyOp21
 70
     1
102
RTVSPropertyOp22
 70
     1
102
RTVSPropertyOp23
 70
     1
102
RTVSPropertyOp24
 70
     1
102
RTVSPropertyOp25
 70
     1
102
RTVSPropertyOp26
 70
     1
102
RTVSPropertyOp27
 70
     1
102
RTVSPropertyOp28
 70
     1
102
RTVSPropertyOp29
 70
     1
102
RTVSPropertyOp30
 70
     1
102
RTVSPropertyOp31
 70
     1
102
RTVSPropertyOp32
 70
     1
102
RTVSPropertyOp33
 70
     1
102
RTVSPropertyOp34
 70
     1
102
RTVSPropertyOp35
 70
     1
102
RTVSPropertyOp36
 70
     1
102
RTVSPropertyOp37
 70
     1
102
RTVSPropertyOp38
 70
     1
102
RTVSPropertyOp39
 70
     1
102
RTVSPropertyOp40
 70
     1
102
RTVSPropertyOp41
 70
     1
102
RTVSPropertyOp42
 70
     1
102
RTVSPropertyOp43
 70
     1
102
RTVSPropertyOp44
 70
     1
102
RTVSPropertyOp45
 70
     1
102
RTVSPropertyOp46
 70
     1
102
RTVSPropertyOp47
 70
     1
102
RTVSPropertyOp48
 70
     1
102
RTVSPropertyOp49
 70
     1
102
RTVSPropertyOp50
 70
     1
102
RTVSPropertyOp51
 70
     0
102
RTVSPropertyOp52
 70
     0
102
RTVSPropertyOp53
 70
     1
102
RTVSPropertyOp54
 70
     1
102
RTVSPropertyOp55
 70
     1
102
RTVSPropertyOp56
 70
     1
102
RTVSPropertyOp57
 70
     1
102
RTVSPost2010Prop28
280
     0
102
RTVSPost2010PropOp28
 70
     1
102
RTVSPost2010Prop29
280
     1
102
RTVSPost2010PropOp29
 70
     1
102
RTVSPost2010Prop30
280
     1
102
RTVSPost2010PropOp30
 70
     1
102
RTVSPost2010Prop31
280
     0
102
RTVSPost2010PropOp31
 70
     1
102
RTVSPost2010Prop32
280
     0
102
RTVSPost2010PropOp32
 70
     1
102
RTVSPost2010Prop33
280
     0
102
RTVSPost2010PropOp33
 70
     1
102
RTVSPost2010Prop34
280
     0
102
RTVSPost2010PropOp34
 70
     1
102
RTVSPost2010Prop35
280
     0
102
RTVSPost2010PropOp35
 70
     1
102
RTVSPost2010Prop36
280
     0
102
RTVSPost2010PropOp36
 70
     1
102
RTVSPost2010Prop37
 90
       50
102
RTVSPost2010PropOp37
 70
     1
102
RTVSPost2010Prop38
140
0.0
102
RTVSPost2010PropOp38
 70
     1
102
RTVSPost2010Prop39
140
1.0
102
RTVSPost2010PropOp39
 70
     1
102
RTVSPost2010Prop40
 90
        0
102
RTVSPost2010PropOp40
 70
     1
102
RTVSPost2010Prop41ColorIndex
 90
       18
102
RTVSPost2010Prop41ColorRGB
 90
        0
102
RTVSPost2010PropOp41
 70
     1
102
RTVSPost2010Prop42
 90
       50
102
RTVSPost2010PropOp42
 70
     1
102
RTVSPost2010Prop43
 90
        3
102
RTVSPost2010PropOp43
 70
     1
102
RTVSPost2010Prop44ColorIndex
 90
        5
102
RTVSPost2010Prop44ColorRGB
 90
      255
102
RTVSPost2010PropOp44
 70
     1
102
RTVSPost2010Prop45
280
     0
102
RTVSPost2010PropOp45
 70
     1
102
RTVSPost2010Prop46
 90
       50
102
RTVSPost2010PropOp46
 70
     1
102
RTVSPost2010Prop47
 90
       50
102
RTVSPost2010PropOp47
 70
     1
102
RTVSPost2010Prop48
 90
       50
102
RTVSPost2010PropOp48
 70
     1
102
RTVSPost2010Prop49
280
     0
102
RTVSPost2010PropOp49
 70
     1
102
RTVSPost2010Prop50
 90
       50
102
RTVSPost2010PropOp50
 70
     1
102
RTVSPost2010Prop51ColorIndex
 90
      256
102
RTVSPost2010Prop51ColorRGB
 90
-16777216
102
RTVSPost2010PropOp51
 70
     0
102
RTVSPost2010Prop52
140
1.0
102
RTVSPost2010PropOp52
 70
     0
102
RTVSPost2010Prop53
 90
        2
102
RTVSPost2010PropOp53
 70
     1
102
RTVSPost2010Prop54
  1
strokes_ogs.tif
102
RTVSPost2010PropOp54
 70
     1
102
RTVSPost2010Prop55
280
     0
102
RTVSPost2010PropOp55
 70
     1
102
RTVSPost2010Prop56
140
1.0
102
RTVSPost2010PropOp56
 70
     1
102
RTVSPost2010Prop57
140
1.0
102
RTVSPost2010PropOp57
 70
     1
  0
XRECORD
  5
174
102
{ACAD_REACTORS
330
173
102
}
330
173
100
AcDbXrecord
280
     1
102
RTVSPropertyOp0
 70
     1
102
RTVSPropertyOp1
 70
     1
102
RTVSPropertyOp2
 70
     1
102
RTVSPropertyOp3
 70
     1
102
RTVSPropertyOp4
 70
     1
102
RTVSPropertyOp5
 70
     1
102
RTVSPropertyOp6
 70
     1
102
RTVSPropertyOp7
 70
     1
102
RTVSPropertyOp8
 70
     1
102
RTVSPropertyOp9
 70
     1
102
RTVSPropertyOp10
 70
     1
102
RTVSPropertyOp11
 70
     1
102
RTVSPropertyOp12
 70
     1
102
RTVSPropertyOp13
 70
     1
102
RTVSPropertyOp14
 70
     1
102
RTVSPropertyOp15
 70
     1
102
RTVSPropertyOp16
 70
     1
102
RTVSPropertyOp17
 70
     1
102
RTVSPropertyOp18
 70
     1
102
RTVSPropertyOp19
 70
     1
102
RTVSPropertyOp20
 70
     1
102
RTVSPropertyOp21
 70
     1
102
RTVSPropertyOp22
 70
     1
102
RTVSPropertyOp23
 70
     1
102
RTVSPropertyOp24
 70
     1
102
RTVSPropertyOp25
 70
     1
102
RTVSPropertyOp26
 70
     1
102
RTVSPropertyOp27
 70
     1
102
RTVSPropertyOp28
 70
     1
102
RTVSPropertyOp29
 70
     1
102
RTVSPropertyOp30
 70
     1
102
RTVSPropertyOp31
 70
     1
102
RTVSPropertyOp32
 70
     1
102
RTVSPropertyOp33
 70
     1
102
RTVSPropertyOp34
 70
     1
102
RTVSPropertyOp35
 70
     1
102
RTVSPropertyOp36
 70
     1
102
RTVSPropertyOp37
 70
     1
102
RTVSPropertyOp38
 70
     1
102
RTVSPropertyOp39
 70
     1
102
RTVSPropertyOp40
 70
     1
102
RTVSPropertyOp41
 70
     1
102
RTVSPropertyOp42
 70
     1
102
RTVSPropertyOp43
 70
     1
102
RTVSPropertyOp44
 70
     1
102
RTVSPropertyOp45
 70
     1
102
RTVSPropertyOp46
 70
     1
102
RTVSPropertyOp47
 70
     1
102
RTVSPropertyOp48
 70
     1
102
RTVSPropertyOp49
 70
     1
102
RTVSPropertyOp50
 70
     1
102
RTVSPropertyOp51
 70
     0
102
RTVSPropertyOp52
 70
     0
102
RTVSPropertyOp53
 70
     1
102
RTVSPropertyOp54
 70
     1
102
RTVSPropertyOp55
 70
     1
102
RTVSPropertyOp56
 70
     1
102
RTVSPropertyOp57
 70
     1
102
RTVSPost2010Prop28
280
     0
102
RTVSPost2010PropOp28
 70
     1
102
RTVSPost2010Prop29
280
     1
102
RTVSPost2010PropOp29
 70
     1
102
RTVSPost2010Prop30
280
     1
102
RTVSPost2010PropOp30
 70
     1
102
RTVSPost2010Prop31
280
     0
102
RTVSPost2010PropOp31
 70
     1
102
RTVSPost2010Prop32
280
     0
102
RTVSPost2010PropOp32
 70
     1
102
RTVSPost2010Prop33
280
     0
102
RTVSPost2010PropOp33
 70
     1
102
RTVSPost2010Prop34
280
     0
102
RTVSPost2010PropOp34
 70
     1
102
RTVSPost2010Prop35
280
     0
102
RTVSPost2010PropOp35
 70
     1
102
RTVSPost2010Prop36
280
     0
102
RTVSPost2010PropOp36
 70
     1
102
RTVSPost2010Prop37
 90
       50
102
RTVSPost2010PropOp37
 70
     1
102
RTVSPost2010Prop38
140
0.0
102
RTVSPost2010PropOp38
 70
     1
102
RTVSPost2010Prop39
140
1.0
102
RTVSPost2010PropOp39
 70
     1
102
RTVSPost2010Prop40
 90
        0
102
RTVSPost2010PropOp40
 70
     1
102
RTVSPost2010Prop41ColorIndex
 90
       18
102
RTVSPost2010Prop41ColorRGB
 90
        0
102
RTVSPost2010PropOp41
 70
     1
102
RTVSPost2010Prop42
 90
       50
102
RTVSPost2010PropOp42
 70
     1
102
RTVSPost2010Prop43
 90
        3
102
RTVSPost2010PropOp43
 70
     1
102
RTVSPost2010Prop44ColorIndex
 90
        5
102
RTVSPost2010Prop44ColorRGB
 90
      255
102
RTVSPost2010PropOp44
 70
     1
102
RTVSPost2010Prop45
280
     0
102
RTVSPost2010PropOp45
 70
     1
102
RTVSPost2010Prop46
 90
       50
102
RTVSPost2010PropOp46
 70
     1
102
RTVSPost2010Prop47
 90
       50
102
RTVSPost2010PropOp47
 70
     1
102
RTVSPost2010Prop48
 90
       50
102
RTVSPost2010PropOp48
 70
     1
102
RTVSPost2010Prop49
280
     0
102
RTVSPost2010PropOp49
 70
     1
102
RTVSPost2010Prop50
 90
       50
102
RTVSPost2010PropOp50
 70
     1
102
RTVSPost2010Prop51ColorIndex
 90
      256
102
RTVSPost2010Prop51ColorRGB
 90
-16777216
102
RTVSPost2010PropOp51
 70
     0
102
RTVSPost2010Prop52
140
1.0
102
RTVSPost2010PropOp52
 70
     0
102
RTVSPost2010Prop53
 90
        2
102
RTVSPost2010PropOp53
 70
     1
102
RTVSPost2010Prop54
  1
strokes_ogs.tif
102
RTVSPost2010PropOp54
 70
     1
102
RTVSPost2010Prop55
280
     0
102
RTVSPost2010PropOp55
 70
     1
102
RTVSPost2010Prop56
140
1.0
102
RTVSPost2010PropOp56
 70
     1
102
RTVSPost2010Prop57
140
1.0
102
RTVSPost2010PropOp57
 70
     1
  0
XRECORD
  5
16E
102
{ACAD_REACTORS
330
16D
102
}
330
16D
100
AcDbXrecord
280
     1
102
RTVSPropertyOp0
 70
     1
102
RTVSPropertyOp1
 70
     1
102
RTVSPropertyOp2
 70
     1
102
RTVSPropertyOp3
 70
     1
102
RTVSPropertyOp4
 70
     1
102
RTVSPropertyOp5
 70
     1
102
RTVSPropertyOp6
 70
     1
102
RTVSPropertyOp7
 70
     1
102
RTVSPropertyOp8
 70
     1
102
RTVSPropertyOp9
 70
     1
102
RTVSPropertyOp10
 70
     1
102
RTVSPropertyOp11
 70
     1
102
RTVSPropertyOp12
 70
     1
102
RTVSPropertyOp13
 70
     1
102
RTVSPropertyOp14
 70
     1
102
RTVSPropertyOp15
 70
     1
102
RTVSPropertyOp16
 70
     1
102
RTVSPropertyOp17
 70
     1
102
RTVSPropertyOp18
 70
     1
102
RTVSPropertyOp19
 70
     1
102
RTVSPropertyOp20
 70
     1
102
RTVSPropertyOp21
 70
     1
102
RTVSPropertyOp22
 70
     1
102
RTVSPropertyOp23
 70
     1
102
RTVSPropertyOp24
 70
     1
102
RTVSPropertyOp25
 70
     1
102
RTVSPropertyOp26
 70
     1
102
RTVSPropertyOp27
 70
     1
102
RTVSPropertyOp28
 70
     1
102
RTVSPropertyOp29
 70
     1
102
RTVSPropertyOp30
 70
     1
102
RTVSPropertyOp31
 70
     1
102
RTVSPropertyOp32
 70
     1
102
RTVSPropertyOp33
 70
     1
102
RTVSPropertyOp34
 70
     1
102
RTVSPropertyOp35
 70
     1
102
RTVSPropertyOp36
 70
     1
102
RTVSPropertyOp37
 70
     1
102
RTVSPropertyOp38
 70
     1
102
RTVSPropertyOp39
 70
     1
102
RTVSPropertyOp40
 70
     1
102
RTVSPropertyOp41
 70
     1
102
RTVSPropertyOp42
 70
     1
102
RTVSPropertyOp43
 70
     1
102
RTVSPropertyOp44
 70
     1
102
RTVSPropertyOp45
 70
     1
102
RTVSPropertyOp46
 70
     1
102
RTVSPropertyOp47
 70
     1
102
RTVSPropertyOp48
 70
     1
102
RTVSPropertyOp49
 70
     1
102
RTVSPropertyOp50
 70
     1
102
RTVSPropertyOp51
 70
     0
102
RTVSPropertyOp52
 70
     0
102
RTVSPropertyOp53
 70
     1
102
RTVSPropertyOp54
 70
     1
102
RTVSPropertyOp55
 70
     1
102
RTVSPropertyOp56
 70
     1
102
RTVSPropertyOp57
 70
     1
102
RTVSPost2010Prop28
280
     0
102
RTVSPost2010PropOp28
 70
     1
102
RTVSPost2010Prop29
280
     1
102
RTVSPost2010PropOp29
 70
     1
102
RTVSPost2010Prop30
280
     1
102
RTVSPost2010PropOp30
 70
     1
102
RTVSPost2010Prop31
280
     0
102
RTVSPost2010PropOp31
 70
     1
102
RTVSPost2010Prop32
280
     0
102
RTVSPost2010PropOp32
 70
     1
102
RTVSPost2010Prop33
280
     0
102
RTVSPost2010PropOp33
 70
     1
102
RTVSPost2010Prop34
280
     0
102
RTVSPost2010PropOp34
 70
     1
102
RTVSPost2010Prop35
280
     0
102
RTVSPost2010PropOp35
 70
     1
102
RTVSPost2010Prop36
280
     0
102
RTVSPost2010PropOp36
 70
     1
102
RTVSPost2010Prop37
 90
       50
102
RTVSPost2010PropOp37
 70
     1
102
RTVSPost2010Prop38
140
0.0
102
RTVSPost2010PropOp38
 70
     1
102
RTVSPost2010Prop39
140
1.0
102
RTVSPost2010PropOp39
 70
     1
102
RTVSPost2010Prop40
 90
        0
102
RTVSPost2010PropOp40
 70
     1
102
RTVSPost2010Prop41ColorIndex
 90
       18
102
RTVSPost2010Prop41ColorRGB
 90
        0
102
RTVSPost2010PropOp41
 70
     1
102
RTVSPost2010Prop42
 90
       50
102
RTVSPost2010PropOp42
 70
     1
102
RTVSPost2010Prop43
 90
        3
102
RTVSPost2010PropOp43
 70
     1
102
RTVSPost2010Prop44ColorIndex
 90
        5
102
RTVSPost2010Prop44ColorRGB
 90
      255
102
RTVSPost2010PropOp44
 70
     1
102
RTVSPost2010Prop45
280
     0
102
RTVSPost2010PropOp45
 70
     1
102
RTVSPost2010Prop46
 90
       50
102
RTVSPost2010PropOp46
 70
     1
102
RTVSPost2010Prop47
 90
       50
102
RTVSPost2010PropOp47
 70
     1
102
RTVSPost2010Prop48
 90
       50
102
RTVSPost2010PropOp48
 70
     1
102
RTVSPost2010Prop49
280
     0
102
RTVSPost2010PropOp49
 70
     1
102
RTVSPost2010Prop50
 90
       50
102
RTVSPost2010PropOp50
 70
     1
102
RTVSPost2010Prop51ColorIndex
 90
      256
102
RTVSPost2010Prop51ColorRGB
 90
-16777216
102
RTVSPost2010PropOp51
 70
     0
102
RTVSPost2010Prop52
140
1.0
102
RTVSPost2010PropOp52
 70
     0
102
RTVSPost2010Prop53
 90
        2
102
RTVSPost2010PropOp53
 70
     1
102
RTVSPost2010Prop54
  1
strokes_ogs.tif
102
RTVSPost2010PropOp54
 70
     1
102
RTVSPost2010Prop55
280
     0
102
RTVSPost2010PropOp55
 70
     1
102
RTVSPost2010Prop56
140
1.0
102
RTVSPost2010PropOp56
 70
     1
102
RTVSPost2010Prop57
140
1.0
102
RTVSPost2010PropOp57
 70
     1
  0
XRECORD
  5
170
102
{ACAD_REACTORS
330
16F
102
}
330
16F
100
AcDbXrecord
280
     1
102
RTVSPropertyOp0
 70
     1
102
RTVSPropertyOp1
 70
     1
102
RTVSPropertyOp2
 70
     1
102
RTVSPropertyOp3
 70
     1
102
RTVSPropertyOp4
 70
     1
102
RTVSPropertyOp5
 70
     1
102
RTVSPropertyOp6
 70
     1
102
RTVSPropertyOp7
 70
     1
102
RTVSPropertyOp8
 70
     1
102
RTVSPropertyOp9
 70
     1
102
RTVSPropertyOp10
 70
     1
102
RTVSPropertyOp11
 70
     1
102
RTVSPropertyOp12
 70
     1
102
RTVSPropertyOp13
 70
     1
102
RTVSPropertyOp14
 70
     1
102
RTVSPropertyOp15
 70
     1
102
RTVSPropertyOp16
 70
     1
102
RTVSPropertyOp17
 70
     1
102
RTVSPropertyOp18
 70
     1
102
RTVSPropertyOp19
 70
     1
102
RTVSPropertyOp20
 70
     1
102
RTVSPropertyOp21
 70
     1
102
RTVSPropertyOp22
 70
     1
102
RTVSPropertyOp23
 70
     1
102
RTVSPropertyOp24
 70
     1
102
RTVSPropertyOp25
 70
     1
102
RTVSPropertyOp26
 70
     1
102
RTVSPropertyOp27
 70
     1
102
RTVSPropertyOp28
 70
     1
102
RTVSPropertyOp29
 70
     1
102
RTVSPropertyOp30
 70
     1
102
RTVSPropertyOp31
 70
     1
102
RTVSPropertyOp32
 70
     1
102
RTVSPropertyOp33
 70
     1
102
RTVSPropertyOp34
 70
     1
102
RTVSPropertyOp35
 70
     1
102
RTVSPropertyOp36
 70
     1
102
RTVSPropertyOp37
 70
     1
102
RTVSPropertyOp38
 70
     1
102
RTVSPropertyOp39
 70
     1
102
RTVSPropertyOp40
 70
     1
102
RTVSPropertyOp41
 70
     1
102
RTVSPropertyOp42
 70
     1
102
RTVSPropertyOp43
 70
     1
102
RTVSPropertyOp44
 70
     1
102
RTVSPropertyOp45
 70
     1
102
RTVSPropertyOp46
 70
     1
102
RTVSPropertyOp47
 70
     1
102
RTVSPropertyOp48
 70
     1
102
RTVSPropertyOp49
 70
     1
102
RTVSPropertyOp50
 70
     1
102
RTVSPropertyOp51
 70
     0
102
RTVSPropertyOp52
 70
     0
102
RTVSPropertyOp53
 70
     1
102
RTVSPropertyOp54
 70
     1
102
RTVSPropertyOp55
 70
     1
102
RTVSPropertyOp56
 70
     1
102
RTVSPropertyOp57
 70
     1
102
RTVSPost2010Prop28
280
     0
102
RTVSPost2010PropOp28
 70
     1
102
RTVSPost2010Prop29
280
     1
102
RTVSPost2010PropOp29
 70
     1
102
RTVSPost2010Prop30
280
     1
102
RTVSPost2010PropOp30
 70
     1
102
RTVSPost2010Prop31
280
     0
102
RTVSPost2010PropOp31
 70
     1
102
RTVSPost2010Prop32
280
     0
102
RTVSPost2010PropOp32
 70
     1
102
RTVSPost2010Prop33
280
     0
102
RTVSPost2010PropOp33
 70
     1
102
RTVSPost2010Prop34
280
     0
102
RTVSPost2010PropOp34
 70
     1
102
RTVSPost2010Prop35
280
     0
102
RTVSPost2010PropOp35
 70
     1
102
RTVSPost2010Prop36
280
     0
102
RTVSPost2010PropOp36
 70
     1
102
RTVSPost2010Prop37
 90
       50
102
RTVSPost2010PropOp37
 70
     1
102
RTVSPost2010Prop38
140
0.0
102
RTVSPost2010PropOp38
 70
     1
102
RTVSPost2010Prop39
140
1.0
102
RTVSPost2010PropOp39
 70
     1
102
RTVSPost2010Prop40
 90
        0
102
RTVSPost2010PropOp40
 70
     1
102
RTVSPost2010Prop41ColorIndex
 90
       18
102
RTVSPost2010Prop41ColorRGB
 90
        0
102
RTVSPost2010PropOp41
 70
     1
102
RTVSPost2010Prop42
 90
       50
102
RTVSPost2010PropOp42
 70
     1
102
RTVSPost2010Prop43
 90
        3
102
RTVSPost2010PropOp43
 70
     1
102
RTVSPost2010Prop44ColorIndex
 90
        5
102
RTVSPost2010Prop44ColorRGB
 90
      255
102
RTVSPost2010PropOp44
 70
     1
102
RTVSPost2010Prop45
280
     0
102
RTVSPost2010PropOp45
 70
     1
102
RTVSPost2010Prop46
 90
       50
102
RTVSPost2010PropOp46
 70
     1
102
RTVSPost2010Prop47
 90
       50
102
RTVSPost2010PropOp47
 70
     1
102
RTVSPost2010Prop48
 90
       50
102
RTVSPost2010PropOp48
 70
     1
102
RTVSPost2010Prop49
280
     0
102
RTVSPost2010PropOp49
 70
     1
102
RTVSPost2010Prop50
 90
       50
102
RTVSPost2010PropOp50
 70
     1
102
RTVSPost2010Prop51ColorIndex
 90
      256
102
RTVSPost2010Prop51ColorRGB
 90
-16777216
102
RTVSPost2010PropOp51
 70
     0
102
RTVSPost2010Prop52
140
1.0
102
RTVSPost2010PropOp52
 70
     0
102
RTVSPost2010Prop53
 90
        2
102
RTVSPost2010PropOp53
 70
     1
102
RTVSPost2010Prop54
  1
strokes_ogs.tif
102
RTVSPost2010PropOp54
 70
     1
102
RTVSPost2010Prop55
280
     0
102
RTVSPost2010PropOp55
 70
     1
102
RTVSPost2010Prop56
140
1.0
102
RTVSPost2010PropOp56
 70
     1
102
RTVSPost2010Prop57
140
1.0
102
RTVSPost2010PropOp57
 70
     1
  0
XRECORD
  5
160
102
{ACAD_REACTORS
330
15F
102
}
330
15F
100
AcDbXrecord
280
     1
102
RTVSPropertyOp0
 70
     1
102
RTVSPropertyOp1
 70
     1
102
RTVSPropertyOp2
 70
     1
102
RTVSPropertyOp3
 70
     1
102
RTVSPropertyOp4
 70
     1
102
RTVSPropertyOp5
 70
     1
102
RTVSPropertyOp6
 70
     1
102
RTVSPropertyOp7
 70
     1
102
RTVSPropertyOp8
 70
     1
102
RTVSPropertyOp9
 70
     1
102
RTVSPropertyOp10
 70
     1
102
RTVSPropertyOp11
 70
     1
102
RTVSPropertyOp12
 70
     1
102
RTVSPropertyOp13
 70
     1
102
RTVSPropertyOp14
 70
     1
102
RTVSPropertyOp15
 70
     1
102
RTVSPropertyOp16
 70
     1
102
RTVSPropertyOp17
 70
     1
102
RTVSPropertyOp18
 70
     1
102
RTVSPropertyOp19
 70
     1
102
RTVSPropertyOp20
 70
     1
102
RTVSPropertyOp21
 70
     1
102
RTVSPropertyOp22
 70
     1
102
RTVSPropertyOp23
 70
     1
102
RTVSPropertyOp24
 70
     1
102
RTVSPropertyOp25
 70
     1
102
RTVSPropertyOp26
 70
     1
102
RTVSPropertyOp27
 70
     1
102
RTVSPropertyOp28
 70
     1
102
RTVSPropertyOp29
 70
     1
102
RTVSPropertyOp30
 70
     1
102
RTVSPropertyOp31
 70
     1
102
RTVSPropertyOp32
 70
     1
102
RTVSPropertyOp33
 70
     1
102
RTVSPropertyOp34
 70
     1
102
RTVSPropertyOp35
 70
     1
102
RTVSPropertyOp36
 70
     1
102
RTVSPropertyOp37
 70
     1
102
RTVSPropertyOp38
 70
     1
102
RTVSPropertyOp39
 70
     1
102
RTVSPropertyOp40
 70
     1
102
RTVSPropertyOp41
 70
     1
102
RTVSPropertyOp42
 70
     1
102
RTVSPropertyOp43
 70
     1
102
RTVSPropertyOp44
 70
     1
102
RTVSPropertyOp45
 70
     1
102
RTVSPropertyOp46
 70
     1
102
RTVSPropertyOp47
 70
     1
102
RTVSPropertyOp48
 70
     1
102
RTVSPropertyOp49
 70
     1
102
RTVSPropertyOp50
 70
     1
102
RTVSPropertyOp51
 70
     0
102
RTVSPropertyOp52
 70
     0
102
RTVSPropertyOp53
 70
     1
102
RTVSPropertyOp54
 70
     1
102
RTVSPropertyOp55
 70
     1
102
RTVSPropertyOp56
 70
     1
102
RTVSPropertyOp57
 70
     1
102
RTVSPost2010Prop28
280
     0
102
RTVSPost2010PropOp28
 70
     1
102
RTVSPost2010Prop29
280
     1
102
RTVSPost2010PropOp29
 70
     1
102
RTVSPost2010Prop30
280
     1
102
RTVSPost2010PropOp30
 70
     1
102
RTVSPost2010Prop31
280
     0
102
RTVSPost2010PropOp31
 70
     1
102
RTVSPost2010Prop32
280
     0
102
RTVSPost2010PropOp32
 70
     1
102
RTVSPost2010Prop33
280
     0
102
RTVSPost2010PropOp33
 70
     1
102
RTVSPost2010Prop34
280
     0
102
RTVSPost2010PropOp34
 70
     1
102
RTVSPost2010Prop35
280
     0
102
RTVSPost2010PropOp35
 70
     1
102
RTVSPost2010Prop36
280
     0
102
RTVSPost2010PropOp36
 70
     1
102
RTVSPost2010Prop37
 90
       50
102
RTVSPost2010PropOp37
 70
     1
102
RTVSPost2010Prop38
140
0.0
102
RTVSPost2010PropOp38
 70
     1
102
RTVSPost2010Prop39
140
1.0
102
RTVSPost2010PropOp39
 70
     1
102
RTVSPost2010Prop40
 90
        0
102
RTVSPost2010PropOp40
 70
     1
102
RTVSPost2010Prop41ColorIndex
 90
       18
102
RTVSPost2010Prop41ColorRGB
 90
        0
102
RTVSPost2010PropOp41
 70
     1
102
RTVSPost2010Prop42
 90
       50
102
RTVSPost2010PropOp42
 70
     1
102
RTVSPost2010Prop43
 90
        3
102
RTVSPost2010PropOp43
 70
     1
102
RTVSPost2010Prop44ColorIndex
 90
        5
102
RTVSPost2010Prop44ColorRGB
 90
      255
102
RTVSPost2010PropOp44
 70
     1
102
RTVSPost2010Prop45
280
     0
102
RTVSPost2010PropOp45
 70
     1
102
RTVSPost2010Prop46
 90
       50
102
RTVSPost2010PropOp46
 70
     1
102
RTVSPost2010Prop47
 90
       50
102
RTVSPost2010PropOp47
 70
     1
102
RTVSPost2010Prop48
 90
       50
102
RTVSPost2010PropOp48
 70
     1
102
RTVSPost2010Prop49
280
     0
102
RTVSPost2010PropOp49
 70
     1
102
RTVSPost2010Prop50
 90
       50
102
RTVSPost2010PropOp50
 70
     1
102
RTVSPost2010Prop51ColorIndex
 90
      256
102
RTVSPost2010Prop51ColorRGB
 90
-16777216
102
RTVSPost2010PropOp51
 70
     0
102
RTVSPost2010Prop52
140
1.0
102
RTVSPost2010PropOp52
 70
     0
102
RTVSPost2010Prop53
 90
        2
102
RTVSPost2010PropOp53
 70
     1
102
RTVSPost2010Prop54
  1
strokes_ogs.tif
102
RTVSPost2010PropOp54
 70
     1
102
RTVSPost2010Prop55
280
     0
102
RTVSPost2010PropOp55
 70
     1
102
RTVSPost2010Prop56
140
1.0
102
RTVSPost2010PropOp56
 70
     1
102
RTVSPost2010Prop57
140
1.0
102
RTVSPost2010PropOp57
 70
     1
  0
XRECORD
  5
152
102
{ACAD_REACTORS
330
151
102
}
330
151
100
AcDbXrecord
280
     1
102
RTVSPropertyOp0
 70
     1
102
RTVSPropertyOp1
 70
     1
102
RTVSPropertyOp2
 70
     1
102
RTVSPropertyOp3
 70
     1
102
RTVSPropertyOp4
 70
     1
102
RTVSPropertyOp5
 70
     1
102
RTVSPropertyOp6
 70
     1
102
RTVSPropertyOp7
 70
     1
102
RTVSPropertyOp8
 70
     1
102
RTVSPropertyOp9
 70
     1
102
RTVSPropertyOp10
 70
     1
102
RTVSPropertyOp11
 70
     1
102
RTVSPropertyOp12
 70
     1
102
RTVSPropertyOp13
 70
     1
102
RTVSPropertyOp14
 70
     1
102
RTVSPropertyOp15
 70
     1
102
RTVSPropertyOp16
 70
     1
102
RTVSPropertyOp17
 70
     1
102
RTVSPropertyOp18
 70
     1
102
RTVSPropertyOp19
 70
     1
102
RTVSPropertyOp20
 70
     1
102
RTVSPropertyOp21
 70
     1
102
RTVSPropertyOp22
 70
     1
102
RTVSPropertyOp23
 70
     1
102
RTVSPropertyOp24
 70
     1
102
RTVSPropertyOp25
 70
     1
102
RTVSPropertyOp26
 70
     1
102
RTVSPropertyOp27
 70
     1
102
RTVSPropertyOp28
 70
     1
102
RTVSPropertyOp29
 70
     1
102
RTVSPropertyOp30
 70
     1
102
RTVSPropertyOp31
 70
     1
102
RTVSPropertyOp32
 70
     1
102
RTVSPropertyOp33
 70
     1
102
RTVSPropertyOp34
 70
     1
102
RTVSPropertyOp35
 70
     1
102
RTVSPropertyOp36
 70
     1
102
RTVSPropertyOp37
 70
     1
102
RTVSPropertyOp38
 70
     1
102
RTVSPropertyOp39
 70
     1
102
RTVSPropertyOp40
 70
     1
102
RTVSPropertyOp41
 70
     1
102
RTVSPropertyOp42
 70
     1
102
RTVSPropertyOp43
 70
     1
102
RTVSPropertyOp44
 70
     1
102
RTVSPropertyOp45
 70
     1
102
RTVSPropertyOp46
 70
     1
102
RTVSPropertyOp47
 70
     1
102
RTVSPropertyOp48
 70
     1
102
RTVSPropertyOp49
 70
     1
102
RTVSPropertyOp50
 70
     1
102
RTVSPropertyOp51
 70
     0
102
RTVSPropertyOp52
 70
     0
102
RTVSPropertyOp53
 70
     1
102
RTVSPropertyOp54
 70
     1
102
RTVSPropertyOp55
 70
     1
102
RTVSPropertyOp56
 70
     1
102
RTVSPropertyOp57
 70
     1
102
RTVSPost2010Prop28
280
     0
102
RTVSPost2010PropOp28
 70
     1
102
RTVSPost2010Prop29
280
     1
102
RTVSPost2010PropOp29
 70
     1
102
RTVSPost2010Prop30
280
     1
102
RTVSPost2010PropOp30
 70
     1
102
RTVSPost2010Prop31
280
     0
102
RTVSPost2010PropOp31
 70
     1
102
RTVSPost2010Prop32
280
     0
102
RTVSPost2010PropOp32
 70
     1
102
RTVSPost2010Prop33
280
     0
102
RTVSPost2010PropOp33
 70
     1
102
RTVSPost2010Prop34
280
     0
102
RTVSPost2010PropOp34
 70
     1
102
RTVSPost2010Prop35
280
     0
102
RTVSPost2010PropOp35
 70
     1
102
RTVSPost2010Prop36
280
     0
102
RTVSPost2010PropOp36
 70
     1
102
RTVSPost2010Prop37
 90
       50
102
RTVSPost2010PropOp37
 70
     1
102
RTVSPost2010Prop38
140
0.0
102
RTVSPost2010PropOp38
 70
     1
102
RTVSPost2010Prop39
140
1.0
102
RTVSPost2010PropOp39
 70
     1
102
RTVSPost2010Prop40
 90
        0
102
RTVSPost2010PropOp40
 70
     1
102
RTVSPost2010Prop41ColorIndex
 90
       18
102
RTVSPost2010Prop41ColorRGB
 90
        0
102
RTVSPost2010PropOp41
 70
     1
102
RTVSPost2010Prop42
 90
       50
102
RTVSPost2010PropOp42
 70
     1
102
RTVSPost2010Prop43
 90
        3
102
RTVSPost2010PropOp43
 70
     1
102
RTVSPost2010Prop44ColorIndex
 90
        5
102
RTVSPost2010Prop44ColorRGB
 90
      255
102
RTVSPost2010PropOp44
 70
     1
102
RTVSPost2010Prop45
280
     0
102
RTVSPost2010PropOp45
 70
     1
102
RTVSPost2010Prop46
 90
       50
102
RTVSPost2010PropOp46
 70
     1
102
RTVSPost2010Prop47
 90
       50
102
RTVSPost2010PropOp47
 70
     1
102
RTVSPost2010Prop48
 90
       50
102
RTVSPost2010PropOp48
 70
     1
102
RTVSPost2010Prop49
280
     0
102
RTVSPost2010PropOp49
 70
     1
102
RTVSPost2010Prop50
 90
       50
102
RTVSPost2010PropOp50
 70
     1
102
RTVSPost2010Prop51ColorIndex
 90
      256
102
RTVSPost2010Prop51ColorRGB
 90
-16777216
102
RTVSPost2010PropOp51
 70
     0
102
RTVSPost2010Prop52
140
1.0
102
RTVSPost2010PropOp52
 70
     0
102
RTVSPost2010Prop53
 90
        2
102
RTVSPost2010PropOp53
 70
     1
102
RTVSPost2010Prop54
  1
strokes_ogs.tif
102
RTVSPost2010PropOp54
 70
     1
102
RTVSPost2010Prop55
280
     0
102
RTVSPost2010PropOp55
 70
     1
102
RTVSPost2010Prop56
140
1.0
102
RTVSPost2010PropOp56
 70
     1
102
RTVSPost2010Prop57
140
1.0
102
RTVSPost2010PropOp57
 70
     1
  0
XRECORD
  5
172
102
{ACAD_REACTORS
330
171
102
}
330
171
100
AcDbXrecord
280
     1
102
RTVSPropertyOp0
 70
     1
102
RTVSPropertyOp1
 70
     1
102
RTVSPropertyOp2
 70
     1
102
RTVSPropertyOp3
 70
     1
102
RTVSPropertyOp4
 70
     1
102
RTVSPropertyOp5
 70
     1
102
RTVSPropertyOp6
 70
     1
102
RTVSPropertyOp7
 70
     1
102
RTVSPropertyOp8
 70
     1
102
RTVSPropertyOp9
 70
     1
102
RTVSPropertyOp10
 70
     1
102
RTVSPropertyOp11
 70
     1
102
RTVSPropertyOp12
 70
     1
102
RTVSPropertyOp13
 70
     1
102
RTVSPropertyOp14
 70
     1
102
RTVSPropertyOp15
 70
     1
102
RTVSPropertyOp16
 70
     1
102
RTVSPropertyOp17
 70
     1
102
RTVSPropertyOp18
 70
     1
102
RTVSPropertyOp19
 70
     1
102
RTVSPropertyOp20
 70
     1
102
RTVSPropertyOp21
 70
     1
102
RTVSPropertyOp22
 70
     1
102
RTVSPropertyOp23
 70
     1
102
RTVSPropertyOp24
 70
     1
102
RTVSPropertyOp25
 70
     1
102
RTVSPropertyOp26
 70
     1
102
RTVSPropertyOp27
 70
     1
102
RTVSPropertyOp28
 70
     1
102
RTVSPropertyOp29
 70
     1
102
RTVSPropertyOp30
 70
     1
102
RTVSPropertyOp31
 70
     1
102
RTVSPropertyOp32
 70
     1
102
RTVSPropertyOp33
 70
     1
102
RTVSPropertyOp34
 70
     1
102
RTVSPropertyOp35
 70
     1
102
RTVSPropertyOp36
 70
     1
102
RTVSPropertyOp37
 70
     1
102
RTVSPropertyOp38
 70
     1
102
RTVSPropertyOp39
 70
     1
102
RTVSPropertyOp40
 70
     1
102
RTVSPropertyOp41
 70
     1
102
RTVSPropertyOp42
 70
     1
102
RTVSPropertyOp43
 70
     1
102
RTVSPropertyOp44
 70
     1
102
RTVSPropertyOp45
 70
     1
102
RTVSPropertyOp46
 70
     1
102
RTVSPropertyOp47
 70
     1
102
RTVSPropertyOp48
 70
     1
102
RTVSPropertyOp49
 70
     1
102
RTVSPropertyOp50
 70
     1
102
RTVSPropertyOp51
 70
     0
102
RTVSPropertyOp52
 70
     0
102
RTVSPropertyOp53
 70
     1
102
RTVSPropertyOp54
 70
     1
102
RTVSPropertyOp55
 70
     1
102
RTVSPropertyOp56
 70
     1
102
RTVSPropertyOp57
 70
     1
102
RTVSPost2010Prop28
280
     0
102
RTVSPost2010PropOp28
 70
     1
102
RTVSPost2010Prop29
280
     1
102
RTVSPost2010PropOp29
 70
     1
102
RTVSPost2010Prop30
280
     1
102
RTVSPost2010PropOp30
 70
     1
102
RTVSPost2010Prop31
280
     0
102
RTVSPost2010PropOp31
 70
     1
102
RTVSPost2010Prop32
280
     0
102
RTVSPost2010PropOp32
 70
     1
102
RTVSPost2010Prop33
280
     0
102
RTVSPost2010PropOp33
 70
     1
102
RTVSPost2010Prop34
280
     0
102
RTVSPost2010PropOp34
 70
     1
102
RTVSPost2010Prop35
280
     0
102
RTVSPost2010PropOp35
 70
     1
102
RTVSPost2010Prop36
280
     0
102
RTVSPost2010PropOp36
 70
     1
102
RTVSPost2010Prop37
 90
       50
102
RTVSPost2010PropOp37
 70
     1
102
RTVSPost2010Prop38
140
0.0
102
RTVSPost2010PropOp38
 70
     1
102
RTVSPost2010Prop39
140
1.0
102
RTVSPost2010PropOp39
 70
     1
102
RTVSPost2010Prop40
 90
        0
102
RTVSPost2010PropOp40
 70
     1
102
RTVSPost2010Prop41ColorIndex
 90
       18
102
RTVSPost2010Prop41ColorRGB
 90
        0
102
RTVSPost2010PropOp41
 70
     1
102
RTVSPost2010Prop42
 90
       50
102
RTVSPost2010PropOp42
 70
     1
102
RTVSPost2010Prop43
 90
        3
102
RTVSPost2010PropOp43
 70
     1
102
RTVSPost2010Prop44ColorIndex
 90
        5
102
RTVSPost2010Prop44ColorRGB
 90
      255
102
RTVSPost2010PropOp44
 70
     1
102
RTVSPost2010Prop45
280
     0
102
RTVSPost2010PropOp45
 70
     1
102
RTVSPost2010Prop46
 90
       50
102
RTVSPost2010PropOp46
 70
     1
102
RTVSPost2010Prop47
 90
       50
102
RTVSPost2010PropOp47
 70
     1
102
RTVSPost2010Prop48
 90
       50
102
RTVSPost2010PropOp48
 70
     1
102
RTVSPost2010Prop49
280
     0
102
RTVSPost2010PropOp49
 70
     1
102
RTVSPost2010Prop50
 90
       50
102
RTVSPost2010PropOp50
 70
     1
102
RTVSPost2010Prop51ColorIndex
 90
      256
102
RTVSPost2010Prop51ColorRGB
 90
-16777216
102
RTVSPost2010PropOp51
 70
     0
102
RTVSPost2010Prop52
140
1.0
102
RTVSPost2010PropOp52
 70
     0
102
RTVSPost2010Prop53
 90
        2
102
RTVSPost2010PropOp53
 70
     1
102
RTVSPost2010Prop54
  1
strokes_ogs.tif
102
RTVSPost2010PropOp54
 70
     1
102
RTVSPost2010Prop55
280
     0
102
RTVSPost2010PropOp55
 70
     1
102
RTVSPost2010Prop56
140
1.0
102
RTVSPost2010PropOp56
 70
     1
102
RTVSPost2010Prop57
140
1.0
102
RTVSPost2010PropOp57
 70
     1
  0
ENDSEC
  0
EOF
