  0
SECTION
  2
HEADER
  9
$ACADVER
  1
AC1021
  9
$ACADMAINTVER
 70
    25
  9
$DWGCODEPAGE
  3
ANSI_1252
  9
$LASTSAVEDBY
  1
colombo_c
  9
$INSBASE
 10
0.0
 20
0.0
 30
0.0
  9
$EXTMIN
 10
-1405.955313576209
 20
-859.7565029008994
 30
0.0
  9
$EXTMAX
 10
1413.895064116313
 20
598.7875454906107
 30
0.0
  9
$LIMMIN
 10
0.0
 20
0.0
  9
$LIMMAX
 10
12.0
 20
9.0
  9
$ORTHOMODE
 70
     0
  9
$REGENMODE
 70
     1
  9
$FILLMODE
 70
     1
  9
$QTEXTMODE
 70
     0
  9
$MIRRTEXT
 70
     1
  9
$LTSCALE
 40
1.0
  9
$ATTMODE
 70
     1
  9
$TEXTSIZE
 40
0.2
  9
$TRACEWID
 40
0.05
  9
$TEXTSTYLE
  7
Standard
  9
$CLAYER
  8
Make2D$Visibile$120
  9
$CELTYPE
  6
ByLayer
  9
$CECOLOR
 62
   256
  9
$CELTSCALE
 40
1.0
  9
$DISPSILH
 70
     0
  9
$DIMSCALE
 40
1.0
  9
$DIMASZ
 40
0.18
  9
$DIMEXO
 40
0.0625
  9
$DIMDLI
 40
0.38
  9
$DIMRND
 40
0.0
  9
$DIMDLE
 40
0.0
  9
$DIMEXE
 40
0.18
  9
$DIMTP
 40
0.0
  9
$DIMTM
 40
0.0
  9
$DIMTXT
 40
0.18
  9
$DIMCEN
 40
0.09
  9
$DIMTSZ
 40
0.0
  9
$DIMTOL
 70
     0
  9
$DIMLIM
 70
     0
  9
$DIMTIH
 70
     1
  9
$DIMTOH
 70
     1
  9
$DIMSE1
 70
     0
  9
$DIMSE2
 70
     0
  9
$DIMTAD
 70
     0
  9
$DIMZIN
 70
     0
  9
$DIMBLK
  1

  9
$DIMASO
 70
     1
  9
$DIMSHO
 70
     1
  9
$DIMPOST
  1

  9
$DIMAPOST
  1

  9
$DIMALT
 70
     0
  9
$DIMALTD
 70
     2
  9
$DIMALTF
 40
25.4
  9
$DIMLFAC
 40
1.0
  9
$DIMTOFL
 70
     0
  9
$DIMTVP
 40
0.0
  9
$DIMTIX
 70
     0
  9
$DIMSOXD
 70
     0
  9
$DIMSAH
 70
     0
  9
$DIMBLK1
  1

  9
$DIMBLK2
  1

  9
$DIMSTYLE
  2
STANDARD_ACAD
  9
$DIMCLRD
 70
     0
  9
$DIMCLRE
 70
     0
  9
$DIMCLRT
 70
     0
  9
$DIMTFAC
 40
1.0
  9
$DIMGAP
 40
0.09
  9
$DIMJUST
 70
     0
  9
$DIMSD1
 70
     0
  9
$DIMSD2
 70
     0
  9
$DIMTOLJ
 70
     1
  9
$DIMTZIN
 70
     0
  9
$DIMALTZ
 70
     0
  9
$DIMALTTZ
 70
     0
  9
$DIMUPT
 70
     0
  9
$DIMDEC
 70
     4
  9
$DIMTDEC
 70
     4
  9
$DIMALTU
 70
     2
  9
$DIMALTTD
 70
     2
  9
$DIMTXSTY
  7
Standard
  9
$DIMAUNIT
 70
     0
  9
$DIMADEC
 70
     0
  9
$DIMALTRND
 40
0.0
  9
$DIMAZIN
 70
     0
  9
$DIMDSEP
 70
    46
  9
$DIMATFIT
 70
     3
  9
$DIMFRAC
 70
     0
  9
$DIMLDRBLK
  1

  9
$DIMLUNIT
 70
     2
  9
$DIMLWD
 70
    -2
  9
$DIMLWE
 70
    -2
  9
$DIMTMOVE
 70
     2
  9
$DIMFXL
 40
1.0
  9
$DIMFXLON
 70
     0
  9
$DIMJOGANG
 40
0.7853981633974483
  9
$DIMTFILL
 70
     0
  9
$DIMTFILLCLR
 70
     0
  9
$DIMARCSYM
 70
     0
  9
$DIMLTYPE
  6

  9
$DIMLTEX1
  6

  9
$DIMLTEX2
  6

  9
$LUNITS
 70
     2
  9
$LUPREC
 70
     3
  9
$SKETCHINC
 40
0.1
  9
$FILLETRAD
 40
0.0
  9
$AUNITS
 70
     0
  9
$AUPREC
 70
     0
  9
$MENU
  1
.
  9
$ELEVATION
 40
0.0
  9
$PELEVATION
 40
0.0
  9
$THICKNESS
 40
0.0
  9
$LIMCHECK
 70
     0
  9
$CHAMFERA
 40
0.0
  9
$CHAMFERB
 40
0.0
  9
$CHAMFERC
 40
0.0
  9
$CHAMFERD
 40
0.0
  9
$SKPOLY
 70
     0
  9
$TDCREATE
 40
2460826.752677905
  9
$TDUCREATE
 40
2460826.669344572
  9
$TDUPDATE
 40
2460826.752694838
  9
$TDUUPDATE
 40
2460826.669361505
  9
$TDINDWG
 40
0.0000000116
  9
$TDUSRTIMER
 40
0.0000000116
  9
$USRTIMER
 70
     1
  9
$ANGBASE
 50
0.0
  9
$ANGDIR
 70
     0
  9
$PDMODE
 70
     0
  9
$PDSIZE
 40
0.0
  9
$PLINEWID
 40
0.0
  9
$SPLFRAME
 70
     0
  9
$SPLINETYPE
 70
     6
  9
$SPLINESEGS
 70
     8
  9
$HANDSEED
  5
1A3
  9
$SURFTAB1
 70
     6
  9
$SURFTAB2
 70
     6
  9
$SURFTYPE
 70
     6
  9
$SURFU
 70
     6
  9
$SURFV
 70
     6
  9
$UCSBASE
  2

  9
$UCSNAME
  2

  9
$UCSORG
 10
0.0
 20
0.0
 30
0.0
  9
$UCSXDIR
 10
1.0
 20
0.0
 30
0.0
  9
$UCSYDIR
 10
0.0
 20
1.0
 30
0.0
  9
$UCSORTHOREF
  2

  9
$UCSORTHOVIEW
 70
     0
  9
$UCSORGTOP
 10
0.0
 20
0.0
 30
0.0
  9
$UCSORGBOTTOM
 10
0.0
 20
0.0
 30
0.0
  9
$UCSORGLEFT
 10
0.0
 20
0.0
 30
0.0
  9
$UCSORGRIGHT
 10
0.0
 20
0.0
 30
0.0
  9
$UCSORGFRONT
 10
0.0
 20
0.0
 30
0.0
  9
$UCSORGBACK
 10
0.0
 20
0.0
 30
0.0
  9
$PUCSBASE
  2

  9
$PUCSNAME
  2

  9
$PUCSORG
 10
0.0
 20
0.0
 30
0.0
  9
$PUCSXDIR
 10
1.0
 20
0.0
 30
0.0
  9
$PUCSYDIR
 10
0.0
 20
1.0
 30
0.0
  9
$PUCSORTHOREF
  2

  9
$PUCSORTHOVIEW
 70
     0
  9
$PUCSORGTOP
 10
0.0
 20
0.0
 30
0.0
  9
$PUCSORGBOTTOM
 10
0.0
 20
0.0
 30
0.0
  9
$PUCSORGLEFT
 10
0.0
 20
0.0
 30
0.0
  9
$PUCSORGRIGHT
 10
0.0
 20
0.0
 30
0.0
  9
$PUCSORGFRONT
 10
0.0
 20
0.0
 30
0.0
  9
$PUCSORGBACK
 10
0.0
 20
0.0
 30
0.0
  9
$USERI1
 70
     0
  9
$USERI2
 70
     0
  9
$USERI3
 70
     0
  9
$USERI4
 70
     0
  9
$USERI5
 70
     0
  9
$USERR1
 40
0.0
  9
$USERR2
 40
0.0
  9
$USERR3
 40
0.0
  9
$USERR4
 40
0.0
  9
$USERR5
 40
0.0
  9
$WORLDVIEW
 70
     1
  9
$SHADEDGE
 70
     3
  9
$SHADEDIF
 70
    70
  9
$TILEMODE
 70
     1
  9
$MAXACTVP
 70
    64
  9
$PINSBASE
 10
0.0
 20
0.0
 30
0.0
  9
$PLIMCHECK
 70
     0
  9
$PEXTMIN
 10
1.000000000000000E+20
 20
1.000000000000000E+20
 30
1.000000000000000E+20
  9
$PEXTMAX
 10
-1.000000000000000E+20
 20
-1.000000000000000E+20
 30
-1.000000000000000E+20
  9
$PLIMMIN
 10
0.0
 20
0.0
  9
$PLIMMAX
 10
12.0
 20
9.0
  9
$UNITMODE
 70
     0
  9
$VISRETAIN
 70
     1
  9
$PLINEGEN
 70
     0
  9
$PSLTSCALE
 70
     1
  9
$TREEDEPTH
 70
  3020
  9
$CMLSTYLE
  2
Standard
  9
$CMLJUST
 70
     0
  9
$CMLSCALE
 40
1.0
  9
$PROXYGRAPHICS
 70
     1
  9
$MEASUREMENT
 70
     1
  9
$CELWEIGHT
370
    -1
  9
$ENDCAPS
280
     0
  9
$JOINSTYLE
280
     0
  9
$LWDISPLAY
290
     0
  9
$INSUNITS
 70
     4
  9
$HYPERLINKBASE
  1

  9
$STYLESHEET
  1

  9
$XEDIT
290
     1
  9
$CEPSNTYPE
380
     0
  9
$PSTYLEMODE
290
     1
  9
$FINGERPRINTGUID
  2
{97999a6d-d4d8-4106-acc1-c96d29abb8c4}
  9
$VERSIONGUID
  2
{FAEB1C32-E019-11D5-929B-00C0DF256EC4}
  9
$EXTNAMES
290
     1
  9
$PSVPSCALE
 40
0.0
  9
$OLESTARTUP
290
     0
  9
$SORTENTS
280
   127
  9
$INDEXCTL
280
     0
  9
$HIDETEXT
280
     1
  9
$XCLIPFRAME
290
     0
  9
$HALOGAP
280
     0
  9
$OBSCOLOR
 70
   257
  9
$OBSLTYPE
280
     0
  9
$INTERSECTIONDISPLAY
280
     0
  9
$INTERSECTIONCOLOR
 70
   257
  9
$DIMASSOC
280
     2
  9
$PROJECTNAME
  1

  9
$CAMERADISPLAY
290
     0
  9
$LENSLENGTH
 40
50.0
  9
$CAMERAHEIGHT
 40
0.0
  9
$STEPSPERSEC
 40
2.0
  9
$STEPSIZE
 40
6.0
  9
$3DDWFPREC
 40
2.0
  9
$PSOLWIDTH
 40
0.25
  9
$PSOLHEIGHT
 40
4.0
  9
$LOFTANG1
 40
1.570796326794897
  9
$LOFTANG2
 40
1.570796326794897
  9
$LOFTMAG1
 40
0.0
  9
$LOFTMAG2
 40
0.0
  9
$LOFTPARAM
 70
     7
  9
$LOFTNORMALS
280
     1
  9
$LATITUDE
 40
37.795
  9
$LONGITUDE
 40
-122.394
  9
$NORTHDIRECTION
 40
0.0
  9
$TIMEZONE
 70
 -8000
  9
$LIGHTGLYPHDISPLAY
280
     1
  9
$TILEMODELIGHTSYNCH
280
     1
  9
$CMATERIAL
347
44
  9
$SOLIDHIST
280
     0
  9
$SHOWHIST
280
     1
  9
$DWFFRAME
280
     2
  9
$DGNFRAME
280
     2
  9
$REALWORLDSCALE
290
     1
  9
$INTERFERECOLOR
 62
   256
  9
$CSHADOW
280
     0
  9
$SHADOWPLANELOCATION
 40
0.0
  0
ENDSEC
  0
SECTION
  2
CLASSES
  0
CLASS
  1
ACDBDICTIONARYWDFLT
  2
AcDbDictionaryWithDefault
  3
ObjectDBX Classes
 90
        0
 91
        3
280
     0
281
     0
  0
CLASS
  1
VISUALSTYLE
  2
AcDbVisualStyle
  3
ObjectDBX Classes
 90
     4095
 91
        3
280
     0
281
     0
  0
CLASS
  1
MATERIAL
  2
AcDbMaterial
  3
ObjectDBX Classes
 90
     1153
 91
        3
280
     0
281
     0
  0
CLASS
  1
SCALE
  2
AcDbScale
  3
ObjectDBX Classes
 90
     1153
 91
        3
280
     0
281
     0
  0
CLASS
  1
TABLESTYLE
  2
AcDbTableStyle
  3
ObjectDBX Classes
 90
     4095
 91
        3
280
     0
281
     0
  0
CLASS
  1
MLEADERSTYLE
  2
AcDbMLeaderStyle
  3
ACDB_MLEADERSTYLE_CLASS
 90
     4095
 91
        3
280
     0
281
     0
  0
CLASS
  1
SUN
  2
AcDbSun
  3
SCENEOE
 90
     1153
 91
        3
280
     0
281
     0
  0
CLASS
  1
DICTIONARYVAR
  2
AcDbDictionaryVar
  3
ObjectDBX Classes
 90
        0
 91
        3
280
     0
281
     0
  0
CLASS
  1
CELLSTYLEMAP
  2
AcDbCellStyleMap
  3
ObjectDBX Classes
 90
     1152
 91
        3
280
     0
281
     0
  0
ENDSEC
  0
SECTION
  2
TABLES
  0
TABLE
  2
VPORT
  5
8
330
0
100
AcDbSymbolTable
 70
     1
  0
VPORT
  5
29
330
8
100
AcDbSymbolTableRecord
100
AcDbViewportTableRecord
  2
*Active
 70
     0
 10
0.0
 20
0.0
 11
1.0
 21
1.0
 12
10.42990654205607
 22
4.5
 13
0.0
 23
0.0
 14
0.5
 24
0.5
 15
0.5
 25
0.5
 16
0.0
 26
0.0
 36
1.0
 17
0.0
 27
0.0
 37
0.0
 40
9.0
 41
1.972972972850329
 42
50.0
 43
0.0
 44
0.0
 50
0.0
 51
0.0
 71
     0
 72
   100
 73
     1
 74
     3
 75
     0
 76
     0
 77
     0
 78
     0
281
     0
 65
     1
110
0.0
120
0.0
130
0.0
111
1.0
121
0.0
131
0.0
112
0.0
122
1.0
132
0.0
 79
     0
146
0.0
348
2F
 60
     3
 61
     5
292
     1
282
     1
141
0.0
142
0.0
 63
   250
361
5D
  0
ENDTAB
  0
TABLE
  2
LTYPE
  5
5
330
0
100
AcDbSymbolTable
 70
     1
  0
LTYPE
  5
14
330
5
100
AcDbSymbolTableRecord
100
AcDbLinetypeTableRecord
  2
ByBlock
 70
     0
  3

 72
    65
 73
     0
 40
0.0
  0
LTYPE
  5
15
330
5
100
AcDbSymbolTableRecord
100
AcDbLinetypeTableRecord
  2
ByLayer
 70
     0
  3

 72
    65
 73
     0
 40
0.0
  0
LTYPE
  5
16
330
5
100
AcDbSymbolTableRecord
100
AcDbLinetypeTableRecord
  2
Continuous
 70
     0
  3
Solid line
 72
    65
 73
     0
 40
0.0
  0
ENDTAB
  0
TABLE
  2
LAYER
  5
2
330
0
100
AcDbSymbolTable
 70
     2
  0
LAYER
  5
10
330
2
100
AcDbSymbolTableRecord
100
AcDbLayerTableRecord
  2
0
 70
     0
 62
     7
  6
Continuous
370
    -3
390
F
347
46
  0
LAYER
  5
5F
330
2
100
AcDbSymbolTableRecord
100
AcDbLayerTableRecord
  2
Make2D$Visibile$120
 70
     0
 62
    18
420
        0
  6
Continuous
370
    -3
390
F
347
46
  0
ENDTAB
  0
TABLE
  2
STYLE
  5
3
330
0
100
AcDbSymbolTable
 70
     1
  0
STYLE
  5
11
330
3
100
AcDbSymbolTableRecord
100
AcDbTextStyleTableRecord
  2
Standard
 70
     0
 40
0.0
 41
1.0
 50
0.0
 71
     0
 42
0.2
  3
txt
  4

  0
ENDTAB
  0
TABLE
  2
VIEW
  5
6
330
0
100
AcDbSymbolTable
 70
     0
  0
ENDTAB
  0
TABLE
  2
UCS
  5
7
330
0
100
AcDbSymbolTable
 70
     0
  0
ENDTAB
  0
TABLE
  2
APPID
  5
9
330
0
100
AcDbSymbolTable
 70
     3
  0
APPID
  5
12
330
9
100
AcDbSymbolTableRecord
100
AcDbRegAppTableRecord
  2
ACAD
 70
     0
  0
APPID
  5
5E
330
9
100
AcDbSymbolTableRecord
100
AcDbRegAppTableRecord
  2
Rhino
 70
     0
  0
APPID
  5
19B
330
9
100
AcDbSymbolTableRecord
100
AcDbRegAppTableRecord
  2
ACAD_MLEADERVER
 70
     0
  0
ENDTAB
  0
TABLE
  2
DIMSTYLE
  5
A
330
0
100
AcDbSymbolTable
 70
     1
100
AcDbDimStyleTable
  0
DIMSTYLE
105
27
330
A
100
AcDbSymbolTableRecord
100
AcDbDimStyleTableRecord
  2
STANDARD_ACAD
 70
     0
178
     0
340
11
  0
ENDTAB
  0
TABLE
  2
BLOCK_RECORD
  5
1
330
0
100
AcDbSymbolTable
 70
     1
  0
BLOCK_RECORD
  5
1F
330
1
100
AcDbSymbolTableRecord
100
AcDbBlockTableRecord
  2
*Model_Space
340
22
 70
     0
280
     1
281
     0
  0
BLOCK_RECORD
  5
1B
330
1
100
AcDbSymbolTableRecord
100
AcDbBlockTableRecord
  2
*Paper_Space
340
1E
 70
     0
280
     1
281
     0
  0
BLOCK_RECORD
  5
23
330
1
100
AcDbSymbolTableRecord
100
AcDbBlockTableRecord
  2
*Paper_Space0
340
26
 70
     0
280
     1
281
     0
  0
ENDTAB
  0
ENDSEC
  0
SECTION
  2
BLOCKS
  0
BLOCK
  5
20
330
1F
100
AcDbEntity
  8
0
100
AcDbBlockBegin
  2
*Model_Space
 70
     0
 10
0.0
 20
0.0
 30
0.0
  3
*Model_Space
  1

  0
ENDBLK
  5
21
330
1F
100
AcDbEntity
  8
0
100
AcDbBlockEnd
  0
BLOCK
  5
1C
330
1B
100
AcDbEntity
 67
     1
  8
0
100
AcDbBlockBegin
  2
*Paper_Space
 70
     0
 10
0.0
 20
0.0
 30
0.0
  3
*Paper_Space
  1

  0
ENDBLK
  5
1D
330
1B
100
AcDbEntity
 67
     1
  8
0
100
AcDbBlockEnd
  0
BLOCK
  5
24
330
23
100
AcDbEntity
  8
0
100
AcDbBlockBegin
  2
*Paper_Space0
 70
     0
 10
0.0
 20
0.0
 30
0.0
  3
*Paper_Space0
  1

  0
ENDBLK
  5
25
330
23
100
AcDbEntity
  8
0
100
AcDbBlockEnd
  0
ENDSEC
  0
SECTION
  2
ENTITIES
  0
POLYLINE
  5
60
330
1F
100
AcDbEntity
  8
Make2D$Visibile$120
100
AcDb2dPolyline
 66
     1
 10
0.0
 20
0.0
 30
0.0
  0
VERTEX
  5
61
330
60
100
AcDbEntity
  8
Make2D$Visibile$120
100
AcDbVertex
100
AcDb2dVertex
 10
26.1476574701735
 20
272.2434970991008
 30
0.0
  0
VERTEX
  5
62
330
60
100
AcDbEntity
  8
Make2D$Visibile$120
100
AcDbVertex
100
AcDb2dVertex
 10
26.1486992287048
 20
-859.7565029008914
 30
0.0
  0
SEQEND
  5
63
330
60
100
AcDbEntity
  8
Make2D$Visibile$120
  0
POLYLINE
  5
64
330
1F
100
AcDbEntity
  8
Make2D$Visibile$120
100
AcDb2dPolyline
 66
     1
 10
0.0
 20
0.0
 30
0.0
  0
VERTEX
  5
65
330
64
100
AcDbEntity
  8
Make2D$Visibile$120
100
AcDbVertex
100
AcDb2dVertex
 10
-46.26249786534863
 20
-859.7565029008913
 30
0.0
  0
VERTEX
  5
66
330
64
100
AcDbEntity
  8
Make2D$Visibile$120
100
AcDbVertex
100
AcDb2dVertex
 10
27.64869916834118
 20
-859.7565029008914
 30
0.0
  0
SEQEND
  5
67
330
64
100
AcDbEntity
  8
Make2D$Visibile$120
  0
POLYLINE
  5
68
330
1F
100
AcDbEntity
  8
Make2D$Visibile$120
100
AcDb2dPolyline
 66
     1
 10
0.0
 20
0.0
 30
0.0
  0
VERTEX
  5
69
330
68
100
AcDbEntity
  8
Make2D$Visibile$120
100
AcDbVertex
100
AcDb2dVertex
 10
-45.76249784360448
 20
272.2434970991008
 30
0.0
  0
VERTEX
  5
6A
330
68
100
AcDbEntity
  8
Make2D$Visibile$120
100
AcDbVertex
100
AcDb2dVertex
 10
-45.76249784360448
 20
-859.7565029008914
 30
0.0
  0
SEQEND
  5
6B
330
68
100
AcDbEntity
  8
Make2D$Visibile$120
  0
POLYLINE
  5
6C
330
1F
100
AcDbEntity
  8
Make2D$Visibile$120
100
AcDb2dPolyline
 66
     1
 10
0.0
 20
0.0
 30
0.0
  0
VERTEX
  5
6D
330
6C
100
AcDbEntity
  8
Make2D$Visibile$120
100
AcDbVertex
100
AcDb2dVertex
 10
-273.9553135760993
 20
590.8991419262804
 30
0.0
  0
VERTEX
  5
6E
330
6C
100
AcDbEntity
  8
Make2D$Visibile$120
100
AcDbVertex
100
AcDb2dVertex
 10
-1405.955313576092
 20
590.8991419262804
 30
0.0
  0
SEQEND
  5
6F
330
6C
100
AcDbEntity
  8
Make2D$Visibile$120
  0
POLYLINE
  5
70
330
1F
100
AcDbEntity
  8
Make2D$Visibile$120
100
AcDb2dPolyline
 66
     1
 10
0.0
 20
0.0
 30
0.0
  0
VERTEX
  5
71
330
70
100
AcDbEntity
  8
Make2D$Visibile$120
100
AcDbVertex
100
AcDb2dVertex
 10
-273.9553135760993
 20
507.8525435110134
 30
0.0
  0
VERTEX
  5
72
330
70
100
AcDbEntity
  8
Make2D$Visibile$120
100
AcDbVertex
100
AcDb2dVertex
 10
-1405.955313576092
 20
507.8525435110134
 30
0.0
  0
SEQEND
  5
73
330
70
100
AcDbEntity
  8
Make2D$Visibile$120
  0
POLYLINE
  5
74
330
1F
100
AcDbEntity
  8
Make2D$Visibile$120
100
AcDb2dPolyline
 66
     1
 10
0.0
 20
0.0
 30
0.0
  0
VERTEX
  5
75
330
74
100
AcDbEntity
  8
Make2D$Visibile$120
100
AcDbVertex
100
AcDb2dVertex
 10
281.8950641163126
 20
548.5046276968349
 30
0.0
  0
VERTEX
  5
76
330
74
100
AcDbEntity
  8
Make2D$Visibile$120
100
AcDbVertex
100
AcDb2dVertex
 10
1413.895064116305
 20
548.5046276968349
 30
0.0
  0
SEQEND
  5
77
330
74
100
AcDbEntity
  8
Make2D$Visibile$120
  0
POLYLINE
  5
78
330
1F
100
AcDbEntity
  8
Make2D$Visibile$120
100
AcDb2dPolyline
 66
     1
 10
0.0
 20
0.0
 30
0.0
  0
VERTEX
  5
79
330
78
100
AcDbEntity
  8
Make2D$Visibile$120
100
AcDbVertex
100
AcDb2dVertex
 10
281.8950641163126
 20
550.2366785169577
 30
0.0
  0
VERTEX
  5
7A
330
78
100
AcDbEntity
  8
Make2D$Visibile$120
100
AcDbVertex
100
AcDb2dVertex
 10
1413.895064116305
 20
550.2366785169577
 30
0.0
  0
SEQEND
  5
7B
330
78
100
AcDbEntity
  8
Make2D$Visibile$120
  0
SPLINE
  5
7C
330
1F
100
AcDbEntity
  8
Make2D$Visibile$120
 62
    18
420
        0
370
    -3
100
AcDbSpline
210
0.0
220
0.0
230
1.0
 70
     8
 71
     3
 72
    10
 73
     6
 74
     0
 42
0.0000000001
 43
0.0000000001
 40
0.0000000000002168
 40
0.0000000000002168
 40
0.0000000000002168
 40
0.0000000000002168
 40
0.1607575172791285
 40
0.1607575172791285
 40
0.799281915667137
 40
0.799281915667137
 40
0.799281915667137
 40
0.799281915667137
 10
-1405.9553135761
 20
500.436312809851
 30
0.0
 10
-1405.9553135761
 20
500.43377210525
 30
0.0
 10
-1405.832512967305
 20
500.1064054198696
 30
0.0
 10
-1405.714945708325
 20
499.9888381608891
 30
0.0
 10
-1405.600104534799
 20
499.9486221203426
 30
0.0
 10
-1405.446229267832
 20
499.9502995838518
 30
0.0
  0
SPLINE
  5
7D
330
1F
100
AcDbEntity
  8
Make2D$Visibile$120
 62
    18
420
        0
370
    -3
100
AcDbSpline
210
0.0
220
0.0
230
1.0
 70
    28
 71
     2
 72
     6
 73
     3
 74
     0
 42
0.0000000001
 43
0.0000000001
 40
20.04554898285584
 40
20.04554898285584
 40
20.04554898285584
 40
34.22521322865896
 40
34.22521322865896
 40
34.22521322865896
 10
-1405.955313576208
 20
506.8525434859056
 30
0.0
 41
0.982026991004201
 10
-1405.955313576099
 20
500.4363128098498
 30
0.0
 41
0.8757123110010039
 10
-1405.9553135761
 20
500.4363128098498
 30
0.0
 41
1.0
  0
SPLINE
  5
7E
330
1F
100
AcDbEntity
  8
Make2D$Visibile$120
 62
    18
420
        0
370
    -3
100
AcDbSpline
210
0.0
220
0.0
230
1.0
 70
    28
 71
     2
 72
     6
 73
     3
 74
     0
 42
0.0000000001
 43
0.0000000001
 40
0.0008180024064497
 40
0.0008180024064497
 40
0.0008180024064497
 40
4.991818739009182
 40
4.991818739009182
 40
4.991818739009182
 10
-1405.446229267833
 20
499.9502995838517
 30
0.0
 41
0.9690172749619871
 10
-1402.950728902096
 20
499.9503137163123
 30
0.0
 41
0.9690172749619871
 10
-1400.45522853636
 20
499.950327848773
 30
0.0
 41
0.9690172749619871
  0
SPLINE
  5
7F
330
1F
100
AcDbEntity
  8
Make2D$Visibile$120
 62
    18
420
        0
370
    -3
100
AcDbSpline
210
0.0
220
0.0
230
1.0
 70
    12
 71
     2
 72
     6
 73
     3
 74
     0
 42
0.0000000001
 43
0.0000000001
 40
-67.42437227729991
 40
-67.42437227729991
 40
-67.42437227729991
 40
-52.46535992983922
 40
-52.46535992983922
 40
-52.46535992983922
 10
-1400.455838001059
 20
506.8525434859056
 30
0.0
 41
0.956312118322338
 10
-1400.45559824455
 20
499.9503278466793
 30
0.0
 41
0.8588869519703275
 10
-1400.45522853636
 20
499.9503278487732
 30
0.0
 41
1.0
  0
SPLINE
  5
80
330
1F
100
AcDbEntity
  8
Make2D$Visibile$120
 62
    18
420
        0
370
    -3
100
AcDbSpline
210
0.0
220
0.0
230
1.0
 70
     8
 71
     3
 72
    10
 73
     6
 74
     0
 42
0.0000000001
 43
0.0000000001
 40
0.0
 40
0.0
 40
0.0
 40
0.0
 40
0.4790188967059664
 40
0.4790188967059664
 40
0.8155206648119724
 40
0.8155206648119724
 40
0.8155206648119724
 40
0.8155206648119724
 10
-274.464398007354
 20
598.7733933322709
 30
0.0
 10
-274.3128773472304
 20
598.7774755113962
 30
0.0
 10
-274.1956814439827
 20
598.7348595248586
 30
0.0
 10
-274.0357822675801
 20
598.574960348456
 30
0.0
 10
-273.955313576208
 20
598.3681447646543
 30
0.0
 10
-273.9553135762078
 20
598.2873848758973
 30
0.0
  0
SPLINE
  5
81
330
1F
100
AcDbEntity
  8
Make2D$Visibile$120
 62
    18
420
        0
370
    -3
100
AcDbSpline
210
0.0
220
0.0
230
1.0
 70
    12
 71
     2
 72
     8
 73
     5
 74
     0
 42
0.0000000001
 43
0.0000000001
 40
-52.46535992983922
 40
-52.46535992983922
 40
-52.46535992983922
 40
-36.65702401608523
 40
-36.65702401608523
 40
-20.84868810233125
 40
-20.84868810233125
 40
-20.84868810233125
 10
1408.394979076574
 20
499.9504884634871
 30
0.0
 41
1.0
 10
1408.394586988025
 20
499.9504884657073
 30
0.0
 41
0.8660254336876447
 10
1408.394433688953
 20
507.4984145608046
 30
0.0
 41
1.0
 10
1408.39428038988
 20
515.0463406559012
 30
0.0
 41
0.8660254336876447
 10
1408.395414697631
 20
530.1422014010282
 30
0.0
 41
1.0
  0
SPLINE
  5
82
330
1F
100
AcDbEntity
  8
Make2D$Visibile$120
 62
    18
420
        0
370
    -3
100
AcDbSpline
210
0.0
220
0.0
230
1.0
 70
     8
 71
     3
 72
    10
 73
     6
 74
     0
 42
0.0000000001
 43
0.0000000001
 40
0.0000000000004938
 40
0.0000000000004938
 40
0.0000000000004938
 40
0.0000000000004938
 40
0.3346943572549445
 40
0.3346943572549445
 40
0.8156018844042082
 40
0.8156018844042082
 40
0.8156018844042082
 40
0.8156018844042082
 10
-1405.955313576099
 20
598.2873848758973
 30
0.0
 10
-1405.955313576099
 20
598.3670137562917
 30
0.0
 10
-1405.874232787412
 20
598.5755724457708
 30
0.0
 10
-1405.714945708324
 20
598.7348595248586
 30
0.0
 10
-1405.621372266036
 20
598.7628128874308
 30
0.0
 10
-1405.446229144953
 20
598.7733933322709
 30
0.0
  0
SPLINE
  5
83
330
1F
100
AcDbEntity
  8
Make2D$Visibile$120
 62
    18
420
        0
370
    -3
100
AcDbSpline
210
0.0
220
0.0
230
1.0
 70
     8
 71
     3
 72
    10
 73
     6
 74
     0
 42
0.0000000001
 43
0.0000000001
 40
0.0000000000002168
 40
0.0000000000002168
 40
0.0000000000002168
 40
0.0000000000002168
 40
0.1607575172791285
 40
0.1607575172791285
 40
0.799281915667137
 40
0.799281915667137
 40
0.799281915667137
 40
0.799281915667137
 10
-273.9553135762076
 20
500.436312809851
 30
0.0
 10
-273.9553135762078
 20
500.43377210525
 30
0.0
 10
-274.0781141850025
 20
500.1064054198696
 30
0.0
 10
-274.1956814439829
 20
499.9888381608891
 30
0.0
 10
-274.3105226175085
 20
499.9486221203426
 30
0.0
 10
-274.4643978844751
 20
499.9502995838518
 30
0.0
  0
SPLINE
  5
84
330
1F
100
AcDbEntity
  8
Make2D$Visibile$120
 62
    18
420
        0
370
    -3
100
AcDbSpline
210
0.0
220
0.0
230
1.0
 70
    28
 71
     2
 72
     6
 73
     3
 74
     0
 42
0.0000000001
 43
0.0000000001
 40
20.04554898285584
 40
20.04554898285584
 40
20.04554898285584
 40
34.22521322865896
 40
34.22521322865896
 40
34.22521322865896
 10
-273.9553135760996
 20
506.8525434859056
 30
0.0
 41
0.982026991004201
 10
-273.9553135762078
 20
500.4363128098498
 30
0.0
 41
0.8757123110010039
 10
-273.9553135762078
 20
500.4363128098498
 30
0.0
 41
1.0
  0
SPLINE
  5
85
330
1F
100
AcDbEntity
  8
Make2D$Visibile$120
 62
    18
420
        0
370
    -3
100
AcDbSpline
210
0.0
220
0.0
230
1.0
 70
     8
 71
     3
 72
     8
 73
     4
 74
     0
 42
0.0000000001
 43
0.0000000001
 40
0.0000000000005603
 40
0.0000000000005603
 40
0.0000000000005603
 40
0.0000000000005603
 40
0.8834562287491359
 40
0.8834562287491359
 40
0.8834562287491359
 40
0.8834562287491359
 10
1413.895064116313
 20
500.4364734245644
 30
0.0
 10
1413.895064116313
 20
500.1853119263244
 30
0.0
 10
1413.690433940268
 20
499.9730806323544
 30
0.0
 10
1413.385979808045
 20
499.9504601985655
 30
0.0
  0
SPLINE
  5
86
330
1F
100
AcDbEntity
  8
Make2D$Visibile$120
 62
    18
420
        0
370
    -3
100
AcDbSpline
210
0.0
220
0.0
230
1.0
 70
     8
 71
     3
 72
     8
 73
     4
 74
     0
 42
0.0000000001
 43
0.0000000001
 40
0.0
 40
0.0
 40
0.0
 40
0.0
 40
0.8757027588087641
 40
0.8757027588087641
 40
0.8757027588087641
 40
0.8757027588087641
 10
1413.387233431508
 20
530.1421731314747
 30
0.0
 10
1413.671206491228
 20
530.1283268107313
 30
0.0
 10
1413.895064116313
 20
529.8933740476512
 30
0.0
 10
1413.895064116313
 20
529.6283268107313
 30
0.0
  0
SPLINE
  5
87
330
1F
100
AcDbEntity
  8
Make2D$Visibile$120
 62
    18
420
        0
370
    -3
100
AcDbSpline
210
0.0
220
0.0
230
1.0
 70
    28
 71
     4
 72
    10
 73
     5
 74
     0
 42
0.0000000001
 43
0.0000000001
 40
98.09124803143607
 40
98.09124803143607
 40
98.09124803143607
 40
98.09124803143607
 40
98.09124803143607
 40
98.31406394182574
 40
98.31406394182574
 40
98.31406394182574
 40
98.31406394182574
 40
98.31406394182574
 10
1413.895064116305
 20
529.9667256414182
 30
0.0
 41
1.0
 10
1413.895064116314
 20
529.9118837856602
 30
0.0
 41
1.0
 10
1413.895064116313
 20
529.8912833641479
 30
0.0
 41
0.9978313793398383
 10
1413.895064116313
 20
529.8780674850537
 30
0.0
 41
0.9960655436269699
 10
1413.895064116313
 20
529.8727847867818
 30
0.0
 41
0.9952412310627825
  0
SPLINE
  5
88
330
1F
100
AcDbEntity
  8
Make2D$Visibile$120
 62
    18
420
        0
370
    -3
100
AcDbSpline
210
0.0
220
0.0
230
1.0
 70
     8
 71
     3
 72
    10
 73
     6
 74
     0
 42
0.0000000001
 43
0.0000000001
 40
0.0000000000004956
 40
0.0000000000004956
 40
0.0000000000004956
 40
0.0000000000004956
 40
0.3365017681065097
 40
0.3365017681065097
 40
0.8155206648124631
 40
0.8155206648124631
 40
0.8155206648124631
 40
0.8155206648124631
 10
281.8950641164208
 20
598.2875454906111
 30
0.0
 10
281.8950641164208
 20
598.3683053793682
 30
0.0
 10
281.9755328077933
 20
598.5751209631696
 30
0.0
 10
282.1354319841955
 20
598.7350201395725
 30
0.0
 10
282.2238025834492
 20
598.7701870760659
 30
0.0
 10
282.4041485475666
 20
598.7735539469845
 30
0.0
  0
POLYLINE
  5
89
330
1F
100
AcDbEntity
  8
Make2D$Visibile$120
 62
    18
420
        0
370
    -3
100
AcDb2dPolyline
 66
     1
 10
0.0
 20
0.0
 30
0.0
  0
VERTEX
  5
8A
330
89
100
AcDbEntity
  8
Make2D$Visibile$120
 62
    18
420
        0
370
    -3
100
AcDbVertex
100
AcDb2dVertex
 10
287.3956802086238
 20
591.8888702034874
 30
0.0
  0
VERTEX
  5
8B
330
89
100
AcDbEntity
  8
Make2D$Visibile$120
 62
    18
420
        0
370
    -3
100
AcDbVertex
100
AcDb2dVertex
 10
287.8950641164208
 20
591.8888702034874
 30
0.0
  0
SEQEND
  5
8C
330
89
100
AcDbEntity
  8
Make2D$Visibile$120
 62
    18
420
        0
370
    -3
  0
POLYLINE
  5
8D
330
1F
100
AcDbEntity
  8
Make2D$Visibile$120
 62
    18
420
        0
370
    -3
100
AcDb2dPolyline
 66
     1
 10
0.0
 20
0.0
 30
0.0
  0
VERTEX
  5
8E
330
8D
100
AcDbEntity
  8
Make2D$Visibile$120
 62
    18
420
        0
370
    -3
100
AcDbVertex
100
AcDb2dVertex
 10
287.395348760728
 20
572.3318501370052
 30
0.0
  0
VERTEX
  5
8F
330
8D
100
AcDbEntity
  8
Make2D$Visibile$120
 62
    18
420
        0
370
    -3
100
AcDbVertex
100
AcDb2dVertex
 10
287.8969244376074
 20
572.3318501370052
 30
0.0
  0
SEQEND
  5
90
330
8D
100
AcDbEntity
  8
Make2D$Visibile$120
 62
    18
420
        0
370
    -3
  0
POLYLINE
  5
91
330
1F
100
AcDbEntity
  8
Make2D$Visibile$120
 62
    18
420
        0
370
    -3
100
AcDb2dPolyline
 66
     1
 10
0.0
 20
0.0
 30
0.0
  0
VERTEX
  5
92
330
91
100
AcDbEntity
  8
Make2D$Visibile$120
 62
    18
420
        0
370
    -3
100
AcDbVertex
100
AcDb2dVertex
 10
287.394565447559
 20
568.84158015613
 30
0.0
  0
VERTEX
  5
93
330
91
100
AcDbEntity
  8
Make2D$Visibile$120
 62
    18
420
        0
370
    -3
100
AcDbVertex
100
AcDb2dVertex
 10
287.8950641164208
 20
568.84158015613
 30
0.0
  0
SEQEND
  5
94
330
91
100
AcDbEntity
  8
Make2D$Visibile$120
 62
    18
420
        0
370
    -3
  0
SPLINE
  5
95
330
1F
100
AcDbEntity
  8
Make2D$Visibile$120
 62
    18
420
        0
370
    -3
100
AcDbSpline
210
0.0
220
0.0
230
1.0
 70
    28
 71
     4
 72
    10
 73
     5
 74
     0
 42
0.0000000001
 43
0.0000000001
 40
4.192718551304017
 40
4.192718551304017
 40
4.192718551304017
 40
4.192718551304017
 40
4.192718551304017
 40
4.257891645087847
 40
4.257891645087847
 40
4.257891645087847
 40
4.257891645087847
 40
4.257891645087847
 10
281.8950641164207
 20
569.0956921044443
 30
0.0
 41
0.9484259113956641
 10
281.8950641163123
 20
569.0552779902397
 30
0.0
 41
0.9486663135028122
 10
281.8950641163138
 20
569.039247086493
 30
0.0
 41
0.9489144099568662
 10
281.8950641163133
 20
569.0232007115432
 30
0.0
 41
0.9491702007578259
 10
281.8950641163124
 20
569.0071392680225
 30
0.0
 41
0.9494336859056915
  0
SPLINE
  5
96
330
1F
100
AcDbEntity
  8
Make2D$Visibile$120
 62
    18
420
        0
370
    -3
100
AcDbSpline
210
0.0
220
0.0
230
1.0
 70
     8
 71
     3
 72
     8
 73
     4
 74
     0
 42
0.0000000001
 43
0.0000000001
 40
0.0
 40
0.0
 40
0.0
 40
0.0
 40
0.8754582564196512
 40
0.8754582564196512
 40
0.8754582564196512
 40
0.8754582564196512
 10
282.4028943075175
 20
568.5818410133145
 30
0.0
 10
282.1189217415056
 20
568.5956921044442
 30
0.0
 10
281.8950641164208
 20
568.8302308888967
 30
0.0
 10
281.8950641164208
 20
569.0956921044442
 30
0.0
  0
SPLINE
  5
97
330
1F
100
AcDbEntity
  8
Make2D$Visibile$120
 62
    18
420
        0
370
    -3
100
AcDbSpline
210
0.0
220
0.0
230
1.0
 70
    28
 71
     2
 72
     6
 73
     3
 74
     0
 42
0.0000000001
 43
0.0000000001
 40
1.633306038920592
 40
1.633306038920592
 40
1.633306038920592
 40
1.682183436592531
 40
1.682183436592531
 40
1.682183436592531
 10
281.8950641164205
 20
568.92326189707
 30
0.0
 41
0.9851209102837899
 10
281.8950641164213
 20
568.8644313567991
 30
0.0
 41
0.9830592474030597
 10
281.895064116421
 20
568.8415801561293
 30
0.0
 41
0.9814423384280424
  0
POLYLINE
  5
98
330
1F
100
AcDbEntity
  8
Make2D$Visibile$120
 62
    18
420
        0
370
    -3
100
AcDb2dPolyline
 66
     1
 10
0.0
 20
0.0
 30
0.0
  0
VERTEX
  5
99
330
98
100
AcDbEntity
  8
Make2D$Visibile$120
 62
    18
420
        0
370
    -3
100
AcDbVertex
100
AcDb2dVertex
 10
287.8950641164204
 20
506.8527041006196
 30
0.0
  0
VERTEX
  5
9A
330
98
100
AcDbEntity
  8
Make2D$Visibile$120
 62
    18
420
        0
370
    -3
100
AcDbVertex
100
AcDb2dVertex
 10
287.3956804439197
 20
506.8527041006196
 30
0.0
  0
SEQEND
  5
9B
330
98
100
AcDbEntity
  8
Make2D$Visibile$120
 62
    18
420
        0
370
    -3
  0
POLYLINE
  5
9C
330
1F
100
AcDbEntity
  8
Make2D$Visibile$120
 62
    18
420
        0
370
    -3
100
AcDb2dPolyline
 66
     1
 10
0.0
 20
0.0
 30
0.0
  0
VERTEX
  5
9D
330
9C
100
AcDbEntity
  8
Make2D$Visibile$120
 62
    18
420
        0
370
    -3
100
AcDbVertex
100
AcDb2dVertex
 10
287.8950641164208
 20
529.899738269758
 30
0.0
  0
VERTEX
  5
9E
330
9C
100
AcDbEntity
  8
Make2D$Visibile$120
 62
    18
420
        0
370
    -3
100
AcDbVertex
100
AcDb2dVertex
 10
287.4041514011581
 20
529.899738269758
 30
0.0
  0
SEQEND
  5
9F
330
9C
100
AcDbEntity
  8
Make2D$Visibile$120
 62
    18
420
        0
370
    -3
  0
SPLINE
  5
A0
330
1F
100
AcDbEntity
  8
Make2D$Visibile$120
 62
    18
420
        0
370
    -3
100
AcDbSpline
210
0.0
220
0.0
230
1.0
 70
     8
 71
     3
 72
    10
 73
     6
 74
     0
 42
0.0000000001
 43
0.0000000001
 40
0.0
 40
0.0
 40
0.0
 40
0.0
 40
0.177977858957485
 40
0.177977858957485
 40
0.8056861275785727
 40
0.8056861275785727
 40
0.8056861275785727
 40
0.8056861275785727
 10
281.8950641164208
 20
529.6283268107311
 30
0.0
 10
281.8950641164208
 20
529.6363813252201
 30
0.0
 10
282.0148806728064
 20
529.9552501483035
 30
0.0
 10
282.1354319841964
 20
530.0758014596929
 30
0.0
 10
282.2626716672546
 20
530.1283268107313
 30
0.0
 10
282.4326595660939
 20
530.1421733000377
 30
0.0
  0
SPLINE
  5
A1
330
1F
100
AcDbEntity
  8
Make2D$Visibile$120
 62
    18
420
        0
370
    -3
100
AcDbSpline
210
0.0
220
0.0
230
1.0
 70
    28
 71
     2
 72
     6
 73
     3
 74
     0
 42
0.0000000001
 43
0.0000000001
 40
1.497582456986769
 40
1.497582456986769
 40
1.497582456986769
 40
1.697741953233438
 40
1.697741953233438
 40
1.697741953233438
 10
281.8950641164208
 20
529.7139721301489
 30
0.0
 41
1.0
 10
281.8950641164211
 20
529.80039386143
 30
0.0
 41
0.9864997229445259
 10
281.8950641163121
 20
529.899738269758
 30
0.0
 41
0.9804580235995439
  0
SPLINE
  5
A2
330
1F
100
AcDbEntity
  8
Make2D$Visibile$120
 62
    18
420
        0
370
    -3
100
AcDbSpline
210
0.0
220
0.0
230
1.0
 70
     8
 71
     3
 72
    12
 73
     8
 74
     0
 42
0.0000000001
 43
0.0000000001
 40
0.0
 40
0.0
 40
0.0
 40
0.0
 40
0.4557616479450959
 40
0.4557616479450959
 40
0.6893543698139779
 40
0.6893543698139779
 40
0.797955221082768
 40
0.797955221082768
 40
0.797955221082768
 40
0.797955221082768
 10
282.4041484246875
 20
499.9504601985655
 30
0.0
 10
282.2032218787883
 20
499.9614683633195
 30
0.0
 10
282.1354319841964
 20
499.988998775603
 30
0.0
 10
281.9933730150685
 20
500.13105774473
 30
0.0
 10
281.9554014326884
 20
500.1886926825914
 30
0.0
 10
281.9184394686761
 20
500.2820567023136
 30
0.0
 10
281.8950641164208
 20
500.4361401566096
 30
0.0
 10
281.8950641164208
 20
500.4364734245648
 30
0.0
  0
SPLINE
  5
A3
330
1F
100
AcDbEntity
  8
Make2D$Visibile$120
 62
    18
420
        0
370
    -3
100
AcDbSpline
210
0.0
220
0.0
230
1.0
 70
     8
 71
     3
 72
     8
 73
     4
 74
     0
 42
0.0000000001
 43
0.0000000001
 40
0.0
 40
0.0
 40
0.0
 40
0.0
 40
0.8907792943939885
 40
0.8907792943939885
 40
0.8907792943939885
 40
0.8907792943939885
 10
-2.022636136553274
 20
-859.2483435582526
 30
0.0
 10
-2.030596503981769
 20
-859.5326452758148
 30
0.0
 10
-2.294158687607933
 20
-859.7565029008989
 30
0.0
 10
-2.53059650398086
 20
-859.7565029008994
 30
0.0
  0
SPLINE
  5
A4
330
1F
100
AcDbEntity
  8
Make2D$Visibile$120
 62
    18
420
        0
370
    -3
100
AcDbSpline
210
0.0
220
0.0
230
1.0
 70
     8
 71
     3
 72
     8
 73
     4
 74
     0
 42
0.0000000001
 43
0.0000000001
 40
0.0000000000003282
 40
0.0000000000003282
 40
0.0000000000003282
 40
0.0000000000003282
 40
0.884665802321132
 40
0.884665802321132
 40
0.884665802321132
 40
0.884665802321132
 10
-31.72244989014803
 20
-859.7565029008994
 30
0.0
 10
-31.97129890661176
 20
-859.7565029008989
 30
0.0
 10
-32.22244989014803
 20
-859.5326452758146
 30
0.0
 10
-32.21434676371678
 20
-859.2475699972218
 30
0.0
  0
POLYLINE
  5
A5
330
1F
100
AcDbEntity
  8
Make2D$Visibile$120
 62
    18
420
        0
370
    -3
100
AcDb2dPolyline
 66
     1
 10
0.0
 20
0.0
 30
0.0
  0
VERTEX
  5
A6
330
A5
100
AcDbEntity
  8
Make2D$Visibile$120
 62
    18
420
        0
370
    -3
100
AcDbVertex
100
AcDb2dVertex
 10
-6.209889441683345
 20
266.2434970989921
 30
0.0
  0
VERTEX
  5
A7
330
A5
100
AcDbEntity
  8
Make2D$Visibile$120
 62
    18
420
        0
370
    -3
100
AcDbVertex
100
AcDb2dVertex
 10
-6.209889441683345
 20
266.7439288736084
 30
0.0
  0
SEQEND
  5
A8
330
A5
100
AcDbEntity
  8
Make2D$Visibile$120
 62
    18
420
        0
370
    -3
  0
POLYLINE
  5
A9
330
1F
100
AcDbEntity
  8
Make2D$Visibile$120
 62
    18
420
        0
370
    -3
100
AcDb2dPolyline
 66
     1
 10
0.0
 20
0.0
 30
0.0
  0
VERTEX
  5
AA
330
A9
100
AcDbEntity
  8
Make2D$Visibile$120
 62
    18
420
        0
370
    -3
100
AcDbVertex
100
AcDb2dVertex
 10
-5.923945830215189
 20
266.7439434852074
 30
0.0
  0
VERTEX
  5
AB
330
A9
100
AcDbEntity
  8
Make2D$Visibile$120
 62
    18
420
        0
370
    -3
100
AcDbVertex
100
AcDb2dVertex
 10
-5.923945830215189
 20
266.2434970989923
 30
0.0
  0
SEQEND
  5
AC
330
A9
100
AcDbEntity
  8
Make2D$Visibile$120
 62
    18
420
        0
370
    -3
  0
SPLINE
  5
AD
330
1F
100
AcDbEntity
  8
Make2D$Visibile$120
 62
    18
420
        0
370
    -3
100
AcDbSpline
210
0.0
220
0.0
230
1.0
 70
     8
 71
     3
 72
     8
 73
     4
 74
     0
 42
0.0000000001
 43
0.0000000001
 40
0.0000000000004472
 40
0.0000000000004472
 40
0.0000000000004472
 40
0.0000000000004472
 40
0.8757777130318507
 40
0.8757777130318507
 40
0.8757777130318507
 40
0.8757777130318507
 10
-2.53059650398086
 20
272.2434970989921
 30
0.0
 10
-2.265676446170119
 20
272.2434970989921
 30
0.0
 10
-2.030596503981769
 20
272.0196394739073
 30
0.0
 10
-2.022636136553274
 20
271.7353377563456
 30
0.0
  0
SPLINE
  5
AE
330
1F
100
AcDbEntity
  8
Make2D$Visibile$120
 62
    18
420
        0
370
    -3
100
AcDbSpline
210
0.0
220
0.0
230
1.0
 70
     8
 71
     3
 72
    10
 73
     6
 74
     0
 42
0.0000000001
 43
0.0000000001
 40
0.0
 40
0.0
 40
0.0
 40
0.0
 40
0.4765030387786287
 40
0.4765030387786287
 40
0.8154045476079078
 40
0.8154045476079078
 40
0.8154045476079078
 40
0.8154045476079078
 10
-32.21434676371678
 20
271.7345641953148
 30
0.0
 10
-32.22244989014803
 20
271.8758895481583
 30
0.0
 10
-32.16992453910939
 20
272.0031292312174
 30
0.0
 10
-32.00920400858172
 20
272.163849761745
 30
0.0
 10
-31.80472744343592
 20
272.2434970989921
 30
0.0
 10
-31.72244989014803
 20
272.2434970989921
 30
0.0
  0
SPLINE
  5
AF
330
1F
100
AcDbEntity
  8
Make2D$Visibile$120
 62
    18
420
        0
370
    -3
100
AcDbSpline
210
0.0
220
0.0
230
1.0
 70
    12
 71
     2
 72
    14
 73
    11
 74
     0
 42
0.0000000001
 43
0.0000000001
 40
91.9918534771675
 40
91.9918534771675
 40
91.9918534771675
 40
95.60544213050464
 40
95.60544213050464
 40
99.21903078384179
 40
99.21903078384179
 40
102.8326194371789
 40
102.8326194371789
 40
106.4462080905161
 40
106.4462080905161
 40
109.3317365225952
 40
109.3317365225952
 40
109.3317365225952
 10
-4.029434845077276
 20
570.1626478618919
 30
0.0
 41
1.0
 10
-3.071639025403971
 20
568.5147600981059
 30
0.0
 41
0.9237122405613439
 10
-3.561217591672403
 20
566.6726906905699
 30
0.0
 41
1.0
 10
-4.050796157941345
 20
564.8306212830338
 30
0.0
 41
0.9237122405613439
 10
-5.700355335946597
 20
563.8757069483754
 30
0.0
 41
1.0
 10
-7.3499145139518
 20
562.9207926137165
 30
0.0
 41
0.9237122405613439
 10
-9.191125478443837
 20
563.413589825582
 30
0.0
 41
1.0
 10
-11.03233644293669
 20
563.9063870374472
 30
0.0
 41
0.9237122405613439
 10
-11.98436640291607
 20
565.5576126033241
 30
0.0
 41
1.0
 10
-12.72965683799701
 20
566.8502551686189
 30
0.0
 41
0.9511280869761036
 10
-12.57350076441276
 20
568.3341682101809
 30
0.0
 41
1.0
  0
SPLINE
  5
B0
330
1F
100
AcDbEntity
  8
Make2D$Visibile$120
 62
    18
420
        0
370
    -3
100
AcDbSpline
210
0.0
220
0.0
230
1.0
 70
    12
 71
     2
 72
     6
 73
     3
 74
     0
 42
0.0000000001
 43
0.0000000001
 40
68.25762655094888
 40
68.25762655094888
 40
68.25762655094888
 40
87.8628216461583
 40
87.8628216461583
 40
87.8628216461583
 10
-4.048654291880894
 20
591.2176364808256
 30
0.0
 41
1.0
 10
1.686334964162466
 20
581.2951410790905
 30
0.0
 41
0.7964727156142997
 10
-6.329938786643879
 20
573.1045750475632
 30
0.0
 41
1.0
  0
SPLINE
  5
B1
330
1F
100
AcDbEntity
  8
Make2D$Visibile$120
 62
    18
420
        0
370
    -3
100
AcDbSpline
210
0.0
220
0.0
230
1.0
 70
    12
 71
     2
 72
     8
 73
     5
 74
     0
 42
0.0000000001
 43
0.0000000001
 40
20.84868810233125
 40
20.84868810233125
 40
20.84868810233125
 40
44.55315732664006
 40
44.55315732664006
 40
68.25762655094888
 40
68.25762655094888
 40
68.25762655094888
 10
-30.19636514403805
 20
576.1233876271147
 30
0.0
 41
1.0
 10
-37.73251528156536
 20
589.1943002280037
 30
0.0
 41
0.7072949955416059
 10
-24.66561695226505
 20
596.7374085422955
 30
0.0
 41
1.0
 10
-11.59871862296381
 20
604.2805168565873
 30
0.0
 41
0.7072949955416059
 10
-4.048654291880894
 20
591.2176364808256
 30
0.0
 41
1.0
  0
SPLINE
  5
B2
330
1F
100
AcDbEntity
  8
Make2D$Visibile$120
 62
    18
420
        0
370
    -3
100
AcDbSpline
210
0.0
220
0.0
230
1.0
 70
    12
 71
     2
 72
     6
 73
     3
 74
     0
 42
0.0000000001
 43
0.0000000001
 40
109.3317365225952
 40
109.3317365225952
 40
109.3317365225952
 40
109.7585118853458
 40
109.7585118853458
 40
109.7585118853458
 10
-12.57751366601155
 20
568.3411279207182
 30
0.0
 41
1.0
 10
-12.5534181224673
 20
568.5570680427253
 30
0.0
 41
0.9472648515964248
 10
-12.66537007384727
 20
568.7432869752502
 30
0.0
 41
1.0
  0
SPLINE
  5
B3
330
1F
100
AcDbEntity
  8
Make2D$Visibile$120
 62
    18
420
        0
370
    -3
100
AcDbSpline
210
0.0
220
0.0
230
1.0
 70
    12
 71
     2
 72
     6
 73
     3
 74
     0
 42
0.0000000001
 43
0.0000000001
 40
-92.23145942038875
 40
-92.23145942038875
 40
-92.23145942038875
 40
-91.97999908378684
 40
-91.97999908378684
 40
-91.97999908378684
 10
-3.907714892541585
 20
569.9396250388394
 30
0.0
 41
0.955861340355815
 10
-3.965412239119873
 20
570.0528624573745
 30
0.0
 41
0.953104494364996
 10
-4.029279342041652
 20
570.1627382505762
 30
0.0
 41
0.9510823270217128
  0
SPLINE
  5
B4
330
1F
100
AcDbEntity
  8
Make2D$Visibile$120
 62
    18
420
        0
370
    -3
100
AcDbSpline
210
0.0
220
0.0
230
1.0
 70
    12
 71
     2
 72
     6
 73
     3
 74
     0
 42
0.0000000001
 43
0.0000000001
 40
-21.66589306032954
 40
-21.66589306032954
 40
-21.66589306032954
 40
-20.84868810233125
 40
-20.84868810233125
 40
-20.84868810233125
 10
-30.56877247488296
 20
576.8101479424416
 30
0.0
 41
0.9860757641187485
 10
-30.39134661277481
 20
576.4619300815199
 30
0.0
 41
0.9926808690042677
 10
-30.19614059386208
 20
576.1233592242766
 30
0.0
 41
1.0
  0
SPLINE
  5
B5
330
1F
100
AcDbEntity
  8
Make2D$Visibile$120
 62
    18
420
        0
370
    -3
100
AcDbSpline
210
0.0
220
0.0
230
1.0
 70
    12
 71
     2
 72
     6
 73
     3
 74
     0
 42
0.0000000001
 43
0.0000000001
 40
89.12238936289822
 40
89.12238936289822
 40
89.12238936289822
 40
91.9918534771675
 40
91.9918534771675
 40
91.9918534771675
 10
-6.129138718534932
 20
572.0497241389755
 30
0.0
 41
1.0
 10
-4.774776133452665
 20
571.4450075921495
 30
0.0
 41
0.9516663173855471
 10
-4.029434845077276
 20
570.1626478618919
 30
0.0
 41
1.0
  0
SPLINE
  5
B6
330
1F
100
AcDbEntity
  8
Make2D$Visibile$120
 62
    18
420
        0
370
    -3
100
AcDbSpline
210
0.0
220
0.0
230
1.0
 70
    12
 71
     2
 72
     6
 73
     3
 74
     0
 42
0.0000000001
 43
0.0000000001
 40
88.71971159280422
 40
88.71971159280422
 40
88.71971159280422
 40
89.12238936289822
 40
89.12238936289822
 40
89.12238936289822
 10
-6.42910627571132
 20
572.3203159447792
 30
0.0
 41
1.0
 10
-6.323032035796389
 20
572.1414592938108
 30
0.0
 41
0.9530062462683582
 10
-6.133151620133276
 20
572.0566838495126
 30
0.0
 41
1.0
  0
SPLINE
  5
B7
330
1F
100
AcDbEntity
  8
Make2D$Visibile$120
 62
    18
420
        0
370
    -3
100
AcDbSpline
210
0.0
220
0.0
230
1.0
 70
    12
 71
     2
 72
     6
 73
     3
 74
     0
 42
0.0000000001
 43
0.0000000001
 40
110.5913042393352
 40
110.5913042393352
 40
110.5913042393352
 40
130.1804246249264
 40
130.1804246249264
 40
130.1804246249264
 10
-13.38579531510663
 20
569.0364563772564
 30
0.0
 41
1.0
 10
-24.47827264434608
 20
566.2057617147931
 30
0.0
 41
0.7967945443744938
 10
-30.19636514403805
 20
576.1233876271147
 30
0.0
 41
1.0
  0
SPLINE
  5
B8
330
1F
100
AcDbEntity
  8
Make2D$Visibile$120
 62
    18
420
        0
370
    -3
100
AcDbSpline
210
0.0
220
0.0
230
1.0
 70
    12
 71
     2
 72
     6
 73
     3
 74
     0
 42
0.0000000001
 43
0.0000000001
 40
109.7585118853458
 40
109.7585118853458
 40
109.7585118853458
 40
110.5913042393352
 40
110.5913042393352
 40
110.5913042393352
 10
-12.66537007384727
 20
568.7432869752502
 30
0.0
 41
1.0
 10
-12.91666300673101
 20
569.161100056341
 30
0.0
 41
0.8041537229578711
 10
-13.38980821670543
 20
569.0434160877937
 30
0.0
 41
1.0
  0
SPLINE
  5
B9
330
1F
100
AcDbEntity
  8
Make2D$Visibile$120
 62
    18
420
        0
370
    -3
100
AcDbSpline
210
0.0
220
0.0
230
1.0
 70
    12
 71
     2
 72
     6
 73
     3
 74
     0
 42
0.0000000001
 43
0.0000000001
 40
87.8628216461583
 40
87.8628216461583
 40
87.8628216461583
 40
88.71167825577007
 40
88.71167825577007
 40
88.71167825577007
 10
-6.333951688242223
 20
573.1115347581006
 30
0.0
 41
1.0
 10
-6.680938492506102
 20
572.7570106207696
 30
0.0
 41
0.7967945443744605
 10
-6.433161565886849
 20
572.3272504540319
 30
0.0
 41
1.0
  0
SPLINE
  5
BA
330
1F
100
AcDbEntity
  8
Make2D$Visibile$120
 62
    18
420
        0
370
    -3
100
AcDbSpline
210
0.0
220
0.0
230
1.0
 70
    28
 71
     2
 72
    12
 73
     9
 74
     0
 42
0.0000000001
 43
0.0000000001
 40
34.2338764905985
 40
34.2338764905985
 40
34.2338764905985
 40
46.60921865488906
 40
46.60921865488906
 40
58.98456081917962
 40
58.98456081917962
 40
71.35990298347019
 40
71.35990298347019
 40
80.05650502477954
 40
80.05650502477954
 40
80.05650502477954
 10
281.8950641164208
 20
598.2875454906118
 30
0.0
 41
1.0
 10
281.8950641164211
 20
598.2875454906119
 30
0.0
 41
0.9114788343427629
 10
281.8950641164208
 20
593.3480989805591
 30
0.0
 41
1.0
 10
281.8950641164211
 20
588.4086524705061
 30
0.0
 41
0.9114788343427629
 10
281.8950641164208
 20
581.8729020049918
 30
0.0
 41
1.0
 10
281.8950641164211
 20
575.3371515394772
 30
0.0
 41
0.9114788343427629
 10
281.8950641164208
 20
571.6286586375875
 30
0.0
 41
1.0
 10
281.8950641164211
 20
569.0956921044443
 30
0.0
 41
0.9377929644502929
 10
281.8950641164207
 20
569.0956921044444
 30
0.0
 41
0.963016211661806
  0
SPLINE
  5
BB
330
1F
100
AcDbEntity
  8
Make2D$Visibile$120
 62
    18
420
        0
370
    -3
100
AcDbSpline
210
0.0
220
0.0
230
1.0
 70
    12
 71
     2
 72
     6
 73
     3
 74
     0
 42
0.0000000001
 43
0.0000000001
 40
-114.3631206477063
 40
-114.3631206477063
 40
-114.3631206477063
 40
-110.5913042393352
 40
-110.5913042393352
 40
-110.5913042393352
 10
287.3947130413951
 20
568.5818126104764
 30
0.0
 41
1.0
 10
287.3946085941674
 20
568.5818126110707
 30
0.0
 41
0.9922065274311306
 10
287.394518278006
 20
569.0505753585005
 30
0.0
 41
1.0
  0
SPLINE
  5
BC
330
1F
100
AcDbEntity
  8
Make2D$Visibile$120
 62
    18
420
        0
370
    -3
100
AcDbSpline
210
0.0
220
0.0
230
1.0
 70
    28
 71
     2
 72
     6
 73
     3
 74
     0
 42
0.0000000001
 43
0.0000000001
 40
0.0
 40
0.0
 40
0.0
 40
4.991818739009182
 40
4.991818739009182
 40
4.991818739009182
 10
287.3947130413952
 20
568.5818126104762
 30
0.0
 41
0.9351180323093579
 10
284.8988036744562
 20
568.5818268118953
 30
0.0
 41
0.9351180323093579
 10
282.4028943075174
 20
568.5818410133145
 30
0.0
 41
0.9351180323093579
  0
SPLINE
  5
BD
330
1F
100
AcDbEntity
  8
Make2D$Visibile$120
 62
    18
420
        0
370
    -3
100
AcDbSpline
210
0.0
220
0.0
230
1.0
 70
    12
 71
     2
 72
     8
 73
     5
 74
     0
 42
0.0000000001
 43
0.0000000001
 40
-52.4563999432405
 40
-52.4563999432405
 40
-52.4563999432405
 40
-36.65254402278588
 40
-36.65254402278588
 40
-20.84868810233125
 40
-20.84868810233125
 40
-20.84868810233125
 10
287.3951495592289
 20
598.7735255487992
 30
0.0
 41
1.0
 10
287.395541484072
 20
598.773525546569
 30
0.0
 41
0.8660996166080557
 10
287.3956946225514
 20
591.2294789079942
 30
0.0
 41
1.0
 10
287.3958477610313
 20
583.6854322694194
 30
0.0
 41
0.8660996166080557
 10
287.3956090534082
 20
576.137506608359
 30
0.0
 41
1.0
  0
SPLINE
  5
BE
330
1F
100
AcDbEntity
  8
Make2D$Visibile$120
 62
    18
420
        0
370
    -3
100
AcDbSpline
210
0.0
220
0.0
230
1.0
 70
    12
 71
     2
 72
     6
 73
     3
 74
     0
 42
0.0000000001
 43
0.0000000001
 40
-130.1804246249264
 40
-130.1804246249264
 40
-130.1804246249264
 40
-114.3631206477063
 40
-114.3631206477063
 40
-114.3631206477063
 10
287.3956090534082
 20
576.1375066083588
 30
0.0
 41
1.0
 10
287.3951935525649
 20
568.581812607742
 30
0.0
 41
0.865876876815295
 10
287.3947130413951
 20
568.5818126104764
 30
0.0
 41
1.0
  0
SPLINE
  5
BF
330
1F
100
AcDbEntity
  8
Make2D$Visibile$120
 62
    18
420
        0
370
    -3
100
AcDbSpline
210
0.0
220
0.0
230
1.0
 70
    28
 71
     2
 72
     8
 73
     5
 74
     0
 42
0.0000000001
 43
0.0000000001
 40
34.23387649059853
 40
34.23387649059853
 40
34.23387649059853
 40
57.16110452626248
 40
57.16110452626248
 40
80.08833256192644
 40
80.08833256192644
 40
80.08833256192644
 10
1413.895064116313
 20
598.2875454906118
 30
0.0
 41
1.0
 10
1413.895064116313
 20
598.287545490612
 30
0.0
 41
0.7071067811865407
 10
1413.895064116313
 20
583.691618797528
 30
0.0
 41
1.0
 10
1413.895064116313
 20
569.0956921044439
 30
0.0
 41
0.7071067811865407
 10
1413.895064116313
 20
569.0956921044442
 30
0.0
 41
1.0
  0
SPLINE
  5
C0
330
1F
100
AcDbEntity
  8
Make2D$Visibile$120
 62
    18
420
        0
370
    -3
100
AcDbSpline
210
0.0
220
0.0
230
1.0
 70
    12
 71
     2
 72
     6
 73
     3
 74
     0
 42
0.0000000001
 43
0.0000000001
 40
0.000000000000087
 40
0.000000000000087
 40
0.000000000000087
 40
0.8688894626120858
 40
0.8688894626120858
 40
0.8688894626120858
 10
1413.895064116313
 20
569.0956921044443
 30
0.0
 41
0.8684154364028784
 10
1413.895064116312
 20
568.5956921044444
 30
0.0
 41
0.6140624439676117
 10
1413.395064116313
 20
568.5956921044443
 30
0.0
 41
0.8684154364029293
  0
SPLINE
  5
C1
330
1F
100
AcDbEntity
  8
Make2D$Visibile$120
 62
    18
420
        0
370
    -3
100
AcDbSpline
210
0.0
220
0.0
230
1.0
 70
    12
 71
     2
 72
     6
 73
     3
 74
     0
 42
0.0000000001
 43
0.0000000001
 40
-114.3631206477063
 40
-114.3631206477063
 40
-114.3631206477063
 40
-110.5913042393352
 40
-110.5913042393352
 40
-110.5913042393352
 10
1408.395415191339
 20
568.5818126104764
 30
0.0
 41
1.0
 10
1408.395519638566
 20
568.5818126110707
 30
0.0
 41
0.9922065274311306
 10
1408.395609954728
 20
569.0505753585005
 30
0.0
 41
1.0
  0
SPLINE
  5
C2
330
1F
100
AcDbEntity
  8
Make2D$Visibile$120
 62
    18
420
        0
370
    -3
100
AcDbSpline
210
0.0
220
0.0
230
1.0
 70
    28
 71
     2
 72
     6
 73
     3
 74
     0
 42
0.0000000001
 43
0.0000000001
 40
0.0
 40
0.0
 40
0.0
 40
4.991818739009068
 40
4.991818739009068
 40
4.991818739009068
 10
1413.387233925217
 20
568.5818410133145
 30
0.0
 41
0.9351180323093579
 10
1410.891324558278
 20
568.5818268118953
 30
0.0
 41
0.9351180323093579
 10
1408.395415191339
 20
568.5818126104762
 30
0.0
 41
0.9351180323093579
  0
SPLINE
  5
C3
330
1F
100
AcDbEntity
  8
Make2D$Visibile$120
 62
    18
420
        0
370
    -3
100
AcDbSpline
210
0.0
220
0.0
230
1.0
 70
    12
 71
     2
 72
     8
 73
     5
 74
     0
 42
0.0000000001
 43
0.0000000001
 40
-52.4563999432405
 40
-52.4563999432405
 40
-52.4563999432405
 40
-36.65254402278588
 40
-36.65254402278588
 40
-20.84868810233125
 40
-20.84868810233125
 40
-20.84868810233125
 10
1408.394978673506
 20
598.7735255487992
 30
0.0
 41
1.0
 10
1408.394586748661
 20
598.773525546569
 30
0.0
 41
0.8660996166080557
 10
1408.394433610182
 20
591.2294789079942
 30
0.0
 41
1.0
 10
1408.394280471702
 20
583.6854322694194
 30
0.0
 41
0.8660996166080557
 10
1408.394519179325
 20
576.137506608359
 30
0.0
 41
1.0
  0
SPLINE
  5
C4
330
1F
100
AcDbEntity
  8
Make2D$Visibile$120
 62
    18
420
        0
370
    -3
100
AcDbSpline
210
0.0
220
0.0
230
1.0
 70
    28
 71
     2
 72
     6
 73
     3
 74
     0
 42
0.0000000001
 43
0.0000000001
 40
1.497582456986769
 40
1.497582456986769
 40
1.497582456986769
 40
1.711678319847061
 40
1.711678319847061
 40
1.711678319847061
 10
1413.895064116313
 20
569.0071392680225
 30
0.0
 41
1.0
 10
1413.895064116312
 20
568.9145804564337
 30
0.0
 41
0.985559748504349
 10
1413.895064116312
 20
568.8137977893115
 30
0.0
 41
0.979652859030181
  0
SPLINE
  5
C5
330
1F
100
AcDbEntity
  8
Make2D$Visibile$120
 62
    18
420
        0
370
    -3
100
AcDbSpline
210
0.0
220
0.0
230
1.0
 70
    12
 71
     2
 72
     6
 73
     3
 74
     0
 42
0.0000000001
 43
0.0000000001
 40
-130.1804246249264
 40
-130.1804246249264
 40
-130.1804246249264
 40
-114.3631206477063
 40
-114.3631206477063
 40
-114.3631206477063
 10
1408.394519179325
 20
576.1375066083588
 30
0.0
 41
1.0
 10
1408.394934680168
 20
568.581812607742
 30
0.0
 41
0.865876876815295
 10
1408.395415191339
 20
568.5818126104764
 30
0.0
 41
1.0
  0
SPLINE
  5
C6
330
1F
100
AcDbEntity
  8
Make2D$Visibile$120
 62
    18
420
        0
370
    -3
100
AcDbSpline
210
0.0
220
0.0
230
1.0
 70
    28
 71
     3
 72
    14
 73
    10
 74
     0
 42
0.0000000001
 43
0.0000000001
 40
-89.18059539812216
 40
-89.18059539812216
 40
-89.18059539812216
 40
-89.18059539812216
 40
-70.70358078184847
 40
-70.70358078184847
 40
-70.70358078184847
 40
-52.22656616557479
 40
-52.22656616557479
 40
-52.22656616557479
 40
-44.32949141213119
 40
-44.32949141213119
 40
-44.32949141213119
 40
-44.32949141213119
 10
287.8950641164208
 20
568.8869820284651
 30
0.0
 41
1.0
 10
287.8950641164213
 20
569.8993706149837
 30
0.0
 41
0.8775023813667072
 10
287.8950641164213
 20
574.4836801841062
 30
0.0
 41
0.8775023813667072
 10
287.8950641164208
 20
580.9552097199469
 30
0.0
 41
1.0
 10
287.8950641164213
 20
587.4267392557875
 30
0.0
 41
0.8775023813667072
 10
287.8950641164213
 20
593.40724788718
 30
0.0
 41
0.8775023813667072
 10
287.8950641164208
 20
596.6989414174395
 30
0.0
 41
1.0
 10
287.8950641164213
 20
598.0016782308917
 30
0.0
 41
0.9476445263720298
 10
287.8950641164212
 20
598.708560360673
 30
0.0
 41
0.9176657785073155
 10
287.8950641164211
 20
598.7085603606731
 30
0.0
 41
0.9100637564058569
  0
SPLINE
  5
C7
330
1F
100
AcDbEntity
  8
Make2D$Visibile$120
 62
    18
420
        0
370
    -3
100
AcDbSpline
210
0.0
220
0.0
230
1.0
 70
    28
 71
     3
 72
    14
 73
    10
 74
     0
 42
0.0000000001
 43
0.0000000001
 40
-89.18059539812216
 40
-89.18059539812216
 40
-89.18059539812216
 40
-89.18059539812216
 40
-70.70358078184847
 40
-70.70358078184847
 40
-70.70358078184847
 40
-52.22656616557479
 40
-52.22656616557479
 40
-52.22656616557479
 40
-44.32949141213125
 40
-44.32949141213125
 40
-44.32949141213125
 40
-44.32949141213125
 10
1407.895064116313
 20
568.8869820284651
 30
0.0
 41
1.0
 10
1407.895064116313
 20
569.8993706149837
 30
0.0
 41
0.8775023813667072
 10
1407.895064116313
 20
574.4836801841062
 30
0.0
 41
0.8775023813667072
 10
1407.895064116313
 20
580.9552097199469
 30
0.0
 41
1.0
 10
1407.895064116313
 20
587.4267392557875
 30
0.0
 41
0.8775023813667072
 10
1407.895064116313
 20
593.40724788718
 30
0.0
 41
0.8775023813667072
 10
1407.895064116313
 20
596.6989414174395
 30
0.0
 41
1.0
 10
1407.895064116312
 20
598.0016782308916
 30
0.0
 41
0.9476445263720301
 10
1407.895064116312
 20
598.7085603606729
 30
0.0
 41
0.9176657785073159
 10
1407.895064116312
 20
598.708560360673
 30
0.0
 41
0.9100637564058571
  0
SPLINE
  5
C8
330
1F
100
AcDbEntity
  8
Make2D$Visibile$120
 62
    18
420
        0
370
    -3
100
AcDbSpline
210
0.0
220
0.0
230
1.0
 70
    28
 71
     3
 72
     8
 73
     4
 74
     0
 42
0.0000000001
 43
0.0000000001
 40
-89.95803854540512
 40
-89.95803854540512
 40
-89.95803854540512
 40
-89.95803854540512
 40
-89.18059539812216
 40
-89.18059539812216
 40
-89.18059539812216
 40
-89.18059539812216
 10
1407.895064116313
 20
568.7818032487271
 30
0.0
 41
1.0
 10
1407.895064116313
 20
568.816862841973
 30
0.0
 41
1.0
 10
1407.895064116313
 20
568.851922435219
 30
0.0
 41
1.0
 10
1407.895064116313
 20
568.8869820284651
 30
0.0
 41
1.0
  0
SPLINE
  5
C9
330
1F
100
AcDbEntity
  8
Make2D$Visibile$120
 62
    18
420
        0
370
    -3
100
AcDbSpline
210
0.0
220
0.0
230
1.0
 70
    28
 71
     3
 72
    14
 73
    10
 74
     0
 42
0.0000000001
 43
0.0000000001
 40
-94.88535769862463
 40
-94.88535769862463
 40
-94.88535769862463
 40
-94.88535769862463
 40
-86.98019213994996
 40
-86.98019213994996
 40
-86.98019213994996
 40
-68.50317752367627
 40
-68.50317752367627
 40
-68.50317752367627
 40
-50.02616290740258
 40
-50.02616290740258
 40
-50.02616290740258
 40
-50.02616290740258
 10
287.8950641164213
 20
500.0165647797582
 30
0.0
 41
0.9100404613269945
 10
287.8950641164207
 20
500.0165647797577
 30
0.0
 41
0.917604373626635
 10
287.8950641164209
 20
500.7249543271332
 30
0.0
 41
0.9475908865176368
 10
287.8950641164208
 20
502.0303552173498
 30
0.0
 41
1.0
 10
287.8950641164213
 20
505.3252178164587
 30
0.0
 41
0.8775023813667072
 10
287.8950641164213
 20
511.3072555481991
 30
0.0
 41
0.8775023813667072
 10
287.8950641164208
 20
517.7781122824329
 30
0.0
 41
1.0
 10
287.8950641164213
 20
524.2489690166664
 30
0.0
 41
0.8775023813667072
 10
287.8950641164213
 20
528.8306511320111
 30
0.0
 41
0.8775023813667072
 10
287.8950641164208
 20
529.839423183073
 30
0.0
 41
1.0
  0
SPLINE
  5
CA
330
1F
100
AcDbEntity
  8
Make2D$Visibile$120
 62
    18
420
        0
370
    -3
100
AcDbSpline
210
0.0
220
0.0
230
1.0
 70
    28
 71
     3
 72
    14
 73
    10
 74
     0
 42
0.0000000001
 43
0.0000000001
 40
-94.88535769862463
 40
-94.88535769862463
 40
-94.88535769862463
 40
-94.88535769862463
 40
-86.98019213994996
 40
-86.98019213994996
 40
-86.98019213994996
 40
-68.50317752367627
 40
-68.50317752367627
 40
-68.50317752367627
 40
-50.02616290740258
 40
-50.02616290740258
 40
-50.02616290740258
 40
-50.02616290740258
 10
1407.895064116313
 20
500.0165647797582
 30
0.0
 41
0.9100404613269945
 10
1407.895064116312
 20
500.0165647797577
 30
0.0
 41
0.917604373626635
 10
1407.895064116313
 20
500.7249543271332
 30
0.0
 41
0.9475908865176368
 10
1407.895064116313
 20
502.0303552173498
 30
0.0
 41
1.0
 10
1407.895064116313
 20
505.3252178164587
 30
0.0
 41
0.8775023813667072
 10
1407.895064116313
 20
511.3072555481991
 30
0.0
 41
0.8775023813667072
 10
1407.895064116313
 20
517.7781122824329
 30
0.0
 41
1.0
 10
1407.895064116313
 20
524.2489690166664
 30
0.0
 41
0.8775023813667072
 10
1407.895064116313
 20
528.8306511320111
 30
0.0
 41
0.8775023813667072
 10
1407.895064116313
 20
529.839423183073
 30
0.0
 41
1.0
  0
SPLINE
  5
CB
330
1F
100
AcDbEntity
  8
Make2D$Visibile$120
 62
    18
420
        0
370
    -3
100
AcDbSpline
210
0.0
220
0.0
230
1.0
 70
    28
 71
     3
 72
     8
 73
     4
 74
     0
 42
0.0000000001
 43
0.0000000001
 40
-50.02616290740258
 40
-50.02616290740258
 40
-50.02616290740258
 40
-50.02616290740258
 40
-49.24871976011963
 40
-49.24871976011963
 40
-49.24871976011963
 40
-49.24871976011963
 10
1407.895064116313
 20
529.839423183073
 30
0.0
 41
1.0
 10
1407.895064116313
 20
529.8743400270191
 30
0.0
 41
1.0
 10
1407.895064116313
 20
529.9092568709652
 30
0.0
 41
1.0
 10
1407.895064116313
 20
529.9441737149116
 30
0.0
 41
1.0
  0
SPLINE
  5
CC
330
1F
100
AcDbEntity
  8
Make2D$Visibile$120
 62
    18
420
        0
370
    -3
100
AcDbSpline
210
0.0
220
0.0
230
1.0
 70
    28
 71
     2
 72
     6
 73
     3
 74
     0
 42
0.0000000001
 43
0.0000000001
 40
1131.859856033488
 40
1131.859856033488
 40
1131.859856033488
 40
1131.999999999992
 40
1131.999999999992
 40
1131.999999999992
 10
1413.754920149802
 20
568.8415801561295
 30
0.0
 41
0.9947921649492536
 10
1413.824992133053
 20
568.8415801561296
 30
0.0
 41
0.9947921649492537
 10
1413.895064116305
 20
568.8415801561297
 30
0.0
 41
0.9947921649492537
  0
SPLINE
  5
CD
330
1F
100
AcDbEntity
  8
Make2D$Visibile$120
 62
    18
420
        0
370
    -3
100
AcDbSpline
210
0.0
220
0.0
230
1.0
 70
    28
 71
     4
 72
    10
 73
     5
 74
     0
 42
0.0000000001
 43
0.0000000001
 40
21.84602483231976
 40
21.84602483231976
 40
21.84602483231976
 40
21.84602483231976
 40
21.84602483231976
 40
40.38353686812732
 40
40.38353686812732
 40
40.38353686812732
 40
40.38353686812732
 40
40.38353686812732
 10
1413.895064116305
 20
568.7743614151409
 30
0.0
 41
1.0
 10
1413.895064116305
 20
566.4570440404984
 30
0.0
 41
1.0
 10
1413.895064116305
 20
564.1398122757516
 30
0.0
 41
1.0
 10
1413.895064116305
 20
561.8226233159526
 30
0.0
 41
1.0
 10
1413.895064116305
 20
559.5054343561537
 30
0.0
 41
1.0
  0
SPLINE
  5
CE
330
1F
100
AcDbEntity
  8
Make2D$Visibile$120
 62
    18
420
        0
370
    -3
100
AcDbSpline
210
0.0
220
0.0
230
1.0
 70
    28
 71
     4
 72
    10
 73
     5
 74
     0
 42
0.0000000001
 43
0.0000000001
 40
21.84602483231976
 40
21.84602483231976
 40
21.84602483231976
 40
21.84602483231976
 40
21.84602483231976
 40
40.38353686812732
 40
40.38353686812732
 40
40.38353686812732
 40
40.38353686812732
 40
40.38353686812732
 10
281.8950641163126
 20
568.7743614151409
 30
0.0
 41
1.0
 10
281.8950641163126
 20
566.4570440404984
 30
0.0
 41
1.0
 10
281.8950641163126
 20
564.1398122757516
 30
0.0
 41
1.0
 10
281.8950641163126
 20
561.8226233159526
 30
0.0
 41
1.0
 10
281.8950641163126
 20
559.5054343561537
 30
0.0
 41
1.0
  0
SPLINE
  5
CF
330
1F
100
AcDbEntity
  8
Make2D$Visibile$120
 62
    18
420
        0
370
    -3
100
AcDbSpline
210
0.0
220
0.0
230
1.0
 70
    28
 71
     2
 72
    12
 73
     9
 74
     0
 42
0.0000000001
 43
0.0000000001
 40
34.22521322865891
 40
34.22521322865891
 40
34.22521322865891
 40
46.60272120843437
 40
46.60272120843437
 40
58.98022918820983
 40
58.98022918820983
 40
71.35773716798529
 40
71.35773716798529
 40
80.04788555945449
 40
80.04788555945449
 40
80.04788555945449
 10
281.8950641164208
 20
500.4364734245635
 30
0.0
 41
1.0
 10
281.8950641164211
 20
500.4364734245634
 30
0.0
 41
0.9114483129891218
 10
281.8950641164208
 20
505.3775441169139
 30
0.0
 41
1.0
 10
281.8950641164211
 20
510.3186148092642
 30
0.0
 41
0.9114483129891218
 10
281.8950641164208
 20
516.855414702442
 30
0.0
 41
1.0
 10
281.8950641164211
 20
523.3922145956194
 30
0.0
 41
0.9114483129891218
 10
281.8950641164208
 20
527.0990171080778
 30
0.0
 41
1.0
 10
281.8950641164213
 20
529.6283268107318
 30
0.0
 41
0.9378285756957818
 10
281.8950641164205
 20
529.6283268107313
 30
0.0
 41
0.9629572612029169
  0
SPLINE
  5
D0
330
1F
100
AcDbEntity
  8
Make2D$Visibile$120
 62
    18
420
        0
370
    -3
100
AcDbSpline
210
0.0
220
0.0
230
1.0
 70
    12
 71
     2
 72
     6
 73
     3
 74
     0
 42
0.0000000001
 43
0.0000000001
 40
-114.372080634306
 40
-114.372080634306
 40
-114.372080634306
 40
-110.5913042393352
 40
-110.5913042393352
 40
-110.5913042393352
 10
287.3947135351034
 20
530.1422014010282
 30
0.0
 41
1.0
 10
287.3946088109711
 20
530.1422014004354
 30
0.0
 41
0.9921695049686432
 10
287.394518278006
 20
529.6712205740819
 30
0.0
 41
1.0
  0
SPLINE
  5
D1
330
1F
100
AcDbEntity
  8
Make2D$Visibile$120
 62
    18
420
        0
370
    -3
100
AcDbSpline
210
0.0
220
0.0
230
1.0
 70
    12
 71
     2
 72
     8
 73
     5
 74
     0
 42
0.0000000001
 43
0.0000000001
 40
-52.46535992983922
 40
-52.46535992983922
 40
-52.46535992983922
 40
-36.65702401608523
 40
-36.65702401608523
 40
-20.84868810233125
 40
-20.84868810233125
 40
-20.84868810233125
 10
287.39514915616
 20
499.9504884634871
 30
0.0
 41
1.0
 10
287.3955412447085
 20
499.9504884657073
 30
0.0
 41
0.8660254336876447
 10
287.3956945437801
 20
507.4984145608046
 30
0.0
 41
1.0
 10
287.3958478428528
 20
515.0463406559014
 30
0.0
 41
0.8660254336876447
 10
287.3956090534082
 20
522.5942683125234
 30
0.0
 41
1.0
  0
SPLINE
  5
D2
330
1F
100
AcDbEntity
  8
Make2D$Visibile$120
 62
    18
420
        0
370
    -3
100
AcDbSpline
210
0.0
220
0.0
230
1.0
 70
    12
 71
     2
 72
     6
 73
     3
 74
     0
 42
0.0000000001
 43
0.0000000001
 40
-130.1804246249264
 40
-130.1804246249264
 40
-130.1804246249264
 40
-114.372080634306
 40
-114.372080634306
 40
-114.372080634306
 10
287.3956090534082
 20
522.5942683125234
 30
0.0
 41
1.0
 10
287.3951938371864
 20
530.1422014037483
 30
0.0
 41
0.8660252999279153
 10
287.3947135351034
 20
530.1422014010282
 30
0.0
 41
1.0
  0
SPLINE
  5
D3
330
1F
100
AcDbEntity
  8
Make2D$Visibile$120
 62
    18
420
        0
370
    -3
100
AcDbSpline
210
0.0
220
0.0
230
1.0
 70
    28
 71
     4
 72
    10
 73
     5
 74
     0
 42
0.0000000001
 43
0.0000000001
 40
4.163493259454375
 40
4.163493259454375
 40
4.163493259454375
 40
4.163493259454375
 40
4.163493259454375
 40
4.257891645087849
 40
4.257891645087849
 40
4.257891645087849
 40
4.257891645087849
 40
4.257891645087849
 10
1413.895064116305
 20
569.1000100129446
 30
0.0
 41
0.948003984774245
 10
1413.895064116305
 20
569.0768425672835
 30
0.0
 41
0.9483371966735669
 10
1413.895064116305
 20
569.0536408131254
 30
0.0
 41
0.9486865508285819
 10
1413.895064116305
 20
569.0304059722629
 30
0.0
 41
0.94905204723929
 10
1413.895064116305
 20
569.0071392680223
 30
0.0
 41
0.9494336859056913
  0
SPLINE
  5
D4
330
1F
100
AcDbEntity
  8
Make2D$Visibile$120
 62
    18
420
        0
370
    -3
100
AcDbSpline
210
0.0
220
0.0
230
1.0
 70
    28
 71
     2
 72
     6
 73
     3
 74
     0
 42
0.0000000001
 43
0.0000000001
 40
1.497582456986769
 40
1.497582456986769
 40
1.497582456986769
 40
1.593276114002996
 40
1.593276114002996
 40
1.593276114002996
 10
281.8950641164208
 20
569.0071392680225
 30
0.0
 41
1.0
 10
281.8950641164217
 20
568.966101119432
 30
0.0
 41
0.993545692778031
 10
281.8950641164209
 20
568.9232618970699
 30
0.0
 41
0.9887961717671192
  0
SPLINE
  5
D5
330
1F
100
AcDbEntity
  8
Make2D$Visibile$120
 62
    18
420
        0
370
    -3
100
AcDbSpline
210
0.0
220
0.0
230
1.0
 70
    28
 71
     2
 72
     6
 73
     3
 74
     0
 42
0.0000000001
 43
0.0000000001
 40
0.0008177222174258
 40
0.0008177222174258
 40
0.0008177222174258
 40
4.991818739009296
 40
4.991818739009296
 40
4.991818739009296
 10
282.4041485475666
 20
598.7735539469845
 30
0.0
 41
0.9688918706028972
 10
284.8996490533974
 20
598.7735397478918
 30
0.0
 41
0.9688918706028972
 10
287.3951495592281
 20
598.7735255487993
 30
0.0
 41
0.9688918706028972
  0
SPLINE
  5
D6
330
1F
100
AcDbEntity
  8
Make2D$Visibile$120
 62
    18
420
        0
370
    -3
100
AcDbSpline
210
0.0
220
0.0
230
1.0
 70
    12
 71
     2
 72
     6
 73
     3
 74
     0
 42
0.0000000001
 43
0.0000000001
 40
1.968702452739907
 40
1.968702452739907
 40
1.968702452739907
 40
2.185733790370675
 40
2.185733790370675
 40
2.185733790370675
 10
1413.752117652614
 20
568.8323100926051
 30
0.0
 41
0.9963400258051637
 10
1413.82951819787
 20
568.8717476402177
 30
0.0
 41
0.9558655830687184
 10
1413.86641020535
 20
568.9238091154266
 30
0.0
 41
0.9618781409066772
  0
SPLINE
  5
D7
330
1F
100
AcDbEntity
  8
Make2D$Visibile$120
 62
    18
420
        0
370
    -3
100
AcDbSpline
210
0.0
220
0.0
230
1.0
 70
     8
 71
     3
 72
    10
 73
     6
 74
     0
 42
0.0000000001
 43
0.0000000001
 40
0.0
 40
0.0
 40
0.0
 40
0.0
 40
0.4809075271493092
 40
0.4809075271493092
 40
0.8156018844037409
 40
0.8156018844037409
 40
0.8156018844037409
 40
0.8156018844037409
 10
1413.395064116313
 20
598.7875454906107
 30
0.0
 10
1413.52745656548
 20
598.7875454906107
 30
0.0
 10
1413.654696248538
 20
598.7350201395725
 30
0.0
 10
1413.813983327625
 20
598.5757330604847
 30
0.0
 10
1413.895064116313
 20
598.3671743710056
 30
0.0
 10
1413.895064116313
 20
598.2875454906111
 30
0.0
  0
SPLINE
  5
D8
330
1F
100
AcDbEntity
  8
Make2D$Visibile$120
 62
    18
420
        0
370
    -3
100
AcDbSpline
210
0.0
220
0.0
230
1.0
 70
    28
 71
     2
 72
     6
 73
     3
 74
     0
 42
0.0000000001
 43
0.0000000001
 40
0.0
 40
0.0
 40
0.0
 40
4.991001016791738
 40
4.991001016791738
 40
4.991001016791738
 10
1408.394978673504
 20
598.7735255487993
 30
0.0
 41
0.9688918706028972
 10
1410.890479179335
 20
598.7735397478918
 30
0.0
 41
0.9688918706028972
 10
1413.385979685166
 20
598.7735539469845
 30
0.0
 41
0.9688918706028972
  0
SPLINE
  5
D9
330
1F
100
AcDbEntity
  8
Make2D$Visibile$120
 62
    18
420
        0
370
    -3
100
AcDbSpline
210
0.0
220
0.0
230
1.0
 70
    28
 71
     3
 72
     8
 73
     4
 74
     0
 42
0.0000000001
 43
0.0000000001
 40
-89.95803854540512
 40
-89.95803854540512
 40
-89.95803854540512
 40
-89.95803854540512
 40
-89.18059539812216
 40
-89.18059539812216
 40
-89.18059539812216
 40
-89.18059539812216
 10
287.8950641164208
 20
568.7818032487271
 30
0.0
 41
1.0
 10
287.8950641164208
 20
568.816862841973
 30
0.0
 41
1.0
 10
287.8950641164208
 20
568.851922435219
 30
0.0
 41
1.0
 10
287.8950641164208
 20
568.8869820284651
 30
0.0
 41
1.0
  0
SPLINE
  5
DA
330
1F
100
AcDbEntity
  8
Make2D$Visibile$120
 62
    18
420
        0
370
    -3
100
AcDbSpline
210
0.0
220
0.0
230
1.0
 70
    28
 71
     3
 72
     8
 73
     4
 74
     0
 42
0.0000000001
 43
0.0000000001
 40
-50.02616290740258
 40
-50.02616290740258
 40
-50.02616290740258
 40
-50.02616290740258
 40
-49.24871976011963
 40
-49.24871976011963
 40
-49.24871976011963
 40
-49.24871976011963
 10
287.8950641164208
 20
529.839423183073
 30
0.0
 41
1.0
 10
287.8950641164208
 20
529.8743400270191
 30
0.0
 41
1.0
 10
287.8950641164208
 20
529.9092568709652
 30
0.0
 41
1.0
 10
287.8950641164208
 20
529.9441737149116
 30
0.0
 41
1.0
  0
SPLINE
  5
DB
330
1F
100
AcDbEntity
  8
Make2D$Visibile$120
 62
    18
420
        0
370
    -3
100
AcDbSpline
210
0.0
220
0.0
230
1.0
 70
    28
 71
     4
 72
    10
 73
     5
 74
     0
 42
0.0000000001
 43
0.0000000001
 40
61.01544403143603
 40
61.01544403143603
 40
61.01544403143603
 40
61.01544403143603
 40
61.01544403143603
 40
98.09124803143607
 40
98.09124803143607
 40
98.09124803143607
 40
98.09124803143607
 40
98.09124803143607
 10
1413.895064116305
 20
548.5046276968349
 30
0.0
 41
1.0
 10
1413.895064116305
 20
543.8701521968349
 30
0.0
 41
1.0
 10
1413.895064116305
 20
539.2356766968348
 30
0.0
 41
1.0
 10
1413.895064116305
 20
534.6012011829807
 30
0.0
 41
1.0
 10
1413.895064116305
 20
529.9667256414182
 30
0.0
 41
1.0
  0
SPLINE
  5
DC
330
1F
100
AcDbEntity
  8
Make2D$Visibile$120
 62
    18
420
        0
370
    -3
100
AcDbSpline
210
0.0
220
0.0
230
1.0
 70
    28
 71
     4
 72
    10
 73
     5
 74
     0
 42
0.0000000001
 43
0.0000000001
 40
61.01544403143603
 40
61.01544403143603
 40
61.01544403143603
 40
61.01544403143603
 40
61.01544403143603
 40
98.09124803143607
 40
98.09124803143607
 40
98.09124803143607
 40
98.09124803143607
 40
98.09124803143607
 10
281.8950641163126
 20
548.5046276968349
 30
0.0
 41
1.0
 10
281.8950641163126
 20
543.8701521968349
 30
0.0
 41
1.0
 10
281.8950641163126
 20
539.2356766968348
 30
0.0
 41
1.0
 10
281.8950641163126
 20
534.6012011829807
 30
0.0
 41
1.0
 10
281.8950641163126
 20
529.9667256414182
 30
0.0
 41
1.0
  0
SPLINE
  5
DD
330
1F
100
AcDbEntity
  8
Make2D$Visibile$120
 62
    18
420
        0
370
    -3
100
AcDbSpline
210
0.0
220
0.0
230
1.0
 70
    28
 71
     2
 72
    12
 73
     9
 74
     0
 42
0.0000000001
 43
0.0000000001
 40
34.22521322865916
 40
34.22521322865916
 40
34.22521322865916
 40
46.60272120843455
 40
46.60272120843455
 40
58.98022918820995
 40
58.98022918820995
 40
71.35773716798535
 40
71.35773716798535
 40
80.04788555945427
 40
80.04788555945427
 40
80.04788555945427
 10
1413.895064116313
 20
500.4364734245635
 30
0.0
 41
1.0
 10
1413.895064116312
 20
500.4364734245635
 30
0.0
 41
0.9114483129891227
 10
1413.895064116313
 20
505.3775441169141
 30
0.0
 41
1.0
 10
1413.895064116312
 20
510.3186148092645
 30
0.0
 41
0.9114483129891227
 10
1413.895064116313
 20
516.855414702442
 30
0.0
 41
1.0
 10
1413.895064116312
 20
523.3922145956194
 30
0.0
 41
0.9114483129891227
 10
1413.895064116313
 20
527.0990171080778
 30
0.0
 41
1.0
 10
1413.895064116313
 20
529.6283268107316
 30
0.0
 41
0.937828575695784
 10
1413.895064116313
 20
529.6283268107311
 30
0.0
 41
0.962957261202916
  0
SPLINE
  5
DE
330
1F
100
AcDbEntity
  8
Make2D$Visibile$120
 62
    18
420
        0
370
    -3
100
AcDbSpline
210
0.0
220
0.0
230
1.0
 70
    28
 71
     2
 72
     6
 73
     3
 74
     0
 42
0.0000000001
 43
0.0000000001
 40
0.0
 40
0.0
 40
0.0
 40
4.991818739009182
 40
4.991818739009182
 40
4.991818739009182
 10
1408.395414697631
 20
530.142201401028
 30
0.0
 41
0.9350059131345058
 10
1410.891324064569
 20
530.1421872662512
 30
0.0
 41
0.9350059131345058
 10
1413.387233431508
 20
530.1421731314745
 30
0.0
 41
0.9350059131345058
  0
SPLINE
  5
DF
330
1F
100
AcDbEntity
  8
Make2D$Visibile$120
 62
    18
420
        0
370
    -3
100
AcDbSpline
210
0.0
220
0.0
230
1.0
 70
    28
 71
     4
 72
    10
 73
     5
 74
     0
 42
0.0000000001
 43
0.0000000001
 40
115.6812321473853
 40
115.6812321473853
 40
115.6812321473853
 40
115.6812321473853
 40
115.6812321473853
 40
115.7861179457563
 40
115.7861179457563
 40
115.7861179457563
 40
115.7861179457563
 40
115.7861179457563
 10
281.8950641163124
 20
529.7314837197193
 30
0.0
 41
0.9493897345850737
 10
281.8950641163123
 20
529.7056334268668
 30
0.0
 41
0.9489672488684759
 10
281.8950641163124
 20
529.6798227262617
 30
0.0
 41
0.9485646913698341
 10
281.8950641163125
 20
529.6540532957455
 30
0.0
 41
0.9481820620891481
 10
281.8950641163127
 20
529.6283268107312
 30
0.0
 41
0.9478193610264181
  0
SPLINE
  5
E0
330
1F
100
AcDbEntity
  8
Make2D$Visibile$120
 62
    18
420
        0
370
    -3
100
AcDbSpline
210
0.0
220
0.0
230
1.0
 70
    28
 71
     4
 72
    10
 73
     5
 74
     0
 42
0.0000000001
 43
0.0000000001
 40
115.5907764124117
 40
115.5907764124117
 40
115.5907764124117
 40
115.5907764124117
 40
115.5907764124117
 40
115.7861179457564
 40
115.7861179457564
 40
115.7861179457564
 40
115.7861179457564
 40
115.7861179457564
 10
1413.895064116304
 20
529.8207483631448
 30
0.0
 41
0.9509361092226021
 10
1413.895064116305
 20
529.772446177137
 30
0.0
 41
0.9500532372691265
 10
1413.895064116304
 20
529.7242679587553
 30
0.0
 41
0.9492394885852705
 10
1413.895064116304
 20
529.676224560292
 30
0.0
 41
0.9484948631710343
 10
1413.895064116304
 20
529.628326810731
 30
0.0
 41
0.9478193610264176
  0
SPLINE
  5
E1
330
1F
100
AcDbEntity
  8
Make2D$Visibile$120
 62
    18
420
        0
370
    -3
100
AcDbSpline
210
0.0
220
0.0
230
1.0
 70
    28
 71
     2
 72
     6
 73
     3
 74
     0
 42
0.0000000001
 43
0.0000000001
 40
5.485575229607511
 40
5.485575229607511
 40
5.485575229607511
 40
5.999933638339546
 40
5.999933638339546
 40
5.999933638339546
 10
1408.409488886697
 20
506.8527041006195
 30
0.0
 41
0.9330127003229862
 10
1408.152309682332
 20
506.8527041006196
 30
0.0
 41
0.9330127003229862
 10
1407.895130477966
 20
506.8527041006197
 30
0.0
 41
0.9330127003229861
  0
SPLINE
  5
E2
330
1F
100
AcDbEntity
  8
Make2D$Visibile$120
 62
    18
420
        0
370
    -3
100
AcDbSpline
210
0.0
220
0.0
230
1.0
 70
    28
 71
     2
 72
     6
 73
     3
 74
     0
 42
0.0000000001
 43
0.0000000001
 40
5.499803544549645
 40
5.499803544549645
 40
5.499803544549645
 40
5.99999999999199
 40
5.99999999999199
 40
5.99999999999199
 10
1408.395260571755
 20
529.8997382697579
 30
0.0
 41
0.994808032636663
 10
1408.145162344034
 20
529.8997382697579
 30
0.0
 41
0.994808032636663
 10
1407.895064116313
 20
529.8997382697579
 30
0.0
 41
0.994808032636663
  0
SPLINE
  5
E3
330
1F
100
AcDbEntity
  8
Make2D$Visibile$120
 62
    18
420
        0
370
    -3
100
AcDbSpline
210
0.0
220
0.0
230
1.0
 70
    28
 71
     2
 72
     6
 73
     3
 74
     0
 42
0.0000000001
 43
0.0000000001
 40
5.500283663910174
 40
5.500283663910174
 40
5.500283663910174
 40
6.000000000108448
 40
6.000000000108448
 40
6.000000000108448
 10
287.3953477802231
 20
526.4094559991277
 30
0.0
 41
1.0
 10
287.645205948322
 20
526.4094559991277
 30
0.0
 41
1.0
 10
287.8950641164208
 20
526.4094559991277
 30
0.0
 41
1.0
  0
SPLINE
  5
E4
330
1F
100
AcDbEntity
  8
Make2D$Visibile$120
 62
    18
420
        0
370
    -3
100
AcDbSpline
210
0.0
220
0.0
230
1.0
 70
    28
 71
     2
 72
     6
 73
     3
 74
     0
 42
0.0000000001
 43
0.0000000001
 40
0.0
 40
0.0
 40
0.0
 40
1119.999999999892
 40
1119.999999999892
 40
1119.999999999892
 10
1407.895064116312
 20
568.7025544771667
 30
0.0
 41
0.993562531836653
 10
847.8950641163669
 20
568.7025544771667
 30
0.0
 41
0.993562531836653
 10
287.8950641164216
 20
568.7025544771667
 30
0.0
 41
0.993562531836653
  0
SPLINE
  5
E5
330
1F
100
AcDbEntity
  8
Make2D$Visibile$120
 62
    18
420
        0
370
    -3
100
AcDbSpline
210
0.0
220
0.0
230
1.0
 70
    28
 71
     2
 72
     6
 73
     3
 74
     0
 42
0.0000000001
 43
0.0000000001
 40
0.0
 40
0.0
 40
0.0
 40
1119.999999999892
 40
1119.999999999892
 40
1119.999999999892
 10
287.8950641164207
 20
530.0225687334885
 30
0.0
 41
0.9935830520539395
 10
847.8950641163665
 20
530.0225687334885
 30
0.0
 41
0.9935830520539395
 10
1407.895064116312
 20
530.0225687334885
 30
0.0
 41
0.9935830520539395
  0
SPLINE
  5
E6
330
1F
100
AcDbEntity
  8
Make2D$Visibile$120
 62
    18
420
        0
370
    -3
100
AcDbSpline
210
0.0
220
0.0
230
1.0
 70
    28
 71
     2
 72
     6
 73
     3
 74
     0
 42
0.0000000001
 43
0.0000000001
 40
1126.001406674523
 40
1126.001406674523
 40
1126.001406674523
 40
1126.515765200902
 40
1126.515765200902
 40
1126.515765200902
 10
1407.896470790835
 20
591.8888702034878
 30
0.0
 41
0.8037619495478361
 10
1408.153650054025
 20
591.8888702034878
 30
0.0
 41
0.8037619495478361
 10
1408.410829317214
 20
591.8888702034878
 30
0.0
 41
0.8037619495478361
  0
SPLINE
  5
E7
330
1F
100
AcDbEntity
  8
Make2D$Visibile$120
 62
    18
420
        0
370
    -3
100
AcDbSpline
210
0.0
220
0.0
230
1.0
 70
    28
 71
     2
 72
     6
 73
     3
 74
     0
 42
0.0000000001
 43
0.0000000001
 40
1126.0
 40
1126.0
 40
1126.0
 40
1126.500191414199
 40
1126.500191414199
 40
1126.500191414199
 10
1407.895064116313
 20
568.8415801561297
 30
0.0
 41
0.9947921649492537
 10
1408.145159823412
 20
568.8415801561297
 30
0.0
 41
0.9947921649492537
 10
1408.395255530511
 20
568.8415801561297
 30
0.0
 41
0.9947921649492537
  0
SPLINE
  5
E8
330
1F
100
AcDbEntity
  8
Make2D$Visibile$120
 62
    18
420
        0
370
    -3
100
AcDbSpline
210
0.0
220
0.0
230
1.0
 70
    28
 71
     2
 72
     6
 73
     3
 74
     0
 42
0.0000000001
 43
0.0000000001
 40
1126.023573354747
 40
1126.023573354747
 40
1126.023573354747
 40
1126.509590518639
 40
1126.509590518639
 40
1126.509590518639
 10
1407.91863747106
 20
572.3318501370052
 30
0.0
 41
1.0
 10
1408.161646053006
 20
572.3318501370052
 30
0.0
 41
1.0
 10
1408.404654634952
 20
572.3318501370052
 30
0.0
 41
1.0
  0
SPLINE
  5
E9
330
1F
100
AcDbEntity
  8
Make2D$Visibile$120
 62
    18
420
        0
370
    -3
100
AcDbSpline
210
0.0
220
0.0
230
1.0
 70
    28
 71
     2
 72
     6
 73
     3
 74
     0
 42
0.0000000001
 43
0.0000000001
 40
1126.006475087068
 40
1126.006475087068
 40
1126.006475087068
 40
1126.520999827648
 40
1126.520999827648
 40
1126.520999827648
 10
1407.901539203381
 20
526.4094559991277
 30
0.0
 41
1.0
 10
1408.158801573671
 20
526.4094559991277
 30
0.0
 41
1.0
 10
1408.416063943961
 20
526.4094559991277
 30
0.0
 41
1.0
  0
SPLINE
  5
EA
330
1F
100
AcDbEntity
  8
Make2D$Visibile$120
 62
    18
420
        0
370
    -3
100
AcDbSpline
210
0.0
220
0.0
230
1.0
 70
    28
 71
     2
 72
     6
 73
     3
 74
     0
 42
0.0000000001
 43
0.0000000001
 40
0.0
 40
0.0
 40
0.0
 40
1119.999999999892
 40
1119.999999999892
 40
1119.999999999892
 10
287.8950641164211
 20
598.7085603606731
 30
0.0
 41
0.9100637564058569
 10
847.8950641163672
 20
598.7085603606731
 30
0.0
 41
0.9100637564058569
 10
1407.895064116313
 20
598.7085603606731
 30
0.0
 41
0.9100637564058569
  0
SPLINE
  5
EB
330
1F
100
AcDbEntity
  8
Make2D$Visibile$120
 62
    18
420
        0
370
    -3
100
AcDbSpline
210
0.0
220
0.0
230
1.0
 70
    28
 71
     3
 72
     8
 73
     4
 74
     0
 42
0.0000000001
 43
0.0000000001
 40
-91.51111378641286
 40
-91.51111378641286
 40
-91.51111378641286
 40
-91.51111378641286
 40
-89.95803854540512
 40
-89.95803854540512
 40
-89.95803854540512
 40
-89.95803854540512
 10
287.8950641164216
 20
568.7025544771667
 30
0.0
 41
0.993562531836653
 10
287.8950641164208
 20
568.702554477166
 30
0.0
 41
0.9948266077839502
 10
287.8950641164205
 20
568.7290509533472
 30
0.0
 41
0.9969724305050658
 10
287.8950641164208
 20
568.7818032487271
 30
0.0
 41
1.0
  0
SPLINE
  5
EC
330
1F
100
AcDbEntity
  8
Make2D$Visibile$120
 62
    18
420
        0
370
    -3
100
AcDbSpline
210
0.0
220
0.0
230
1.0
 70
    28
 71
     3
 72
     8
 73
     4
 74
     0
 42
0.0000000001
 43
0.0000000001
 40
-91.51111378641286
 40
-91.51111378641286
 40
-91.51111378641286
 40
-91.51111378641286
 40
-89.95803854540512
 40
-89.95803854540512
 40
-89.95803854540512
 40
-89.95803854540512
 10
1407.895064116312
 20
568.7025544771667
 30
0.0
 41
0.993562531836653
 10
1407.895064116313
 20
568.702554477166
 30
0.0
 41
0.9948266077839502
 10
1407.895064116313
 20
568.7290509533472
 30
0.0
 41
0.9969724305050658
 10
1407.895064116313
 20
568.7818032487271
 30
0.0
 41
1.0
  0
SPLINE
  5
ED
330
1F
100
AcDbEntity
  8
Make2D$Visibile$120
 62
    18
420
        0
370
    -3
100
AcDbSpline
210
0.0
220
0.0
230
1.0
 70
    28
 71
     2
 72
     6
 73
     3
 74
     0
 42
0.0000000001
 43
0.0000000001
 40
0.0
 40
0.0
 40
0.0
 40
1119.999999999891
 40
1119.999999999891
 40
1119.999999999891
 10
1407.895064116313
 20
500.0165647797582
 30
0.0
 41
0.9100404613269945
 10
847.8950641163669
 20
500.0165647797582
 30
0.0
 41
0.9100404613269945
 10
287.8950641164213
 20
500.0165647797582
 30
0.0
 41
0.9100404613269945
  0
SPLINE
  5
EE
330
1F
100
AcDbEntity
  8
Make2D$Visibile$120
 62
    18
420
        0
370
    -3
100
AcDbSpline
210
0.0
220
0.0
230
1.0
 70
    28
 71
     3
 72
     8
 73
     4
 74
     0
 42
0.0000000001
 43
0.0000000001
 40
-49.24871976011963
 40
-49.24871976011963
 40
-49.24871976011963
 40
-49.24871976011963
 40
-47.70401691957157
 40
-47.70401691957157
 40
-47.70401691957157
 40
-47.70401691957157
 10
287.8950641164208
 20
529.9441737149116
 30
0.0
 41
1.0
 10
287.8950641164217
 20
529.996358134923
 30
0.0
 41
0.9969887516874282
 10
287.8950641164203
 20
530.022568733489
 30
0.0
 41
0.994849769038742
 10
287.8950641164207
 20
530.0225687334885
 30
0.0
 41
0.9935830520539413
  0
SPLINE
  5
EF
330
1F
100
AcDbEntity
  8
Make2D$Visibile$120
 62
    18
420
        0
370
    -3
100
AcDbSpline
210
0.0
220
0.0
230
1.0
 70
    28
 71
     3
 72
     8
 73
     4
 74
     0
 42
0.0000000001
 43
0.0000000001
 40
-49.24871976011963
 40
-49.24871976011963
 40
-49.24871976011963
 40
-49.24871976011963
 40
-47.70401691957083
 40
-47.70401691957083
 40
-47.70401691957083
 40
-47.70401691957083
 10
1407.895064116313
 20
529.9441737149116
 30
0.0
 41
1.0
 10
1407.895064116312
 20
529.996358134923
 30
0.0
 41
0.9969887516874267
 10
1407.895064116312
 20
530.0225687334888
 30
0.0
 41
0.9948497690387399
 10
1407.895064116312
 20
530.0225687334885
 30
0.0
 41
0.9935830520539395
  0
SPLINE
  5
F0
330
1F
100
AcDbEntity
  8
Make2D$Visibile$120
 62
    18
420
        0
370
    -3
100
AcDbSpline
210
0.0
220
0.0
230
1.0
 70
    28
 71
     4
 72
    10
 73
     5
 74
     0
 42
0.0000000001
 43
0.0000000001
 40
21.57369063996708
 40
21.57369063996708
 40
21.57369063996708
 40
21.57369063996708
 40
21.57369063996708
 40
21.84602483231976
 40
21.84602483231976
 40
21.84602483231976
 40
21.84602483231976
 40
21.84602483231976
 10
1413.895064116305
 20
568.8415801561297
 30
0.0
 41
0.9947921649492537
 10
1413.895064116305
 20
568.8415801561298
 30
0.0
 41
0.9949662352196196
 10
1413.895064116305
 20
568.8295193560581
 30
0.0
 41
0.9967563248301465
 10
1413.895064116305
 20
568.8056070117505
 30
0.0
 41
1.0
 10
1413.895064116305
 20
568.7743614151409
 30
0.0
 41
1.0
  0
SPLINE
  5
F1
330
1F
100
AcDbEntity
  8
Make2D$Visibile$120
 62
    18
420
        0
370
    -3
100
AcDbSpline
210
0.0
220
0.0
230
1.0
 70
    28
 71
     4
 72
    10
 73
     5
 74
     0
 42
0.0000000001
 43
0.0000000001
 40
21.57369063996708
 40
21.57369063996708
 40
21.57369063996708
 40
21.57369063996708
 40
21.57369063996708
 40
21.84602483231976
 40
21.84602483231976
 40
21.84602483231976
 40
21.84602483231976
 40
21.84602483231976
 10
281.8950641163121
 20
568.8415801561297
 30
0.0
 41
0.9947921649492537
 10
281.8950641163123
 20
568.8415801561298
 30
0.0
 41
0.9949662352196196
 10
281.8950641163126
 20
568.8295193560581
 30
0.0
 41
0.9967563248301465
 10
281.8950641163126
 20
568.8056070117505
 30
0.0
 41
1.0
 10
281.8950641163126
 20
568.7743614151409
 30
0.0
 41
1.0
  0
SPLINE
  5
F2
330
1F
100
AcDbEntity
  8
Make2D$Visibile$120
 62
    18
420
        0
370
    -3
100
AcDbSpline
210
0.0
220
0.0
230
1.0
 70
    28
 71
     4
 72
    10
 73
     5
 74
     0
 42
0.0000000001
 43
0.0000000001
 40
98.09124803143607
 40
98.09124803143607
 40
98.09124803143607
 40
98.09124803143607
 40
98.09124803143607
 40
98.36285979579439
 40
98.36285979579439
 40
98.36285979579439
 40
98.36285979579439
 40
98.36285979579439
 10
281.8950641163126
 20
529.9667256414182
 30
0.0
 41
1.0
 10
281.8950641163126
 20
529.935560603941
 30
0.0
 41
1.0
 10
281.8950641163123
 20
529.9117459953827
 30
0.0
 41
0.9967775339795171
 10
281.8950641163124
 20
529.8997382697581
 30
0.0
 41
0.9949903685153781
 10
281.8950641163125
 20
529.8997382697579
 30
0.0
 41
0.9948080326366631
  0
SPLINE
  5
F3
330
1F
100
AcDbEntity
  8
Make2D$Visibile$120
 62
    18
420
        0
370
    -3
100
AcDbSpline
210
0.0
220
0.0
230
1.0
 70
    28
 71
     4
 72
    14
 73
     9
 74
     0
 42
0.0000000001
 43
0.0000000001
 40
58.92104890393487
 40
58.92104890393487
 40
58.92104890393487
 40
58.92104890393487
 40
58.92104890393487
 40
59.96824646768545
 40
59.96824646768545
 40
59.96824646768545
 40
59.96824646768545
 40
61.01544403143603
 40
61.01544403143603
 40
61.01544403143603
 40
61.01544403143603
 40
61.01544403143603
 10
1413.895064116305
 20
550.2366785169577
 30
0.0
 41
1.0
 10
1413.895064116305
 20
550.1027039248869
 30
0.0
 41
0.9330127003229742
 10
1413.895064116305
 20
549.895172171196
 30
0.0
 41
0.9106836004306323
 10
1413.895064116305
 20
549.6386023089684
 30
0.0
 41
0.9330127003229743
 10
1413.895064116305
 20
549.3706531131731
 30
0.0
 41
1.0
 10
1413.895064116305
 20
549.1027039173786
 30
0.0
 41
0.9330127003229742
 10
1413.895064116305
 20
548.8461340528528
 30
0.0
 41
0.9106836004306323
 10
1413.895064116305
 20
548.6386022947326
 30
0.0
 41
0.9330127003229743
 10
1413.895064116305
 20
548.5046276968349
 30
0.0
 41
1.0
  0
SPLINE
  5
F4
330
1F
100
AcDbEntity
  8
Make2D$Visibile$120
 62
    18
420
        0
370
    -3
100
AcDbSpline
210
0.0
220
0.0
230
1.0
 70
    28
 71
     4
 72
    14
 73
     9
 74
     0
 42
0.0000000001
 43
0.0000000001
 40
58.92104890393487
 40
58.92104890393487
 40
58.92104890393487
 40
58.92104890393487
 40
58.92104890393487
 40
59.96824646768545
 40
59.96824646768545
 40
59.96824646768545
 40
59.96824646768545
 40
61.01544403143603
 40
61.01544403143603
 40
61.01544403143603
 40
61.01544403143603
 40
61.01544403143603
 10
281.8950641163126
 20
550.2366785169577
 30
0.0
 41
1.0
 10
281.8950641163124
 20
550.1027039248869
 30
0.0
 41
0.9330127003229742
 10
281.8950641163127
 20
549.895172171196
 30
0.0
 41
0.9106836004306323
 10
281.8950641163131
 20
549.6386023089684
 30
0.0
 41
0.9330127003229743
 10
281.8950641163126
 20
549.3706531131731
 30
0.0
 41
1.0
 10
281.8950641163124
 20
549.1027039173786
 30
0.0
 41
0.9330127003229742
 10
281.8950641163127
 20
548.8461340528528
 30
0.0
 41
0.9106836004306323
 10
281.8950641163131
 20
548.6386022947326
 30
0.0
 41
0.9330127003229743
 10
281.8950641163126
 20
548.5046276968349
 30
0.0
 41
1.0
  0
SPLINE
  5
F5
330
1F
100
AcDbEntity
  8
Make2D$Visibile$120
 62
    18
420
        0
370
    -3
100
AcDbSpline
210
0.0
220
0.0
230
1.0
 70
    28
 71
     4
 72
    10
 73
     5
 74
     0
 42
0.0000000001
 43
0.0000000001
 40
40.38353686812732
 40
40.38353686812732
 40
40.38353686812732
 40
40.38353686812732
 40
40.38353686812732
 40
58.92104890393487
 40
58.92104890393487
 40
58.92104890393487
 40
58.92104890393487
 40
58.92104890393487
 10
1413.895064116305
 20
559.5054343561537
 30
0.0
 41
1.0
 10
1413.895064116305
 20
557.1882453963547
 30
0.0
 41
1.0
 10
1413.895064116305
 20
554.8710564365556
 30
0.0
 41
1.0
 10
1413.895064116305
 20
552.5538674767567
 30
0.0
 41
1.0
 10
1413.895064116305
 20
550.2366785169577
 30
0.0
 41
1.0
  0
SPLINE
  5
F6
330
1F
100
AcDbEntity
  8
Make2D$Visibile$120
 62
    18
420
        0
370
    -3
100
AcDbSpline
210
0.0
220
0.0
230
1.0
 70
    28
 71
     4
 72
    10
 73
     5
 74
     0
 42
0.0000000001
 43
0.0000000001
 40
40.38353686812732
 40
40.38353686812732
 40
40.38353686812732
 40
40.38353686812732
 40
40.38353686812732
 40
58.92104890393487
 40
58.92104890393487
 40
58.92104890393487
 40
58.92104890393487
 40
58.92104890393487
 10
281.8950641163126
 20
559.5054343561537
 30
0.0
 41
1.0
 10
281.8950641163126
 20
557.1882453963547
 30
0.0
 41
1.0
 10
281.8950641163126
 20
554.8710564365556
 30
0.0
 41
1.0
 10
281.8950641163126
 20
552.5538674767567
 30
0.0
 41
1.0
 10
281.8950641163126
 20
550.2366785169577
 30
0.0
 41
1.0
  0
SPLINE
  5
F7
330
1F
100
AcDbEntity
  8
Make2D$Visibile$120
 62
    18
420
        0
370
    -3
100
AcDbSpline
210
0.0
220
0.0
230
1.0
 70
    28
 71
     2
 72
     6
 73
     3
 74
     0
 42
0.0000000001
 43
0.0000000001
 40
0.0297647648991773
 40
0.0297647648991773
 40
0.0297647648991773
 40
4.991818739009296
 40
4.991818739009296
 40
4.991818739009296
 10
282.4326595660939
 20
530.1421733000375
 30
0.0
 41
0.9350059131345058
 10
284.9136865505985
 20
530.1421873505328
 30
0.0
 41
0.9350059131345058
 10
287.3947135351032
 20
530.142201401028
 30
0.0
 41
0.9350059131345058
  0
SPLINE
  5
F8
330
1F
100
AcDbEntity
  8
Make2D$Visibile$120
 62
    18
420
        0
370
    -3
100
AcDbSpline
210
0.0
220
0.0
230
1.0
 70
    28
 71
     2
 72
     6
 73
     3
 74
     0
 42
0.0000000001
 43
0.0000000001
 40
0.0
 40
0.0
 40
0.0
 40
4.991000736602777
 40
4.991000736602777
 40
4.991000736602777
 10
287.39514915616
 20
499.950488463487
 30
0.0
 41
0.9690172749619871
 10
284.8996487904239
 20
499.9504743310263
 30
0.0
 41
0.9690172749619871
 10
282.4041484246878
 20
499.9504601985655
 30
0.0
 41
0.9690172749619871
  0
SPLINE
  5
F9
330
1F
100
AcDbEntity
  8
Make2D$Visibile$120
 62
    18
420
        0
370
    -3
100
AcDbSpline
210
0.0
220
0.0
230
1.0
 70
    28
 71
     2
 72
     6
 73
     3
 74
     0
 42
0.0000000001
 43
0.0000000001
 40
1.600827991082024
 40
1.600827991082024
 40
1.600827991082024
 40
1.675018117343273
 40
1.675018117343273
 40
1.675018117343273
 10
1413.895064116313
 20
529.8046284811634
 30
0.0
 41
0.9880571510925642
 10
1413.895064116313
 20
529.8382401172892
 30
0.0
 41
0.9844792102091606
 10
1413.895064116312
 20
529.8727847867813
 30
0.0
 41
0.9819259672128151
  0
SPLINE
  5
FA
330
1F
100
AcDbEntity
  8
Make2D$Visibile$120
 62
    18
420
        0
370
    -3
100
AcDbSpline
210
0.0
220
0.0
230
1.0
 70
    28
 71
     2
 72
     6
 73
     3
 74
     0
 42
0.0000000001
 43
0.0000000001
 40
0.0008180024063601
 40
0.0008180024063601
 40
0.0008180024063601
 40
4.991818739009182
 40
4.991818739009182
 40
4.991818739009182
 10
1413.385979808045
 20
499.9504601985655
 30
0.0
 41
0.9690172749619871
 10
1410.890479442309
 20
499.9504743310263
 30
0.0
 41
0.9690172749619871
 10
1408.394979076573
 20
499.950488463487
 30
0.0
 41
0.9690172749619871
  0
SPLINE
  5
FB
330
1F
100
AcDbEntity
  8
Make2D$Visibile$120
 62
    18
420
        0
370
    -3
100
AcDbSpline
210
0.0
220
0.0
230
1.0
 70
    28
 71
     2
 72
     6
 73
     3
 74
     0
 42
0.0000000001
 43
0.0000000001
 40
0.0006575938066994
 40
0.0006575938066994
 40
0.0006575938066994
 40
4.991818739009182
 40
4.991818739009182
 40
4.991818739009182
 10
-2.02263613655333
 20
271.7353377563456
 30
0.0
 41
0.9362313257063586
 10
-2.022523876255745
 20
269.2397571863098
 30
0.0
 41
0.9362313257063586
 10
-2.02241161595816
 20
266.744176616274
 30
0.0
 41
0.9362313257063586
  0
SPLINE
  5
FC
330
1F
100
AcDbEntity
  8
Make2D$Visibile$120
 62
    18
420
        0
370
    -3
100
AcDbSpline
210
0.0
220
0.0
230
1.0
 70
    28
 71
     2
 72
     6
 73
     3
 74
     0
 42
0.0000000001
 43
0.0000000001
 40
0.0
 40
0.0
 40
0.0
 40
4.991745717209255
 40
4.991745717209255
 40
4.991745717209255
 10
-32.21412221682504
 20
266.7428184832368
 30
0.0
 41
0.9252105422317305
 10
-32.2142344902708
 20
269.2386913392758
 30
0.0
 41
0.9252105422317305
 10
-32.21434676371655
 20
271.7345641953149
 30
0.0
 41
0.9252105422317305
  0
SPLINE
  5
FD
330
1F
100
AcDbEntity
  8
Make2D$Visibile$120
 62
    18
420
        0
370
    -3
100
AcDbSpline
210
0.0
220
0.0
230
1.0
 70
    28
 71
     2
 72
     6
 73
     3
 74
     0
 42
0.0000000001
 43
0.0000000001
 40
11.30664845493471
 40
11.30664845493471
 40
11.30664845493471
 40
18.94039453821609
 40
18.94039453821609
 40
18.94039453821609
 10
-2.53059650398086
 20
272.2434970989921
 30
0.0
 41
1.0
 10
-2.53059650398118
 20
272.2434970989922
 30
0.0
 41
0.9660025934413622
 10
-4.481750484909981
 20
272.2434970989921
 30
0.0
 41
1.0
  0
SPLINE
  5
FE
330
1F
100
AcDbEntity
  8
Make2D$Visibile$120
 62
    18
420
        0
370
    -3
100
AcDbSpline
210
0.0
220
0.0
230
1.0
 70
    28
 71
     4
 72
    10
 73
     5
 74
     0
 42
0.0000000001
 43
0.0000000001
 40
58.92104890393487
 40
58.92104890393487
 40
58.92104890393487
 40
58.92104890393487
 40
58.92104890393487
 40
59.96824648083194
 40
59.96824648083194
 40
59.96824648083194
 40
59.96824648083194
 40
59.96824648083194
 10
-45.76249784360448
 20
272.2434970991008
 30
0.0
 41
1.0
 10
-45.99454866057269
 20
272.2434970991007
 30
0.0
 41
0.933012699482017
 10
-46.17099151015653
 20
272.2434970991005
 30
0.0
 41
0.9106835998699941
 10
-46.26249786534868
 20
272.2434970991009
 30
0.0
 41
0.9330127011639316
 10
-46.26249786534871
 20
272.2434970991004
 30
0.0
 41
1.000000003363829
  0
SPLINE
  5
FF
330
1F
100
AcDbEntity
  8
Make2D$Visibile$120
 62
    18
420
        0
370
    -3
100
AcDbSpline
210
0.0
220
0.0
230
1.0
 70
    28
 71
     2
 72
     6
 73
     3
 74
     0
 42
0.0000000001
 43
0.0000000001
 40
0.0
 40
0.0
 40
0.0
 40
23.50000000000013
 40
23.50000000000013
 40
23.50000000000013
 10
27.64869916834118
 20
272.2434970991008
 30
0.0
 41
1.0
 10
27.64869916834118
 20
260.4934970991006
 30
0.0
 41
1.0
 10
27.64869916834118
 20
248.7434970991005
 30
0.0
 41
1.0
  0
SPLINE
  5
100
330
1F
100
AcDbEntity
  8
Make2D$Visibile$120
 62
    18
420
        0
370
    -3
100
AcDbSpline
210
0.0
220
0.0
230
1.0
 70
    28
 71
     2
 72
     6
 73
     3
 74
     0
 42
0.0000000001
 43
0.0000000001
 40
0.0
 40
0.0
 40
0.0
 40
1131.999999999992
 40
1131.999999999992
 40
1131.999999999992
 10
-46.26249786534863
 20
-859.7565029008913
 30
0.0
 41
0.9999999966361712
 10
-46.26249786534863
 20
-293.7565029008952
 30
0.0
 41
0.9999999966361712
 10
-46.26249786534863
 20
272.2434970991008
 30
0.0
 41
0.9999999966361712
  0
SPLINE
  5
101
330
1F
100
AcDbEntity
  8
Make2D$Visibile$120
 62
    18
420
        0
370
    -3
100
AcDbSpline
210
0.0
220
0.0
230
1.0
 70
    28
 71
     4
 72
    10
 73
     5
 74
     0
 42
0.0000000001
 43
0.0000000001
 40
257.3193824677205
 40
257.3193824677205
 40
257.3193824677205
 40
257.3193824677205
 40
257.3193824677205
 40
259.917458118994
 40
259.917458118994
 40
259.917458118994
 40
259.917458118994
 40
259.917458118994
 10
27.64806360531452
 20
272.2434970991008
 30
0.0
 41
1.0
 10
27.64800424509677
 20
272.2434970991006
 30
0.0
 41
0.7500000108718515
 10
27.27279364840171
 20
272.2434970991009
 30
0.0
 41
0.6666666811624687
 10
26.64762764822481
 20
272.2434970991006
 30
0.0
 41
0.7500000108718518
 10
26.1476574701735
 20
272.2434970991008
 30
0.0
 41
1.0
  0
SPLINE
  5
102
330
1F
100
AcDbEntity
  8
Make2D$Visibile$120
 62
    18
420
        0
370
    -3
100
AcDbSpline
210
0.0
220
0.0
230
1.0
 70
    28
 71
     2
 72
     6
 73
     3
 74
     0
 42
0.0000000001
 43
0.0000000001
 40
0.0
 40
0.0
 40
0.0
 40
1119.999999999892
 40
1119.999999999892
 40
1119.999999999892
 10
-32.14669958044531
 20
-853.7565029008994
 30
0.0
 41
0.9517032422160314
 10
-32.14669958044531
 20
-293.7565029009535
 30
0.0
 41
0.9517032422160314
 10
-32.14669958044531
 20
266.2434970989924
 30
0.0
 41
0.9517032422160314
  0
SPLINE
  5
103
330
1F
100
AcDbEntity
  8
Make2D$Visibile$120
 62
    18
420
        0
370
    -3
100
AcDbSpline
210
0.0
220
0.0
230
1.0
 70
    28
 71
     2
 72
     6
 73
     3
 74
     0
 42
0.0000000001
 43
0.0000000001
 40
0.0
 40
0.0
 40
0.0
 40
1119.999999999892
 40
1119.999999999892
 40
1119.999999999892
 10
-2.146699580445187
 20
266.2434970989922
 30
0.0
 41
0.9220847842766066
 10
-2.146699580445187
 20
-293.7565029009536
 30
0.0
 41
0.9220847842766066
 10
-2.146699580445187
 20
-853.7565029008994
 30
0.0
 41
0.9220847842766066
  0
SPLINE
  5
104
330
1F
100
AcDbEntity
  8
Make2D$Visibile$120
 62
    18
420
        0
370
    -3
100
AcDbSpline
210
0.0
220
0.0
230
1.0
 70
    24
 71
     2
 72
     6
 73
     3
 74
     0
 42
0.0000000001
 43
0.0000000001
 40
0.0
 40
0.0
 40
0.0
 40
4.999999999999989
 40
4.999999999999989
 40
4.999999999999989
 10
32.6486990620549
 20
-836.2565029008994
 30
0.0
 10
30.1486990620549
 20
-836.2565029008994
 30
0.0
 10
27.6486990620549
 20
-836.2565029008994
 30
0.0
  0
SPLINE
  5
105
330
1F
100
AcDbEntity
  8
Make2D$Visibile$120
 62
    18
420
        0
370
    -3
100
AcDbSpline
210
0.0
220
0.0
230
1.0
 70
    24
 71
     2
 72
     6
 73
     3
 74
     0
 42
0.0000000001
 43
0.0000000001
 40
-2240.000000000008
 40
-2240.000000000008
 40
-2240.000000000008
 40
-1155.000000000009
 40
-1155.000000000009
 40
-1155.000000000009
 10
32.6486990620549
 20
-836.2565029008994
 30
0.0
 10
32.6486990620549
 20
-293.7565029008993
 30
0.0
 10
32.6486990620549
 20
248.7434970991008
 30
0.0
  0
SPLINE
  5
106
330
1F
100
AcDbEntity
  8
Make2D$Visibile$120
 62
    18
420
        0
370
    -3
100
AcDbSpline
210
0.0
220
0.0
230
1.0
 70
    24
 71
     2
 72
     6
 73
     3
 74
     0
 42
0.0000000001
 43
0.0000000001
 40
0.0
 40
0.0
 40
0.0
 40
4.999999999999989
 40
4.999999999999989
 40
4.999999999999989
 10
32.6486990620549
 20
248.7434970991008
 30
0.0
 10
30.1486990620549
 20
248.7434970991008
 30
0.0
 10
27.6486990620549
 20
248.7434970991008
 30
0.0
  0
SPLINE
  5
107
330
1F
100
AcDbEntity
  8
Make2D$Visibile$120
 62
    18
420
        0
370
    -3
100
AcDbSpline
210
0.0
220
0.0
230
1.0
 70
    24
 71
     2
 72
     6
 73
     3
 74
     0
 42
0.0000000001
 43
0.0000000001
 40
-2240.000000000008
 40
-2240.000000000008
 40
-2240.000000000008
 40
-1155.000000000009
 40
-1155.000000000009
 40
-1155.000000000009
 10
27.6486990620549
 20
-836.2565029008994
 30
0.0
 10
27.6486990620549
 20
-293.7565029008993
 30
0.0
 10
27.6486990620549
 20
248.7434970991008
 30
0.0
  0
SPLINE
  5
108
330
1F
100
AcDbEntity
  8
Make2D$Visibile$120
 62
    18
420
        0
370
    -3
100
AcDbSpline
210
0.0
220
0.0
230
1.0
 70
    28
 71
     2
 72
     6
 73
     3
 74
     0
 42
0.0000000001
 43
0.0000000001
 40
1126.0
 40
1126.0
 40
1126.0
 40
1126.481146020116
 40
1126.481146020116
 40
1126.481146020116
 10
-12.90555728211825
 20
-853.7565029008994
 30
0.0
 41
1.0
 10
-12.90555728211825
 20
-853.9970759109575
 30
0.0
 41
1.0
 10
-12.90555728211825
 20
-854.2376489210156
 30
0.0
 41
1.0
  0
SPLINE
  5
109
330
1F
100
AcDbEntity
  8
Make2D$Visibile$120
 62
    18
420
        0
370
    -3
100
AcDbSpline
210
0.0
220
0.0
230
1.0
 70
    28
 71
     2
 72
     6
 73
     3
 74
     0
 42
0.0000000001
 43
0.0000000001
 40
1108.497653217109
 40
1108.497653217109
 40
1108.497653217109
 40
1131.999999999992
 40
1131.999999999992
 40
1131.999999999992
 10
27.64869916834118
 20
-836.2541561180086
 30
0.0
 41
1.0
 10
27.64869916834118
 20
-848.00532950945
 30
0.0
 41
1.0
 10
27.64869916834118
 20
-859.7565029008914
 30
0.0
 41
1.0
  0
SPLINE
  5
10A
330
1F
100
AcDbEntity
  8
Make2D$Visibile$120
 62
    18
420
        0
370
    -3
100
AcDbSpline
210
0.0
220
0.0
230
1.0
 70
    28
 71
     2
 72
     6
 73
     3
 74
     0
 42
0.0000000001
 43
0.0000000001
 40
1126.0
 40
1126.0
 40
1126.0
 40
1126.500561637928
 40
1126.500561637928
 40
1126.500561637928
 10
-5.923945830215189
 20
-853.7565029008994
 30
0.0
 41
1.0
 10
-5.923945830215189
 20
-854.0067837198633
 30
0.0
 41
1.0
 10
-5.923945830215189
 20
-854.2570645388272
 30
0.0
 41
1.0
  0
SPLINE
  5
10B
330
1F
100
AcDbEntity
  8
Make2D$Visibile$120
 62
    18
420
        0
370
    -3
100
AcDbSpline
210
0.0
220
0.0
230
1.0
 70
    28
 71
     4
 72
    14
 73
     9
 74
     0
 42
0.0000000001
 43
0.0000000001
 40
259.917458118994
 40
259.917458118994
 40
259.917458118994
 40
259.917458118994
 40
259.917458118994
 40
278.4549419840992
 40
278.4549419840992
 40
278.4549419840992
 40
278.4549419840992
 40
293.0326198151899
 40
293.0326198151899
 40
293.0326198151899
 40
293.0326198151899
 40
293.0326198151899
 10
26.1476574701735
 20
272.2434970991008
 30
0.0
 41
1.0
 10
22.13441268435213
 20
272.2434970991008
 30
0.0
 41
1.0
 10
18.12100906712226
 20
272.2434970991008
 30
0.0
 41
1.0
 10
14.10752603278638
 20
272.2434970991008
 30
0.0
 41
1.0
 10
10.0940429956479
 20
272.2434970991006
 30
0.0
 41
0.9999999999999998
 10
6.937883124021715
 20
272.2434970991006
 30
0.0
 41
0.9999999999999998
 10
3.78172325066294
 20
272.2434970991006
 30
0.0
 41
0.9999999999999998
 10
0.6255633748890014
 20
272.2434970991006
 30
0.0
 41
0.9999999999999998
 10
-2.530596503981315
 20
272.2434970991008
 30
0.0
 41
1.0
  0
SPLINE
  5
10C
330
1F
100
AcDbEntity
  8
Make2D$Visibile$120
 62
    18
420
        0
370
    -3
100
AcDbSpline
210
0.0
220
0.0
230
1.0
 70
    28
 71
     2
 72
     6
 73
     3
 74
     0
 42
0.0000000001
 43
0.0000000001
 40
5.49989252756678
 40
5.49989252756678
 40
5.49989252756678
 40
6.000000000108435
 40
6.000000000108435
 40
6.000000000108435
 10
-12.90555728211825
 20
266.743604571534
 30
0.0
 41
1.0
 10
-12.90555728211825
 20
266.493550835263
 30
0.0
 41
1.0
 10
-12.90555728211825
 20
266.2434970989921
 30
0.0
 41
1.0
  0
SPLINE
  5
10D
330
1F
100
AcDbEntity
  8
Make2D$Visibile$120
 62
    18
420
        0
370
    -3
100
AcDbSpline
210
0.0
220
0.0
230
1.0
 70
    28
 71
     4
 72
    10
 73
     5
 74
     0
 42
0.0000000001
 43
0.0000000001
 40
42.73765998990369
 40
42.73765998990369
 40
42.73765998990369
 40
42.73765998990369
 40
42.73765998990369
 40
58.92104890393487
 40
58.92104890393487
 40
58.92104890393487
 40
58.92104890393487
 40
58.92104890393487
 10
-31.74727183306163
 20
272.2434970991008
 30
0.0
 41
1.0
 10
-35.25107833569768
 20
272.2434970991008
 30
0.0
 41
1.0
 10
-38.75488483833328
 20
272.2434970991008
 30
0.0
 41
1.0
 10
-42.25869134096888
 20
272.2434970991008
 30
0.0
 41
1.0
 10
-45.76249784360448
 20
272.2434970991008
 30
0.0
 41
1.0
  0
SPLINE
  5
10E
330
1F
100
AcDbEntity
  8
Make2D$Visibile$120
 62
    18
420
        0
370
    -3
100
AcDbSpline
210
0.0
220
0.0
230
1.0
 70
    28
 71
     2
 72
    10
 73
     7
 74
     0
 42
0.0000000001
 43
0.0000000001
 40
18.94039453821609
 40
18.94039453821609
 40
18.94039453821609
 40
35.13910719060226
 40
35.13910719060226
 40
51.33781984298842
 40
51.33781984298842
 40
57.21530619198189
 40
57.21530619198189
 40
57.21530619198189
 10
-4.481750484909981
 20
272.2434970989921
 30
0.0
 41
1.0
 10
-9.000922202497584
 20
272.2434970989921
 30
0.0
 41
0.8499503652137053
 10
-18.03117369442748
 20
272.2434970989921
 30
0.0
 41
1.0
 10
-27.06142518635739
 20
272.2434970989921
 30
0.0
 41
0.8499503652137053
 10
-30.57612952627574
 20
272.2434970989921
 30
0.0
 41
1.0
 10
-31.72244989014868
 20
272.2434970989922
 30
0.0
 41
0.9455564958121538
 10
-31.72244989014887
 20
272.2434970989921
 30
0.0
 41
0.9306211870620851
  0
SPLINE
  5
10F
330
1F
100
AcDbEntity
  8
Make2D$Visibile$120
 62
    18
420
        0
370
    -3
100
AcDbSpline
210
0.0
220
0.0
230
1.0
 70
    28
 71
     2
 72
     6
 73
     3
 74
     0
 42
0.0000000001
 43
0.0000000001
 40
0.0000730218002283
 40
0.0000730218002283
 40
0.0000730218002283
 40
4.991818739009182
 40
4.991818739009182
 40
4.991818739009182
 10
-32.21434676371655
 20
-859.2475699972218
 30
0.0
 41
0.9252105422317305
 10
-32.2142344902708
 20
-856.751697141183
 30
0.0
 41
0.9252105422317305
 10
-32.21412221682504
 20
-854.2558242851441
 30
0.0
 41
0.9252105422317305
  0
SPLINE
  5
110
330
1F
100
AcDbEntity
  8
Make2D$Visibile$120
 62
    18
420
        0
370
    -3
100
AcDbSpline
210
0.0
220
0.0
230
1.0
 70
    28
 71
     2
 72
     6
 73
     3
 74
     0
 42
0.0000000001
 43
0.0000000001
 40
0.0
 40
0.0
 40
0.0
 40
4.991161145202394
 40
4.991161145202394
 40
4.991161145202394
 10
-2.02241161595816
 20
-854.2571824181808
 30
0.0
 41
0.9362313257063586
 10
-2.022523876255745
 20
-856.7527629882168
 30
0.0
 41
0.9362313257063586
 10
-2.02263613655333
 20
-859.2483435582527
 30
0.0
 41
0.9362313257063586
  0
SPLINE
  5
111
330
1F
100
AcDbEntity
  8
Make2D$Visibile$120
 62
    18
420
        0
370
    -3
100
AcDbSpline
210
0.0
220
0.0
230
1.0
 70
    12
 71
     2
 72
     6
 73
     3
 74
     0
 42
0.0000000001
 43
0.0000000001
 40
-28.74389336798718
 40
-28.74389336798718
 40
-28.74389336798718
 40
-20.84868810233125
 40
-20.84868810233125
 40
-20.84868810233125
 10
-32.21412221682499
 20
-854.2558242851441
 30
0.0
 41
1.0
 10
-32.214122217859
 20
-854.2558472729274
 30
0.0
 41
0.9660026243321335
 10
-30.19614059386208
 20
-854.2559579639118
 30
0.0
 41
1.0
  0
SPLINE
  5
112
330
1F
100
AcDbEntity
  8
Make2D$Visibile$120
 62
    18
420
        0
370
    -3
100
AcDbSpline
210
0.0
220
0.0
230
1.0
 70
    28
 71
     2
 72
     6
 73
     3
 74
     0
 42
0.0000000001
 43
0.0000000001
 40
5.499508850704827
 40
5.499508850704827
 40
5.499508850704827
 40
5.999999999991876
 40
5.999999999991876
 40
5.999999999991876
 10
-6.209889441682854
 20
-854.2569940501864
 30
0.0
 41
0.9998829391664181
 10
-6.209889441682854
 20
-854.006748475543
 30
0.0
 41
0.9998829391664181
 10
-6.209889441682854
 20
-853.7565029008995
 30
0.0
 41
0.9998829391664181
  0
SPLINE
  5
113
330
1F
100
AcDbEntity
  8
Make2D$Visibile$120
 62
    18
420
        0
370
    -3
100
AcDbSpline
210
0.0
220
0.0
230
1.0
 70
    12
 71
     2
 72
     8
 73
     5
 74
     0
 42
0.0000000001
 43
0.0000000001
 40
-76.16890652622138
 40
-76.16890652622138
 40
-76.16890652622138
 40
-52.45639994710428
 40
-52.45639994710428
 40
-28.74389336798719
 40
-28.74389336798719
 40
-28.74389336798719
 10
-2.022411615958163
 20
266.7441766162738
 30
0.0
 41
1.0
 10
-2.022411612094499
 20
266.7440907227032
 30
0.0
 41
0.7071067811865475
 10
-17.11826691252759
 20
266.7434116561849
 30
0.0
 41
1.0
 10
-32.21412221296136
 20
266.7427325896663
 30
0.0
 41
0.7071067811865475
 10
-32.21412221682499
 20
266.742818483237
 30
0.0
 41
1.0
  0
SPLINE
  5
114
330
1F
100
AcDbEntity
  8
Make2D$Visibile$120
 62
    18
420
        0
370
    -3
100
AcDbSpline
210
0.0
220
0.0
230
1.0
 70
    28
 71
     3
 72
    14
 73
    10
 74
     0
 42
0.0000000001
 43
0.0000000001
 40
-67.82765421195239
 40
-67.82765421195239
 40
-67.82765421195239
 40
-67.82765421195239
 40
-52.22656616557479
 40
-52.22656616557479
 40
-52.22656616557479
 40
-33.7495515493011
 40
-33.7495515493011
 40
-33.7495515493011
 40
-20.91007906246313
 40
-20.91007906246313
 40
-20.91007906246313
 40
-20.91007906246313
 10
-32.14669958044553
 20
266.2434970989922
 30
0.0
 41
0.9517032422160326
 10
-32.14669958044552
 20
266.2434970989923
 30
0.0
 41
0.8804700788447686
 10
-29.3582917665673
 20
266.2434970989923
 30
0.0
 41
0.896568998106091
 10
-24.6466995804451
 20
266.2434970989921
 30
0.0
 41
1.0
 10
-18.94531914308984
 20
266.2434970989924
 30
0.0
 41
0.8775023813667072
 10
-12.38995610979274
 20
266.2434970989924
 30
0.0
 41
0.8775023813667072
 10
-7.389659563121086
 20
266.2434970989921
 30
0.0
 41
1.0
 10
-4.056958411609787
 20
266.2434970989921
 30
0.0
 41
0.9148777637075591
 10
-2.146699580445361
 20
266.2434970989922
 30
0.0
 41
0.8889060251330947
 10
-2.146699580445437
 20
266.2434970989921
 30
0.0
 41
0.9220847842766069
  0
SPLINE
  5
115
330
1F
100
AcDbEntity
  8
Make2D$Visibile$120
 62
    18
420
        0
370
    -3
100
AcDbSpline
210
0.0
220
0.0
230
1.0
 70
    28
 71
     3
 72
    14
 73
    10
 74
     0
 42
0.0000000001
 43
0.0000000001
 40
-67.8276542119523
 40
-67.8276542119523
 40
-67.8276542119523
 40
-67.8276542119523
 40
-52.22656616557479
 40
-52.22656616557479
 40
-52.22656616557479
 40
-33.7495515493011
 40
-33.7495515493011
 40
-33.7495515493011
 40
-20.91007906246328
 40
-20.91007906246328
 40
-20.91007906246328
 40
-20.91007906246328
 10
-32.14669958044531
 20
-853.7565029008994
 30
0.0
 41
0.9517032422160314
 10
-32.14669958044526
 20
-853.7565029008992
 30
0.0
 41
0.8804700788447688
 10
-29.35829176656729
 20
-853.7565029008992
 30
0.0
 41
0.8965689981060917
 10
-24.6466995804451
 20
-853.7565029008994
 30
0.0
 41
1.0
 10
-18.94531914308984
 20
-853.7565029008992
 30
0.0
 41
0.8775023813667072
 10
-12.38995610979274
 20
-853.7565029008992
 30
0.0
 41
0.8775023813667072
 10
-7.389659563121086
 20
-853.7565029008994
 30
0.0
 41
1.0
 10
-4.056958411610046
 20
-853.7565029008994
 30
0.0
 41
0.9148777637075601
 10
-2.146699580445369
 20
-853.7565029008992
 30
0.0
 41
0.8889060251330954
 10
-2.146699580445178
 20
-853.7565029008994
 30
0.0
 41
0.9220847842766058
  0
SPLINE
  5
116
330
1F
100
AcDbEntity
  8
Make2D$Visibile$120
 62
    18
420
        0
370
    -3
100
AcDbSpline
210
0.0
220
0.0
230
1.0
 70
    12
 71
     2
 72
     6
 73
     3
 74
     0
 42
0.0000000001
 43
0.0000000001
 40
-87.8628216461583
 40
-87.8628216461583
 40
-87.8628216461583
 40
-76.16890652622138
 40
-76.16890652622138
 40
-76.16890652622138
 10
-6.329714236467453
 20
-854.2570487393144
 30
0.0
 41
1.0
 10
-2.022411617534251
 20
-854.2572174565782
 30
0.0
 41
0.9259238231660611
 10
-2.022411615958163
 20
-854.2571824181808
 30
0.0
 41
1.0
  0
SPLINE
  5
117
330
1F
100
AcDbEntity
  8
Make2D$Visibile$120
 62
    18
420
        0
370
    -3
100
AcDbSpline
210
0.0
220
0.0
230
1.0
 70
    12
 71
     2
 72
     8
 73
     5
 74
     0
 42
0.0000000001
 43
0.0000000001
 40
-76.16890652622138
 40
-76.16890652622138
 40
-76.16890652622138
 40
-52.45639994710427
 40
-52.45639994710427
 40
-28.74389336798718
 40
-28.74389336798718
 40
-28.74389336798718
 10
-2.022411615958163
 20
-854.2571824181808
 30
0.0
 41
1.0
 10
-2.022411612094499
 20
-854.2570965246102
 30
0.0
 41
0.7071067811865475
 10
-17.11826691252759
 20
-854.256417458092
 30
0.0
 41
1.0
 10
-32.21412221296136
 20
-854.2557383915736
 30
0.0
 41
0.7071067811865475
 10
-32.21412221682499
 20
-854.2558242851441
 30
0.0
 41
1.0
  0
SPLINE
  5
118
330
1F
100
AcDbEntity
  8
Make2D$Visibile$120
 62
    18
420
        0
370
    -3
100
AcDbSpline
210
0.0
220
0.0
230
1.0
 70
    28
 71
     2
 72
     6
 73
     3
 74
     0
 42
0.0000000001
 43
0.0000000001
 40
0.0008180024064497
 40
0.0008180024064497
 40
0.0008180024064497
 40
4.991818739009182
 40
4.991818739009182
 40
4.991818739009182
 10
-274.4643978844749
 20
499.9502995838517
 30
0.0
 41
0.9690172749619871
 10
-276.9598982502112
 20
499.9503137163123
 30
0.0
 41
0.9690172749619871
 10
-279.4553986159475
 20
499.950327848773
 30
0.0
 41
0.9690172749619871
  0
SPLINE
  5
119
330
1F
100
AcDbEntity
  8
Make2D$Visibile$120
 62
    18
420
        0
370
    -3
100
AcDbSpline
210
0.0
220
0.0
230
1.0
 70
    28
 71
     2
 72
     6
 73
     3
 74
     0
 42
0.0000000001
 43
0.0000000001
 40
0.0008177222174066
 40
0.0008177222174066
 40
0.0008177222174066
 40
4.991818739009296
 40
4.991818739009296
 40
4.991818739009296
 10
-1405.446229144953
 20
598.7733933322709
 30
0.0
 41
0.9688918706028972
 10
-1402.950728639123
 20
598.7733791331782
 30
0.0
 41
0.9688918706028972
 10
-1400.455228133292
 20
598.7733649340856
 30
0.0
 41
0.9688918706028972
  0
SPLINE
  5
11A
330
1F
100
AcDbEntity
  8
Make2D$Visibile$120
 62
    18
420
        0
370
    -3
100
AcDbSpline
210
0.0
220
0.0
230
1.0
 70
    28
 71
     4
 72
    10
 73
     5
 74
     0
 42
0.0000000001
 43
0.0000000001
 40
160.2340835917005
 40
160.2340835917005
 40
160.2340835917005
 40
160.2340835917005
 40
160.2340835917005
 40
178.7723752752941
 40
178.7723752752941
 40
178.7723752752941
 40
178.7723752752941
 40
178.7723752752941
 10
-273.9553135760993
 20
507.8525435110134
 30
0.0
 41
1.0
 10
-273.9553135760993
 20
512.4871164323058
 30
0.0
 41
1.0
 10
-273.9553135760993
 20
517.1216893535984
 30
0.0
 41
1.0
 10
-273.9553135760993
 20
521.7562622748908
 30
0.0
 41
1.0
 10
-273.9553135760993
 20
526.3908351961834
 30
0.0
 41
1.0
  0
SPLINE
  5
11B
330
1F
100
AcDbEntity
  8
Make2D$Visibile$120
 62
    18
420
        0
370
    -3
100
AcDbSpline
210
0.0
220
0.0
230
1.0
 70
    28
 71
     4
 72
    10
 73
     5
 74
     0
 42
0.0000000001
 43
0.0000000001
 40
160.2340835917005
 40
160.2340835917005
 40
160.2340835917005
 40
160.2340835917005
 40
160.2340835917005
 40
178.7723752752941
 40
178.7723752752941
 40
178.7723752752941
 40
178.7723752752941
 40
178.7723752752941
 10
-1405.955313576092
 20
507.8525435110134
 30
0.0
 41
1.0
 10
-1405.955313576092
 20
512.4871164323058
 30
0.0
 41
1.0
 10
-1405.955313576092
 20
517.1216893535984
 30
0.0
 41
1.0
 10
-1405.955313576092
 20
521.7562622748908
 30
0.0
 41
1.0
 10
-1405.955313576092
 20
526.3908351961834
 30
0.0
 41
1.0
  0
SPLINE
  5
11C
330
1F
100
AcDbEntity
  8
Make2D$Visibile$120
 62
    18
420
        0
370
    -3
100
AcDbSpline
210
0.0
220
0.0
230
1.0
 70
    28
 71
     2
 72
     6
 73
     3
 74
     0
 42
0.0000000001
 43
0.0000000001
 40
0.0
 40
0.0
 40
0.0
 40
23.49999999999999
 40
23.49999999999999
 40
23.49999999999999
 10
-273.9553135760993
 20
545.3396571287885
 30
0.0
 41
1.0
 10
-285.7053135760993
 20
545.3396571287885
 30
0.0
 41
1.0
 10
-297.4553135760993
 20
545.3396571287885
 30
0.0
 41
1.0
  0
SPLINE
  5
11D
330
1F
100
AcDbEntity
  8
Make2D$Visibile$120
 62
    18
420
        0
370
    -3
100
AcDbSpline
210
0.0
220
0.0
230
1.0
 70
    28
 71
     2
 72
     6
 73
     3
 74
     0
 42
0.0000000001
 43
0.0000000001
 40
0.0
 40
0.0
 40
0.0
 40
23.50000000000012
 40
23.50000000000012
 40
23.50000000000012
 10
-273.9553135760993
 20
553.3126373268951
 30
0.0
 41
0.9287098916616934
 10
-285.7053135760993
 20
553.3126373268951
 30
0.0
 41
0.9287098916616934
 10
-297.4553135760992
 20
553.3126373268951
 30
0.0
 41
0.9287098916616934
  0
SPLINE
  5
11E
330
1F
100
AcDbEntity
  8
Make2D$Visibile$120
 62
    18
420
        0
370
    -3
100
AcDbSpline
210
0.0
220
0.0
230
1.0
 70
    28
 71
     4
 72
    22
 73
    17
 74
     0
 42
0.0000000001
 43
0.0000000001
 40
204.1427539881986
 40
204.1427539881986
 40
204.1427539881986
 40
204.1427539881986
 40
204.1427539881986
 40
204.2328648675052
 40
204.2328648675052
 40
204.2328648675052
 40
204.2328648675052
 40
208.7961127999168
 40
208.7961127999168
 40
208.7961127999168
 40
208.7961127999168
 40
213.3593607323284
 40
213.3593607323284
 40
213.3593607323284
 40
213.3593607323284
 40
213.4693735608403
 40
213.4693735608403
 40
213.4693735608403
 40
213.4693735608403
 40
213.4693735608403
 10
-273.955313576099
 20
545.4283474808741
 30
0.0
 41
0.9956189746054768
 10
-273.9553135760992
 20
545.4404775070476
 30
0.0
 41
0.9966921671292193
 10
-273.9553135760992
 20
545.452708632259
 30
0.0
 41
0.997780068869554
 10
-273.9553135760992
 20
545.4650399858485
 30
0.0
 41
0.9988826798264808
 10
-273.9553135760993
 20
545.4774706921226
 30
0.0
 41
1.0
 10
-273.9553135760995
 20
546.1439746587885
 30
0.0
 41
0.9434184971794343
 10
-273.9553135760993
 20
547.0860518005812
 30
0.0
 41
0.9245579962392457
 10
-273.9553135760995
 20
548.2072275022626
 30
0.0
 41
0.9434184971794344
 10
-273.9553135760993
 20
549.3704924859055
 30
0.0
 41
1.0
 10
-273.9553135760995
 20
550.5337574695486
 30
0.0
 41
0.9434184971794343
 10
-273.9553135760993
 20
551.6549331712295
 30
0.0
 41
0.9245579962392457
 10
-273.9553135760995
 20
552.597010313023
 30
0.0
 41
0.9434184971794344
 10
-273.9553135760993
 20
553.2635142796885
 30
0.0
 41
1.0
 10
-273.9553135760994
 20
553.2786941902509
 30
0.0
 41
0.9986359077440143
 10
-273.9553135760993
 20
553.2937258327298
 30
0.0
 41
0.997293739586778
 10
-273.9553135760995
 20
553.3086076150469
 30
0.0
 41
0.9959734955282912
 10
-273.9553135760992
 20
553.3233379564199
 30
0.0
 41
0.9946751755685537
  0
SPLINE
  5
11F
330
1F
100
AcDbEntity
  8
Make2D$Visibile$120
 62
    18
420
        0
370
    -3
100
AcDbSpline
210
0.0
220
0.0
230
1.0
 70
    28
 71
     4
 72
    22
 73
    17
 74
     0
 42
0.0000000001
 43
0.0000000001
 40
204.1427539881971
 40
204.1427539881971
 40
204.1427539881971
 40
204.1427539881971
 40
204.1427539881971
 40
204.2328648675052
 40
204.2328648675052
 40
204.2328648675052
 40
204.2328648675052
 40
208.7961127999168
 40
208.7961127999168
 40
208.7961127999168
 40
208.7961127999168
 40
213.3593607323284
 40
213.3593607323284
 40
213.3593607323284
 40
213.3593607323284
 40
213.4185290245562
 40
213.4185290245562
 40
213.4185290245562
 40
213.4185290245562
 40
213.4185290245562
 10
-1405.955313576092
 20
545.4283474808732
 30
0.0
 41
0.9956189746054063
 10
-1405.955313576092
 20
545.4404775070468
 30
0.0
 41
0.9966921671291656
 10
-1405.955313576092
 20
545.4527086322588
 30
0.0
 41
0.9977800688695178
 10
-1405.955313576091
 20
545.4650399858482
 30
0.0
 41
0.9988826798264625
 10
-1405.955313576092
 20
545.4774706921226
 30
0.0
 41
1.0
 10
-1405.955313576092
 20
546.1439746587885
 30
0.0
 41
0.9434184971794343
 10
-1405.955313576092
 20
547.0860518005812
 30
0.0
 41
0.9245579962392457
 10
-1405.955313576092
 20
548.2072275022626
 30
0.0
 41
0.9434184971794344
 10
-1405.955313576092
 20
549.3704924859055
 30
0.0
 41
1.0
 10
-1405.955313576092
 20
550.5337574695486
 30
0.0
 41
0.9434184971794343
 10
-1405.955313576092
 20
551.6549331712295
 30
0.0
 41
0.9245579962392457
 10
-1405.955313576092
 20
552.597010313023
 30
0.0
 41
0.9434184971794344
 10
-1405.955313576092
 20
553.2635142796885
 30
0.0
 41
1.0
 10
-1405.955313576092
 20
553.2716733529296
 30
0.0
 41
0.9992663491129209
 10
-1405.955313576092
 20
553.2797896729443
 30
0.0
 41
0.9985390400348226
 10
-1405.955313576091
 20
553.2878629914893
 30
0.0
 41
0.9978180727657053
 10
-1405.955313576091
 20
553.295893061243
 30
0.0
 41
0.997103447305569
  0
SPLINE
  5
120
330
1F
100
AcDbEntity
  8
Make2D$Visibile$120
 62
    18
420
        0
370
    -3
100
AcDbSpline
210
0.0
220
0.0
230
1.0
 70
    28
 71
     4
 72
    14
 73
     9
 74
     0
 42
0.0000000001
 43
0.0000000001
 40
219.4565987939007
 40
219.4565987939007
 40
219.4565987939007
 40
219.4565987939007
 40
219.4565987939007
 40
219.6988446433767
 40
219.6988446433767
 40
219.6988446433767
 40
219.6988446433767
 40
220.2427421340764
 40
220.2427421340764
 40
220.2427421340764
 40
220.2427421340764
 40
220.2427421340764
 10
-273.9553135760993
 20
553.3126373268951
 30
0.0
 41
0.9287098916616933
 10
-273.9553135760993
 20
553.3126373268951
 30
0.0
 41
0.9322197725564554
 10
-273.9553135760995
 20
553.3227221773077
 30
0.0
 41
0.9452714175777606
 10
-273.9553135760994
 20
553.3421856292476
 30
0.0
 41
0.9678648267256087
 10
-273.9553135760993
 20
553.3698348519679
 30
0.0
 41
1.0
 10
-273.9553135760991
 20
553.4345909934102
 30
0.0
 41
0.9278491658579504
 10
-273.9553135760995
 20
553.5401297344395
 30
0.0
 41
0.9037988878106006
 10
-273.9553135760993
 20
553.6732087095156
 30
0.0
 41
0.9278491658579505
 10
-273.9553135760993
 20
553.8126373496627
 30
0.0
 41
1.0
  0
SPLINE
  5
121
330
1F
100
AcDbEntity
  8
Make2D$Visibile$120
 62
    18
420
        0
370
    -3
100
AcDbSpline
210
0.0
220
0.0
230
1.0
 70
    28
 71
     4
 72
    14
 73
     9
 74
     0
 42
0.0000000001
 43
0.0000000001
 40
219.4565987939007
 40
219.4565987939007
 40
219.4565987939007
 40
219.4565987939007
 40
219.4565987939007
 40
219.6988446433767
 40
219.6988446433767
 40
219.6988446433767
 40
219.6988446433767
 40
220.2427421340764
 40
220.2427421340764
 40
220.2427421340764
 40
220.2427421340764
 40
220.2427421340764
 10
-1405.955313576091
 20
553.3126373268951
 30
0.0
 41
0.9287098916616933
 10
-1405.955313576091
 20
553.3126373268951
 30
0.0
 41
0.9322197725564554
 10
-1405.955313576091
 20
553.3227221773077
 30
0.0
 41
0.9452714175777606
 10
-1405.955313576092
 20
553.3421856292476
 30
0.0
 41
0.9678648267256087
 10
-1405.955313576092
 20
553.3698348519679
 30
0.0
 41
1.0
 10
-1405.955313576092
 20
553.4345909934102
 30
0.0
 41
0.9278491658579504
 10
-1405.955313576092
 20
553.5401297344395
 30
0.0
 41
0.9037988878106006
 10
-1405.955313576092
 20
553.6732087095156
 30
0.0
 41
0.9278491658579505
 10
-1405.955313576092
 20
553.8126373496627
 30
0.0
 41
1.0
  0
SPLINE
  5
122
330
1F
100
AcDbEntity
  8
Make2D$Visibile$120
 62
    18
420
        0
370
    -3
100
AcDbSpline
210
0.0
220
0.0
230
1.0
 70
    28
 71
     2
 72
     6
 73
     3
 74
     0
 42
0.0000000001
 43
0.0000000001
 40
0.0
 40
0.0
 40
0.0
 40
1119.999999999892
 40
1119.999999999892
 40
1119.999999999892
 10
-1399.955313576099
 20
598.7083997459594
 30
0.0
 41
0.9100637564058569
 10
-839.9553135761533
 20
598.7083997459594
 30
0.0
 41
0.9100637564058569
 10
-279.9553135762076
 20
598.7083997459594
 30
0.0
 41
0.9100637564058569
  0
SPLINE
  5
123
330
1F
100
AcDbEntity
  8
Make2D$Visibile$120
 62
    18
420
        0
370
    -3
100
AcDbSpline
210
0.0
220
0.0
230
1.0
 70
    28
 71
     3
 72
    11
 73
     7
 74
     0
 42
0.0000000001
 43
0.0000000001
 40
-44.32949141213125
 40
-44.32949141213125
 40
-44.32949141213125
 40
-44.32949141213125
 40
-33.7495515493011
 40
-33.7495515493011
 40
-33.7495515493011
 40
-29.34929926116651
 40
-29.34929926116651
 40
-29.34929926116651
 40
-29.34929926116651
 10
-1399.955313576099
 20
598.7083997459594
 30
0.0
 41
0.9100637564058569
 10
-1399.955313576099
 20
598.7083997459589
 30
0.0
 41
0.8998791071299628
 10
-1399.955313576099
 20
597.4153661851167
 30
0.0
 41
0.9298578549946771
 10
-1399.955313576099
 20
595.1013875059955
 30
0.0
 41
1.0
 10
-1399.955313576099
 20
594.1796055152843
 30
0.0
 41
0.9708275152736285
 10
-1399.955313576099
 20
593.1043634647475
 30
0.0
 41
0.9486023808272493
 10
-1399.9553135761
 20
591.8887095887741
 30
0.0
 41
0.9333245966608621
  0
SPLINE
  5
124
330
1F
100
AcDbEntity
  8
Make2D$Visibile$120
 62
    18
420
        0
370
    -3
100
AcDbSpline
210
0.0
220
0.0
230
1.0
 70
    28
 71
     3
 72
    11
 73
     7
 74
     0
 42
0.0000000001
 43
0.0000000001
 40
-44.32949141213186
 40
-44.32949141213186
 40
-44.32949141213186
 40
-44.32949141213186
 40
-33.7495515493011
 40
-33.7495515493011
 40
-33.7495515493011
 40
-29.35257719821392
 40
-29.35257719821392
 40
-29.35257719821392
 40
-29.35257719821392
 10
-279.955313576208
 20
598.7083997459594
 30
0.0
 41
0.9100637564058587
 10
-279.9553135762078
 20
598.7083997459596
 30
0.0
 41
0.8998791071299593
 10
-279.9553135762079
 20
597.4153661851167
 30
0.0
 41
0.9298578549946731
 10
-279.9553135762078
 20
595.1013875059955
 30
0.0
 41
1.0
 10
-279.9553135762077
 20
594.1803128084338
 30
0.0
 41
0.9708492471113025
 10
-279.9553135762079
 20
593.1060028760048
 30
0.0
 41
0.9486354975983339
 10
-279.9553135762076
 20
591.8914705909392
 30
0.0
 41
0.9333587514610943
  0
SPLINE
  5
125
330
1F
100
AcDbEntity
  8
Make2D$Visibile$120
 62
    18
420
        0
370
    -3
100
AcDbSpline
210
0.0
220
0.0
230
1.0
 70
    24
 71
     2
 72
     6
 73
     3
 74
     0
 42
0.0000000001
 43
0.0000000001
 40
-2240.000000000008
 40
-2240.000000000008
 40
-2240.000000000008
 40
-1155.000000000009
 40
-1155.000000000009
 40
-1155.000000000009
 10
-1382.455313576099
 20
584.3485578830221
 30
0.0
 10
-839.9553135760993
 20
584.3485578830221
 30
0.0
 10
-297.4553135760993
 20
584.3485578830221
 30
0.0
  0
SPLINE
  5
126
330
1F
100
AcDbEntity
  8
Make2D$Visibile$120
 62
    18
420
        0
370
    -3
100
AcDbSpline
210
0.0
220
0.0
230
1.0
 70
    24
 71
     2
 72
     6
 73
     3
 74
     0
 42
0.0000000001
 43
0.0000000001
 40
-1085.0
 40
-1085.0
 40
-1085.0
 40
0.0
 40
0.0
 40
0.0
 10
-297.4553135760993
 20
514.3485578830134
 30
0.0
 10
-839.9553135760993
 20
514.3485578830134
 30
0.0
 10
-1382.455313576099
 20
514.3485578830134
 30
0.0
  0
SPLINE
  5
127
330
1F
100
AcDbEntity
  8
Make2D$Visibile$120
 62
    18
420
        0
370
    -3
100
AcDbSpline
210
0.0
220
0.0
230
1.0
 70
    28
 71
     2
 72
     6
 73
     3
 74
     0
 42
0.0000000001
 43
0.0000000001
 40
0.0
 40
0.0
 40
0.0
 40
1119.999999999891
 40
1119.999999999891
 40
1119.999999999891
 10
-279.9553135762079
 20
500.0164041650441
 30
0.0
 41
0.9100404613269945
 10
-839.9553135761537
 20
500.0164041650441
 30
0.0
 41
0.9100404613269945
 10
-1399.955313576099
 20
500.0164041650441
 30
0.0
 41
0.9100404613269945
  0
SPLINE
  5
128
330
1F
100
AcDbEntity
  8
Make2D$Visibile$120
 62
    18
420
        0
370
    -3
100
AcDbSpline
210
0.0
220
0.0
230
1.0
 70
    28
 71
     2
 72
     6
 73
     3
 74
     0
 42
0.0000000001
 43
0.0000000001
 40
1108.490108254951
 40
1108.490108254951
 40
1108.490108254951
 40
1131.999999999992
 40
1131.999999999992
 40
1131.999999999992
 10
-1382.445421831051
 20
545.3396571287885
 30
0.0
 41
1.0
 10
-1394.200367703571
 20
545.3396571287885
 30
0.0
 41
1.0
 10
-1405.955313576092
 20
545.3396571287885
 30
0.0
 41
1.0
  0
SPLINE
  5
129
330
1F
100
AcDbEntity
  8
Make2D$Visibile$120
 62
    18
420
        0
370
    -3
100
AcDbSpline
210
0.0
220
0.0
230
1.0
 70
    28
 71
     3
 72
    11
 73
     7
 74
     0
 42
0.0000000001
 43
0.0000000001
 40
-109.9012226740581
 40
-109.9012226740581
 40
-109.9012226740581
 40
-109.9012226740581
 40
-105.4572067562236
 40
-105.4572067562236
 40
-105.4572067562236
 40
-94.88535769862463
 40
-94.88535769862463
 40
-94.88535769862463
 40
-94.88535769862463
 10
-1399.955313576099
 20
506.8660019604271
 30
0.0
 41
0.9328708131007623
 10
-1399.955313576099
 20
505.6357899424038
 30
0.0
 41
0.9481609785905846
 10
-1399.955313576099
 20
504.5486173466654
 30
0.0
 41
0.9705373742236638
 10
-1399.955313576099
 20
503.6179939187564
 30
0.0
 41
1.0
 10
-1399.9553135761
 20
501.3074194117144
 30
0.0
 41
0.9299114948490704
 10
-1399.9553135761
 20
500.0164041650442
 30
0.0
 41
0.8999249819580686
 10
-1399.955313576099
 20
500.0164041650441
 30
0.0
 41
0.9100404613269945
  0
SPLINE
  5
12A
330
1F
100
AcDbEntity
  8
Make2D$Visibile$120
 62
    18
420
        0
370
    -3
100
AcDbSpline
210
0.0
220
0.0
230
1.0
 70
    28
 71
     3
 72
    11
 73
     7
 74
     0
 42
0.0000000001
 43
0.0000000001
 40
-109.8854257221707
 40
-109.8854257221707
 40
-109.8854257221707
 40
-109.8854257221707
 40
-105.4572067562236
 40
-105.4572067562236
 40
-105.4572067562236
 40
-94.88535769862463
 40
-94.88535769862463
 40
-94.88535769862463
 40
-94.88535769862463
 10
-279.9553135762076
 20
506.8526737275475
 30
0.0
 41
0.9330341355939762
 10
-279.9553135762077
 20
505.627881047508
 30
0.0
 41
0.9483201489479379
 10
-279.9553135762077
 20
504.5452092449715
 30
0.0
 41
0.9706421037499459
 10
-279.9553135762078
 20
503.6179939187564
 30
0.0
 41
1.0
 10
-279.9553135762079
 20
501.3074194117144
 30
0.0
 41
0.9299114948490704
 10
-279.955313576208
 20
500.0164041650442
 30
0.0
 41
0.8999249819580686
 10
-279.9553135762079
 20
500.0164041650441
 30
0.0
 41
0.9100404613269945
  0
SPLINE
  5
12B
330
1F
100
AcDbEntity
  8
Make2D$Visibile$120
 62
    18
420
        0
370
    -3
100
AcDbSpline
210
0.0
220
0.0
230
1.0
 70
    28
 71
     2
 72
     6
 73
     3
 74
     0
 42
0.0000000001
 43
0.0000000001
 40
17.50096184910549
 40
17.50096184910549
 40
17.50096184910549
 40
17.50771777333065
 40
17.50771777333065
 40
17.50771777333065
 10
-1382.454351726994
 20
520.421763879044
 30
0.0
 41
1.0
 10
-1382.450973764881
 20
520.421763879044
 30
0.0
 41
1.0
 10
-1382.447595802769
 20
520.421763879044
 30
0.0
 41
1.0
  0
SPLINE
  5
12C
330
1F
100
AcDbEntity
  8
Make2D$Visibile$120
 62
    18
420
        0
370
    -3
100
AcDbSpline
210
0.0
220
0.0
230
1.0
 70
    28
 71
     2
 72
     6
 73
     3
 74
     0
 42
0.0000000001
 43
0.0000000001
 40
0.0
 40
0.0
 40
0.0
 40
4.991001016791851
 40
4.991001016791851
 40
4.991001016791851
 10
-279.4553990190151
 20
598.7733649340856
 30
0.0
 41
0.9688918706028972
 10
-276.9598985131847
 20
598.7733791331782
 30
0.0
 41
0.9688918706028972
 10
-274.4643980073541
 20
598.7733933322709
 30
0.0
 41
0.9688918706028972
  0
SPLINE
  5
12D
330
1F
100
AcDbEntity
  8
Make2D$Visibile$120
 62
    18
420
        0
370
    -3
100
AcDbSpline
210
0.0
220
0.0
230
1.0
 70
    12
 71
     2
 72
     6
 73
     3
 74
     0
 42
0.0000000001
 43
0.0000000001
 40
2.356194490193013
 40
2.356194490193013
 40
2.356194490193013
 40
2.484000570886302
 40
2.484000570886302
 40
2.484000570886302
 10
-273.9553135762078
 20
590.9819176393792
 30
0.0
 41
1.0
 10
-273.9558453468707
 20
591.0123537534488
 30
0.0
 41
0.9523381437559828
 10
-273.9708748141188
 20
591.0418507437624
 30
0.0
 41
0.9201881013383939
  0
SPLINE
  5
12E
330
1F
100
AcDbEntity
  8
Make2D$Visibile$120
 62
    18
420
        0
370
    -3
100
AcDbSpline
210
0.0
220
0.0
230
1.0
 70
    28
 71
     2
 72
     6
 73
     3
 74
     0
 42
0.0000000001
 43
0.0000000001
 40
20.0508388826783
 40
20.0508388826783
 40
20.0508388826783
 40
34.2338764905985
 40
34.2338764905985
 40
34.2338764905985
 10
-273.9553135762079
 20
591.8887095887742
 30
0.0
 41
0.9819371357414199
 10
-273.9553135762078
 20
598.2873848758978
 30
0.0
 41
0.8756155182722308
 10
-273.9553135762078
 20
598.2873848758982
 30
0.0
 41
1.0
  0
SPLINE
  5
12F
330
1F
100
AcDbEntity
  8
Make2D$Visibile$120
 62
    18
420
        0
370
    -3
100
AcDbSpline
210
0.0
220
0.0
230
1.0
 70
    12
 71
     2
 72
     6
 73
     3
 74
     0
 42
0.0000000001
 43
0.0000000001
 40
-67.39409718678846
 40
-67.39409718678846
 40
-67.39409718678846
 40
-52.4563999432405
 40
-52.4563999432405
 40
-52.4563999432405
 10
-279.4547900239247
 20
591.888709588774
 30
0.0
 41
0.9559642657642275
 10
-279.4550299481895
 20
598.7733649361851
 30
0.0
 41
0.8590544110966111
 10
-279.4553990190154
 20
598.7733649340853
 30
0.0
 41
1.0
  0
SPLINE
  5
130
330
1F
100
AcDbEntity
  8
Make2D$Visibile$120
 62
    18
420
        0
370
    -3
100
AcDbSpline
210
0.0
220
0.0
230
1.0
 70
    28
 71
     4
 72
    10
 73
     5
 74
     0
 42
0.0000000001
 43
0.0000000001
 40
220.2427421340764
 40
220.2427421340764
 40
220.2427421340764
 40
220.2427421340764
 40
220.2427421340764
 40
238.7810623008984
 40
238.7810623008984
 40
238.7810623008984
 40
238.7810623008984
 40
238.7810623008984
 10
-273.9553135760993
 20
553.8126373496627
 30
0.0
 41
1.0
 10
-273.9553135760993
 20
558.4472174146008
 30
0.0
 41
1.0
 10
-273.9553135760993
 20
563.0817974642177
 30
0.0
 41
1.0
 10
-273.9553135760993
 20
567.7163775061742
 30
0.0
 41
1.0
 10
-273.9553135760993
 20
572.3509575481307
 30
0.0
 41
1.0
  0
SPLINE
  5
131
330
1F
100
AcDbEntity
  8
Make2D$Visibile$120
 62
    18
420
        0
370
    -3
100
AcDbSpline
210
0.0
220
0.0
230
1.0
 70
    12
 71
     2
 72
     6
 73
     3
 74
     0
 42
0.0000000001
 43
0.0000000001
 40
-67.42437227729991
 40
-67.42437227729991
 40
-67.42437227729991
 40
-52.46535992983922
 40
-52.46535992983922
 40
-52.46535992983922
 10
-279.4547891512479
 20
506.8525434859056
 30
0.0
 41
0.956312118322338
 10
-279.4550289077577
 20
499.9503278466793
 30
0.0
 41
0.8588869519703275
 10
-279.4553986159472
 20
499.9503278487732
 30
0.0
 41
1.0
  0
SPLINE
  5
132
330
1F
100
AcDbEntity
  8
Make2D$Visibile$120
 62
    18
420
        0
370
    -3
100
AcDbSpline
210
0.0
220
0.0
230
1.0
 70
    28
 71
     2
 72
     6
 73
     3
 74
     0
 42
0.0000000001
 43
0.0000000001
 40
20.05083888267821
 40
20.05083888267821
 40
20.05083888267821
 40
34.23387649059853
 40
34.23387649059853
 40
34.23387649059853
 10
-1405.955313576099
 20
591.888709588774
 30
0.0
 41
0.9819371357414213
 10
-1405.955313576099
 20
598.2873848758978
 30
0.0
 41
0.8756155182722296
 10
-1405.955313576099
 20
598.2873848758982
 30
0.0
 41
1.0
  0
SPLINE
  5
133
330
1F
100
AcDbEntity
  8
Make2D$Visibile$120
 62
    18
420
        0
370
    -3
100
AcDbSpline
210
0.0
220
0.0
230
1.0
 70
    12
 71
     2
 72
     6
 73
     3
 74
     0
 42
0.0000000001
 43
0.0000000001
 40
-67.39409718678834
 40
-67.39409718678834
 40
-67.39409718678834
 40
-52.4563999432405
 40
-52.4563999432405
 40
-52.4563999432405
 10
-1400.455837128383
 20
591.8887095887743
 30
0.0
 41
0.9559642657642261
 10
-1400.455597204118
 20
598.7733649361855
 30
0.0
 41
0.8590544110966122
 10
-1400.455228133292
 20
598.7733649340853
 30
0.0
 41
1.0
  0
SPLINE
  5
134
330
1F
100
AcDbEntity
  8
Make2D$Visibile$120
 62
    18
420
        0
370
    -3
100
AcDbSpline
210
0.0
220
0.0
230
1.0
 70
    28
 71
     4
 72
    18
 73
    13
 74
     0
 42
0.0000000001
 43
0.0000000001
 40
178.7723752752941
 40
178.7723752752941
 40
178.7723752752941
 40
178.7723752752941
 40
178.7723752752941
 40
197.3106669588877
 40
197.3106669588877
 40
197.3106669588877
 40
197.3106669588877
 40
197.873972867637
 40
197.873972867637
 40
197.873972867637
 40
197.873972867637
 40
198.1246425486494
 40
198.1246425486494
 40
198.1246425486494
 40
198.1246425486494
 40
198.1246425486494
 10
-273.9553135760993
 20
526.3908351961834
 30
0.0
 41
1.0
 10
-273.9553135760993
 20
531.025408117476
 30
0.0
 41
1.0
 10
-273.9553135760993
 20
535.6599810387684
 30
0.0
 41
1.0
 10
-273.9553135760993
 20
540.2945539584839
 30
0.0
 41
1.0
 10
-273.9553135760993
 20
544.9291268750453
 30
0.0
 41
1.0
 10
-273.9553135760993
 20
545.0584121136365
 30
0.0
 41
1.0
 10
-273.9553135760992
 20
545.2038509456765
 30
0.0
 41
0.9861567708385836
 10
-273.9553135760993
 20
545.3113749272743
 30
0.0
 41
1.0
 10
-273.9553135760993
 20
545.3713308630886
 30
0.0
 41
1.0
 10
-273.9553135760993
 20
545.3980111003664
 30
0.0
 41
1.0
 10
-273.9553135760993
 20
545.4181403413052
 30
0.0
 41
0.9972587262238167
 10
-273.9553135760991
 20
545.4283474808733
 30
0.0
 41
0.9954357580174351
 10
-273.9553135760993
 20
545.4283474808734
 30
0.0
 41
0.9949336679280504
  0
SPLINE
  5
135
330
1F
100
AcDbEntity
  8
Make2D$Visibile$120
 62
    18
420
        0
370
    -3
100
AcDbSpline
210
0.0
220
0.0
230
1.0
 70
    28
 71
     4
 72
    18
 73
    13
 74
     0
 42
0.0000000001
 43
0.0000000001
 40
178.7723752752941
 40
178.7723752752941
 40
178.7723752752941
 40
178.7723752752941
 40
178.7723752752941
 40
197.3106669588877
 40
197.3106669588877
 40
197.3106669588877
 40
197.3106669588877
 40
197.873972867637
 40
197.873972867637
 40
197.873972867637
 40
197.873972867637
 40
198.1246425486494
 40
198.1246425486494
 40
198.1246425486494
 40
198.1246425486494
 40
198.1246425486494
 10
-1405.955313576092
 20
526.3908351961834
 30
0.0
 41
1.0
 10
-1405.955313576092
 20
531.025408117476
 30
0.0
 41
1.0
 10
-1405.955313576092
 20
535.6599810387684
 30
0.0
 41
1.0
 10
-1405.955313576092
 20
540.2945539584839
 30
0.0
 41
1.0
 10
-1405.955313576092
 20
544.9291268750453
 30
0.0
 41
1.0
 10
-1405.955313576092
 20
545.0584121136365
 30
0.0
 41
1.0
 10
-1405.955313576091
 20
545.2038509456765
 30
0.0
 41
0.9861567708385836
 10
-1405.955313576092
 20
545.3113749272743
 30
0.0
 41
1.0
 10
-1405.955313576092
 20
545.3713308630886
 30
0.0
 41
1.0
 10
-1405.955313576092
 20
545.3980111003664
 30
0.0
 41
1.0
 10
-1405.955313576091
 20
545.4181403413052
 30
0.0
 41
0.9972587262238167
 10
-1405.955313576091
 20
545.4283474808733
 30
0.0
 41
0.9954357580174351
 10
-1405.955313576092
 20
545.4283474808734
 30
0.0
 41
0.9949336679280504
  0
SPLINE
  5
136
330
1F
100
AcDbEntity
  8
Make2D$Visibile$120
 62
    18
420
        0
370
    -3
100
AcDbSpline
210
0.0
220
0.0
230
1.0
 70
    28
 71
     4
 72
    10
 73
     5
 74
     0
 42
0.0000000001
 43
0.0000000001
 40
220.2427421340764
 40
220.2427421340764
 40
220.2427421340764
 40
220.2427421340764
 40
220.2427421340764
 40
238.7810623008984
 40
238.7810623008984
 40
238.7810623008984
 40
238.7810623008984
 40
238.7810623008984
 10
-1405.955313576092
 20
553.8126373496627
 30
0.0
 41
1.0
 10
-1405.955313576092
 20
558.4472174146008
 30
0.0
 41
1.0
 10
-1405.955313576092
 20
563.0817974642177
 30
0.0
 41
1.0
 10
-1405.955313576092
 20
567.7163775061742
 30
0.0
 41
1.0
 10
-1405.955313576092
 20
572.3509575481307
 30
0.0
 41
1.0
  0
SPLINE
  5
137
330
1F
100
AcDbEntity
  8
Make2D$Visibile$120
 62
    18
420
        0
370
    -3
100
AcDbSpline
210
0.0
220
0.0
230
1.0
 70
    28
 71
     4
 72
    14
 73
     9
 74
     0
 42
0.0000000001
 43
0.0000000001
 40
238.7810623008984
 40
238.7810623008984
 40
238.7810623008984
 40
238.7810623008984
 40
238.7810623008984
 40
257.3193824677205
 40
257.3193824677205
 40
257.3193824677205
 40
257.3193824677205
 40
259.2208262572911
 40
259.2208262572911
 40
259.2208262572911
 40
259.2208262572911
 40
259.2208262572911
 10
-273.9553135760993
 20
572.3509575481307
 30
0.0
 41
1.0
 10
-273.9553135760993
 20
576.9855375900872
 30
0.0
 41
1.0
 10
-273.9553135760993
 20
581.6201176320437
 30
0.0
 41
1.0
 10
-273.9553135760993
 20
586.2546976576723
 30
0.0
 41
1.0
 10
-273.9553135760993
 20
590.8892776506459
 30
0.0
 41
1.0
 10
-273.9553135760992
 20
591.2771531694424
 30
0.0
 41
0.8170334545541741
 10
-273.9553135760993
 20
591.6584769929261
 30
0.0
 41
0.7233382643302064
 10
-273.9553135760994
 20
591.8887095887741
 30
0.0
 41
0.7189144293280971
 10
-273.9553135760994
 20
591.8887095887741
 30
0.0
 41
0.8037619495478462
  0
SPLINE
  5
138
330
1F
100
AcDbEntity
  8
Make2D$Visibile$120
 62
    18
420
        0
370
    -3
100
AcDbSpline
210
0.0
220
0.0
230
1.0
 70
    28
 71
     4
 72
    14
 73
     9
 74
     0
 42
0.0000000001
 43
0.0000000001
 40
238.7810623008984
 40
238.7810623008984
 40
238.7810623008984
 40
238.7810623008984
 40
238.7810623008984
 40
257.3193824677205
 40
257.3193824677205
 40
257.3193824677205
 40
257.3193824677205
 40
259.2208262572914
 40
259.2208262572914
 40
259.2208262572914
 40
259.2208262572914
 40
259.2208262572914
 10
-1405.955313576092
 20
572.3509575481307
 30
0.0
 41
1.0
 10
-1405.955313576092
 20
576.9855375900872
 30
0.0
 41
1.0
 10
-1405.955313576092
 20
581.6201176320437
 30
0.0
 41
1.0
 10
-1405.955313576092
 20
586.2546976576723
 30
0.0
 41
1.0
 10
-1405.955313576092
 20
590.8892776506459
 30
0.0
 41
1.0
 10
-1405.955313576091
 20
591.2771531694423
 30
0.0
 41
0.8170334545541412
 10
-1405.955313576092
 20
591.6584769929262
 30
0.0
 41
0.7233382643301729
 10
-1405.955313576092
 20
591.8887095887742
 30
0.0
 41
0.7189144293280949
 10
-1405.955313576091
 20
591.8887095887742
 30
0.0
 41
0.8037619495479071
  0
SPLINE
  5
139
330
1F
100
AcDbEntity
  8
Make2D$Visibile$120
 62
    18
420
        0
370
    -3
100
AcDbSpline
210
0.0
220
0.0
230
1.0
 70
    28
 71
     2
 72
     6
 73
     3
 74
     0
 42
0.0000000001
 43
0.0000000001
 40
0.0
 40
0.0
 40
0.0
 40
1131.999999999992
 40
1131.999999999992
 40
1131.999999999992
 10
-273.9553135760992
 20
506.8525434859058
 30
0.0
 41
0.9330127003229861
 10
-839.9553135760951
 20
506.8525434859058
 30
0.0
 41
0.9330127003229861
 10
-1405.955313576091
 20
506.8525434859058
 30
0.0
 41
0.9330127003229861
  0
SPLINE
  5
13A
330
1F
100
AcDbEntity
  8
Make2D$Visibile$120
 62
    18
420
        0
370
    -3
100
AcDbSpline
210
0.0
220
0.0
230
1.0
 70
    28
 71
     4
 72
    14
 73
     9
 74
     0
 42
0.0000000001
 43
0.0000000001
 40
158.6632872460748
 40
158.6632872460748
 40
158.6632872460748
 40
158.6632872460748
 40
158.6632872460748
 40
159.18688602795
 40
159.18688602795
 40
159.18688602795
 40
159.18688602795
 40
160.2340835917005
 40
160.2340835917005
 40
160.2340835917005
 40
160.2340835917005
 40
160.2340835917005
 10
-273.9553135760992
 20
506.8525434859058
 30
0.0
 41
0.9330127003229861
 10
-273.9553135760995
 20
506.8525434867465
 30
0.0
 41
0.9330127003229852
 10
-273.9553135760992
 20
506.8761927545734
 30
0.0
 41
0.9441772502691539
 10
-273.9553135760993
 20
506.9218521893815
 30
0.0
 41
0.9665063501614921
 10
-273.9553135760993
 20
506.986518088398
 30
0.0
 41
1.0
 10
-273.9553135760992
 20
507.1204926892088
 30
0.0
 41
0.9330127003229861
 10
-273.9553135760993
 20
507.3280244495442
 30
0.0
 41
0.9106836004306481
 10
-273.955313576099
 20
507.5845943152183
 30
0.0
 41
0.933012700322986
 10
-273.9553135760993
 20
507.8525435110134
 30
0.0
 41
1.0
  0
SPLINE
  5
13B
330
1F
100
AcDbEntity
  8
Make2D$Visibile$120
 62
    18
420
        0
370
    -3
100
AcDbSpline
210
0.0
220
0.0
230
1.0
 70
    28
 71
     4
 72
    14
 73
     9
 74
     0
 42
0.0000000001
 43
0.0000000001
 40
158.6632872460748
 40
158.6632872460748
 40
158.6632872460748
 40
158.6632872460748
 40
158.6632872460748
 40
159.18688602795
 40
159.18688602795
 40
159.18688602795
 40
159.18688602795
 40
160.2340835917005
 40
160.2340835917005
 40
160.2340835917005
 40
160.2340835917005
 40
160.2340835917005
 10
-1405.955313576091
 20
506.8525434859058
 30
0.0
 41
0.9330127003229861
 10
-1405.955313576091
 20
506.8525434867465
 30
0.0
 41
0.9330127003229852
 10
-1405.955313576092
 20
506.8761927545734
 30
0.0
 41
0.9441772502691539
 10
-1405.955313576092
 20
506.9218521893815
 30
0.0
 41
0.9665063501614921
 10
-1405.955313576092
 20
506.986518088398
 30
0.0
 41
1.0
 10
-1405.955313576091
 20
507.1204926892088
 30
0.0
 41
0.9330127003229861
 10
-1405.955313576091
 20
507.3280244495442
 30
0.0
 41
0.9106836004306481
 10
-1405.955313576091
 20
507.5845943152183
 30
0.0
 41
0.933012700322986
 10
-1405.955313576092
 20
507.8525435110134
 30
0.0
 41
1.0
  0
SPLINE
  5
13C
330
1F
100
AcDbEntity
  8
Make2D$Visibile$120
 62
    18
420
        0
370
    -3
100
AcDbSpline
210
0.0
220
0.0
230
1.0
 70
    28
 71
     2
 72
     6
 73
     3
 74
     0
 42
0.0000000001
 43
0.0000000001
 40
1108.497323277627
 40
1108.497323277627
 40
1108.497323277627
 40
1131.999999999992
 40
1131.999999999992
 40
1131.999999999992
 10
-1382.452636853726
 20
553.3126373268951
 30
0.0
 41
0.9287098916616933
 10
-1394.203975214909
 20
553.3126373268951
 30
0.0
 41
0.9287098916616934
 10
-1405.955313576092
 20
553.3126373268951
 30
0.0
 41
0.9287098916616934
  0
SPLINE
  5
13D
330
1F
100
AcDbEntity
  8
Make2D$Visibile$120
 62
    18
420
        0
370
    -3
100
AcDbSpline
210
0.0
220
0.0
230
1.0
 70
    28
 71
     2
 72
     6
 73
     3
 74
     0
 42
0.0000000001
 43
0.0000000001
 40
0.0
 40
0.0
 40
0.0
 40
1131.999999999992
 40
1131.999999999992
 40
1131.999999999992
 10
-1405.955313576091
 20
591.8887095887738
 30
0.0
 41
0.8037619495478361
 10
-839.9553135760954
 20
591.8887095887738
 30
0.0
 41
0.8037619495478361
 10
-273.9553135760995
 20
591.8887095887738
 30
0.0
 41
0.8037619495478361
  0
SPLINE
  5
13E
330
1F
100
AcDbEntity
  8
Make2D$Visibile$120
 62
    18
420
        0
370
    -3
100
AcDbSpline
210
0.0
220
0.0
230
1.0
 70
    24
 71
     2
 72
     6
 73
     3
 74
     0
 42
0.0000000001
 43
0.0000000001
 40
-2310.000000000017
 40
-2310.000000000017
 40
-2310.000000000017
 40
-2240.000000000008
 40
-2240.000000000008
 40
-2240.000000000008
 10
-1382.455313576099
 20
514.3485578830134
 30
0.0
 10
-1382.455313576099
 20
549.3485578830177
 30
0.0
 10
-1382.455313576099
 20
584.3485578830221
 30
0.0
  0
SPLINE
  5
13F
330
1F
100
AcDbEntity
  8
Make2D$Visibile$120
 62
    18
420
        0
370
    -3
100
AcDbSpline
210
0.0
220
0.0
230
1.0
 70
    24
 71
     2
 72
     6
 73
     3
 74
     0
 42
0.0000000001
 43
0.0000000001
 40
-1155.000000000009
 40
-1155.000000000009
 40
-1155.000000000009
 40
-1085.0
 40
-1085.0
 40
-1085.0
 10
-297.4553135760993
 20
584.3485578830221
 30
0.0
 10
-297.4553135760993
 20
549.3485578830177
 30
0.0
 10
-297.4553135760993
 20
514.3485578830134
 30
0.0
  0
SPLINE
  5
140
330
1F
100
AcDbEntity
  8
Make2D$Visibile$120
 62
    18
420
        0
370
    -3
100
AcDbSpline
210
0.0
220
0.0
230
1.0
 70
    12
 71
     4
 72
    22
 73
    17
 74
     0
 42
0.0000000001
 43
0.0000000001
 40
1.232338728503803
 40
1.232338728503803
 40
1.232338728503803
 40
1.232338728503803
 40
1.232338728503803
 40
5.795586660915397
 40
5.795586660915397
 40
5.795586660915397
 40
5.795586660915397
 40
10.35883459332699
 40
10.35883459332699
 40
10.35883459332699
 40
10.35883459332699
 40
14.92208252573859
 40
14.92208252573859
 40
14.92208252573859
 40
14.92208252573859
 40
19.48533045815018
 40
19.48533045815018
 40
19.48533045815018
 40
19.48533045815018
 40
19.48533045815018
 10
-4.973939510441824
 20
571.5327526053588
 30
0.0
 41
1.0
 10
-4.081702227704722
 20
570.7863625910468
 30
0.0
 41
0.9434184971794337
 10
-3.456367456989469
 20
569.7865134192424
 30
0.0
 41
0.924557996239245
 10
-3.188951547539653
 20
568.6379357452487
 30
0.0
 41
0.9434184971794337
 10
-3.28946450036733
 20
567.4790213530332
 30
0.0
 41
1.0
 10
-3.389977453194825
 20
566.3201069608178
 30
0.0
 41
0.9434184971794337
 10
-3.851145744086124
 20
565.234719587895
 30
0.0
 41
0.924557996239245
 10
-4.639282553278286
 20
564.3574611813694
 30
0.0
 41
0.9434184971794337
 10
-5.646699580446011
 20
563.7758286895478
 30
0.0
 41
1.0
 10
-6.654116607614069
 20
563.1941961977261
 30
0.0
 41
0.9434184971794337
 10
-7.80791307794465
 20
562.9502789025709
 30
0.0
 41
0.924557996239245
 10
-8.978470261288322
 20
563.0935891337006
 30
0.0
 41
0.9434184971794337
 10
-10.03237604217225
 20
563.5859995592502
 30
0.0
 41
1.0
 10
-11.08628182305585
 20
564.0784099848
 30
0.0
 41
0.9434184971794337
 10
-11.94727131222917
 20
564.8842877927563
 30
0.0
 41
0.924557996239245
 10
-12.50049870960716
 20
565.9257681759678
 30
0.0
 41
0.9434184971794337
 10
-12.70077278176382
 20
567.0716633361776
 30
0.0
 41
1.0
  0
SPLINE
  5
141
330
1F
100
AcDbEntity
  8
Make2D$Visibile$120
 62
    18
420
        0
370
    -3
100
AcDbSpline
210
0.0
220
0.0
230
1.0
 70
    28
 71
     4
 72
    10
 73
     5
 74
     0
 42
0.0000000001
 43
0.0000000001
 40
19.48533045815018
 40
19.48533045815018
 40
19.48533045815018
 40
19.48533045815018
 40
19.48533045815018
 40
20.71766891354071
 40
20.71766891354071
 40
20.71766891354071
 40
20.71766891354071
 40
20.71766891354071
 10
-12.70077278176382
 20
567.0716633361776
 30
0.0
 41
1.0
 10
-12.75196890685243
 20
567.375464399483
 30
0.0
 41
1.0
 10
-12.80316503194103
 20
567.6792654627886
 30
0.0
 41
1.0
 10
-12.85436115702964
 20
567.983066526094
 30
0.0
 41
1.0
 10
-12.90555728211825
 20
568.2868675893994
 30
0.0
 41
1.0
  0
SPLINE
  5
142
330
1F
100
AcDbEntity
  8
Make2D$Visibile$120
 62
    18
420
        0
370
    -3
100
AcDbSpline
210
0.0
220
0.0
230
1.0
 70
    12
 71
     4
 72
    14
 73
     9
 74
     0
 42
0.0000000001
 43
0.0000000001
 40
20.71766891354071
 40
20.71766891354071
 40
20.71766891354071
 40
20.71766891354071
 40
20.71766891354071
 40
21.28184687293022
 40
21.28184687293022
 40
21.28184687293022
 40
21.28184687293022
 40
21.84602483231976
 40
21.84602483231976
 40
21.84602483231976
 40
21.84602483231976
 40
21.84602483231976
 10
-12.90555728211825
 20
568.2868675893994
 30
0.0
 41
1.0
 10
-12.8950579974678
 20
568.4158932442184
 30
0.0
 41
0.9999999999999969
 10
-12.92840568795033
 20
568.5648427330327
 30
0.0
 41
0.9860791663355176
 10
-13.02742774448984
 20
568.6810006040419
 30
0.0
 41
1.0
 10
-13.13687114978961
 20
568.7501381164068
 30
0.0
 41
1.0
 10
-13.24631455508938
 20
568.8192756287717
 30
0.0
 41
1.0
 10
-13.39374380493447
 20
568.8588058067221
 30
0.0
 41
0.9860791663355156
 10
-13.5425771686198
 20
568.82494360755
 30
0.0
 41
1.0
 10
-13.65468380275456
 20
568.7602140310585
 30
0.0
 41
1.0
  0
SPLINE
  5
143
330
1F
100
AcDbEntity
  8
Make2D$Visibile$120
 62
    18
420
        0
370
    -3
100
AcDbSpline
210
0.0
220
0.0
230
1.0
 70
    12
 71
     4
 72
    10
 73
     5
 74
     0
 42
0.0000000001
 43
0.0000000001
 40
21.84602483231976
 40
21.84602483231976
 40
21.84602483231976
 40
21.84602483231976
 40
21.84602483231976
 40
40.38353686812732
 40
40.38353686812732
 40
40.38353686812732
 40
40.38353686812732
 40
40.38353686812732
 10
-13.65468380275456
 20
568.7602140310585
 30
0.0
 41
1.0
 10
-17.66809876967659
 20
566.442896656416
 30
0.0
 41
1.0
 10
-21.68156316714635
 20
564.1256648916692
 30
0.0
 41
1.0
 10
-25.69505227988907
 20
561.8084759318704
 30
0.0
 41
1.0
 10
-29.70854139263224
 20
559.4912869720713
 30
0.0
 41
1.0
  0
SPLINE
  5
144
330
1F
100
AcDbEntity
  8
Make2D$Visibile$120
 62
    18
420
        0
370
    -3
100
AcDbSpline
210
0.0
220
0.0
230
1.0
 70
    28
 71
     4
 72
    10
 73
     5
 74
     0
 42
0.0000000001
 43
0.0000000001
 40
40.38353686812732
 40
40.38353686812732
 40
40.38353686812732
 40
40.38353686812732
 40
40.38353686812732
 40
58.92104890393487
 40
58.92104890393487
 40
58.92104890393487
 40
58.92104890393487
 40
58.92104890393487
 10
-29.70854139263224
 20
559.4912869720713
 30
0.0
 41
1.0
 10
-33.72203050537541
 20
557.1740980122722
 30
0.0
 41
1.0
 10
-37.73551961811859
 20
554.8569090524734
 30
0.0
 41
1.0
 10
-41.74900873086176
 20
552.5397200926743
 30
0.0
 41
1.0
 10
-45.76249784360448
 20
550.2225311328752
 30
0.0
 41
1.0
  0
SPLINE
  5
145
330
1F
100
AcDbEntity
  8
Make2D$Visibile$120
 62
    18
420
        0
370
    -3
100
AcDbSpline
210
0.0
220
0.0
230
1.0
 70
    12
 71
     4
 72
    14
 73
     9
 74
     0
 42
0.0000000001
 43
0.0000000001
 40
58.92104890393487
 40
58.92104890393487
 40
58.92104890393487
 40
58.92104890393487
 40
58.92104890393487
 40
59.96824646768545
 40
59.96824646768545
 40
59.96824646768545
 40
59.96824646768545
 40
61.01544403143603
 40
61.01544403143603
 40
61.01544403143603
 40
61.01544403143603
 40
61.01544403143603
 10
-45.76249784360448
 20
550.2225311328752
 30
0.0
 41
1.0
 10
-45.99454865745032
 20
550.088556540804
 30
0.0
 41
0.9330127003229742
 10
-46.17099150561771
 20
549.8810247871137
 30
0.0
 41
0.9106836004306323
 10
-46.26249786198479
 20
549.6244549248858
 30
0.0
 41
0.9330127003229743
 10
-46.26249786534868
 20
549.3565057290909
 30
0.0
 41
1.0
 10
-46.26249786871233
 20
549.0885565332959
 30
0.0
 41
0.9330127003229742
 10
-46.17099151878725
 20
548.8319866687702
 30
0.0
 41
0.9106836004306323
 10
-45.99454867583054
 20
548.6244549106498
 30
0.0
 41
0.9330127003229743
 10
-45.76249786534868
 20
548.4904803127524
 30
0.0
 41
1.0
  0
SPLINE
  5
146
330
1F
100
AcDbEntity
  8
Make2D$Visibile$120
 62
    18
420
        0
370
    -3
100
AcDbSpline
210
0.0
220
0.0
230
1.0
 70
    12
 71
     4
 72
    10
 73
     5
 74
     0
 42
0.0000000001
 43
0.0000000001
 40
61.01544403143603
 40
61.01544403143603
 40
61.01544403143603
 40
61.01544403143603
 40
61.01544403143603
 40
98.09124803143607
 40
98.09124803143607
 40
98.09124803143607
 40
98.09124803143607
 40
98.09124803143607
 10
-45.76249786534868
 20
548.4904803127524
 30
0.0
 41
1.0
 10
-37.7353508329154
 20
543.8560048127524
 30
0.0
 41
1.0
 10
-29.70820380048212
 20
539.2215293127526
 30
0.0
 41
1.0
 10
-21.68105677604785
 20
534.5870537988983
 30
0.0
 41
1.0
 10
-13.65390976761068
 20
529.9525782573357
 30
0.0
 41
1.0
  0
SPLINE
  5
147
330
1F
100
AcDbEntity
  8
Make2D$Visibile$120
 62
    18
420
        0
370
    -3
100
AcDbSpline
210
0.0
220
0.0
230
1.0
 70
    12
 71
     4
 72
    14
 73
     9
 74
     0
 42
0.0000000001
 43
0.0000000001
 40
98.09124803143607
 40
98.09124803143607
 40
98.09124803143607
 40
98.09124803143607
 40
98.09124803143607
 40
98.65499011702876
 40
98.65499011702876
 40
98.65499011702876
 40
98.65499011702876
 40
99.21873220262145
 40
99.21873220262145
 40
99.21873220262145
 40
99.21873220262145
 40
99.21873220262145
 10
-13.65390976761068
 20
529.9525782573357
 30
0.0
 41
1.0
 10
-13.54187310670318
 20
529.8878938602281
 30
0.0
 41
1.0
 10
-13.39312311533393
 20
529.8542727917755
 30
0.0
 41
0.9861179977984282
 10
-13.24586021973414
 20
529.893903282001
 30
0.0
 41
1.0
 10
-13.1365411663985
 20
529.9630815242051
 30
0.0
 41
1.0
 10
-13.02722211306377
 20
530.032259766409
 30
0.0
 41
1.0
 10
-12.92836183983793
 20
530.1483785958638
 30
0.0
 41
0.9861179977984287
 10
-12.89506419072654
 20
530.297201318389
 30
0.0
 41
0.9999999999999993
 10
-12.90555675595283
 20
530.426143905192
 30
0.0
 41
1.0
  0
SPLINE
  5
148
330
1F
100
AcDbEntity
  8
Make2D$Visibile$120
 62
    18
420
        0
370
    -3
100
AcDbSpline
210
0.0
220
0.0
230
1.0
 70
    28
 71
     4
 72
    10
 73
     5
 74
     0
 42
0.0000000001
 43
0.0000000001
 40
99.21873220262145
 40
99.21873220262145
 40
99.21873220262145
 40
99.21873220262145
 40
99.21873220262145
 40
100.4510705099138
 40
100.4510705099138
 40
100.4510705099138
 40
100.4510705099138
 40
100.4510705099138
 10
-12.90555675595283
 20
530.426143905192
 30
0.0
 41
1.0
 10
-12.8543607624058
 20
530.7299449531181
 30
0.0
 41
1.0
 10
-12.80316476885878
 20
531.0337460010442
 30
0.0
 41
1.0
 10
-12.7519687753113
 20
531.3375470489702
 30
0.0
 41
1.0
 10
-12.70077278176382
 20
531.6413480968963
 30
0.0
 41
1.0
  0
SPLINE
  5
149
330
1F
100
AcDbEntity
  8
Make2D$Visibile$120
 62
    18
420
        0
370
    -3
100
AcDbSpline
210
0.0
220
0.0
230
1.0
 70
    12
 71
     4
 72
    22
 73
    17
 74
     0
 42
0.0000000001
 43
0.0000000001
 40
100.4510705099138
 40
100.4510705099138
 40
100.4510705099138
 40
100.4510705099138
 40
100.4510705099138
 40
105.0143184423253
 40
105.0143184423253
 40
105.0143184423253
 40
105.0143184423253
 40
109.5775663747369
 40
109.5775663747369
 40
109.5775663747369
 40
109.5775663747369
 40
114.1408143071485
 40
114.1408143071485
 40
114.1408143071485
 40
114.1408143071485
 40
118.70406223956
 40
118.70406223956
 40
118.70406223956
 40
118.70406223956
 40
118.70406223956
 10
-12.70077278176382
 20
531.6413480968963
 30
0.0
 41
1.0
 10
-12.50049870960692
 20
532.7872432571061
 30
0.0
 41
0.9434184971794335
 10
-11.94727131222941
 20
533.8287236403172
 30
0.0
 41
0.9245579962392446
 10
-11.08628182305609
 20
534.6346014482739
 30
0.0
 41
0.9434184971794334
 10
-10.03237604217225
 20
535.1270118738234
 30
0.0
 41
1.0
 10
-8.97847026128832
 20
535.6194222993734
 30
0.0
 41
0.9434184971794335
 10
-7.807913077944893
 20
535.7627325305028
 30
0.0
 41
0.9245579962392446
 10
-6.654116607614069
 20
535.5188152353476
 30
0.0
 41
0.9434184971794334
 10
-5.646699580446011
 20
534.9371827435261
 30
0.0
 41
1.0
 10
-4.639282553278043
 20
534.3555502517044
 30
0.0
 41
0.9434184971794335
 10
-3.851145744086366
 20
533.4782918451787
 30
0.0
 41
0.9245579962392446
 10
-3.389977453194823
 20
532.3929044722562
 30
0.0
 41
0.9434184971794334
 10
-3.28946450036733
 20
531.2339900800407
 30
0.0
 41
1.0
 10
-3.188951547539409
 20
530.0750756878252
 30
0.0
 41
0.9434184971794335
 10
-3.456367456989219
 20
528.9264980138313
 30
0.0
 41
0.9245579962392446
 10
-4.08170222770472
 20
527.926648842027
 30
0.0
 41
0.9434184971794334
 10
-4.973939510441824
 20
527.1802588277149
 30
0.0
 41
1.0
  0
SPLINE
  5
14A
330
1F
100
AcDbEntity
  8
Make2D$Visibile$120
 62
    18
420
        0
370
    -3
100
AcDbSpline
210
0.0
220
0.0
230
1.0
 70
    28
 71
     4
 72
    10
 73
     5
 74
     0
 42
0.0000000001
 43
0.0000000001
 40
118.70406223956
 40
118.70406223956
 40
118.70406223956
 40
118.70406223956
 40
118.70406223956
 40
119.9364007315843
 40
119.9364007315843
 40
119.9364007315843
 40
119.9364007315843
 40
119.9364007315843
 10
-4.973939510441824
 20
527.1802588277149
 30
0.0
 41
1.0
 10
-5.211441000246623
 20
526.9840212745476
 30
0.0
 41
1.0
 10
-5.448942490051877
 20
526.78778372138
 30
0.0
 41
1.0
 10
-5.686443979856676
 20
526.5915461682127
 30
0.0
 41
1.0
 10
-5.92394546966193
 20
526.3953086150455
 30
0.0
 41
1.0
  0
SPLINE
  5
14B
330
1F
100
AcDbEntity
  8
Make2D$Visibile$120
 62
    18
420
        0
370
    -3
100
AcDbSpline
210
0.0
220
0.0
230
1.0
 70
    12
 71
     4
 72
    14
 73
     9
 74
     0
 42
0.0000000001
 43
0.0000000001
 40
119.9364007315843
 40
119.9364007315843
 40
119.9364007315843
 40
119.9364007315843
 40
119.9364007315843
 40
120.5001425978919
 40
120.5001425978919
 40
120.5001425978919
 40
120.5001425978919
 40
121.0638844641995
 40
121.0638844641995
 40
121.0638844641995
 40
121.0638844641995
 40
121.0638844641995
 10
-5.92394546966193
 20
526.3953086150455
 30
0.0
 41
1.0
 10
-6.040859254221004
 20
526.3399241339339
 30
0.0
 41
1.0
 10
-6.153094616043115
 20
526.2366761844145
 30
0.0
 41
0.9861180173127863
 10
-6.204226318381416
 20
526.0930013273965
 30
0.0
 41
1.0
 10
-6.209476919085546
 20
525.9637391714491
 30
0.0
 41
1.0
 10
-6.214727519790131
 20
525.8344770155018
 30
0.0
 41
1.0
 10
-6.17541712688639
 20
525.6871284202145
 30
0.0
 41
0.9861180173127863
 10
-6.071925525958932
 20
525.5751176883155
 30
0.0
 41
1.0
 10
-5.959888901027853
 20
525.5104333127524
 30
0.0
 41
1.0
  0
SPLINE
  5
14C
330
1F
100
AcDbEntity
  8
Make2D$Visibile$120
 62
    18
420
        0
370
    -3
100
AcDbSpline
210
0.0
220
0.0
230
1.0
 70
    28
 71
     4
 72
    10
 73
     5
 74
     0
 42
0.0000000001
 43
0.0000000001
 40
121.0638844641995
 40
121.0638844641995
 40
121.0638844641995
 40
121.0638844641995
 40
121.0638844641995
 40
158.1396884641995
 40
158.1396884641995
 40
158.1396884641995
 40
158.1396884641995
 40
158.1396884641995
 10
-5.959888901027853
 20
525.5104333127524
 30
0.0
 41
1.0
 10
2.067258131405424
 20
520.8759578127524
 30
0.0
 41
1.0
 10
10.0944051638387
 20
516.2414823127524
 30
0.0
 41
1.0
 10
18.12155219627152
 20
511.6070068127526
 30
0.0
 41
1.0
 10
26.1486992287048
 20
506.9725313127526
 30
0.0
 41
1.0
  0
SPLINE
  5
14D
330
1F
100
AcDbEntity
  8
Make2D$Visibile$120
 62
    18
420
        0
370
    -3
100
AcDbSpline
210
0.0
220
0.0
230
1.0
 70
    12
 71
     4
 72
    18
 73
    13
 74
     0
 42
0.0000000001
 43
0.0000000001
 40
178.7723752752941
 40
178.7723752752941
 40
178.7723752752941
 40
178.7723752752941
 40
178.7723752752941
 40
197.3106669588877
 40
197.3106669588877
 40
197.3106669588877
 40
197.3106669588877
 40
197.873972867637
 40
197.873972867637
 40
197.873972867637
 40
197.873972867637
 40
198.4372787763863
 40
198.4372787763863
 40
198.4372787763863
 40
198.4372787763863
 40
198.4372787763863
 10
27.64869902142323
 20
526.3768484268148
 30
0.0
 41
1.0
 10
27.64869896960295
 20
531.0114213481074
 30
0.0
 41
1.0
 10
27.64869891778267
 20
535.6459942693998
 30
0.0
 41
1.0
 10
27.64864951621507
 20
540.2805671891153
 30
0.0
 41
1.0
 10
27.64850141515194
 20
544.9151401056768
 30
0.0
 41
1.0
 10
27.64849728375043
 20
545.0444253442679
 30
0.0
 41
1.0
 10
27.6030722632741
 20
545.189864176308
 30
0.0
 41
0.9861567708385836
 10
27.49511634758687
 20
545.2973881579057
 30
0.0
 41
1.0
 10
27.38057378928784
 20
545.35734409372
 30
0.0
 41
1.0
 10
27.26603123098971
 20
545.4173000295343
 30
0.0
 41
1.0
 10
27.11615404823046
 20
545.4447357077418
 30
0.0
 41
0.9861567708385902
 10
26.97075576725792
 20
545.399181056599
 30
0.0
 41
0.9999999999999901
 10
26.86440310249941
 20
545.32567035942
 30
0.0
 41
1.0
  0
SPLINE
  5
14E
330
1F
100
AcDbEntity
  8
Make2D$Visibile$120
 62
    18
420
        0
370
    -3
100
AcDbSpline
210
0.0
220
0.0
230
1.0
 70
    28
 71
     4
 72
    10
 73
     5
 74
     0
 42
0.0000000001
 43
0.0000000001
 40
198.4372787763863
 40
198.4372787763863
 40
198.4372787763863
 40
198.4372787763863
 40
198.4372787763863
 40
199.6696169350936
 40
199.6696169350936
 40
199.6696169350936
 40
199.6696169350936
 40
199.6696169350936
 10
26.86440310249941
 20
545.32567035942
 30
0.0
 41
1.0
 10
26.57570571459132
 20
545.2181068814039
 30
0.0
 41
1.0
 10
26.28700832668324
 20
545.1105434033877
 30
0.0
 41
1.0
 10
25.99831093877515
 20
545.0029799253716
 30
0.0
 41
1.0
 10
25.70961355086706
 20
544.8954164473555
 30
0.0
 41
1.0
  0
SPLINE
  5
14F
330
1F
100
AcDbEntity
  8
Make2D$Visibile$120
 62
    18
420
        0
370
    -3
100
AcDbSpline
210
0.0
220
0.0
230
1.0
 70
    12
 71
     4
 72
    22
 73
    17
 74
     0
 42
0.0000000001
 43
0.0000000001
 40
199.6696169350936
 40
199.6696169350936
 40
199.6696169350936
 40
199.6696169350936
 40
199.6696169350936
 40
204.2328648675052
 40
204.2328648675052
 40
204.2328648675052
 40
204.2328648675052
 40
208.7961127999168
 40
208.7961127999168
 40
208.7961127999168
 40
208.7961127999168
 40
213.3593607323284
 40
213.3593607323284
 40
213.3593607323284
 40
213.3593607323284
 40
217.9226086647399
 40
217.9226086647399
 40
217.9226086647399
 40
217.9226086647399
 40
217.9226086647399
 10
25.70961355086706
 20
544.8954164473555
 30
0.0
 41
1.0
 10
24.61710219597323
 20
544.4959113014581
 30
0.0
 41
0.9434184971794343
 10
23.43854002788012
 20
544.4542800900508
 30
0.0
 41
0.9245579962392457
 10
22.31013462925709
 20
544.7969799560882
 30
0.0
 41
0.9434184971794344
 10
21.356741801201
 20
545.463483922754
 30
0.0
 41
1.0
 10
20.4033489731445
 20
546.12998788942
 30
0.0
 41
0.9434184971794343
 10
19.69396008069251
 20
547.0720650312127
 30
0.0
 41
0.9245579962392457
 10
19.32830041955394
 20
548.193240732894
 30
0.0
 41
0.9434184971794344
 10
19.3283004195539
 20
549.356505716537
 30
0.0
 41
1.0
 10
19.32830041955395
 20
550.5197707001802
 30
0.0
 41
0.9434184971794343
 10
19.69396008069251
 20
551.6409464018608
 30
0.0
 41
0.9245579962392457
 10
20.4033489731445
 20
552.5830235436543
 30
0.0
 41
0.9434184971794344
 10
21.356741801201
 20
553.2495275103199
 30
0.0
 41
1.0
 10
22.3101346292571
 20
553.9160314769858
 30
0.0
 41
0.9434184971794343
 10
23.43854002788012
 20
554.258731343023
 30
0.0
 41
0.9245579962392457
 10
24.61710219597323
 20
554.2171001316162
 30
0.0
 41
0.9434184971794344
 10
25.70961355086706
 20
553.8175949857184
 30
0.0
 41
1.0
  0
SPLINE
  5
150
330
1F
100
AcDbEntity
  8
Make2D$Visibile$120
 62
    18
420
        0
370
    -3
100
AcDbSpline
210
0.0
220
0.0
230
1.0
 70
    28
 71
     4
 72
    10
 73
     5
 74
     0
 42
0.0000000001
 43
0.0000000001
 40
217.9226086647399
 40
217.9226086647399
 40
217.9226086647399
 40
217.9226086647399
 40
217.9226086647399
 40
219.154947152677
 40
219.154947152677
 40
219.154947152677
 40
219.154947152677
 40
219.154947152677
 10
25.70961355086706
 20
553.8175949857184
 30
0.0
 41
1.0
 10
25.99831100284496
 20
553.7100314439174
 30
0.0
 41
1.0
 10
26.2870084548224
 20
553.6024679021164
 30
0.0
 41
1.0
 10
26.57570590679984
 20
553.4949043603153
 30
0.0
 41
1.0
 10
26.86440335877774
 20
553.3873408185143
 30
0.0
 41
1.0
  0
SPLINE
  5
151
330
1F
100
AcDbEntity
  8
Make2D$Visibile$120
 62
    18
420
        0
370
    -3
100
AcDbSpline
210
0.0
220
0.0
230
1.0
 70
    12
 71
     4
 72
    14
 73
     9
 74
     0
 42
0.0000000001
 43
0.0000000001
 40
219.154947152677
 40
219.154947152677
 40
219.154947152677
 40
219.154947152677
 40
219.154947152677
 40
219.6988446433767
 40
219.6988446433767
 40
219.6988446433767
 40
219.6988446433767
 40
220.2427421340764
 40
220.2427421340764
 40
220.2427421340764
 40
220.2427421340764
 40
220.2427421340764
 10
26.86440335877774
 20
553.3873408185143
 30
0.0
 41
1.0
 10
26.97910007395729
 20
553.3080627684606
 30
0.0
 41
0.9278491658579504
 10
27.11665081329001
 20
553.2730164695209
 30
0.0
 41
0.9037988878106006
 10
27.25744046591249
 20
553.2910919411571
 30
0.0
 41
0.9278491658579505
 10
27.38091915977816
 20
553.3558480825993
 30
0.0
 41
1.0
 10
27.50439785364419
 20
553.4206042240417
 30
0.0
 41
0.9278491658579504
 10
27.59931899513688
 20
553.526142965071
 30
0.0
 41
0.9037988878106006
 10
27.64869951106255
 20
553.6592219401471
 30
0.0
 41
0.9278491658579505
 10
27.64869950471325
 20
553.7986505802942
 30
0.0
 41
1.0
  0
SPLINE
  5
152
330
1F
100
AcDbEntity
  8
Make2D$Visibile$120
 62
    18
420
        0
370
    -3
100
AcDbSpline
210
0.0
220
0.0
230
1.0
 70
    28
 71
     4
 72
    10
 73
     5
 74
     0
 42
0.0000000001
 43
0.0000000001
 40
220.2427421340764
 40
220.2427421340764
 40
220.2427421340764
 40
220.2427421340764
 40
220.2427421340764
 40
238.7810623008984
 40
238.7810623008984
 40
238.7810623008984
 40
238.7810623008984
 40
238.7810623008984
 10
27.64869950471325
 20
553.7986505802942
 30
0.0
 41
1.0
 10
27.64869942062001
 20
558.4332306452322
 30
0.0
 41
1.0
 10
27.64869933652676
 20
563.0678106948492
 30
0.0
 41
1.0
 10
27.64869925243397
 20
567.7023907368057
 30
0.0
 41
1.0
 10
27.64869916834118
 20
572.3369707787622
 30
0.0
 41
1.0
  0
SPLINE
  5
153
330
1F
100
AcDbEntity
  8
Make2D$Visibile$120
 62
    18
420
        0
370
    -3
100
AcDbSpline
210
0.0
220
0.0
230
1.0
 70
    12
 71
     4
 72
    14
 73
     9
 74
     0
 42
0.0000000001
 43
0.0000000001
 40
259.917458118994
 40
259.917458118994
 40
259.917458118994
 40
259.917458118994
 40
259.917458118994
 40
278.4549419840992
 40
278.4549419840992
 40
278.4549419840992
 40
278.4549419840992
 40
296.9924258492043
 40
296.9924258492043
 40
296.9924258492043
 40
296.9924258492043
 40
296.9924258492043
 10
26.1476574701735
 20
591.74061168297
 30
0.0
 41
1.0
 10
22.13441268435213
 20
589.4230137124393
 30
0.0
 41
1.0
 10
18.12100906712226
 20
587.1056907806912
 30
0.0
 41
1.0
 10
14.10752603278638
 20
584.7885053707619
 30
0.0
 41
1.0
 10
10.0940429956479
 20
582.471319965687
 30
0.0
 41
0.9999999999999998
 10
6.080559958508962
 20
580.1541345606123
 30
0.0
 41
0.9999999999999998
 10
2.067076918567411
 20
577.836949160392
 30
0.0
 41
0.9999999999999999
 10
-1.946406125578277
 20
575.5197637674536
 30
0.0
 41
0.9999999999999999
 10
-5.959889175329636
 20
573.2025783842239
 30
0.0
 41
1.0
  0
SPLINE
  5
154
330
1F
100
AcDbEntity
  8
Make2D$Visibile$120
 62
    18
420
        0
370
    -3
100
AcDbSpline
210
0.0
220
0.0
230
1.0
 70
    12
 71
     4
 72
    14
 73
     9
 74
     0
 42
0.0000000001
 43
0.0000000001
 40
296.9924258492043
 40
296.9924258492043
 40
296.9924258492043
 40
296.9924258492043
 40
296.9924258492043
 40
297.5561680247401
 40
297.5561680247401
 40
297.5561680247401
 40
297.5561680247401
 40
298.119910200276
 40
298.119910200276
 40
298.119910200276
 40
298.119910200276
 40
298.119910200276
 10
-5.959889175329636
 20
573.2025783842239
 30
0.0
 41
1.0
 10
-6.071925853109178
 20
573.1378939819435
 30
0.0
 41
1.0
 10
-6.175417588341602
 20
573.0258832441287
 30
0.0
 41
0.9861179897943066
 10
-6.214728044766389
 20
572.8785345669614
 30
0.0
 41
1.0
 10
-6.209477463106623
 20
572.7492723510651
 30
0.0
 41
0.9999999999999999
 10
-6.204226881446402
 20
572.6200101351684
 30
0.0
 41
0.9999999999999999
 10
-6.153095156825264
 20
572.4763351847264
 30
0.0
 41
0.9861179897943064
 10
-6.040859694917572
 20
572.3730872029656
 30
0.0
 41
0.9999999999999999
 10
-5.923945830215189
 20
572.3177027529227
 30
0.0
 41
1.0
  0
SPLINE
  5
155
330
1F
100
AcDbEntity
  8
Make2D$Visibile$120
 62
    18
420
        0
370
    -3
100
AcDbSpline
210
0.0
220
0.0
230
1.0
 70
    28
 71
     4
 72
    10
 73
     5
 74
     0
 42
0.0000000001
 43
0.0000000001
 40
298.119910200276
 40
298.119910200276
 40
298.119910200276
 40
298.119910200276
 40
298.119910200276
 40
299.3522489287798
 40
299.3522489287798
 40
299.3522489287798
 40
299.3522489287798
 40
299.3522489287798
 10
-5.923945830215189
 20
572.3177027529227
 30
0.0
 41
1.0
 10
-5.686444250271734
 20
572.1214652160318
 30
0.0
 41
1.0
 10
-5.448942670328279
 20
571.9252276791408
 30
0.0
 41
1.0
 10
-5.211441090384824
 20
571.7289901422498
 30
0.0
 41
1.0
 10
-4.973939510441824
 20
571.5327526053588
 30
0.0
 41
1.0
  0
SPLINE
  5
156
330
1F
100
AcDbEntity
  8
Make2D$Visibile$120
 62
    18
420
        0
370
    -3
100
AcDbSpline
210
0.0
220
0.0
230
1.0
 70
    24
 71
     2
 72
     6
 73
     3
 74
     0
 42
0.0000000001
 43
0.0000000001
 40
-2310.000000000017
 40
-2310.000000000017
 40
-2310.000000000017
 40
-2240.000000000008
 40
-2240.000000000008
 40
-2240.000000000008
 10
32.6486990620549
 20
514.3345711136449
 30
0.0
 10
32.6486990620549
 20
549.3345711136492
 30
0.0
 10
32.6486990620549
 20
584.3345711136535
 30
0.0
  0
SPLINE
  5
157
330
1F
100
AcDbEntity
  8
Make2D$Visibile$120
 62
    18
420
        0
370
    -3
100
AcDbSpline
210
0.0
220
0.0
230
1.0
 70
    24
 71
     2
 72
     6
 73
     3
 74
     0
 42
0.0000000001
 43
0.0000000001
 40
0.0
 40
0.0
 40
0.0
 40
4.999999999999989
 40
4.999999999999989
 40
4.999999999999989
 10
32.6486990620549
 20
584.3345711136535
 30
0.0
 10
30.1486990620549
 20
584.3345711136535
 30
0.0
 10
27.6486990620549
 20
584.3345711136535
 30
0.0
  0
SPLINE
  5
158
330
1F
100
AcDbEntity
  8
Make2D$Visibile$120
 62
    18
420
        0
370
    -3
100
AcDbSpline
210
0.0
220
0.0
230
1.0
 70
    24
 71
     2
 72
     6
 73
     3
 74
     0
 42
0.0000000001
 43
0.0000000001
 40
0.0
 40
0.0
 40
0.0
 40
4.999999999999989
 40
4.999999999999989
 40
4.999999999999989
 10
32.6486990620549
 20
514.3345711136449
 30
0.0
 10
30.1486990620549
 20
514.3345711136449
 30
0.0
 10
27.6486990620549
 20
514.3345711136449
 30
0.0
  0
SPLINE
  5
159
330
1F
100
AcDbEntity
  8
Make2D$Visibile$120
 62
    18
420
        0
370
    -3
100
AcDbSpline
210
0.0
220
0.0
230
1.0
 70
    24
 71
     2
 72
     6
 73
     3
 74
     0
 42
0.0000000001
 43
0.0000000001
 40
-2297.957722686847
 40
-2297.957722686847
 40
-2297.957722686847
 40
-2270.548641495065
 40
-2270.548641495065
 40
-2270.548641495065
 10
27.6486990620549
 20
526.3768484268148
 30
0.0
 10
27.6486990620549
 20
540.0813890227059
 30
0.0
 10
27.6486990620549
 20
553.785929618597
 30
0.0
  0
SPLINE
  5
15A
330
1F
100
AcDbEntity
  8
Make2D$Visibile$120
 62
    18
420
        0
370
    -3
100
AcDbSpline
210
0.0
220
0.0
230
1.0
 70
    12
 71
     4
 72
    14
 73
     9
 74
     0
 42
0.0000000001
 43
0.0000000001
 40
158.1396884641995
 40
158.1396884641995
 40
158.1396884641995
 40
158.1396884641995
 40
158.1396884641995
 40
159.18688602795
 40
159.18688602795
 40
159.18688602795
 40
159.18688602795
 40
160.2340835917005
 40
160.2340835917005
 40
160.2340835917005
 40
160.2340835917005
 40
160.2340835917005
 10
26.1486992287048
 20
506.9725313127526
 30
0.0
 41
1.0
 10
26.38075003918692
 20
506.8385567148551
 30
0.0
 41
0.9330127003229861
 10
26.64869923528955
 20
506.789518609599
 30
0.0
 41
0.9106836004306481
 10
26.91664843077684
 20
506.838556718219
 30
0.0
 41
0.933012700322986
 10
27.1486992395769
 20
506.9725313190295
 30
0.0
 41
1.0
 10
27.38075004837697
 20
507.1065059198402
 30
0.0
 41
0.9330127003229861
 10
27.55719288872837
 20
507.3140376801758
 30
0.0
 41
0.9106836004306481
 10
27.64869923543242
 20
507.57060754585
 30
0.0
 41
0.933012700322986
 10
27.6486992287048
 20
507.8385567416449
 30
0.0
 41
1.0
  0
SPLINE
  5
15B
330
1F
100
AcDbEntity
  8
Make2D$Visibile$120
 62
    18
420
        0
370
    -3
100
AcDbSpline
210
0.0
220
0.0
230
1.0
 70
    12
 71
     2
 72
     6
 73
     3
 74
     0
 42
0.0000000001
 43
0.0000000001
 40
109.3317365225952
 40
109.3317365225952
 40
109.3317365225952
 40
109.7585118853458
 40
109.7585118853458
 40
109.7585118853458
 10
-12.58878772572666
 20
530.3518935072868
 30
0.0
 41
1.0
 10
-12.56482035545411
 20
530.1359391216555
 30
0.0
 41
0.9472648515964248
 10
-12.67688281543747
 20
529.9497866698557
 30
0.0
 41
1.0
  0
SPLINE
  5
15C
330
1F
100
AcDbEntity
  8
Make2D$Visibile$120
 62
    18
420
        0
370
    -3
100
AcDbSpline
210
0.0
220
0.0
230
1.0
 70
    12
 71
     2
 72
     8
 73
     5
 74
     0
 42
0.0000000001
 43
0.0000000001
 40
20.84868810233125
 40
20.84868810233125
 40
20.84868810233125
 40
44.55315732664006
 40
44.55315732664006
 40
68.25762655094887
 40
68.25762655094887
 40
68.25762655094887
 10
-30.21225518010056
 20
522.5800926588872
 30
0.0
 41
1.0
 10
-37.75616209525371
 20
509.5136553643935
 30
0.0
 41
0.707294995541606
 10
-24.693743201595
 20
501.962792656331
 30
0.0
 41
1.0
 10
-11.63132430793669
 20
494.4119299482686
 30
0.0
 41
0.707294995541606
 10
-4.073507969122829
 20
507.4703267604241
 30
0.0
 41
1.0
  0
SPLINE
  5
15D
330
1F
100
AcDbEntity
  8
Make2D$Visibile$120
 62
    18
420
        0
370
    -3
100
AcDbSpline
210
0.0
220
0.0
230
1.0
 70
    12
 71
     2
 72
     6
 73
     3
 74
     0
 42
0.0000000001
 43
0.0000000001
 40
68.25762655094887
 40
68.25762655094887
 40
68.25762655094887
 40
87.8628216461583
 40
87.8628216461583
 40
87.8628216461583
 10
-4.073507969122829
 20
507.4703267604241
 30
0.0
 41
1.0
 10
1.66736967132402
 20
517.3894164707658
 30
0.0
 41
0.7964727156142996
 10
-6.344041241645073
 20
525.5847390360004
 30
0.0
 41
1.0
  0
SPLINE
  5
15E
330
1F
100
AcDbEntity
  8
Make2D$Visibile$120
 62
    18
420
        0
370
    -3
100
AcDbSpline
210
0.0
220
0.0
230
1.0
 70
    12
 71
     2
 72
     6
 73
     3
 74
     0
 42
0.0000000001
 43
0.0000000001
 40
110.5913042393352
 40
110.5913042393352
 40
110.5913042393352
 40
130.1804246249264
 40
130.1804246249264
 40
130.1804246249264
 10
-13.39748193746641
 20
529.6570449204457
 30
0.0
 41
1.0
 10
-24.48827718326465
 20
532.4943229095687
 30
0.0
 41
0.7967945443744938
 10
-30.21225518010056
 20
522.5800926588872
 30
0.0
 41
1.0
  0
SPLINE
  5
15F
330
1F
100
AcDbEntity
  8
Make2D$Visibile$120
 62
    18
420
        0
370
    -3
100
AcDbSpline
210
0.0
220
0.0
230
1.0
 70
    12
 71
     2
 72
     6
 73
     3
 74
     0
 42
0.0000000001
 43
0.0000000001
 40
88.7197115928042
 40
88.7197115928042
 40
88.7197115928042
 40
89.12238936289822
 40
89.12238936289822
 40
89.12238936289822
 10
-6.442743224360356
 20
526.3690568604798
 30
0.0
 41
1.0
 10
-6.336562844612881
 20
526.5478505206743
 30
0.0
 41
0.953006246268355
 10
-6.146632144807199
 20
526.6325132484817
 30
0.0
 41
1.0
  0
SPLINE
  5
160
330
1F
100
AcDbEntity
  8
Make2D$Visibile$120
 62
    18
420
        0
370
    -3
100
AcDbSpline
210
0.0
220
0.0
230
1.0
 70
    12
 71
     2
 72
     6
 73
     3
 74
     0
 42
0.0000000001
 43
0.0000000001
 40
89.12238936289822
 40
89.12238936289822
 40
89.12238936289822
 40
91.9918534771675
 40
91.9918534771675
 40
91.9918534771675
 10
-6.142615113051534
 20
526.6394705759767
 30
0.0
 41
1.0
 10
-4.787893843277165
 20
527.2433831483708
 30
0.0
 41
0.9516663173855471
 10
-4.04179155482575
 20
528.5253002631296
 30
0.0
 41
1.0
  0
SPLINE
  5
161
330
1F
100
AcDbEntity
  8
Make2D$Visibile$120
 62
    18
420
        0
370
    -3
100
AcDbSpline
210
0.0
220
0.0
230
1.0
 70
    12
 71
     2
 72
    14
 73
    11
 74
     0
 42
0.0000000001
 43
0.0000000001
 40
91.9918534771675
 40
91.9918534771675
 40
91.9918534771675
 40
95.60544213050464
 40
95.60544213050464
 40
99.21903078384179
 40
99.21903078384179
 40
102.8326194371789
 40
102.8326194371789
 40
106.4462080905161
 40
106.4462080905161
 40
109.3317365225952
 40
109.3317365225952
 40
109.3317365225952
 10
-4.04179155482575
 20
528.5253002631296
 30
0.0
 41
1.0
 10
-3.08301781711282
 20
530.1726192468391
 30
0.0
 41
0.9237122405613439
 10
-3.571502955886672
 20
532.0149789142026
 30
0.0
 41
1.0
 10
-4.059988094660823
 20
533.8573385815656
 30
0.0
 41
0.9237122405613439
 10
-5.708980202571411
 20
534.8132318268222
 30
0.0
 41
1.0
 10
-7.35797231048178
 20
535.7691250720786
 30
0.0
 41
0.9237122405613439
 10
-9.19947544534648
 20
535.277420778755
 30
0.0
 41
1.0
 10
-11.0409785802111
 20
534.7857164854311
 30
0.0
 41
0.9237122405613439
 10
-11.99398844036364
 20
533.1350562779519
 30
0.0
 41
1.0
 10
-12.74004597880005
 20
531.842856299784
 30
0.0
 41
0.9511280869761036
 10
-12.58477069397054
 20
530.3588508347821
 30
0.0
 41
1.0
  0
SPLINE
  5
162
330
1F
100
AcDbEntity
  8
Make2D$Visibile$120
 62
    18
420
        0
370
    -3
100
AcDbSpline
210
0.0
220
0.0
230
1.0
 70
    12
 71
     2
 72
     6
 73
     3
 74
     0
 42
0.0000000001
 43
0.0000000001
 40
109.7585118853458
 40
109.7585118853458
 40
109.7585118853458
 40
110.5913042393352
 40
110.5913042393352
 40
110.5913042393352
 10
-12.67688281543747
 20
529.9497866698557
 30
0.0
 41
1.0
 10
-12.92842369269296
 20
529.532122814684
 30
0.0
 41
0.8041537229578711
 10
-13.40149896922253
 20
529.6500875929507
 30
0.0
 41
1.0
  0
SPLINE
  5
163
330
1F
100
AcDbEntity
  8
Make2D$Visibile$120
 62
    18
420
        0
370
    -3
100
AcDbSpline
210
0.0
220
0.0
230
1.0
 70
    12
 71
     2
 72
     6
 73
     3
 74
     0
 42
0.0000000001
 43
0.0000000001
 40
87.8628216461583
 40
87.8628216461583
 40
87.8628216461583
 40
88.71167825577007
 40
88.71167825577007
 40
88.71167825577007
 10
-6.348058273401193
 20
525.5777817085052
 30
0.0
 41
1.0
 10
-6.694834592407702
 20
525.9325117338201
 30
0.0
 41
0.7967945443744605
 10
-6.446802629727472
 20
526.362124759424
 30
0.0
 41
1.0
  0
SPLINE
  5
164
330
1F
100
AcDbEntity
  8
Make2D$Visibile$120
 62
    18
420
        0
370
    -3
100
AcDbSpline
210
0.0
220
0.0
230
1.0
 70
    28
 71
     4
 72
    10
 73
     5
 74
     0
 42
0.0000000001
 43
0.0000000001
 40
160.2340835917005
 40
160.2340835917005
 40
160.2340835917005
 40
160.2340835917005
 40
160.2340835917005
 40
178.7723752752941
 40
178.7723752752941
 40
178.7723752752941
 40
178.7723752752941
 40
178.7723752752941
 10
27.6486992287048
 20
507.8385567416449
 30
0.0
 41
1.0
 10
27.64869917688452
 20
512.4731296629373
 30
0.0
 41
1.0
 10
27.64869912506424
 20
517.1077025842299
 30
0.0
 41
1.0
 10
27.64869907324396
 20
521.7422755055222
 30
0.0
 41
1.0
 10
27.64869902142323
 20
526.3768484268148
 30
0.0
 41
1.0
  0
SPLINE
  5
165
330
1F
100
AcDbEntity
  8
Make2D$Visibile$120
 62
    18
420
        0
370
    -3
100
AcDbSpline
210
0.0
220
0.0
230
1.0
 70
    12
 71
     4
 72
    14
 73
     9
 74
     0
 42
0.0000000001
 43
0.0000000001
 40
238.7810623008984
 40
238.7810623008984
 40
238.7810623008984
 40
238.7810623008984
 40
238.7810623008984
 40
257.3193824677205
 40
257.3193824677205
 40
257.3193824677205
 40
257.3193824677205
 40
259.917458118994
 40
259.917458118994
 40
259.917458118994
 40
259.917458118994
 40
259.917458118994
 10
27.64869916834118
 20
572.3369707787622
 30
0.0
 41
1.0
 10
27.64869908424839
 20
576.9715508207187
 30
0.0
 41
1.0
 10
27.6486990001556
 20
581.6061308626752
 30
0.0
 41
1.0
 10
27.64854010939848
 20
586.2407108883037
 30
0.0
 41
1.0
 10
27.64806360531452
 20
590.8752908812771
 30
0.0
 41
1.0
 10
27.64800424509677
 20
591.4526409753648
 30
0.0
 41
0.7500000108718515
 10
27.27279364840171
 20
591.9575086761349
 30
0.0
 41
0.6666666811624687
 10
26.64762764822481
 20
592.029338120508
 30
0.0
 41
0.7500000108718518
 10
26.1476574701735
 20
591.74061168297
 30
0.0
 41
1.0
  0
ENDSEC
  0
SECTION
  2
OBJECTS
  0
DICTIONARY
  5
C
330
0
100
AcDbDictionary
281
     1
  3
ACAD_DETAILVIEWSTYLE
350
1A1
  3
ACAD_GROUP
350
D
  3
ACAD_LAYOUT
350
1A
  3
ACAD_MATERIAL
350
43
  3
ACAD_MLEADERSTYLE
350
5B
  3
ACAD_MLINESTYLE
350
17
  3
ACAD_PLOTSETTINGS
350
19
  3
ACAD_PLOTSTYLENAME
350
E
  3
ACAD_SCALELIST
350
47
  3
ACAD_SECTIONVIEWSTYLE
350
1A2
  3
ACAD_TABLESTYLE
350
59
  3
ACAD_VISUALSTYLE
350
2A
  3
ACDB_RECOMPOSE_DATA
350
19E
  3
AcDbVariableDictionary
350
166
  0
SUN
  5
5D
330
29
100
AcDbSun
 90
        1
290
     0
 63
     7
421
 16777215
 40
1.0
291
     1
 91
  2455826
 92
 54000000
292
     0
 70
     2
 71
   256
280
     1
  0
DICTIONARY
  5
1A1
102
{ACAD_REACTORS
330
C
102
}
330
C
100
AcDbDictionary
281
     1
  0
DICTIONARY
  5
D
102
{ACAD_REACTORS
330
C
102
}
330
C
100
AcDbDictionary
281
     1
  0
DICTIONARY
  5
1A
102
{ACAD_REACTORS
330
C
102
}
330
C
100
AcDbDictionary
281
     1
  3
Layout1
350
1E
  3
Layout2
350
26
  3
Model
350
22
  0
DICTIONARY
  5
43
102
{ACAD_REACTORS
330
C
102
}
330
C
100
AcDbDictionary
281
     1
  3
ByBlock
350
45
  3
ByLayer
350
44
  3
Global
350
46
  0
DICTIONARY
  5
5B
102
{ACAD_REACTORS
330
C
102
}
330
C
100
AcDbDictionary
281
     1
  3
Standard
350
5C
  0
DICTIONARY
  5
17
102
{ACAD_REACTORS
330
C
102
}
330
C
100
AcDbDictionary
281
     1
  3
Standard
350
18
  0
DICTIONARY
  5
19
102
{ACAD_REACTORS
330
C
102
}
330
C
100
AcDbDictionary
281
     1
  0
ACDBDICTIONARYWDFLT
  5
E
102
{ACAD_REACTORS
330
C
102
}
330
C
100
AcDbDictionary
281
     1
  3
Normal
350
F
100
AcDbDictionaryWithDefault
340
F
  0
DICTIONARY
  5
47
102
{ACAD_REACTORS
330
C
102
}
330
C
100
AcDbDictionary
281
     1
  3
A0
350
48
  3
A1
350
49
  3
A2
350
4A
  3
A3
350
4B
  3
A4
350
4C
  3
A5
350
4D
  3
A6
350
4E
  3
A7
350
4F
  3
A8
350
50
  3
A9
350
51
  3
B1
350
52
  3
B2
350
53
  3
B3
350
54
  3
B4
350
55
  3
B5
350
56
  3
B6
350
57
  3
B7
350
58
  0
DICTIONARY
  5
1A2
102
{ACAD_REACTORS
330
C
102
}
330
C
100
AcDbDictionary
281
     1
  0
DICTIONARY
  5
59
102
{ACAD_REACTORS
330
C
102
}
330
C
100
AcDbDictionary
281
     1
  3
Standard
350
5A
  0
DICTIONARY
  5
2A
102
{ACAD_REACTORS
330
C
102
}
330
C
100
AcDbDictionary
281
     1
  3
2dWireframe
350
2F
  3
Basic
350
32
  3
Brighten
350
36
  3
ColorChange
350
3A
  3
Conceptual
350
34
  3
Dim
350
35
  3
EdgeColorOff
350
3D
  3
Facepattern
350
39
  3
Flat
350
2B
  3
FlatWithEdges
350
2C
  3
Gouraud
350
2D
  3
GouraudWithEdges
350
2E
  3
Hidden
350
31
  3
JitterOff
350
3B
  3
Linepattern
350
38
  3
OverhangOff
350
3C
  3
Realistic
350
33
  3
Shaded
350
42
  3
Shaded with edges
350
41
  3
Shades of Gray
350
3E
  3
Sketchy
350
3F
  3
Thicken
350
37
  3
Wireframe
350
30
  3
X-Ray
350
40
  0
XRECORD
  5
19E
102
{ACAD_REACTORS
330
C
102
}
330
C
100
AcDbXrecord
280
     1
 90
        1
330
5A
  0
DICTIONARY
  5
166
102
{ACAD_REACTORS
330
C
102
}
330
C
100
AcDbDictionary
281
     1
  3
CANNOSCALE
350
167
  3
CMLEADERSTYLE
350
1A0
  3
CTABLESTYLE
350
19F
  3
XCLIPFRAME
350
168
  0
LAYOUT
  5
1E
102
{ACAD_REACTORS
330
1A
102
}
330
1A
100
AcDbPlotSettings
  1

  2
none_device
  4

  6

 40
0.0
 41
0.0
 42
0.0
 43
0.0
 44
0.0
 45
0.0
 46
0.0
 47
0.0
 48
0.0
 49
0.0
140
0.0
141
0.0
142
1.0
143
1.0
 70
   688
 72
     0
 73
     0
 74
     5
  7

 75
    16
 76
     0
 77
     2
 78
   300
147
1.0
148
0.0
149
0.0
100
AcDbLayout
  1
Layout1
 70
     1
 71
     1
 10
0.0
 20
0.0
 11
12.0
 21
9.0
 12
0.0
 22
0.0
 32
0.0
 14
1.000000000000000E+20
 24
1.000000000000000E+20
 34
1.000000000000000E+20
 15
-1.000000000000000E+20
 25
-1.000000000000000E+20
 35
-1.000000000000000E+20
146
0.0
 13
0.0
 23
0.0
 33
0.0
 16
1.0
 26
0.0
 36
0.0
 17
0.0
 27
1.0
 37
0.0
 76
     0
330
1B
  0
LAYOUT
  5
26
102
{ACAD_REACTORS
330
1A
102
}
330
1A
100
AcDbPlotSettings
  1

  2
none_device
  4

  6

 40
0.0
 41
0.0
 42
0.0
 43
0.0
 44
0.0
 45
0.0
 46
0.0
 47
0.0
 48
0.0
 49
0.0
140
0.0
141
0.0
142
1.0
143
1.0
 70
   688
 72
     0
 73
     0
 74
     5
  7

 75
    16
 76
     0
 77
     2
 78
   300
147
1.0
148
0.0
149
0.0
100
AcDbLayout
  1
Layout2
 70
     1
 71
     2
 10
0.0
 20
0.0
 11
0.0
 21
0.0
 12
0.0
 22
0.0
 32
0.0
 14
0.0
 24
0.0
 34
0.0
 15
0.0
 25
0.0
 35
0.0
146
0.0
 13
0.0
 23
0.0
 33
0.0
 16
1.0
 26
0.0
 36
0.0
 17
0.0
 27
1.0
 37
0.0
 76
     0
330
23
  0
LAYOUT
  5
22
102
{ACAD_REACTORS
330
1A
102
}
330
1A
100
AcDbPlotSettings
  1

  2
none_device
  4
Letter_(8.50_x_11.00_Inches)
  6

 40
6.35
 41
6.35
 42
6.35000508
 43
6.35000508
 44
215.9
 45
279.4
 46
0.0
 47
0.0
 48
0.0
 49
0.0
140
0.0
141
0.0
142
1.0
143
1.0
 70
  1712
 72
     0
 73
     0
 74
     0
  7

 75
     0
 76
     0
 77
     2
 78
   300
147
1.0
148
0.0
149
0.0
100
AcDbLayout
  1
Model
 70
     1
 71
     0
 10
0.0
 20
0.0
 11
12.0
 21
9.0
 12
0.0
 22
0.0
 32
0.0
 14
-1405.955313576209
 24
-859.7565029008994
 34
0.0
 15
1413.895064116313
 25
598.7875454906107
 35
0.0
146
0.0
 13
0.0
 23
0.0
 33
0.0
 16
1.0
 26
0.0
 36
0.0
 17
0.0
 27
1.0
 37
0.0
 76
     0
330
1F
331
29
  0
MATERIAL
  5
45
102
{ACAD_REACTORS
330
43
102
}
330
43
100
AcDbMaterial
  1
ByBlock
 72
     1
 94
      127
  0
MATERIAL
  5
44
102
{ACAD_REACTORS
330
43
102
}
330
43
100
AcDbMaterial
  1
ByLayer
 72
     1
 94
      127
  0
MATERIAL
  5
46
102
{ACAD_REACTORS
330
43
102
}
330
43
100
AcDbMaterial
  1
Global
 72
     1
 94
      127
  0
MLEADERSTYLE
  5
5C
102
{ACAD_REACTORS
330
5B
102
}
102
{ACAD_XDICTIONARY
360
19C
102
}
330
5B
100
AcDbMLeaderStyle
170
     2
171
     1
172
     0
 90
        2
 40
0.0
 41
0.0
173
     1
 91
-1056964608
340
14
 92
       -2
290
     1
 42
0.09
291
     1
 43
0.36
  3
Standard
341
0
 44
0.18
300

342
11
174
     1
178
     6
175
     1
176
     0
 93
-1056964608
 45
0.18
292
     0
297
     0
 46
0.18
343
0
 94
-1056964608
 47
1.0
 49
1.0
140
1.0
293
     1
141
0.0
294
     1
177
     0
142
1.0
295
     0
296
     0
143
0.125
1001
ACAD_MLEADERVER
1070
     2
  0
MLINESTYLE
  5
18
102
{ACAD_REACTORS
330
17
102
}
330
17
100
AcDbMlineStyle
  2
Standard
 70
     0
  3

 62
   256
 51
90.0
 52
90.0
 71
     2
 49
0.5
 62
   256
  6
BYLAYER
 49
-0.5
 62
   256
  6
BYLAYER
  0
ACDBPLACEHOLDER
  5
F
102
{ACAD_REACTORS
330
E
102
}
330
E
  0
SCALE
  5
48
102
{ACAD_REACTORS
330
47
102
}
330
47
100
AcDbScale
 70
     0
300
1:1
140
1.0
141
1.0
290
     1
  0
SCALE
  5
49
102
{ACAD_REACTORS
330
47
102
}
330
47
100
AcDbScale
 70
     0
300
1/128" = 1'-0"
140
0.0078125
141
12.0
290
     0
  0
SCALE
  5
4A
102
{ACAD_REACTORS
330
47
102
}
330
47
100
AcDbScale
 70
     0
300
1/64" = 1'-0"
140
0.015625
141
12.0
290
     0
  0
SCALE
  5
4B
102
{ACAD_REACTORS
330
47
102
}
330
47
100
AcDbScale
 70
     0
300
1/32" = 1'-0"
140
0.03125
141
12.0
290
     0
  0
SCALE
  5
4C
102
{ACAD_REACTORS
330
47
102
}
330
47
100
AcDbScale
 70
     0
300
1/16" = 1'-0"
140
0.0625
141
12.0
290
     0
  0
SCALE
  5
4D
102
{ACAD_REACTORS
330
47
102
}
330
47
100
AcDbScale
 70
     0
300
3/32" = 1'-0"
140
0.09375
141
12.0
290
     0
  0
SCALE
  5
4E
102
{ACAD_REACTORS
330
47
102
}
330
47
100
AcDbScale
 70
     0
300
1/8" = 1'-0"
140
0.125
141
12.0
290
     0
  0
SCALE
  5
4F
102
{ACAD_REACTORS
330
47
102
}
330
47
100
AcDbScale
 70
     0
300
3/16" = 1'-0"
140
0.1875
141
12.0
290
     0
  0
SCALE
  5
50
102
{ACAD_REACTORS
330
47
102
}
330
47
100
AcDbScale
 70
     0
300
1/4" = 1'-0"
140
0.25
141
12.0
290
     0
  0
SCALE
  5
51
102
{ACAD_REACTORS
330
47
102
}
330
47
100
AcDbScale
 70
     0
300
3/8" = 1'-0"
140
0.375
141
12.0
290
     0
  0
SCALE
  5
52
102
{ACAD_REACTORS
330
47
102
}
330
47
100
AcDbScale
 70
     0
300
1/2" = 1'-0"
140
0.5
141
12.0
290
     0
  0
SCALE
  5
53
102
{ACAD_REACTORS
330
47
102
}
330
47
100
AcDbScale
 70
     0
300
3/4" = 1'-0"
140
0.75
141
12.0
290
     0
  0
SCALE
  5
54
102
{ACAD_REACTORS
330
47
102
}
330
47
100
AcDbScale
 70
     0
300
1" = 1'-0"
140
1.0
141
12.0
290
     0
  0
SCALE
  5
55
102
{ACAD_REACTORS
330
47
102
}
330
47
100
AcDbScale
 70
     0
300
1-1/2" = 1'-0"
140
1.5
141
12.0
290
     0
  0
SCALE
  5
56
102
{ACAD_REACTORS
330
47
102
}
330
47
100
AcDbScale
 70
     0
300
3" = 1'-0"
140
3.0
141
12.0
290
     0
  0
SCALE
  5
57
102
{ACAD_REACTORS
330
47
102
}
330
47
100
AcDbScale
 70
     0
300
6" = 1'-0"
140
6.0
141
12.0
290
     0
  0
SCALE
  5
58
102
{ACAD_REACTORS
330
47
102
}
330
47
100
AcDbScale
 70
     0
300
1'-0" = 1'-0"
140
12.0
141
12.0
290
     0
  0
TABLESTYLE
  5
5A
102
{ACAD_REACTORS
330
59
102
}
102
{ACAD_XDICTIONARY
360
199
102
}
330
59
100
AcDbTableStyle
  3
Standard
 70
     0
 71
     0
 40
0.06
 41
0.06
280
     0
281
     0
  7
Standard
140
0.18
170
     2
 62
     0
 63
   257
283
     0
 90
        4
 91
        0
  1

274
    -2
284
     1
 64
     0
275
    -2
285
     1
 65
     0
276
    -2
286
     1
 66
     0
277
    -2
287
     1
 67
     0
278
    -2
288
     1
 68
     0
279
    -2
289
     1
 69
     0
  7
Standard
140
0.25
170
     5
 62
     0
 63
   257
283
     0
 90
        4
 91
        0
  1

274
    -2
284
     1
 64
     0
275
    -2
285
     1
 65
     0
276
    -2
286
     1
 66
     0
277
    -2
287
     1
 67
     0
278
    -2
288
     1
 68
     0
279
    -2
289
     1
 69
     0
  7
Standard
140
0.18
170
     5
 62
     0
 63
   257
283
     0
 90
        4
 91
        0
  1

274
    -2
284
     1
 64
     0
275
    -2
285
     1
 65
     0
276
    -2
286
     1
 66
     0
277
    -2
287
     1
 67
     0
278
    -2
288
     1
 68
     0
279
    -2
289
     1
 69
     0
  0
VISUALSTYLE
  5
2F
102
{ACAD_REACTORS
330
2A
102
}
102
{ACAD_XDICTIONARY
360
171
102
}
330
2A
100
AcDbVisualStyle
  2
2dWireframe
 70
     4
 71
     0
 72
     2
 73
     0
 90
        0
 40
0.6
 41
30.0
 62
     5
 63
     7
421
 16777215
 74
     1
 91
        4
 64
     7
 65
   257
 75
     1
175
     1
 42
1.0
 92
        0
 66
   257
 43
1.0
 76
     1
 77
     6
 78
     2
 67
     7
 79
     5
170
     0
171
     0
290
     0
174
     0
 93
        1
 44
0.0
173
     0
291
     0
 45
0.0
  0
VISUALSTYLE
  5
32
102
{ACAD_REACTORS
330
2A
102
}
102
{ACAD_XDICTIONARY
360
177
102
}
330
2A
100
AcDbVisualStyle
  2
Basic
 70
     7
 71
     1
 72
     0
 73
     1
 90
        0
 40
0.6
 41
30.0
 62
     5
 63
     7
421
 16777215
 74
     0
 91
        4
 64
     7
 65
   257
 75
     1
175
     1
 42
1.0
 92
        8
 66
     7
 43
1.0
 76
     1
 77
     6
 78
     2
 67
     7
 79
     5
170
     0
171
     0
290
     0
174
     0
 93
        1
 44
0.0
173
     0
291
     1
 45
0.0
  0
VISUALSTYLE
  5
36
102
{ACAD_REACTORS
330
2A
102
}
102
{ACAD_XDICTIONARY
360
17F
102
}
330
2A
100
AcDbVisualStyle
  2
Brighten
 70
    12
 71
     2
 72
     2
 73
     0
 90
        0
 40
0.6
 41
30.0
 62
     5
 63
     7
421
 16777215
 74
     1
 91
        4
 64
     7
 65
   257
 75
     1
175
     1
 42
1.0
 92
        8
 66
     7
 43
1.0
 76
     1
 77
     6
 78
     2
 67
     7
 79
     5
170
     0
171
     0
290
     0
174
     0
 93
        1
 44
50.0
173
     0
291
     1
 45
0.0
  0
VISUALSTYLE
  5
3A
102
{ACAD_REACTORS
330
2A
102
}
102
{ACAD_XDICTIONARY
360
187
102
}
330
2A
100
AcDbVisualStyle
  2
ColorChange
 70
    16
 71
     2
 72
     2
 73
     3
 90
        0
 40
0.6
 41
30.0
 62
     5
 63
     8
421
  8421504
 74
     1
 91
        4
 64
     7
 65
   257
 75
     1
175
     1
 42
1.0
 92
        8
 66
     8
424
  8421504
 43
1.0
 76
     1
 77
     6
 78
     2
 67
     7
 79
     5
170
     0
171
     0
290
     0
174
     0
 93
        1
 44
0.0
173
     0
291
     1
 45
0.0
  0
VISUALSTYLE
  5
34
102
{ACAD_REACTORS
330
2A
102
}
102
{ACAD_XDICTIONARY
360
17B
102
}
330
2A
100
AcDbVisualStyle
  2
Conceptual
 70
     9
 71
     3
 72
     2
 73
     0
 90
        0
 40
0.6
 41
30.0
 62
     5
 63
     7
421
 16777215
 74
     2
 91
        2
 64
     7
 65
   257
 75
     1
175
     1
 42
179.0
 92
        8
 66
     7
 43
1.0
 76
     1
 77
     6
 78
     2
 67
     7
 79
     3
170
     0
171
     0
290
     0
174
     0
 93
        1
 44
0.0
173
     0
291
     0
 45
0.0
  0
VISUALSTYLE
  5
35
102
{ACAD_REACTORS
330
2A
102
}
102
{ACAD_XDICTIONARY
360
17D
102
}
330
2A
100
AcDbVisualStyle
  2
Dim
 70
    11
 71
     2
 72
     2
 73
     0
 90
        0
 40
0.6
 41
30.0
 62
     5
 63
     7
421
 16777215
 74
     1
 91
        4
 64
     7
 65
   257
 75
     1
175
     1
 42
1.0
 92
        8
 66
     7
 43
1.0
 76
     1
 77
     6
 78
     2
 67
     7
 79
     5
170
     0
171
     0
290
     0
174
     0
 93
        1
 44
-50.0
173
     0
291
     1
 45
0.0
  0
VISUALSTYLE
  5
3D
102
{ACAD_REACTORS
330
2A
102
}
102
{ACAD_XDICTIONARY
360
18D
102
}
330
2A
100
AcDbVisualStyle
  2
EdgeColorOff
 70
    22
 71
     2
 72
     2
 73
     0
 90
        0
 40
0.6
 41
30.0
 62
     5
 63
     7
421
 16777215
 74
     1
 91
        4
 64
     7
 65
   257
 75
     1
175
     1
 42
1.0
 92
        8
 66
     7
 43
1.0
 76
     1
 77
     6
 78
     2
 67
     7
 79
     5
170
     0
171
     0
290
     0
174
     0
 93
        1
 44
0.0
173
     0
291
     1
 45
0.0
  0
VISUALSTYLE
  5
39
102
{ACAD_REACTORS
330
2A
102
}
102
{ACAD_XDICTIONARY
360
185
102
}
330
2A
100
AcDbVisualStyle
  2
Facepattern
 70
    15
 71
     2
 72
     2
 73
     0
 90
        0
 40
0.6
 41
30.0
 62
     5
 63
     7
421
 16777215
 74
     1
 91
        4
 64
     7
 65
   257
 75
     1
175
     1
 42
1.0
 92
        8
 66
     7
 43
1.0
 76
     1
 77
     6
 78
     2
 67
     7
 79
     5
170
     0
171
     0
290
     0
174
     0
 93
        1
 44
0.0
173
     0
291
     1
 45
0.0
  0
VISUALSTYLE
  5
2B
102
{ACAD_REACTORS
330
2A
102
}
102
{ACAD_XDICTIONARY
360
169
102
}
330
2A
100
AcDbVisualStyle
  2
Flat
 70
     0
 71
     2
 72
     1
 73
     1
 90
        2
 40
0.6
 41
30.0
 62
     5
 63
     7
421
 16777215
 74
     0
 91
        0
 64
     7
 65
   257
 75
     1
175
     1
 42
1.0
 92
        8
 66
     7
 43
1.0
 76
     1
 77
     6
 78
     2
 67
     7
 79
     5
170
     0
171
     0
290
     0
174
     0
 93
       13
 44
0.0
173
     0
291
     1
 45
0.0
  0
VISUALSTYLE
  5
2C
102
{ACAD_REACTORS
330
2A
102
}
102
{ACAD_XDICTIONARY
360
16B
102
}
330
2A
100
AcDbVisualStyle
  2
FlatWithEdges
 70
     1
 71
     2
 72
     1
 73
     1
 90
        2
 40
0.6
 41
30.0
 62
     5
 63
     7
421
 16777215
 74
     1
 91
        0
 64
     7
 65
   257
 75
     1
175
     1
 42
1.0
 92
        0
 66
   257
 43
1.0
 76
     1
 77
     6
 78
     2
 67
     7
 79
     5
170
     0
171
     0
290
     0
174
     0
 93
       13
 44
0.0
173
     0
291
     1
 45
0.0
  0
VISUALSTYLE
  5
2D
102
{ACAD_REACTORS
330
2A
102
}
102
{ACAD_XDICTIONARY
360
16D
102
}
330
2A
100
AcDbVisualStyle
  2
Gouraud
 70
     2
 71
     2
 72
     2
 73
     1
 90
        2
 40
0.6
 41
30.0
 62
     5
 63
     7
421
 16777215
 74
     0
 91
        0
 64
     7
 65
   257
 75
     1
175
     1
 42
1.0
 92
        0
 66
     7
 43
1.0
 76
     1
 77
     6
 78
     2
 67
     7
 79
     5
170
     0
171
     0
290
     0
174
     0
 93
       13
 44
0.0
173
     0
291
     1
 45
0.0
  0
VISUALSTYLE
  5
2E
102
{ACAD_REACTORS
330
2A
102
}
102
{ACAD_XDICTIONARY
360
16F
102
}
330
2A
100
AcDbVisualStyle
  2
GouraudWithEdges
 70
     3
 71
     2
 72
     2
 73
     1
 90
        2
 40
0.6
 41
30.0
 62
     5
 63
     7
421
 16777215
 74
     1
 91
        0
 64
     7
 65
   257
 75
     1
175
     1
 42
1.0
 92
        0
 66
   257
 43
1.0
 76
     1
 77
     6
 78
     2
 67
     7
 79
     5
170
     0
171
     0
290
     0
174
     0
 93
       13
 44
0.0
173
     0
291
     1
 45
0.0
  0
VISUALSTYLE
  5
31
102
{ACAD_REACTORS
330
2A
102
}
102
{ACAD_XDICTIONARY
360
175
102
}
330
2A
100
AcDbVisualStyle
  2
Hidden
 70
     6
 71
     1
 72
     2
 73
     2
 90
        0
 40
0.6
 41
30.0
 62
     5
 63
     7
421
 16777215
 74
     2
 91
        2
 64
     7
 65
   257
 75
     2
175
     1
 42
40.0
 92
        0
 66
   257
 43
1.0
 76
     1
 77
     6
 78
     2
 67
     7
 79
     3
170
     0
171
     0
290
     0
174
     0
 93
        1
 44
0.0
173
     0
291
     0
 45
0.0
  0
VISUALSTYLE
  5
3B
102
{ACAD_REACTORS
330
2A
102
}
102
{ACAD_XDICTIONARY
360
189
102
}
330
2A
100
AcDbVisualStyle
  2
JitterOff
 70
    20
 71
     2
 72
     2
 73
     0
 90
        0
 40
0.6
 41
30.0
 62
     5
 63
     7
421
 16777215
 74
     1
 91
        4
 64
     7
 65
   257
 75
     1
175
     1
 42
1.0
 92
       10
 66
     7
 43
1.0
 76
     1
 77
     6
 78
     2
 67
     7
 79
     5
170
     0
171
     0
290
     0
174
     0
 93
        1
 44
0.0
173
     0
291
     1
 45
0.0
  0
VISUALSTYLE
  5
38
102
{ACAD_REACTORS
330
2A
102
}
102
{ACAD_XDICTIONARY
360
183
102
}
330
2A
100
AcDbVisualStyle
  2
Linepattern
 70
    14
 71
     2
 72
     2
 73
     0
 90
        0
 40
0.6
 41
30.0
 62
     5
 63
     7
421
 16777215
 74
     1
 91
        4
 64
     7
 65
   257
 75
     7
175
     7
 42
1.0
 92
        8
 66
     7
 43
1.0
 76
     1
 77
     6
 78
     2
 67
     7
 79
     5
170
     0
171
     0
290
     0
174
     0
 93
        1
 44
0.0
173
     0
291
     1
 45
0.0
  0
VISUALSTYLE
  5
3C
102
{ACAD_REACTORS
330
2A
102
}
102
{ACAD_XDICTIONARY
360
18B
102
}
330
2A
100
AcDbVisualStyle
  2
OverhangOff
 70
    21
 71
     2
 72
     2
 73
     0
 90
        0
 40
0.6
 41
30.0
 62
     5
 63
     7
421
 16777215
 74
     1
 91
        4
 64
     7
 65
   257
 75
     1
175
     1
 42
1.0
 92
        9
 66
     7
 43
1.0
 76
     1
 77
     6
 78
     2
 67
     7
 79
     5
170
     0
171
     0
290
     0
174
     0
 93
        1
 44
0.0
173
     0
291
     1
 45
0.0
  0
VISUALSTYLE
  5
33
102
{ACAD_REACTORS
330
2A
102
}
102
{ACAD_XDICTIONARY
360
179
102
}
330
2A
100
AcDbVisualStyle
  2
Realistic
 70
     8
 71
     2
 72
     3
 73
     0
 90
        2
 40
0.6
 41
30.0
 62
     5
 63
     7
421
 16777215
 74
     0
 91
        0
 64
     7
 65
   257
 75
     1
175
     1
 42
1.0
 92
        8
 66
   257
 43
1.0
 76
     1
 77
     6
 78
     2
 67
     7
 79
     3
170
     0
171
     0
290
     0
174
     0
 93
       13
 44
0.0
173
     0
291
     0
 45
0.0
  0
VISUALSTYLE
  5
42
102
{ACAD_REACTORS
330
2A
102
}
102
{ACAD_XDICTIONARY
360
197
102
}
330
2A
100
AcDbVisualStyle
  2
Shaded
 70
    27
 71
     2
 72
     2
 73
     1
 90
        2
 40
0.6
 41
30.0
 62
     5
 63
     7
421
 16777215
 74
     0
 91
        4
 64
     7
 65
   257
 75
     1
175
     1
 42
1.0
 92
        8
 66
   257
 43
1.0
 76
     1
 77
     6
 78
     2
 67
     8
425
  7895160
 79
     3
170
     0
171
     0
290
     0
174
     0
 93
        5
 44
0.0
173
     0
291
     0
 45
0.0
  0
VISUALSTYLE
  5
41
102
{ACAD_REACTORS
330
2A
102
}
102
{ACAD_XDICTIONARY
360
195
102
}
330
2A
100
AcDbVisualStyle
  2
Shaded with edges
 70
    26
 71
     2
 72
     2
 73
     1
 90
        2
 40
0.6
 41
30.0
 62
     5
 63
     7
421
 16777215
 74
     1
 91
       10
 64
     7
 65
   257
 75
     2
175
     1
 42
1.0
 92
        8
 66
   257
 43
1.0
 76
     1
 77
     6
 78
     2
 67
     7
 79
     3
170
     0
171
     0
290
     0
174
     0
 93
        5
 44
0.0
173
     0
291
     0
 45
0.0
  0
VISUALSTYLE
  5
3E
102
{ACAD_REACTORS
330
2A
102
}
102
{ACAD_XDICTIONARY
360
18F
102
}
330
2A
100
AcDbVisualStyle
  2
Shades of Gray
 70
    23
 71
     2
 72
     2
 73
     3
 90
        0
 40
0.6
 41
30.0
 62
     5
 63
     7
421
 16777215
 74
     2
 91
        2
 64
     7
 65
     7
 75
     1
175
     1
 42
40.0
 92
        8
 66
     7
 43
1.0
 76
     1
 77
     6
 78
     2
 67
     7
 79
     3
170
     0
171
     0
290
     0
174
     0
 93
        1
 44
0.0
173
     0
291
     0
 45
0.0
  0
VISUALSTYLE
  5
3F
102
{ACAD_REACTORS
330
2A
102
}
102
{ACAD_XDICTIONARY
360
191
102
}
330
2A
100
AcDbVisualStyle
  2
Sketchy
 70
    24
 71
     1
 72
     2
 73
     2
 90
        0
 40
0.6
 41
30.0
 62
     5
 63
     7
421
 16777215
 74
     2
 91
        2
 64
     7
 65
     7
 75
     1
175
     1
 42
40.0
 92
       11
 66
     7
 43
1.0
 76
     1
 77
     6
 78
     2
 67
     7
 79
     6
170
     0
171
     0
290
     0
174
     0
 93
        1
 44
0.0
173
     0
291
     0
 45
0.0
  0
VISUALSTYLE
  5
37
102
{ACAD_REACTORS
330
2A
102
}
102
{ACAD_XDICTIONARY
360
181
102
}
330
2A
100
AcDbVisualStyle
  2
Thicken
 70
    13
 71
     2
 72
     2
 73
     0
 90
        0
 40
0.6
 41
30.0
 62
     5
 63
     7
421
 16777215
 74
     1
 91
        4
 64
     7
 65
   257
 75
     1
175
     1
 42
1.0
 92
       12
 66
     7
 43
1.0
 76
     1
 77
     6
 78
     2
 67
     7
 79
     5
170
     0
171
     0
290
     0
174
     0
 93
        1
 44
0.0
173
     0
291
     1
 45
0.0
  0
VISUALSTYLE
  5
30
102
{ACAD_REACTORS
330
2A
102
}
102
{ACAD_XDICTIONARY
360
173
102
}
330
2A
100
AcDbVisualStyle
  2
Wireframe
 70
     5
 71
     0
 72
     2
 73
     0
 90
        0
 40
0.6
 41
30.0
 62
     5
 63
     7
421
 16777215
 74
     1
 91
        4
 64
     7
 65
   257
 75
     1
175
     1
 42
1.0
 92
        0
 66
   257
 43
1.0
 76
     1
 77
     6
 78
     2
 67
     7
 79
     3
170
     0
171
     0
290
     0
174
     0
 93
        1
 44
0.0
173
     0
291
     0
 45
0.0
  0
VISUALSTYLE
  5
40
102
{ACAD_REACTORS
330
2A
102
}
102
{ACAD_XDICTIONARY
360
193
102
}
330
2A
100
AcDbVisualStyle
  2
X-Ray
 70
    25
 71
     2
 72
     2
 73
     1
 90
        1
 40
0.5
 41
30.0
 62
     5
 63
     7
421
 16777215
 74
     1
 91
        0
 64
     7
 65
   257
 75
     1
175
     1
 42
1.0
 92
        8
 66
     7
 43
1.0
 76
     1
 77
     6
 78
     2
 67
     7
 79
     3
170
     0
171
     0
290
     0
174
     0
 93
       13
 44
0.0
173
     0
291
     0
 45
0.0
  0
DICTIONARYVAR
  5
167
102
{ACAD_REACTORS
330
166
102
}
330
166
100
DictionaryVariables
280
     0
  1
1:1
  0
DICTIONARYVAR
  5
1A0
102
{ACAD_REACTORS
330
166
102
}
330
166
100
DictionaryVariables
280
     0
  1
Standard
  0
DICTIONARYVAR
  5
19F
102
{ACAD_REACTORS
330
166
102
}
330
166
100
DictionaryVariables
280
     0
  1
Standard
  0
DICTIONARYVAR
  5
168
102
{ACAD_REACTORS
330
166
102
}
330
166
100
DictionaryVariables
280
     0
  1
2
  0
DICTIONARY
  5
19C
330
5C
100
AcDbDictionary
280
     1
281
     1
  3
ACAD_XREC_ROUNDTRIP
360
19D
  0
DICTIONARY
  5
199
330
5A
100
AcDbDictionary
280
     1
281
     1
  3
ACAD_ROUNDTRIP_2008_TABLESTYLE_CELLSTYLEMAP
360
19A
  0
DICTIONARY
  5
171
330
2F
100
AcDbDictionary
280
     1
281
     1
  3
ACAD_XREC_ROUNDTRIP
360
172
  0
DICTIONARY
  5
177
330
32
100
AcDbDictionary
280
     1
281
     1
  3
ACAD_XREC_ROUNDTRIP
360
178
  0
DICTIONARY
  5
17F
330
36
100
AcDbDictionary
280
     1
281
     1
  3
ACAD_XREC_ROUNDTRIP
360
180
  0
DICTIONARY
  5
187
330
3A
100
AcDbDictionary
280
     1
281
     1
  3
ACAD_XREC_ROUNDTRIP
360
188
  0
DICTIONARY
  5
17B
330
34
100
AcDbDictionary
280
     1
281
     1
  3
ACAD_XREC_ROUNDTRIP
360
17C
  0
DICTIONARY
  5
17D
330
35
100
AcDbDictionary
280
     1
281
     1
  3
ACAD_XREC_ROUNDTRIP
360
17E
  0
DICTIONARY
  5
18D
330
3D
100
AcDbDictionary
280
     1
281
     1
  3
ACAD_XREC_ROUNDTRIP
360
18E
  0
DICTIONARY
  5
185
330
39
100
AcDbDictionary
280
     1
281
     1
  3
ACAD_XREC_ROUNDTRIP
360
186
  0
DICTIONARY
  5
169
330
2B
100
AcDbDictionary
280
     1
281
     1
  3
ACAD_XREC_ROUNDTRIP
360
16A
  0
DICTIONARY
  5
16B
330
2C
100
AcDbDictionary
280
     1
281
     1
  3
ACAD_XREC_ROUNDTRIP
360
16C
  0
DICTIONARY
  5
16D
330
2D
100
AcDbDictionary
280
     1
281
     1
  3
ACAD_XREC_ROUNDTRIP
360
16E
  0
DICTIONARY
  5
16F
330
2E
100
AcDbDictionary
280
     1
281
     1
  3
ACAD_XREC_ROUNDTRIP
360
170
  0
DICTIONARY
  5
175
330
31
100
AcDbDictionary
280
     1
281
     1
  3
ACAD_XREC_ROUNDTRIP
360
176
  0
DICTIONARY
  5
189
330
3B
100
AcDbDictionary
280
     1
281
     1
  3
ACAD_XREC_ROUNDTRIP
360
18A
  0
DICTIONARY
  5
183
330
38
100
AcDbDictionary
280
     1
281
     1
  3
ACAD_XREC_ROUNDTRIP
360
184
  0
DICTIONARY
  5
18B
330
3C
100
AcDbDictionary
280
     1
281
     1
  3
ACAD_XREC_ROUNDTRIP
360
18C
  0
DICTIONARY
  5
179
330
33
100
AcDbDictionary
280
     1
281
     1
  3
ACAD_XREC_ROUNDTRIP
360
17A
  0
DICTIONARY
  5
197
330
42
100
AcDbDictionary
280
     1
281
     1
  3
ACAD_XREC_ROUNDTRIP
360
198
  0
DICTIONARY
  5
195
330
41
100
AcDbDictionary
280
     1
281
     1
  3
ACAD_XREC_ROUNDTRIP
360
196
  0
DICTIONARY
  5
18F
330
3E
100
AcDbDictionary
280
     1
281
     1
  3
ACAD_XREC_ROUNDTRIP
360
190
  0
DICTIONARY
  5
191
330
3F
100
AcDbDictionary
280
     1
281
     1
  3
ACAD_XREC_ROUNDTRIP
360
192
  0
DICTIONARY
  5
181
330
37
100
AcDbDictionary
280
     1
281
     1
  3
ACAD_XREC_ROUNDTRIP
360
182
  0
DICTIONARY
  5
173
330
30
100
AcDbDictionary
280
     1
281
     1
  3
ACAD_XREC_ROUNDTRIP
360
174
  0
DICTIONARY
  5
193
330
40
100
AcDbDictionary
280
     1
281
     1
  3
ACAD_XREC_ROUNDTRIP
360
194
  0
XRECORD
  5
19D
102
{ACAD_REACTORS
330
19C
102
}
330
19C
100
AcDbXrecord
280
     1
102
ACAD_ROUNDTRIP_2010_MLEADER_STYLE
  0
CELLSTYLEMAP
  5
19A
102
{ACAD_REACTORS
330
199
102
}
330
199
100
AcDbCellStyleMap
 90
        3
300
CELLSTYLE
  1
TABLEFORMAT_BEGIN
 90
        5
170
     1
 91
        0
 92
    32768
 62
   257
 93
        1
300
CONTENTFORMAT
  1
CONTENTFORMAT_BEGIN
 90
        0
 91
        0
 92
        4
 93
        0
300

 40
0.0
140
1.0
 94
        5
 62
     0
340
11
144
0.25
309
CONTENTFORMAT_END
171
     1
301
MARGIN
  1
CELLMARGIN_BEGIN
 40
0.06
 40
0.06
 40
0.06
 40
0.06
 40
0.06
 40
0.06
309
CELLMARGIN_END
 94
        6
 95
        1
302
GRIDFORMAT
  1
GRIDFORMAT_BEGIN
 90
        0
 91
        1
 62
     0
 92
       -2
340
14
 93
        0
 40
0.045
309
GRIDFORMAT_END
 95
        2
302
GRIDFORMAT
  1
GRIDFORMAT_BEGIN
 90
        0
 91
        1
 62
     0
 92
       -2
340
14
 93
        0
 40
0.045
309
GRIDFORMAT_END
 95
        4
302
GRIDFORMAT
  1
GRIDFORMAT_BEGIN
 90
        0
 91
        1
 62
     0
 92
       -2
340
14
 93
        0
 40
0.045
309
GRIDFORMAT_END
 95
        8
302
GRIDFORMAT
  1
GRIDFORMAT_BEGIN
 90
        0
 91
        1
 62
     0
 92
       -2
340
14
 93
        0
 40
0.045
309
GRIDFORMAT_END
 95
       16
302
GRIDFORMAT
  1
GRIDFORMAT_BEGIN
 90
        0
 91
        1
 62
     0
 92
       -2
340
14
 93
        0
 40
0.045
309
GRIDFORMAT_END
 95
       32
302
GRIDFORMAT
  1
GRIDFORMAT_BEGIN
 90
        0
 91
        1
 62
     0
 92
       -2
340
14
 93
        0
 40
0.045
309
GRIDFORMAT_END
309
TABLEFORMAT_END
  1
CELLSTYLE_BEGIN
 90
        1
 91
        1
300
_TITLE
309
CELLSTYLE_END
300
CELLSTYLE
  1
TABLEFORMAT_BEGIN
 90
        5
170
     1
 91
        0
 92
        0
 62
   257
 93
        1
300
CONTENTFORMAT
  1
CONTENTFORMAT_BEGIN
 90
        0
 91
        0
 92
        4
 93
        0
300

 40
0.0
140
1.0
 94
        5
 62
     0
340
11
144
0.18
309
CONTENTFORMAT_END
171
     1
301
MARGIN
  1
CELLMARGIN_BEGIN
 40
0.06
 40
0.06
 40
0.06
 40
0.06
 40
0.06
 40
0.06
309
CELLMARGIN_END
 94
        6
 95
        1
302
GRIDFORMAT
  1
GRIDFORMAT_BEGIN
 90
        0
 91
        1
 62
     0
 92
       -2
340
14
 93
        0
 40
0.045
309
GRIDFORMAT_END
 95
        2
302
GRIDFORMAT
  1
GRIDFORMAT_BEGIN
 90
        0
 91
        1
 62
     0
 92
       -2
340
14
 93
        0
 40
0.045
309
GRIDFORMAT_END
 95
        4
302
GRIDFORMAT
  1
GRIDFORMAT_BEGIN
 90
        0
 91
        1
 62
     0
 92
       -2
340
14
 93
        0
 40
0.045
309
GRIDFORMAT_END
 95
        8
302
GRIDFORMAT
  1
GRIDFORMAT_BEGIN
 90
        0
 91
        1
 62
     0
 92
       -2
340
14
 93
        0
 40
0.045
309
GRIDFORMAT_END
 95
       16
302
GRIDFORMAT
  1
GRIDFORMAT_BEGIN
 90
        0
 91
        1
 62
     0
 92
       -2
340
14
 93
        0
 40
0.045
309
GRIDFORMAT_END
 95
       32
302
GRIDFORMAT
  1
GRIDFORMAT_BEGIN
 90
        0
 91
        1
 62
     0
 92
       -2
340
14
 93
        0
 40
0.045
309
GRIDFORMAT_END
309
TABLEFORMAT_END
  1
CELLSTYLE_BEGIN
 90
        2
 91
        1
300
_HEADER
309
CELLSTYLE_END
300
CELLSTYLE
  1
TABLEFORMAT_BEGIN
 90
        5
170
     1
 91
        0
 92
        0
 62
   257
 93
        1
300
CONTENTFORMAT
  1
CONTENTFORMAT_BEGIN
 90
        0
 91
        0
 92
        4
 93
        0
300

 40
0.0
140
1.0
 94
        2
 62
     0
340
11
144
0.18
309
CONTENTFORMAT_END
171
     1
301
MARGIN
  1
CELLMARGIN_BEGIN
 40
0.06
 40
0.06
 40
0.06
 40
0.06
 40
0.06
 40
0.06
309
CELLMARGIN_END
 94
        6
 95
        1
302
GRIDFORMAT
  1
GRIDFORMAT_BEGIN
 90
        0
 91
        1
 62
     0
 92
       -2
340
14
 93
        0
 40
0.045
309
GRIDFORMAT_END
 95
        2
302
GRIDFORMAT
  1
GRIDFORMAT_BEGIN
 90
        0
 91
        1
 62
     0
 92
       -2
340
14
 93
        0
 40
0.045
309
GRIDFORMAT_END
 95
        4
302
GRIDFORMAT
  1
GRIDFORMAT_BEGIN
 90
        0
 91
        1
 62
     0
 92
       -2
340
14
 93
        0
 40
0.045
309
GRIDFORMAT_END
 95
        8
302
GRIDFORMAT
  1
GRIDFORMAT_BEGIN
 90
        0
 91
        1
 62
     0
 92
       -2
340
14
 93
        0
 40
0.045
309
GRIDFORMAT_END
 95
       16
302
GRIDFORMAT
  1
GRIDFORMAT_BEGIN
 90
        0
 91
        1
 62
     0
 92
       -2
340
14
 93
        0
 40
0.045
309
GRIDFORMAT_END
 95
       32
302
GRIDFORMAT
  1
GRIDFORMAT_BEGIN
 90
        0
 91
        1
 62
     0
 92
       -2
340
14
 93
        0
 40
0.045
309
GRIDFORMAT_END
309
TABLEFORMAT_END
  1
CELLSTYLE_BEGIN
 90
        3
 91
        2
300
_DATA
309
CELLSTYLE_END
  0
XRECORD
  5
172
102
{ACAD_REACTORS
330
171
102
}
330
171
100
AcDbXrecord
280
     1
102
RTVSPropertyOp0
 70
     1
102
RTVSPropertyOp1
 70
     1
102
RTVSPropertyOp2
 70
     1
102
RTVSPropertyOp3
 70
     1
102
RTVSPropertyOp4
 70
     1
102
RTVSPropertyOp5
 70
     1
102
RTVSPropertyOp6
 70
     1
102
RTVSPropertyOp7
 70
     1
102
RTVSPropertyOp8
 70
     1
102
RTVSPropertyOp9
 70
     1
102
RTVSPropertyOp10
 70
     1
102
RTVSPropertyOp11
 70
     1
102
RTVSPropertyOp12
 70
     1
102
RTVSPropertyOp13
 70
     1
102
RTVSPropertyOp14
 70
     1
102
RTVSPropertyOp15
 70
     1
102
RTVSPropertyOp16
 70
     1
102
RTVSPropertyOp17
 70
     1
102
RTVSPropertyOp18
 70
     1
102
RTVSPropertyOp19
 70
     1
102
RTVSPropertyOp20
 70
     1
102
RTVSPropertyOp21
 70
     1
102
RTVSPropertyOp22
 70
     1
102
RTVSPropertyOp23
 70
     1
102
RTVSPropertyOp24
 70
     1
102
RTVSPropertyOp25
 70
     1
102
RTVSPropertyOp26
 70
     1
102
RTVSPropertyOp27
 70
     1
102
RTVSPropertyOp28
 70
     1
102
RTVSPropertyOp29
 70
     1
102
RTVSPropertyOp30
 70
     1
102
RTVSPropertyOp31
 70
     1
102
RTVSPropertyOp32
 70
     1
102
RTVSPropertyOp33
 70
     1
102
RTVSPropertyOp34
 70
     1
102
RTVSPropertyOp35
 70
     1
102
RTVSPropertyOp36
 70
     1
102
RTVSPropertyOp37
 70
     1
102
RTVSPropertyOp38
 70
     1
102
RTVSPropertyOp39
 70
     1
102
RTVSPropertyOp40
 70
     1
102
RTVSPropertyOp41
 70
     1
102
RTVSPropertyOp42
 70
     1
102
RTVSPropertyOp43
 70
     1
102
RTVSPropertyOp44
 70
     1
102
RTVSPropertyOp45
 70
     1
102
RTVSPropertyOp46
 70
     1
102
RTVSPropertyOp47
 70
     1
102
RTVSPropertyOp48
 70
     1
102
RTVSPropertyOp49
 70
     1
102
RTVSPropertyOp50
 70
     1
102
RTVSPropertyOp51
 70
     0
102
RTVSPropertyOp52
 70
     0
102
RTVSPropertyOp53
 70
     1
102
RTVSPropertyOp54
 70
     1
102
RTVSPropertyOp55
 70
     1
102
RTVSPropertyOp56
 70
     1
102
RTVSPropertyOp57
 70
     1
102
RTVSPost2010Prop28
280
     1
102
RTVSPost2010PropOp28
 70
     1
102
RTVSPost2010Prop29
280
     1
102
RTVSPost2010PropOp29
 70
     1
102
RTVSPost2010Prop30
280
     0
102
RTVSPost2010PropOp30
 70
     1
102
RTVSPost2010Prop31
280
     0
102
RTVSPost2010PropOp31
 70
     1
102
RTVSPost2010Prop32
280
     0
102
RTVSPost2010PropOp32
 70
     1
102
RTVSPost2010Prop33
280
     0
102
RTVSPost2010PropOp33
 70
     1
102
RTVSPost2010Prop34
280
     0
102
RTVSPost2010PropOp34
 70
     1
102
RTVSPost2010Prop35
280
     0
102
RTVSPost2010PropOp35
 70
     1
102
RTVSPost2010Prop36
280
     0
102
RTVSPost2010PropOp36
 70
     1
102
RTVSPost2010Prop37
 90
       50
102
RTVSPost2010PropOp37
 70
     1
102
RTVSPost2010Prop38
140
0.0
102
RTVSPost2010PropOp38
 70
     1
102
RTVSPost2010Prop39
140
1.0
102
RTVSPost2010PropOp39
 70
     1
102
RTVSPost2010Prop40
 90
        0
102
RTVSPost2010PropOp40
 70
     1
102
RTVSPost2010Prop41ColorIndex
 90
       18
102
RTVSPost2010Prop41ColorRGB
 90
        0
102
RTVSPost2010PropOp41
 70
     1
102
RTVSPost2010Prop42
 90
       50
102
RTVSPost2010PropOp42
 70
     1
102
RTVSPost2010Prop43
 90
        3
102
RTVSPost2010PropOp43
 70
     1
102
RTVSPost2010Prop44ColorIndex
 90
        5
102
RTVSPost2010Prop44ColorRGB
 90
      255
102
RTVSPost2010PropOp44
 70
     1
102
RTVSPost2010Prop45
280
     0
102
RTVSPost2010PropOp45
 70
     1
102
RTVSPost2010Prop46
 90
       50
102
RTVSPost2010PropOp46
 70
     1
102
RTVSPost2010Prop47
 90
       50
102
RTVSPost2010PropOp47
 70
     1
102
RTVSPost2010Prop48
 90
       50
102
RTVSPost2010PropOp48
 70
     1
102
RTVSPost2010Prop49
280
     0
102
RTVSPost2010PropOp49
 70
     1
102
RTVSPost2010Prop50
 90
       50
102
RTVSPost2010PropOp50
 70
     1
102
RTVSPost2010Prop51ColorIndex
 90
      256
102
RTVSPost2010Prop51ColorRGB
 90
-16777216
102
RTVSPost2010PropOp51
 70
     0
102
RTVSPost2010Prop52
140
1.0
102
RTVSPost2010PropOp52
 70
     0
102
RTVSPost2010Prop53
 90
        2
102
RTVSPost2010PropOp53
 70
     1
102
RTVSPost2010Prop54
  1
strokes_ogs.tif
102
RTVSPost2010PropOp54
 70
     1
102
RTVSPost2010Prop55
280
     0
102
RTVSPost2010PropOp55
 70
     1
102
RTVSPost2010Prop56
140
1.0
102
RTVSPost2010PropOp56
 70
     1
102
RTVSPost2010Prop57
140
1.0
102
RTVSPost2010PropOp57
 70
     1
  0
XRECORD
  5
178
102
{ACAD_REACTORS
330
177
102
}
330
177
100
AcDbXrecord
280
     1
102
RTVSPropertyOp0
 70
     1
102
RTVSPropertyOp1
 70
     1
102
RTVSPropertyOp2
 70
     1
102
RTVSPropertyOp3
 70
     1
102
RTVSPropertyOp4
 70
     1
102
RTVSPropertyOp5
 70
     1
102
RTVSPropertyOp6
 70
     1
102
RTVSPropertyOp7
 70
     1
102
RTVSPropertyOp8
 70
     1
102
RTVSPropertyOp9
 70
     1
102
RTVSPropertyOp10
 70
     1
102
RTVSPropertyOp11
 70
     1
102
RTVSPropertyOp12
 70
     1
102
RTVSPropertyOp13
 70
     1
102
RTVSPropertyOp14
 70
     1
102
RTVSPropertyOp15
 70
     1
102
RTVSPropertyOp16
 70
     1
102
RTVSPropertyOp17
 70
     1
102
RTVSPropertyOp18
 70
     1
102
RTVSPropertyOp19
 70
     1
102
RTVSPropertyOp20
 70
     1
102
RTVSPropertyOp21
 70
     1
102
RTVSPropertyOp22
 70
     1
102
RTVSPropertyOp23
 70
     1
102
RTVSPropertyOp24
 70
     1
102
RTVSPropertyOp25
 70
     1
102
RTVSPropertyOp26
 70
     1
102
RTVSPropertyOp27
 70
     1
102
RTVSPropertyOp28
 70
     1
102
RTVSPropertyOp29
 70
     1
102
RTVSPropertyOp30
 70
     1
102
RTVSPropertyOp31
 70
     1
102
RTVSPropertyOp32
 70
     1
102
RTVSPropertyOp33
 70
     1
102
RTVSPropertyOp34
 70
     1
102
RTVSPropertyOp35
 70
     1
102
RTVSPropertyOp36
 70
     1
102
RTVSPropertyOp37
 70
     1
102
RTVSPropertyOp38
 70
     1
102
RTVSPropertyOp39
 70
     1
102
RTVSPropertyOp40
 70
     1
102
RTVSPropertyOp41
 70
     1
102
RTVSPropertyOp42
 70
     1
102
RTVSPropertyOp43
 70
     1
102
RTVSPropertyOp44
 70
     1
102
RTVSPropertyOp45
 70
     1
102
RTVSPropertyOp46
 70
     1
102
RTVSPropertyOp47
 70
     1
102
RTVSPropertyOp48
 70
     1
102
RTVSPropertyOp49
 70
     1
102
RTVSPropertyOp50
 70
     1
102
RTVSPropertyOp51
 70
     0
102
RTVSPropertyOp52
 70
     0
102
RTVSPropertyOp53
 70
     1
102
RTVSPropertyOp54
 70
     1
102
RTVSPropertyOp55
 70
     1
102
RTVSPropertyOp56
 70
     1
102
RTVSPropertyOp57
 70
     1
102
RTVSPost2010Prop28
280
     0
102
RTVSPost2010PropOp28
 70
     1
102
RTVSPost2010Prop29
280
     1
102
RTVSPost2010PropOp29
 70
     1
102
RTVSPost2010Prop30
280
     1
102
RTVSPost2010PropOp30
 70
     1
102
RTVSPost2010Prop31
280
     0
102
RTVSPost2010PropOp31
 70
     1
102
RTVSPost2010Prop32
280
     0
102
RTVSPost2010PropOp32
 70
     1
102
RTVSPost2010Prop33
280
     0
102
RTVSPost2010PropOp33
 70
     1
102
RTVSPost2010Prop34
280
     0
102
RTVSPost2010PropOp34
 70
     1
102
RTVSPost2010Prop35
280
     0
102
RTVSPost2010PropOp35
 70
     1
102
RTVSPost2010Prop36
280
     0
102
RTVSPost2010PropOp36
 70
     1
102
RTVSPost2010Prop37
 90
       50
102
RTVSPost2010PropOp37
 70
     1
102
RTVSPost2010Prop38
140
0.0
102
RTVSPost2010PropOp38
 70
     1
102
RTVSPost2010Prop39
140
1.0
102
RTVSPost2010PropOp39
 70
     1
102
RTVSPost2010Prop40
 90
        0
102
RTVSPost2010PropOp40
 70
     1
102
RTVSPost2010Prop41ColorIndex
 90
       18
102
RTVSPost2010Prop41ColorRGB
 90
        0
102
RTVSPost2010PropOp41
 70
     1
102
RTVSPost2010Prop42
 90
       50
102
RTVSPost2010PropOp42
 70
     1
102
RTVSPost2010Prop43
 90
        3
102
RTVSPost2010PropOp43
 70
     1
102
RTVSPost2010Prop44ColorIndex
 90
        5
102
RTVSPost2010Prop44ColorRGB
 90
      255
102
RTVSPost2010PropOp44
 70
     1
102
RTVSPost2010Prop45
280
     0
102
RTVSPost2010PropOp45
 70
     1
102
RTVSPost2010Prop46
 90
       50
102
RTVSPost2010PropOp46
 70
     1
102
RTVSPost2010Prop47
 90
       50
102
RTVSPost2010PropOp47
 70
     1
102
RTVSPost2010Prop48
 90
       50
102
RTVSPost2010PropOp48
 70
     1
102
RTVSPost2010Prop49
280
     0
102
RTVSPost2010PropOp49
 70
     1
102
RTVSPost2010Prop50
 90
       50
102
RTVSPost2010PropOp50
 70
     1
102
RTVSPost2010Prop51ColorIndex
 90
      256
102
RTVSPost2010Prop51ColorRGB
 90
-16777216
102
RTVSPost2010PropOp51
 70
     0
102
RTVSPost2010Prop52
140
1.0
102
RTVSPost2010PropOp52
 70
     0
102
RTVSPost2010Prop53
 90
        2
102
RTVSPost2010PropOp53
 70
     1
102
RTVSPost2010Prop54
  1
strokes_ogs.tif
102
RTVSPost2010PropOp54
 70
     1
102
RTVSPost2010Prop55
280
     0
102
RTVSPost2010PropOp55
 70
     1
102
RTVSPost2010Prop56
140
1.0
102
RTVSPost2010PropOp56
 70
     1
102
RTVSPost2010Prop57
140
1.0
102
RTVSPost2010PropOp57
 70
     1
  0
XRECORD
  5
180
102
{ACAD_REACTORS
330
17F
102
}
330
17F
100
AcDbXrecord
280
     1
102
RTVSPropertyOp0
 70
     1
102
RTVSPropertyOp1
 70
     1
102
RTVSPropertyOp2
 70
     1
102
RTVSPropertyOp3
 70
     1
102
RTVSPropertyOp4
 70
     1
102
RTVSPropertyOp5
 70
     1
102
RTVSPropertyOp6
 70
     1
102
RTVSPropertyOp7
 70
     1
102
RTVSPropertyOp8
 70
     1
102
RTVSPropertyOp9
 70
     1
102
RTVSPropertyOp10
 70
     1
102
RTVSPropertyOp11
 70
     1
102
RTVSPropertyOp12
 70
     1
102
RTVSPropertyOp13
 70
     1
102
RTVSPropertyOp14
 70
     1
102
RTVSPropertyOp15
 70
     1
102
RTVSPropertyOp16
 70
     1
102
RTVSPropertyOp17
 70
     1
102
RTVSPropertyOp18
 70
     1
102
RTVSPropertyOp19
 70
     1
102
RTVSPropertyOp20
 70
     1
102
RTVSPropertyOp21
 70
     1
102
RTVSPropertyOp22
 70
     1
102
RTVSPropertyOp23
 70
     1
102
RTVSPropertyOp24
 70
     1
102
RTVSPropertyOp25
 70
     1
102
RTVSPropertyOp26
 70
     1
102
RTVSPropertyOp27
 70
     1
102
RTVSPropertyOp28
 70
     1
102
RTVSPropertyOp29
 70
     1
102
RTVSPropertyOp30
 70
     1
102
RTVSPropertyOp31
 70
     1
102
RTVSPropertyOp32
 70
     1
102
RTVSPropertyOp33
 70
     1
102
RTVSPropertyOp34
 70
     1
102
RTVSPropertyOp35
 70
     1
102
RTVSPropertyOp36
 70
     1
102
RTVSPropertyOp37
 70
     1
102
RTVSPropertyOp38
 70
     1
102
RTVSPropertyOp39
 70
     1
102
RTVSPropertyOp40
 70
     1
102
RTVSPropertyOp41
 70
     1
102
RTVSPropertyOp42
 70
     1
102
RTVSPropertyOp43
 70
     1
102
RTVSPropertyOp44
 70
     1
102
RTVSPropertyOp45
 70
     1
102
RTVSPropertyOp46
 70
     1
102
RTVSPropertyOp47
 70
     1
102
RTVSPropertyOp48
 70
     1
102
RTVSPropertyOp49
 70
     1
102
RTVSPropertyOp50
 70
     1
102
RTVSPropertyOp51
 70
     0
102
RTVSPropertyOp52
 70
     0
102
RTVSPropertyOp53
 70
     1
102
RTVSPropertyOp54
 70
     1
102
RTVSPropertyOp55
 70
     1
102
RTVSPropertyOp56
 70
     1
102
RTVSPropertyOp57
 70
     1
102
RTVSPost2010Prop28
280
     0
102
RTVSPost2010PropOp28
 70
     1
102
RTVSPost2010Prop29
280
     1
102
RTVSPost2010PropOp29
 70
     1
102
RTVSPost2010Prop30
280
     1
102
RTVSPost2010PropOp30
 70
     1
102
RTVSPost2010Prop31
280
     0
102
RTVSPost2010PropOp31
 70
     1
102
RTVSPost2010Prop32
280
     0
102
RTVSPost2010PropOp32
 70
     1
102
RTVSPost2010Prop33
280
     0
102
RTVSPost2010PropOp33
 70
     1
102
RTVSPost2010Prop34
280
     0
102
RTVSPost2010PropOp34
 70
     1
102
RTVSPost2010Prop35
280
     0
102
RTVSPost2010PropOp35
 70
     1
102
RTVSPost2010Prop36
280
     0
102
RTVSPost2010PropOp36
 70
     1
102
RTVSPost2010Prop37
 90
       50
102
RTVSPost2010PropOp37
 70
     1
102
RTVSPost2010Prop38
140
0.0
102
RTVSPost2010PropOp38
 70
     1
102
RTVSPost2010Prop39
140
1.0
102
RTVSPost2010PropOp39
 70
     1
102
RTVSPost2010Prop40
 90
        0
102
RTVSPost2010PropOp40
 70
     1
102
RTVSPost2010Prop41ColorIndex
 90
       18
102
RTVSPost2010Prop41ColorRGB
 90
        0
102
RTVSPost2010PropOp41
 70
     1
102
RTVSPost2010Prop42
 90
       50
102
RTVSPost2010PropOp42
 70
     1
102
RTVSPost2010Prop43
 90
        3
102
RTVSPost2010PropOp43
 70
     1
102
RTVSPost2010Prop44ColorIndex
 90
        5
102
RTVSPost2010Prop44ColorRGB
 90
      255
102
RTVSPost2010PropOp44
 70
     1
102
RTVSPost2010Prop45
280
     0
102
RTVSPost2010PropOp45
 70
     1
102
RTVSPost2010Prop46
 90
       50
102
RTVSPost2010PropOp46
 70
     1
102
RTVSPost2010Prop47
 90
       50
102
RTVSPost2010PropOp47
 70
     1
102
RTVSPost2010Prop48
 90
       50
102
RTVSPost2010PropOp48
 70
     1
102
RTVSPost2010Prop49
280
     0
102
RTVSPost2010PropOp49
 70
     1
102
RTVSPost2010Prop50
 90
       50
102
RTVSPost2010PropOp50
 70
     1
102
RTVSPost2010Prop51ColorIndex
 90
      256
102
RTVSPost2010Prop51ColorRGB
 90
-16777216
102
RTVSPost2010PropOp51
 70
     0
102
RTVSPost2010Prop52
140
1.0
102
RTVSPost2010PropOp52
 70
     0
102
RTVSPost2010Prop53
 90
        2
102
RTVSPost2010PropOp53
 70
     1
102
RTVSPost2010Prop54
  1
strokes_ogs.tif
102
RTVSPost2010PropOp54
 70
     1
102
RTVSPost2010Prop55
280
     0
102
RTVSPost2010PropOp55
 70
     1
102
RTVSPost2010Prop56
140
1.0
102
RTVSPost2010PropOp56
 70
     1
102
RTVSPost2010Prop57
140
1.0
102
RTVSPost2010PropOp57
 70
     1
  0
XRECORD
  5
188
102
{ACAD_REACTORS
330
187
102
}
330
187
100
AcDbXrecord
280
     1
102
RTVSPropertyOp0
 70
     1
102
RTVSPropertyOp1
 70
     1
102
RTVSPropertyOp2
 70
     1
102
RTVSPropertyOp3
 70
     1
102
RTVSPropertyOp4
 70
     1
102
RTVSPropertyOp5
 70
     1
102
RTVSPropertyOp6
 70
     1
102
RTVSPropertyOp7
 70
     1
102
RTVSPropertyOp8
 70
     1
102
RTVSPropertyOp9
 70
     1
102
RTVSPropertyOp10
 70
     1
102
RTVSPropertyOp11
 70
     1
102
RTVSPropertyOp12
 70
     1
102
RTVSPropertyOp13
 70
     1
102
RTVSPropertyOp14
 70
     1
102
RTVSPropertyOp15
 70
     1
102
RTVSPropertyOp16
 70
     1
102
RTVSPropertyOp17
 70
     1
102
RTVSPropertyOp18
 70
     1
102
RTVSPropertyOp19
 70
     1
102
RTVSPropertyOp20
 70
     1
102
RTVSPropertyOp21
 70
     1
102
RTVSPropertyOp22
 70
     1
102
RTVSPropertyOp23
 70
     1
102
RTVSPropertyOp24
 70
     1
102
RTVSPropertyOp25
 70
     1
102
RTVSPropertyOp26
 70
     1
102
RTVSPropertyOp27
 70
     1
102
RTVSPropertyOp28
 70
     1
102
RTVSPropertyOp29
 70
     1
102
RTVSPropertyOp30
 70
     1
102
RTVSPropertyOp31
 70
     1
102
RTVSPropertyOp32
 70
     1
102
RTVSPropertyOp33
 70
     1
102
RTVSPropertyOp34
 70
     1
102
RTVSPropertyOp35
 70
     1
102
RTVSPropertyOp36
 70
     1
102
RTVSPropertyOp37
 70
     1
102
RTVSPropertyOp38
 70
     1
102
RTVSPropertyOp39
 70
     1
102
RTVSPropertyOp40
 70
     1
102
RTVSPropertyOp41
 70
     1
102
RTVSPropertyOp42
 70
     1
102
RTVSPropertyOp43
 70
     1
102
RTVSPropertyOp44
 70
     1
102
RTVSPropertyOp45
 70
     1
102
RTVSPropertyOp46
 70
     1
102
RTVSPropertyOp47
 70
     1
102
RTVSPropertyOp48
 70
     1
102
RTVSPropertyOp49
 70
     1
102
RTVSPropertyOp50
 70
     1
102
RTVSPropertyOp51
 70
     0
102
RTVSPropertyOp52
 70
     0
102
RTVSPropertyOp53
 70
     1
102
RTVSPropertyOp54
 70
     1
102
RTVSPropertyOp55
 70
     1
102
RTVSPropertyOp56
 70
     1
102
RTVSPropertyOp57
 70
     1
102
RTVSPost2010Prop28
280
     0
102
RTVSPost2010PropOp28
 70
     1
102
RTVSPost2010Prop29
280
     1
102
RTVSPost2010PropOp29
 70
     1
102
RTVSPost2010Prop30
280
     1
102
RTVSPost2010PropOp30
 70
     1
102
RTVSPost2010Prop31
280
     0
102
RTVSPost2010PropOp31
 70
     1
102
RTVSPost2010Prop32
280
     0
102
RTVSPost2010PropOp32
 70
     1
102
RTVSPost2010Prop33
280
     0
102
RTVSPost2010PropOp33
 70
     1
102
RTVSPost2010Prop34
280
     0
102
RTVSPost2010PropOp34
 70
     1
102
RTVSPost2010Prop35
280
     0
102
RTVSPost2010PropOp35
 70
     1
102
RTVSPost2010Prop36
280
     0
102
RTVSPost2010PropOp36
 70
     1
102
RTVSPost2010Prop37
 90
       50
102
RTVSPost2010PropOp37
 70
     1
102
RTVSPost2010Prop38
140
0.0
102
RTVSPost2010PropOp38
 70
     1
102
RTVSPost2010Prop39
140
1.0
102
RTVSPost2010PropOp39
 70
     1
102
RTVSPost2010Prop40
 90
        0
102
RTVSPost2010PropOp40
 70
     1
102
RTVSPost2010Prop41ColorIndex
 90
       18
102
RTVSPost2010Prop41ColorRGB
 90
        0
102
RTVSPost2010PropOp41
 70
     1
102
RTVSPost2010Prop42
 90
       50
102
RTVSPost2010PropOp42
 70
     1
102
RTVSPost2010Prop43
 90
        3
102
RTVSPost2010PropOp43
 70
     1
102
RTVSPost2010Prop44ColorIndex
 90
        5
102
RTVSPost2010Prop44ColorRGB
 90
      255
102
RTVSPost2010PropOp44
 70
     1
102
RTVSPost2010Prop45
280
     0
102
RTVSPost2010PropOp45
 70
     1
102
RTVSPost2010Prop46
 90
       50
102
RTVSPost2010PropOp46
 70
     1
102
RTVSPost2010Prop47
 90
       50
102
RTVSPost2010PropOp47
 70
     1
102
RTVSPost2010Prop48
 90
       50
102
RTVSPost2010PropOp48
 70
     1
102
RTVSPost2010Prop49
280
     0
102
RTVSPost2010PropOp49
 70
     1
102
RTVSPost2010Prop50
 90
       50
102
RTVSPost2010PropOp50
 70
     1
102
RTVSPost2010Prop51ColorIndex
 90
      256
102
RTVSPost2010Prop51ColorRGB
 90
-16777216
102
RTVSPost2010PropOp51
 70
     0
102
RTVSPost2010Prop52
140
1.0
102
RTVSPost2010PropOp52
 70
     0
102
RTVSPost2010Prop53
 90
        2
102
RTVSPost2010PropOp53
 70
     1
102
RTVSPost2010Prop54
  1
strokes_ogs.tif
102
RTVSPost2010PropOp54
 70
     1
102
RTVSPost2010Prop55
280
     0
102
RTVSPost2010PropOp55
 70
     1
102
RTVSPost2010Prop56
140
1.0
102
RTVSPost2010PropOp56
 70
     1
102
RTVSPost2010Prop57
140
1.0
102
RTVSPost2010PropOp57
 70
     1
  0
XRECORD
  5
17C
102
{ACAD_REACTORS
330
17B
102
}
330
17B
100
AcDbXrecord
280
     1
102
RTVSPropertyOp0
 70
     1
102
RTVSPropertyOp1
 70
     1
102
RTVSPropertyOp2
 70
     1
102
RTVSPropertyOp3
 70
     1
102
RTVSPropertyOp4
 70
     1
102
RTVSPropertyOp5
 70
     1
102
RTVSPropertyOp6
 70
     1
102
RTVSPropertyOp7
 70
     1
102
RTVSPropertyOp8
 70
     1
102
RTVSPropertyOp9
 70
     1
102
RTVSPropertyOp10
 70
     1
102
RTVSPropertyOp11
 70
     1
102
RTVSPropertyOp12
 70
     1
102
RTVSPropertyOp13
 70
     1
102
RTVSPropertyOp14
 70
     1
102
RTVSPropertyOp15
 70
     1
102
RTVSPropertyOp16
 70
     1
102
RTVSPropertyOp17
 70
     1
102
RTVSPropertyOp18
 70
     1
102
RTVSPropertyOp19
 70
     1
102
RTVSPropertyOp20
 70
     1
102
RTVSPropertyOp21
 70
     1
102
RTVSPropertyOp22
 70
     1
102
RTVSPropertyOp23
 70
     1
102
RTVSPropertyOp24
 70
     1
102
RTVSPropertyOp25
 70
     1
102
RTVSPropertyOp26
 70
     1
102
RTVSPropertyOp27
 70
     1
102
RTVSPropertyOp28
 70
     1
102
RTVSPropertyOp29
 70
     1
102
RTVSPropertyOp30
 70
     1
102
RTVSPropertyOp31
 70
     1
102
RTVSPropertyOp32
 70
     1
102
RTVSPropertyOp33
 70
     1
102
RTVSPropertyOp34
 70
     1
102
RTVSPropertyOp35
 70
     1
102
RTVSPropertyOp36
 70
     1
102
RTVSPropertyOp37
 70
     1
102
RTVSPropertyOp38
 70
     1
102
RTVSPropertyOp39
 70
     1
102
RTVSPropertyOp40
 70
     1
102
RTVSPropertyOp41
 70
     1
102
RTVSPropertyOp42
 70
     1
102
RTVSPropertyOp43
 70
     1
102
RTVSPropertyOp44
 70
     1
102
RTVSPropertyOp45
 70
     1
102
RTVSPropertyOp46
 70
     1
102
RTVSPropertyOp47
 70
     1
102
RTVSPropertyOp48
 70
     1
102
RTVSPropertyOp49
 70
     1
102
RTVSPropertyOp50
 70
     1
102
RTVSPropertyOp51
 70
     0
102
RTVSPropertyOp52
 70
     0
102
RTVSPropertyOp53
 70
     1
102
RTVSPropertyOp54
 70
     1
102
RTVSPropertyOp55
 70
     1
102
RTVSPropertyOp56
 70
     1
102
RTVSPropertyOp57
 70
     1
102
RTVSPost2010Prop28
280
     0
102
RTVSPost2010PropOp28
 70
     1
102
RTVSPost2010Prop29
280
     1
102
RTVSPost2010PropOp29
 70
     1
102
RTVSPost2010Prop30
280
     1
102
RTVSPost2010PropOp30
 70
     1
102
RTVSPost2010Prop31
280
     0
102
RTVSPost2010PropOp31
 70
     1
102
RTVSPost2010Prop32
280
     0
102
RTVSPost2010PropOp32
 70
     1
102
RTVSPost2010Prop33
280
     0
102
RTVSPost2010PropOp33
 70
     1
102
RTVSPost2010Prop34
280
     0
102
RTVSPost2010PropOp34
 70
     1
102
RTVSPost2010Prop35
280
     0
102
RTVSPost2010PropOp35
 70
     1
102
RTVSPost2010Prop36
280
     0
102
RTVSPost2010PropOp36
 70
     1
102
RTVSPost2010Prop37
 90
       50
102
RTVSPost2010PropOp37
 70
     1
102
RTVSPost2010Prop38
140
0.0
102
RTVSPost2010PropOp38
 70
     1
102
RTVSPost2010Prop39
140
1.0
102
RTVSPost2010PropOp39
 70
     1
102
RTVSPost2010Prop40
 90
        0
102
RTVSPost2010PropOp40
 70
     1
102
RTVSPost2010Prop41ColorIndex
 90
       18
102
RTVSPost2010Prop41ColorRGB
 90
        0
102
RTVSPost2010PropOp41
 70
     1
102
RTVSPost2010Prop42
 90
       50
102
RTVSPost2010PropOp42
 70
     1
102
RTVSPost2010Prop43
 90
        3
102
RTVSPost2010PropOp43
 70
     1
102
RTVSPost2010Prop44ColorIndex
 90
        5
102
RTVSPost2010Prop44ColorRGB
 90
      255
102
RTVSPost2010PropOp44
 70
     1
102
RTVSPost2010Prop45
280
     0
102
RTVSPost2010PropOp45
 70
     1
102
RTVSPost2010Prop46
 90
       50
102
RTVSPost2010PropOp46
 70
     1
102
RTVSPost2010Prop47
 90
       50
102
RTVSPost2010PropOp47
 70
     1
102
RTVSPost2010Prop48
 90
       50
102
RTVSPost2010PropOp48
 70
     1
102
RTVSPost2010Prop49
280
     0
102
RTVSPost2010PropOp49
 70
     1
102
RTVSPost2010Prop50
 90
       50
102
RTVSPost2010PropOp50
 70
     1
102
RTVSPost2010Prop51ColorIndex
 90
      256
102
RTVSPost2010Prop51ColorRGB
 90
-16777216
102
RTVSPost2010PropOp51
 70
     0
102
RTVSPost2010Prop52
140
1.0
102
RTVSPost2010PropOp52
 70
     0
102
RTVSPost2010Prop53
 90
        2
102
RTVSPost2010PropOp53
 70
     1
102
RTVSPost2010Prop54
  1
strokes_ogs.tif
102
RTVSPost2010PropOp54
 70
     1
102
RTVSPost2010Prop55
280
     0
102
RTVSPost2010PropOp55
 70
     1
102
RTVSPost2010Prop56
140
1.0
102
RTVSPost2010PropOp56
 70
     1
102
RTVSPost2010Prop57
140
1.0
102
RTVSPost2010PropOp57
 70
     1
  0
XRECORD
  5
17E
102
{ACAD_REACTORS
330
17D
102
}
330
17D
100
AcDbXrecord
280
     1
102
RTVSPropertyOp0
 70
     1
102
RTVSPropertyOp1
 70
     1
102
RTVSPropertyOp2
 70
     1
102
RTVSPropertyOp3
 70
     1
102
RTVSPropertyOp4
 70
     1
102
RTVSPropertyOp5
 70
     1
102
RTVSPropertyOp6
 70
     1
102
RTVSPropertyOp7
 70
     1
102
RTVSPropertyOp8
 70
     1
102
RTVSPropertyOp9
 70
     1
102
RTVSPropertyOp10
 70
     1
102
RTVSPropertyOp11
 70
     1
102
RTVSPropertyOp12
 70
     1
102
RTVSPropertyOp13
 70
     1
102
RTVSPropertyOp14
 70
     1
102
RTVSPropertyOp15
 70
     1
102
RTVSPropertyOp16
 70
     1
102
RTVSPropertyOp17
 70
     1
102
RTVSPropertyOp18
 70
     1
102
RTVSPropertyOp19
 70
     1
102
RTVSPropertyOp20
 70
     1
102
RTVSPropertyOp21
 70
     1
102
RTVSPropertyOp22
 70
     1
102
RTVSPropertyOp23
 70
     1
102
RTVSPropertyOp24
 70
     1
102
RTVSPropertyOp25
 70
     1
102
RTVSPropertyOp26
 70
     1
102
RTVSPropertyOp27
 70
     1
102
RTVSPropertyOp28
 70
     1
102
RTVSPropertyOp29
 70
     1
102
RTVSPropertyOp30
 70
     1
102
RTVSPropertyOp31
 70
     1
102
RTVSPropertyOp32
 70
     1
102
RTVSPropertyOp33
 70
     1
102
RTVSPropertyOp34
 70
     1
102
RTVSPropertyOp35
 70
     1
102
RTVSPropertyOp36
 70
     1
102
RTVSPropertyOp37
 70
     1
102
RTVSPropertyOp38
 70
     1
102
RTVSPropertyOp39
 70
     1
102
RTVSPropertyOp40
 70
     1
102
RTVSPropertyOp41
 70
     1
102
RTVSPropertyOp42
 70
     1
102
RTVSPropertyOp43
 70
     1
102
RTVSPropertyOp44
 70
     1
102
RTVSPropertyOp45
 70
     1
102
RTVSPropertyOp46
 70
     1
102
RTVSPropertyOp47
 70
     1
102
RTVSPropertyOp48
 70
     1
102
RTVSPropertyOp49
 70
     1
102
RTVSPropertyOp50
 70
     1
102
RTVSPropertyOp51
 70
     0
102
RTVSPropertyOp52
 70
     0
102
RTVSPropertyOp53
 70
     1
102
RTVSPropertyOp54
 70
     1
102
RTVSPropertyOp55
 70
     1
102
RTVSPropertyOp56
 70
     1
102
RTVSPropertyOp57
 70
     1
102
RTVSPost2010Prop28
280
     0
102
RTVSPost2010PropOp28
 70
     1
102
RTVSPost2010Prop29
280
     1
102
RTVSPost2010PropOp29
 70
     1
102
RTVSPost2010Prop30
280
     1
102
RTVSPost2010PropOp30
 70
     1
102
RTVSPost2010Prop31
280
     0
102
RTVSPost2010PropOp31
 70
     1
102
RTVSPost2010Prop32
280
     0
102
RTVSPost2010PropOp32
 70
     1
102
RTVSPost2010Prop33
280
     0
102
RTVSPost2010PropOp33
 70
     1
102
RTVSPost2010Prop34
280
     0
102
RTVSPost2010PropOp34
 70
     1
102
RTVSPost2010Prop35
280
     0
102
RTVSPost2010PropOp35
 70
     1
102
RTVSPost2010Prop36
280
     0
102
RTVSPost2010PropOp36
 70
     1
102
RTVSPost2010Prop37
 90
       50
102
RTVSPost2010PropOp37
 70
     1
102
RTVSPost2010Prop38
140
0.0
102
RTVSPost2010PropOp38
 70
     1
102
RTVSPost2010Prop39
140
1.0
102
RTVSPost2010PropOp39
 70
     1
102
RTVSPost2010Prop40
 90
        0
102
RTVSPost2010PropOp40
 70
     1
102
RTVSPost2010Prop41ColorIndex
 90
       18
102
RTVSPost2010Prop41ColorRGB
 90
        0
102
RTVSPost2010PropOp41
 70
     1
102
RTVSPost2010Prop42
 90
       50
102
RTVSPost2010PropOp42
 70
     1
102
RTVSPost2010Prop43
 90
        3
102
RTVSPost2010PropOp43
 70
     1
102
RTVSPost2010Prop44ColorIndex
 90
        5
102
RTVSPost2010Prop44ColorRGB
 90
      255
102
RTVSPost2010PropOp44
 70
     1
102
RTVSPost2010Prop45
280
     0
102
RTVSPost2010PropOp45
 70
     1
102
RTVSPost2010Prop46
 90
       50
102
RTVSPost2010PropOp46
 70
     1
102
RTVSPost2010Prop47
 90
       50
102
RTVSPost2010PropOp47
 70
     1
102
RTVSPost2010Prop48
 90
       50
102
RTVSPost2010PropOp48
 70
     1
102
RTVSPost2010Prop49
280
     0
102
RTVSPost2010PropOp49
 70
     1
102
RTVSPost2010Prop50
 90
       50
102
RTVSPost2010PropOp50
 70
     1
102
RTVSPost2010Prop51ColorIndex
 90
      256
102
RTVSPost2010Prop51ColorRGB
 90
-16777216
102
RTVSPost2010PropOp51
 70
     0
102
RTVSPost2010Prop52
140
1.0
102
RTVSPost2010PropOp52
 70
     0
102
RTVSPost2010Prop53
 90
        2
102
RTVSPost2010PropOp53
 70
     1
102
RTVSPost2010Prop54
  1
strokes_ogs.tif
102
RTVSPost2010PropOp54
 70
     1
102
RTVSPost2010Prop55
280
     0
102
RTVSPost2010PropOp55
 70
     1
102
RTVSPost2010Prop56
140
1.0
102
RTVSPost2010PropOp56
 70
     1
102
RTVSPost2010Prop57
140
1.0
102
RTVSPost2010PropOp57
 70
     1
  0
XRECORD
  5
18E
102
{ACAD_REACTORS
330
18D
102
}
330
18D
100
AcDbXrecord
280
     1
102
RTVSPropertyOp0
 70
     0
102
RTVSPropertyOp1
 70
     0
102
RTVSPropertyOp2
 70
     0
102
RTVSPropertyOp3
 70
     0
102
RTVSPropertyOp4
 70
     0
102
RTVSPropertyOp5
 70
     0
102
RTVSPropertyOp6
 70
     0
102
RTVSPropertyOp7
 70
     0
102
RTVSPropertyOp8
 70
     0
102
RTVSPropertyOp9
 70
     0
102
RTVSPropertyOp10
 70
     0
102
RTVSPropertyOp11
 70
     0
102
RTVSPropertyOp12
 70
     0
102
RTVSPropertyOp13
 70
     0
102
RTVSPropertyOp14
 70
     2
102
RTVSPropertyOp15
 70
     0
102
RTVSPropertyOp16
 70
     0
102
RTVSPropertyOp17
 70
     0
102
RTVSPropertyOp18
 70
     0
102
RTVSPropertyOp19
 70
     0
102
RTVSPropertyOp20
 70
     0
102
RTVSPropertyOp21
 70
     0
102
RTVSPropertyOp22
 70
     0
102
RTVSPropertyOp23
 70
     0
102
RTVSPropertyOp24
 70
     0
102
RTVSPropertyOp25
 70
     0
102
RTVSPropertyOp26
 70
     0
102
RTVSPropertyOp27
 70
     0
102
RTVSPropertyOp28
 70
     0
102
RTVSPropertyOp29
 70
     0
102
RTVSPropertyOp30
 70
     0
102
RTVSPropertyOp31
 70
     0
102
RTVSPropertyOp32
 70
     0
102
RTVSPropertyOp33
 70
     0
102
RTVSPropertyOp34
 70
     0
102
RTVSPropertyOp35
 70
     0
102
RTVSPropertyOp36
 70
     0
102
RTVSPropertyOp37
 70
     0
102
RTVSPropertyOp38
 70
     0
102
RTVSPropertyOp39
 70
     0
102
RTVSPropertyOp40
 70
     0
102
RTVSPropertyOp41
 70
     0
102
RTVSPropertyOp42
 70
     0
102
RTVSPropertyOp43
 70
     0
102
RTVSPropertyOp44
 70
     0
102
RTVSPropertyOp45
 70
     0
102
RTVSPropertyOp46
 70
     0
102
RTVSPropertyOp47
 70
     0
102
RTVSPropertyOp48
 70
     0
102
RTVSPropertyOp49
 70
     0
102
RTVSPropertyOp50
 70
     0
102
RTVSPropertyOp51
 70
     0
102
RTVSPropertyOp52
 70
     0
102
RTVSPropertyOp53
 70
     0
102
RTVSPropertyOp54
 70
     0
102
RTVSPropertyOp55
 70
     0
102
RTVSPropertyOp56
 70
     0
102
RTVSPropertyOp57
 70
     0
102
RTVSPost2010Prop28
280
     0
102
RTVSPost2010PropOp28
 70
     0
102
RTVSPost2010Prop29
280
     1
102
RTVSPost2010PropOp29
 70
     0
102
RTVSPost2010Prop30
280
     1
102
RTVSPost2010PropOp30
 70
     0
102
RTVSPost2010Prop31
280
     0
102
RTVSPost2010PropOp31
 70
     0
102
RTVSPost2010Prop32
280
     0
102
RTVSPost2010PropOp32
 70
     0
102
RTVSPost2010Prop33
280
     0
102
RTVSPost2010PropOp33
 70
     0
102
RTVSPost2010Prop34
280
     0
102
RTVSPost2010PropOp34
 70
     0
102
RTVSPost2010Prop35
280
     0
102
RTVSPost2010PropOp35
 70
     0
102
RTVSPost2010Prop36
280
     0
102
RTVSPost2010PropOp36
 70
     0
102
RTVSPost2010Prop37
 90
       50
102
RTVSPost2010PropOp37
 70
     0
102
RTVSPost2010Prop38
140
0.0
102
RTVSPost2010PropOp38
 70
     0
102
RTVSPost2010Prop39
140
1.0
102
RTVSPost2010PropOp39
 70
     0
102
RTVSPost2010Prop40
 90
        0
102
RTVSPost2010PropOp40
 70
     0
102
RTVSPost2010Prop41ColorIndex
 90
       18
102
RTVSPost2010Prop41ColorRGB
 90
        0
102
RTVSPost2010PropOp41
 70
     0
102
RTVSPost2010Prop42
 90
       50
102
RTVSPost2010PropOp42
 70
     0
102
RTVSPost2010Prop43
 90
        3
102
RTVSPost2010PropOp43
 70
     0
102
RTVSPost2010Prop44ColorIndex
 90
        5
102
RTVSPost2010Prop44ColorRGB
 90
      255
102
RTVSPost2010PropOp44
 70
     0
102
RTVSPost2010Prop45
280
     0
102
RTVSPost2010PropOp45
 70
     0
102
RTVSPost2010Prop46
 90
       50
102
RTVSPost2010PropOp46
 70
     0
102
RTVSPost2010Prop47
 90
       50
102
RTVSPost2010PropOp47
 70
     0
102
RTVSPost2010Prop48
 90
       50
102
RTVSPost2010PropOp48
 70
     0
102
RTVSPost2010Prop49
280
     0
102
RTVSPost2010PropOp49
 70
     0
102
RTVSPost2010Prop50
 90
       50
102
RTVSPost2010PropOp50
 70
     0
102
RTVSPost2010Prop51ColorIndex
 90
      256
102
RTVSPost2010Prop51ColorRGB
 90
-16777216
102
RTVSPost2010PropOp51
 70
     0
102
RTVSPost2010Prop52
140
1.0
102
RTVSPost2010PropOp52
 70
     0
102
RTVSPost2010Prop53
 90
        2
102
RTVSPost2010PropOp53
 70
     0
102
RTVSPost2010Prop54
  1
strokes_ogs.tif
102
RTVSPost2010PropOp54
 70
     0
102
RTVSPost2010Prop55
280
     0
102
RTVSPost2010PropOp55
 70
     0
102
RTVSPost2010Prop56
140
1.0
102
RTVSPost2010PropOp56
 70
     0
102
RTVSPost2010Prop57
140
1.0
102
RTVSPost2010PropOp57
 70
     0
  0
XRECORD
  5
186
102
{ACAD_REACTORS
330
185
102
}
330
185
100
AcDbXrecord
280
     1
102
RTVSPropertyOp0
 70
     1
102
RTVSPropertyOp1
 70
     1
102
RTVSPropertyOp2
 70
     1
102
RTVSPropertyOp3
 70
     1
102
RTVSPropertyOp4
 70
     1
102
RTVSPropertyOp5
 70
     1
102
RTVSPropertyOp6
 70
     1
102
RTVSPropertyOp7
 70
     1
102
RTVSPropertyOp8
 70
     1
102
RTVSPropertyOp9
 70
     1
102
RTVSPropertyOp10
 70
     1
102
RTVSPropertyOp11
 70
     1
102
RTVSPropertyOp12
 70
     1
102
RTVSPropertyOp13
 70
     1
102
RTVSPropertyOp14
 70
     1
102
RTVSPropertyOp15
 70
     1
102
RTVSPropertyOp16
 70
     1
102
RTVSPropertyOp17
 70
     1
102
RTVSPropertyOp18
 70
     1
102
RTVSPropertyOp19
 70
     1
102
RTVSPropertyOp20
 70
     1
102
RTVSPropertyOp21
 70
     1
102
RTVSPropertyOp22
 70
     1
102
RTVSPropertyOp23
 70
     1
102
RTVSPropertyOp24
 70
     1
102
RTVSPropertyOp25
 70
     1
102
RTVSPropertyOp26
 70
     1
102
RTVSPropertyOp27
 70
     1
102
RTVSPropertyOp28
 70
     1
102
RTVSPropertyOp29
 70
     1
102
RTVSPropertyOp30
 70
     1
102
RTVSPropertyOp31
 70
     1
102
RTVSPropertyOp32
 70
     1
102
RTVSPropertyOp33
 70
     1
102
RTVSPropertyOp34
 70
     1
102
RTVSPropertyOp35
 70
     1
102
RTVSPropertyOp36
 70
     1
102
RTVSPropertyOp37
 70
     1
102
RTVSPropertyOp38
 70
     1
102
RTVSPropertyOp39
 70
     1
102
RTVSPropertyOp40
 70
     1
102
RTVSPropertyOp41
 70
     1
102
RTVSPropertyOp42
 70
     1
102
RTVSPropertyOp43
 70
     1
102
RTVSPropertyOp44
 70
     1
102
RTVSPropertyOp45
 70
     1
102
RTVSPropertyOp46
 70
     1
102
RTVSPropertyOp47
 70
     1
102
RTVSPropertyOp48
 70
     1
102
RTVSPropertyOp49
 70
     1
102
RTVSPropertyOp50
 70
     1
102
RTVSPropertyOp51
 70
     0
102
RTVSPropertyOp52
 70
     0
102
RTVSPropertyOp53
 70
     1
102
RTVSPropertyOp54
 70
     1
102
RTVSPropertyOp55
 70
     1
102
RTVSPropertyOp56
 70
     1
102
RTVSPropertyOp57
 70
     1
102
RTVSPost2010Prop28
280
     0
102
RTVSPost2010PropOp28
 70
     1
102
RTVSPost2010Prop29
280
     1
102
RTVSPost2010PropOp29
 70
     1
102
RTVSPost2010Prop30
280
     1
102
RTVSPost2010PropOp30
 70
     1
102
RTVSPost2010Prop31
280
     0
102
RTVSPost2010PropOp31
 70
     1
102
RTVSPost2010Prop32
280
     0
102
RTVSPost2010PropOp32
 70
     1
102
RTVSPost2010Prop33
280
     0
102
RTVSPost2010PropOp33
 70
     1
102
RTVSPost2010Prop34
280
     0
102
RTVSPost2010PropOp34
 70
     1
102
RTVSPost2010Prop35
280
     0
102
RTVSPost2010PropOp35
 70
     1
102
RTVSPost2010Prop36
280
     0
102
RTVSPost2010PropOp36
 70
     1
102
RTVSPost2010Prop37
 90
       50
102
RTVSPost2010PropOp37
 70
     1
102
RTVSPost2010Prop38
140
0.0
102
RTVSPost2010PropOp38
 70
     1
102
RTVSPost2010Prop39
140
1.0
102
RTVSPost2010PropOp39
 70
     1
102
RTVSPost2010Prop40
 90
        0
102
RTVSPost2010PropOp40
 70
     1
102
RTVSPost2010Prop41ColorIndex
 90
       18
102
RTVSPost2010Prop41ColorRGB
 90
        0
102
RTVSPost2010PropOp41
 70
     1
102
RTVSPost2010Prop42
 90
       50
102
RTVSPost2010PropOp42
 70
     1
102
RTVSPost2010Prop43
 90
        3
102
RTVSPost2010PropOp43
 70
     1
102
RTVSPost2010Prop44ColorIndex
 90
        5
102
RTVSPost2010Prop44ColorRGB
 90
      255
102
RTVSPost2010PropOp44
 70
     1
102
RTVSPost2010Prop45
280
     0
102
RTVSPost2010PropOp45
 70
     1
102
RTVSPost2010Prop46
 90
       50
102
RTVSPost2010PropOp46
 70
     1
102
RTVSPost2010Prop47
 90
       50
102
RTVSPost2010PropOp47
 70
     1
102
RTVSPost2010Prop48
 90
       50
102
RTVSPost2010PropOp48
 70
     1
102
RTVSPost2010Prop49
280
     0
102
RTVSPost2010PropOp49
 70
     1
102
RTVSPost2010Prop50
 90
       50
102
RTVSPost2010PropOp50
 70
     1
102
RTVSPost2010Prop51ColorIndex
 90
      256
102
RTVSPost2010Prop51ColorRGB
 90
-16777216
102
RTVSPost2010PropOp51
 70
     0
102
RTVSPost2010Prop52
140
1.0
102
RTVSPost2010PropOp52
 70
     0
102
RTVSPost2010Prop53
 90
        2
102
RTVSPost2010PropOp53
 70
     1
102
RTVSPost2010Prop54
  1
strokes_ogs.tif
102
RTVSPost2010PropOp54
 70
     1
102
RTVSPost2010Prop55
280
     0
102
RTVSPost2010PropOp55
 70
     1
102
RTVSPost2010Prop56
140
1.0
102
RTVSPost2010PropOp56
 70
     1
102
RTVSPost2010Prop57
140
1.0
102
RTVSPost2010PropOp57
 70
     1
  0
XRECORD
  5
16A
102
{ACAD_REACTORS
330
169
102
}
330
169
100
AcDbXrecord
280
     1
102
RTVSPropertyOp0
 70
     1
102
RTVSPropertyOp1
 70
     1
102
RTVSPropertyOp2
 70
     1
102
RTVSPropertyOp3
 70
     1
102
RTVSPropertyOp4
 70
     1
102
RTVSPropertyOp5
 70
     1
102
RTVSPropertyOp6
 70
     1
102
RTVSPropertyOp7
 70
     1
102
RTVSPropertyOp8
 70
     1
102
RTVSPropertyOp9
 70
     1
102
RTVSPropertyOp10
 70
     1
102
RTVSPropertyOp11
 70
     1
102
RTVSPropertyOp12
 70
     1
102
RTVSPropertyOp13
 70
     1
102
RTVSPropertyOp14
 70
     1
102
RTVSPropertyOp15
 70
     1
102
RTVSPropertyOp16
 70
     1
102
RTVSPropertyOp17
 70
     1
102
RTVSPropertyOp18
 70
     1
102
RTVSPropertyOp19
 70
     1
102
RTVSPropertyOp20
 70
     1
102
RTVSPropertyOp21
 70
     1
102
RTVSPropertyOp22
 70
     1
102
RTVSPropertyOp23
 70
     1
102
RTVSPropertyOp24
 70
     1
102
RTVSPropertyOp25
 70
     1
102
RTVSPropertyOp26
 70
     1
102
RTVSPropertyOp27
 70
     1
102
RTVSPropertyOp28
 70
     1
102
RTVSPropertyOp29
 70
     1
102
RTVSPropertyOp30
 70
     1
102
RTVSPropertyOp31
 70
     1
102
RTVSPropertyOp32
 70
     1
102
RTVSPropertyOp33
 70
     1
102
RTVSPropertyOp34
 70
     1
102
RTVSPropertyOp35
 70
     1
102
RTVSPropertyOp36
 70
     1
102
RTVSPropertyOp37
 70
     1
102
RTVSPropertyOp38
 70
     1
102
RTVSPropertyOp39
 70
     1
102
RTVSPropertyOp40
 70
     1
102
RTVSPropertyOp41
 70
     1
102
RTVSPropertyOp42
 70
     1
102
RTVSPropertyOp43
 70
     1
102
RTVSPropertyOp44
 70
     1
102
RTVSPropertyOp45
 70
     1
102
RTVSPropertyOp46
 70
     1
102
RTVSPropertyOp47
 70
     1
102
RTVSPropertyOp48
 70
     1
102
RTVSPropertyOp49
 70
     1
102
RTVSPropertyOp50
 70
     1
102
RTVSPropertyOp51
 70
     0
102
RTVSPropertyOp52
 70
     0
102
RTVSPropertyOp53
 70
     1
102
RTVSPropertyOp54
 70
     1
102
RTVSPropertyOp55
 70
     1
102
RTVSPropertyOp56
 70
     1
102
RTVSPropertyOp57
 70
     1
102
RTVSPost2010Prop28
280
     0
102
RTVSPost2010PropOp28
 70
     1
102
RTVSPost2010Prop29
280
     1
102
RTVSPost2010PropOp29
 70
     1
102
RTVSPost2010Prop30
280
     1
102
RTVSPost2010PropOp30
 70
     1
102
RTVSPost2010Prop31
280
     0
102
RTVSPost2010PropOp31
 70
     1
102
RTVSPost2010Prop32
280
     0
102
RTVSPost2010PropOp32
 70
     1
102
RTVSPost2010Prop33
280
     0
102
RTVSPost2010PropOp33
 70
     1
102
RTVSPost2010Prop34
280
     0
102
RTVSPost2010PropOp34
 70
     1
102
RTVSPost2010Prop35
280
     0
102
RTVSPost2010PropOp35
 70
     1
102
RTVSPost2010Prop36
280
     0
102
RTVSPost2010PropOp36
 70
     1
102
RTVSPost2010Prop37
 90
       50
102
RTVSPost2010PropOp37
 70
     1
102
RTVSPost2010Prop38
140
0.0
102
RTVSPost2010PropOp38
 70
     1
102
RTVSPost2010Prop39
140
1.0
102
RTVSPost2010PropOp39
 70
     1
102
RTVSPost2010Prop40
 90
        0
102
RTVSPost2010PropOp40
 70
     1
102
RTVSPost2010Prop41ColorIndex
 90
       18
102
RTVSPost2010Prop41ColorRGB
 90
        0
102
RTVSPost2010PropOp41
 70
     1
102
RTVSPost2010Prop42
 90
       50
102
RTVSPost2010PropOp42
 70
     1
102
RTVSPost2010Prop43
 90
        3
102
RTVSPost2010PropOp43
 70
     1
102
RTVSPost2010Prop44ColorIndex
 90
        5
102
RTVSPost2010Prop44ColorRGB
 90
      255
102
RTVSPost2010PropOp44
 70
     1
102
RTVSPost2010Prop45
280
     0
102
RTVSPost2010PropOp45
 70
     1
102
RTVSPost2010Prop46
 90
       50
102
RTVSPost2010PropOp46
 70
     1
102
RTVSPost2010Prop47
 90
       50
102
RTVSPost2010PropOp47
 70
     1
102
RTVSPost2010Prop48
 90
       50
102
RTVSPost2010PropOp48
 70
     1
102
RTVSPost2010Prop49
280
     0
102
RTVSPost2010PropOp49
 70
     1
102
RTVSPost2010Prop50
 90
       50
102
RTVSPost2010PropOp50
 70
     1
102
RTVSPost2010Prop51ColorIndex
 90
      256
102
RTVSPost2010Prop51ColorRGB
 90
-16777216
102
RTVSPost2010PropOp51
 70
     0
102
RTVSPost2010Prop52
140
1.0
102
RTVSPost2010PropOp52
 70
     0
102
RTVSPost2010Prop53
 90
        2
102
RTVSPost2010PropOp53
 70
     1
102
RTVSPost2010Prop54
  1
strokes_ogs.tif
102
RTVSPost2010PropOp54
 70
     1
102
RTVSPost2010Prop55
280
     0
102
RTVSPost2010PropOp55
 70
     1
102
RTVSPost2010Prop56
140
1.0
102
RTVSPost2010PropOp56
 70
     1
102
RTVSPost2010Prop57
140
1.0
102
RTVSPost2010PropOp57
 70
     1
  0
XRECORD
  5
16C
102
{ACAD_REACTORS
330
16B
102
}
330
16B
100
AcDbXrecord
280
     1
102
RTVSPropertyOp0
 70
     1
102
RTVSPropertyOp1
 70
     1
102
RTVSPropertyOp2
 70
     1
102
RTVSPropertyOp3
 70
     1
102
RTVSPropertyOp4
 70
     1
102
RTVSPropertyOp5
 70
     1
102
RTVSPropertyOp6
 70
     1
102
RTVSPropertyOp7
 70
     1
102
RTVSPropertyOp8
 70
     1
102
RTVSPropertyOp9
 70
     1
102
RTVSPropertyOp10
 70
     1
102
RTVSPropertyOp11
 70
     1
102
RTVSPropertyOp12
 70
     1
102
RTVSPropertyOp13
 70
     1
102
RTVSPropertyOp14
 70
     1
102
RTVSPropertyOp15
 70
     1
102
RTVSPropertyOp16
 70
     1
102
RTVSPropertyOp17
 70
     1
102
RTVSPropertyOp18
 70
     1
102
RTVSPropertyOp19
 70
     1
102
RTVSPropertyOp20
 70
     1
102
RTVSPropertyOp21
 70
     1
102
RTVSPropertyOp22
 70
     1
102
RTVSPropertyOp23
 70
     1
102
RTVSPropertyOp24
 70
     1
102
RTVSPropertyOp25
 70
     1
102
RTVSPropertyOp26
 70
     1
102
RTVSPropertyOp27
 70
     1
102
RTVSPropertyOp28
 70
     1
102
RTVSPropertyOp29
 70
     1
102
RTVSPropertyOp30
 70
     1
102
RTVSPropertyOp31
 70
     1
102
RTVSPropertyOp32
 70
     1
102
RTVSPropertyOp33
 70
     1
102
RTVSPropertyOp34
 70
     1
102
RTVSPropertyOp35
 70
     1
102
RTVSPropertyOp36
 70
     1
102
RTVSPropertyOp37
 70
     1
102
RTVSPropertyOp38
 70
     1
102
RTVSPropertyOp39
 70
     1
102
RTVSPropertyOp40
 70
     1
102
RTVSPropertyOp41
 70
     1
102
RTVSPropertyOp42
 70
     1
102
RTVSPropertyOp43
 70
     1
102
RTVSPropertyOp44
 70
     1
102
RTVSPropertyOp45
 70
     1
102
RTVSPropertyOp46
 70
     1
102
RTVSPropertyOp47
 70
     1
102
RTVSPropertyOp48
 70
     1
102
RTVSPropertyOp49
 70
     1
102
RTVSPropertyOp50
 70
     1
102
RTVSPropertyOp51
 70
     0
102
RTVSPropertyOp52
 70
     0
102
RTVSPropertyOp53
 70
     1
102
RTVSPropertyOp54
 70
     1
102
RTVSPropertyOp55
 70
     1
102
RTVSPropertyOp56
 70
     1
102
RTVSPropertyOp57
 70
     1
102
RTVSPost2010Prop28
280
     0
102
RTVSPost2010PropOp28
 70
     1
102
RTVSPost2010Prop29
280
     1
102
RTVSPost2010PropOp29
 70
     1
102
RTVSPost2010Prop30
280
     1
102
RTVSPost2010PropOp30
 70
     1
102
RTVSPost2010Prop31
280
     0
102
RTVSPost2010PropOp31
 70
     1
102
RTVSPost2010Prop32
280
     0
102
RTVSPost2010PropOp32
 70
     1
102
RTVSPost2010Prop33
280
     0
102
RTVSPost2010PropOp33
 70
     1
102
RTVSPost2010Prop34
280
     0
102
RTVSPost2010PropOp34
 70
     1
102
RTVSPost2010Prop35
280
     0
102
RTVSPost2010PropOp35
 70
     1
102
RTVSPost2010Prop36
280
     0
102
RTVSPost2010PropOp36
 70
     1
102
RTVSPost2010Prop37
 90
       50
102
RTVSPost2010PropOp37
 70
     1
102
RTVSPost2010Prop38
140
0.0
102
RTVSPost2010PropOp38
 70
     1
102
RTVSPost2010Prop39
140
1.0
102
RTVSPost2010PropOp39
 70
     1
102
RTVSPost2010Prop40
 90
        0
102
RTVSPost2010PropOp40
 70
     1
102
RTVSPost2010Prop41ColorIndex
 90
       18
102
RTVSPost2010Prop41ColorRGB
 90
        0
102
RTVSPost2010PropOp41
 70
     1
102
RTVSPost2010Prop42
 90
       50
102
RTVSPost2010PropOp42
 70
     1
102
RTVSPost2010Prop43
 90
        3
102
RTVSPost2010PropOp43
 70
     1
102
RTVSPost2010Prop44ColorIndex
 90
        5
102
RTVSPost2010Prop44ColorRGB
 90
      255
102
RTVSPost2010PropOp44
 70
     1
102
RTVSPost2010Prop45
280
     0
102
RTVSPost2010PropOp45
 70
     1
102
RTVSPost2010Prop46
 90
       50
102
RTVSPost2010PropOp46
 70
     1
102
RTVSPost2010Prop47
 90
       50
102
RTVSPost2010PropOp47
 70
     1
102
RTVSPost2010Prop48
 90
       50
102
RTVSPost2010PropOp48
 70
     1
102
RTVSPost2010Prop49
280
     0
102
RTVSPost2010PropOp49
 70
     1
102
RTVSPost2010Prop50
 90
       50
102
RTVSPost2010PropOp50
 70
     1
102
RTVSPost2010Prop51ColorIndex
 90
      256
102
RTVSPost2010Prop51ColorRGB
 90
-16777216
102
RTVSPost2010PropOp51
 70
     0
102
RTVSPost2010Prop52
140
1.0
102
RTVSPost2010PropOp52
 70
     0
102
RTVSPost2010Prop53
 90
        2
102
RTVSPost2010PropOp53
 70
     1
102
RTVSPost2010Prop54
  1
strokes_ogs.tif
102
RTVSPost2010PropOp54
 70
     1
102
RTVSPost2010Prop55
280
     0
102
RTVSPost2010PropOp55
 70
     1
102
RTVSPost2010Prop56
140
1.0
102
RTVSPost2010PropOp56
 70
     1
102
RTVSPost2010Prop57
140
1.0
102
RTVSPost2010PropOp57
 70
     1
  0
XRECORD
  5
16E
102
{ACAD_REACTORS
330
16D
102
}
330
16D
100
AcDbXrecord
280
     1
102
RTVSPropertyOp0
 70
     1
102
RTVSPropertyOp1
 70
     1
102
RTVSPropertyOp2
 70
     1
102
RTVSPropertyOp3
 70
     1
102
RTVSPropertyOp4
 70
     1
102
RTVSPropertyOp5
 70
     1
102
RTVSPropertyOp6
 70
     1
102
RTVSPropertyOp7
 70
     1
102
RTVSPropertyOp8
 70
     1
102
RTVSPropertyOp9
 70
     1
102
RTVSPropertyOp10
 70
     1
102
RTVSPropertyOp11
 70
     1
102
RTVSPropertyOp12
 70
     1
102
RTVSPropertyOp13
 70
     1
102
RTVSPropertyOp14
 70
     1
102
RTVSPropertyOp15
 70
     1
102
RTVSPropertyOp16
 70
     1
102
RTVSPropertyOp17
 70
     1
102
RTVSPropertyOp18
 70
     1
102
RTVSPropertyOp19
 70
     1
102
RTVSPropertyOp20
 70
     1
102
RTVSPropertyOp21
 70
     1
102
RTVSPropertyOp22
 70
     1
102
RTVSPropertyOp23
 70
     1
102
RTVSPropertyOp24
 70
     1
102
RTVSPropertyOp25
 70
     1
102
RTVSPropertyOp26
 70
     1
102
RTVSPropertyOp27
 70
     1
102
RTVSPropertyOp28
 70
     1
102
RTVSPropertyOp29
 70
     1
102
RTVSPropertyOp30
 70
     1
102
RTVSPropertyOp31
 70
     1
102
RTVSPropertyOp32
 70
     1
102
RTVSPropertyOp33
 70
     1
102
RTVSPropertyOp34
 70
     1
102
RTVSPropertyOp35
 70
     1
102
RTVSPropertyOp36
 70
     1
102
RTVSPropertyOp37
 70
     1
102
RTVSPropertyOp38
 70
     1
102
RTVSPropertyOp39
 70
     1
102
RTVSPropertyOp40
 70
     1
102
RTVSPropertyOp41
 70
     1
102
RTVSPropertyOp42
 70
     1
102
RTVSPropertyOp43
 70
     1
102
RTVSPropertyOp44
 70
     1
102
RTVSPropertyOp45
 70
     1
102
RTVSPropertyOp46
 70
     1
102
RTVSPropertyOp47
 70
     1
102
RTVSPropertyOp48
 70
     1
102
RTVSPropertyOp49
 70
     1
102
RTVSPropertyOp50
 70
     1
102
RTVSPropertyOp51
 70
     0
102
RTVSPropertyOp52
 70
     0
102
RTVSPropertyOp53
 70
     1
102
RTVSPropertyOp54
 70
     1
102
RTVSPropertyOp55
 70
     1
102
RTVSPropertyOp56
 70
     1
102
RTVSPropertyOp57
 70
     1
102
RTVSPost2010Prop28
280
     0
102
RTVSPost2010PropOp28
 70
     1
102
RTVSPost2010Prop29
280
     1
102
RTVSPost2010PropOp29
 70
     1
102
RTVSPost2010Prop30
280
     1
102
RTVSPost2010PropOp30
 70
     1
102
RTVSPost2010Prop31
280
     0
102
RTVSPost2010PropOp31
 70
     1
102
RTVSPost2010Prop32
280
     0
102
RTVSPost2010PropOp32
 70
     1
102
RTVSPost2010Prop33
280
     0
102
RTVSPost2010PropOp33
 70
     1
102
RTVSPost2010Prop34
280
     0
102
RTVSPost2010PropOp34
 70
     1
102
RTVSPost2010Prop35
280
     0
102
RTVSPost2010PropOp35
 70
     1
102
RTVSPost2010Prop36
280
     0
102
RTVSPost2010PropOp36
 70
     1
102
RTVSPost2010Prop37
 90
       50
102
RTVSPost2010PropOp37
 70
     1
102
RTVSPost2010Prop38
140
0.0
102
RTVSPost2010PropOp38
 70
     1
102
RTVSPost2010Prop39
140
1.0
102
RTVSPost2010PropOp39
 70
     1
102
RTVSPost2010Prop40
 90
        0
102
RTVSPost2010PropOp40
 70
     1
102
RTVSPost2010Prop41ColorIndex
 90
       18
102
RTVSPost2010Prop41ColorRGB
 90
        0
102
RTVSPost2010PropOp41
 70
     1
102
RTVSPost2010Prop42
 90
       50
102
RTVSPost2010PropOp42
 70
     1
102
RTVSPost2010Prop43
 90
        3
102
RTVSPost2010PropOp43
 70
     1
102
RTVSPost2010Prop44ColorIndex
 90
        5
102
RTVSPost2010Prop44ColorRGB
 90
      255
102
RTVSPost2010PropOp44
 70
     1
102
RTVSPost2010Prop45
280
     0
102
RTVSPost2010PropOp45
 70
     1
102
RTVSPost2010Prop46
 90
       50
102
RTVSPost2010PropOp46
 70
     1
102
RTVSPost2010Prop47
 90
       50
102
RTVSPost2010PropOp47
 70
     1
102
RTVSPost2010Prop48
 90
       50
102
RTVSPost2010PropOp48
 70
     1
102
RTVSPost2010Prop49
280
     0
102
RTVSPost2010PropOp49
 70
     1
102
RTVSPost2010Prop50
 90
       50
102
RTVSPost2010PropOp50
 70
     1
102
RTVSPost2010Prop51ColorIndex
 90
      256
102
RTVSPost2010Prop51ColorRGB
 90
-16777216
102
RTVSPost2010PropOp51
 70
     0
102
RTVSPost2010Prop52
140
1.0
102
RTVSPost2010PropOp52
 70
     0
102
RTVSPost2010Prop53
 90
        2
102
RTVSPost2010PropOp53
 70
     1
102
RTVSPost2010Prop54
  1
strokes_ogs.tif
102
RTVSPost2010PropOp54
 70
     1
102
RTVSPost2010Prop55
280
     0
102
RTVSPost2010PropOp55
 70
     1
102
RTVSPost2010Prop56
140
1.0
102
RTVSPost2010PropOp56
 70
     1
102
RTVSPost2010Prop57
140
1.0
102
RTVSPost2010PropOp57
 70
     1
  0
XRECORD
  5
170
102
{ACAD_REACTORS
330
16F
102
}
330
16F
100
AcDbXrecord
280
     1
102
RTVSPropertyOp0
 70
     1
102
RTVSPropertyOp1
 70
     1
102
RTVSPropertyOp2
 70
     1
102
RTVSPropertyOp3
 70
     1
102
RTVSPropertyOp4
 70
     1
102
RTVSPropertyOp5
 70
     1
102
RTVSPropertyOp6
 70
     1
102
RTVSPropertyOp7
 70
     1
102
RTVSPropertyOp8
 70
     1
102
RTVSPropertyOp9
 70
     1
102
RTVSPropertyOp10
 70
     1
102
RTVSPropertyOp11
 70
     1
102
RTVSPropertyOp12
 70
     1
102
RTVSPropertyOp13
 70
     1
102
RTVSPropertyOp14
 70
     1
102
RTVSPropertyOp15
 70
     1
102
RTVSPropertyOp16
 70
     1
102
RTVSPropertyOp17
 70
     1
102
RTVSPropertyOp18
 70
     1
102
RTVSPropertyOp19
 70
     1
102
RTVSPropertyOp20
 70
     1
102
RTVSPropertyOp21
 70
     1
102
RTVSPropertyOp22
 70
     1
102
RTVSPropertyOp23
 70
     1
102
RTVSPropertyOp24
 70
     1
102
RTVSPropertyOp25
 70
     1
102
RTVSPropertyOp26
 70
     1
102
RTVSPropertyOp27
 70
     1
102
RTVSPropertyOp28
 70
     1
102
RTVSPropertyOp29
 70
     1
102
RTVSPropertyOp30
 70
     1
102
RTVSPropertyOp31
 70
     1
102
RTVSPropertyOp32
 70
     1
102
RTVSPropertyOp33
 70
     1
102
RTVSPropertyOp34
 70
     1
102
RTVSPropertyOp35
 70
     1
102
RTVSPropertyOp36
 70
     1
102
RTVSPropertyOp37
 70
     1
102
RTVSPropertyOp38
 70
     1
102
RTVSPropertyOp39
 70
     1
102
RTVSPropertyOp40
 70
     1
102
RTVSPropertyOp41
 70
     1
102
RTVSPropertyOp42
 70
     1
102
RTVSPropertyOp43
 70
     1
102
RTVSPropertyOp44
 70
     1
102
RTVSPropertyOp45
 70
     1
102
RTVSPropertyOp46
 70
     1
102
RTVSPropertyOp47
 70
     1
102
RTVSPropertyOp48
 70
     1
102
RTVSPropertyOp49
 70
     1
102
RTVSPropertyOp50
 70
     1
102
RTVSPropertyOp51
 70
     0
102
RTVSPropertyOp52
 70
     0
102
RTVSPropertyOp53
 70
     1
102
RTVSPropertyOp54
 70
     1
102
RTVSPropertyOp55
 70
     1
102
RTVSPropertyOp56
 70
     1
102
RTVSPropertyOp57
 70
     1
102
RTVSPost2010Prop28
280
     0
102
RTVSPost2010PropOp28
 70
     1
102
RTVSPost2010Prop29
280
     1
102
RTVSPost2010PropOp29
 70
     1
102
RTVSPost2010Prop30
280
     1
102
RTVSPost2010PropOp30
 70
     1
102
RTVSPost2010Prop31
280
     0
102
RTVSPost2010PropOp31
 70
     1
102
RTVSPost2010Prop32
280
     0
102
RTVSPost2010PropOp32
 70
     1
102
RTVSPost2010Prop33
280
     0
102
RTVSPost2010PropOp33
 70
     1
102
RTVSPost2010Prop34
280
     0
102
RTVSPost2010PropOp34
 70
     1
102
RTVSPost2010Prop35
280
     0
102
RTVSPost2010PropOp35
 70
     1
102
RTVSPost2010Prop36
280
     0
102
RTVSPost2010PropOp36
 70
     1
102
RTVSPost2010Prop37
 90
       50
102
RTVSPost2010PropOp37
 70
     1
102
RTVSPost2010Prop38
140
0.0
102
RTVSPost2010PropOp38
 70
     1
102
RTVSPost2010Prop39
140
1.0
102
RTVSPost2010PropOp39
 70
     1
102
RTVSPost2010Prop40
 90
        0
102
RTVSPost2010PropOp40
 70
     1
102
RTVSPost2010Prop41ColorIndex
 90
       18
102
RTVSPost2010Prop41ColorRGB
 90
        0
102
RTVSPost2010PropOp41
 70
     1
102
RTVSPost2010Prop42
 90
       50
102
RTVSPost2010PropOp42
 70
     1
102
RTVSPost2010Prop43
 90
        3
102
RTVSPost2010PropOp43
 70
     1
102
RTVSPost2010Prop44ColorIndex
 90
        5
102
RTVSPost2010Prop44ColorRGB
 90
      255
102
RTVSPost2010PropOp44
 70
     1
102
RTVSPost2010Prop45
280
     0
102
RTVSPost2010PropOp45
 70
     1
102
RTVSPost2010Prop46
 90
       50
102
RTVSPost2010PropOp46
 70
     1
102
RTVSPost2010Prop47
 90
       50
102
RTVSPost2010PropOp47
 70
     1
102
RTVSPost2010Prop48
 90
       50
102
RTVSPost2010PropOp48
 70
     1
102
RTVSPost2010Prop49
280
     0
102
RTVSPost2010PropOp49
 70
     1
102
RTVSPost2010Prop50
 90
       50
102
RTVSPost2010PropOp50
 70
     1
102
RTVSPost2010Prop51ColorIndex
 90
      256
102
RTVSPost2010Prop51ColorRGB
 90
-16777216
102
RTVSPost2010PropOp51
 70
     0
102
RTVSPost2010Prop52
140
1.0
102
RTVSPost2010PropOp52
 70
     0
102
RTVSPost2010Prop53
 90
        2
102
RTVSPost2010PropOp53
 70
     1
102
RTVSPost2010Prop54
  1
strokes_ogs.tif
102
RTVSPost2010PropOp54
 70
     1
102
RTVSPost2010Prop55
280
     0
102
RTVSPost2010PropOp55
 70
     1
102
RTVSPost2010Prop56
140
1.0
102
RTVSPost2010PropOp56
 70
     1
102
RTVSPost2010Prop57
140
1.0
102
RTVSPost2010PropOp57
 70
     1
  0
XRECORD
  5
176
102
{ACAD_REACTORS
330
175
102
}
330
175
100
AcDbXrecord
280
     1
102
RTVSPropertyOp0
 70
     1
102
RTVSPropertyOp1
 70
     1
102
RTVSPropertyOp2
 70
     1
102
RTVSPropertyOp3
 70
     1
102
RTVSPropertyOp4
 70
     1
102
RTVSPropertyOp5
 70
     1
102
RTVSPropertyOp6
 70
     1
102
RTVSPropertyOp7
 70
     1
102
RTVSPropertyOp8
 70
     1
102
RTVSPropertyOp9
 70
     1
102
RTVSPropertyOp10
 70
     1
102
RTVSPropertyOp11
 70
     1
102
RTVSPropertyOp12
 70
     1
102
RTVSPropertyOp13
 70
     1
102
RTVSPropertyOp14
 70
     1
102
RTVSPropertyOp15
 70
     1
102
RTVSPropertyOp16
 70
     1
102
RTVSPropertyOp17
 70
     1
102
RTVSPropertyOp18
 70
     1
102
RTVSPropertyOp19
 70
     1
102
RTVSPropertyOp20
 70
     1
102
RTVSPropertyOp21
 70
     1
102
RTVSPropertyOp22
 70
     1
102
RTVSPropertyOp23
 70
     1
102
RTVSPropertyOp24
 70
     1
102
RTVSPropertyOp25
 70
     1
102
RTVSPropertyOp26
 70
     1
102
RTVSPropertyOp27
 70
     1
102
RTVSPropertyOp28
 70
     1
102
RTVSPropertyOp29
 70
     1
102
RTVSPropertyOp30
 70
     1
102
RTVSPropertyOp31
 70
     1
102
RTVSPropertyOp32
 70
     1
102
RTVSPropertyOp33
 70
     1
102
RTVSPropertyOp34
 70
     1
102
RTVSPropertyOp35
 70
     1
102
RTVSPropertyOp36
 70
     1
102
RTVSPropertyOp37
 70
     1
102
RTVSPropertyOp38
 70
     1
102
RTVSPropertyOp39
 70
     1
102
RTVSPropertyOp40
 70
     1
102
RTVSPropertyOp41
 70
     1
102
RTVSPropertyOp42
 70
     1
102
RTVSPropertyOp43
 70
     1
102
RTVSPropertyOp44
 70
     1
102
RTVSPropertyOp45
 70
     1
102
RTVSPropertyOp46
 70
     1
102
RTVSPropertyOp47
 70
     1
102
RTVSPropertyOp48
 70
     1
102
RTVSPropertyOp49
 70
     1
102
RTVSPropertyOp50
 70
     1
102
RTVSPropertyOp51
 70
     0
102
RTVSPropertyOp52
 70
     0
102
RTVSPropertyOp53
 70
     1
102
RTVSPropertyOp54
 70
     1
102
RTVSPropertyOp55
 70
     1
102
RTVSPropertyOp56
 70
     1
102
RTVSPropertyOp57
 70
     1
102
RTVSPost2010Prop28
280
     0
102
RTVSPost2010PropOp28
 70
     1
102
RTVSPost2010Prop29
280
     1
102
RTVSPost2010PropOp29
 70
     1
102
RTVSPost2010Prop30
280
     1
102
RTVSPost2010PropOp30
 70
     1
102
RTVSPost2010Prop31
280
     0
102
RTVSPost2010PropOp31
 70
     1
102
RTVSPost2010Prop32
280
     0
102
RTVSPost2010PropOp32
 70
     1
102
RTVSPost2010Prop33
280
     0
102
RTVSPost2010PropOp33
 70
     1
102
RTVSPost2010Prop34
280
     0
102
RTVSPost2010PropOp34
 70
     1
102
RTVSPost2010Prop35
280
     0
102
RTVSPost2010PropOp35
 70
     1
102
RTVSPost2010Prop36
280
     0
102
RTVSPost2010PropOp36
 70
     1
102
RTVSPost2010Prop37
 90
       50
102
RTVSPost2010PropOp37
 70
     1
102
RTVSPost2010Prop38
140
0.0
102
RTVSPost2010PropOp38
 70
     1
102
RTVSPost2010Prop39
140
1.0
102
RTVSPost2010PropOp39
 70
     1
102
RTVSPost2010Prop40
 90
        0
102
RTVSPost2010PropOp40
 70
     1
102
RTVSPost2010Prop41ColorIndex
 90
       18
102
RTVSPost2010Prop41ColorRGB
 90
        0
102
RTVSPost2010PropOp41
 70
     1
102
RTVSPost2010Prop42
 90
       50
102
RTVSPost2010PropOp42
 70
     1
102
RTVSPost2010Prop43
 90
        3
102
RTVSPost2010PropOp43
 70
     1
102
RTVSPost2010Prop44ColorIndex
 90
        5
102
RTVSPost2010Prop44ColorRGB
 90
      255
102
RTVSPost2010PropOp44
 70
     1
102
RTVSPost2010Prop45
280
     0
102
RTVSPost2010PropOp45
 70
     1
102
RTVSPost2010Prop46
 90
       50
102
RTVSPost2010PropOp46
 70
     1
102
RTVSPost2010Prop47
 90
       50
102
RTVSPost2010PropOp47
 70
     1
102
RTVSPost2010Prop48
 90
       50
102
RTVSPost2010PropOp48
 70
     1
102
RTVSPost2010Prop49
280
     0
102
RTVSPost2010PropOp49
 70
     1
102
RTVSPost2010Prop50
 90
       50
102
RTVSPost2010PropOp50
 70
     1
102
RTVSPost2010Prop51ColorIndex
 90
      256
102
RTVSPost2010Prop51ColorRGB
 90
-16777216
102
RTVSPost2010PropOp51
 70
     0
102
RTVSPost2010Prop52
140
1.0
102
RTVSPost2010PropOp52
 70
     0
102
RTVSPost2010Prop53
 90
        2
102
RTVSPost2010PropOp53
 70
     1
102
RTVSPost2010Prop54
  1
strokes_ogs.tif
102
RTVSPost2010PropOp54
 70
     1
102
RTVSPost2010Prop55
280
     0
102
RTVSPost2010PropOp55
 70
     1
102
RTVSPost2010Prop56
140
1.0
102
RTVSPost2010PropOp56
 70
     1
102
RTVSPost2010Prop57
140
1.0
102
RTVSPost2010PropOp57
 70
     1
  0
XRECORD
  5
18A
102
{ACAD_REACTORS
330
189
102
}
330
189
100
AcDbXrecord
280
     1
102
RTVSPropertyOp0
 70
     0
102
RTVSPropertyOp1
 70
     0
102
RTVSPropertyOp2
 70
     0
102
RTVSPropertyOp3
 70
     0
102
RTVSPropertyOp4
 70
     0
102
RTVSPropertyOp5
 70
     0
102
RTVSPropertyOp6
 70
     0
102
RTVSPropertyOp7
 70
     0
102
RTVSPropertyOp8
 70
     0
102
RTVSPropertyOp9
 70
     0
102
RTVSPropertyOp10
 70
     0
102
RTVSPropertyOp11
 70
     0
102
RTVSPropertyOp12
 70
     0
102
RTVSPropertyOp13
 70
     0
102
RTVSPropertyOp14
 70
     2
102
RTVSPropertyOp15
 70
     0
102
RTVSPropertyOp16
 70
     0
102
RTVSPropertyOp17
 70
     0
102
RTVSPropertyOp18
 70
     0
102
RTVSPropertyOp19
 70
     0
102
RTVSPropertyOp20
 70
     0
102
RTVSPropertyOp21
 70
     0
102
RTVSPropertyOp22
 70
     0
102
RTVSPropertyOp23
 70
     0
102
RTVSPropertyOp24
 70
     0
102
RTVSPropertyOp25
 70
     0
102
RTVSPropertyOp26
 70
     0
102
RTVSPropertyOp27
 70
     0
102
RTVSPropertyOp28
 70
     0
102
RTVSPropertyOp29
 70
     0
102
RTVSPropertyOp30
 70
     0
102
RTVSPropertyOp31
 70
     0
102
RTVSPropertyOp32
 70
     0
102
RTVSPropertyOp33
 70
     0
102
RTVSPropertyOp34
 70
     0
102
RTVSPropertyOp35
 70
     0
102
RTVSPropertyOp36
 70
     0
102
RTVSPropertyOp37
 70
     0
102
RTVSPropertyOp38
 70
     0
102
RTVSPropertyOp39
 70
     0
102
RTVSPropertyOp40
 70
     0
102
RTVSPropertyOp41
 70
     0
102
RTVSPropertyOp42
 70
     0
102
RTVSPropertyOp43
 70
     0
102
RTVSPropertyOp44
 70
     0
102
RTVSPropertyOp45
 70
     0
102
RTVSPropertyOp46
 70
     0
102
RTVSPropertyOp47
 70
     0
102
RTVSPropertyOp48
 70
     0
102
RTVSPropertyOp49
 70
     0
102
RTVSPropertyOp50
 70
     0
102
RTVSPropertyOp51
 70
     0
102
RTVSPropertyOp52
 70
     0
102
RTVSPropertyOp53
 70
     0
102
RTVSPropertyOp54
 70
     0
102
RTVSPropertyOp55
 70
     0
102
RTVSPropertyOp56
 70
     0
102
RTVSPropertyOp57
 70
     0
102
RTVSPost2010Prop28
280
     0
102
RTVSPost2010PropOp28
 70
     0
102
RTVSPost2010Prop29
280
     1
102
RTVSPost2010PropOp29
 70
     0
102
RTVSPost2010Prop30
280
     1
102
RTVSPost2010PropOp30
 70
     0
102
RTVSPost2010Prop31
280
     0
102
RTVSPost2010PropOp31
 70
     0
102
RTVSPost2010Prop32
280
     0
102
RTVSPost2010PropOp32
 70
     0
102
RTVSPost2010Prop33
280
     0
102
RTVSPost2010PropOp33
 70
     0
102
RTVSPost2010Prop34
280
     0
102
RTVSPost2010PropOp34
 70
     0
102
RTVSPost2010Prop35
280
     0
102
RTVSPost2010PropOp35
 70
     0
102
RTVSPost2010Prop36
280
     0
102
RTVSPost2010PropOp36
 70
     0
102
RTVSPost2010Prop37
 90
       50
102
RTVSPost2010PropOp37
 70
     0
102
RTVSPost2010Prop38
140
0.0
102
RTVSPost2010PropOp38
 70
     0
102
RTVSPost2010Prop39
140
1.0
102
RTVSPost2010PropOp39
 70
     0
102
RTVSPost2010Prop40
 90
        0
102
RTVSPost2010PropOp40
 70
     0
102
RTVSPost2010Prop41ColorIndex
 90
       18
102
RTVSPost2010Prop41ColorRGB
 90
        0
102
RTVSPost2010PropOp41
 70
     0
102
RTVSPost2010Prop42
 90
       50
102
RTVSPost2010PropOp42
 70
     0
102
RTVSPost2010Prop43
 90
        3
102
RTVSPost2010PropOp43
 70
     0
102
RTVSPost2010Prop44ColorIndex
 90
        5
102
RTVSPost2010Prop44ColorRGB
 90
      255
102
RTVSPost2010PropOp44
 70
     0
102
RTVSPost2010Prop45
280
     0
102
RTVSPost2010PropOp45
 70
     0
102
RTVSPost2010Prop46
 90
       50
102
RTVSPost2010PropOp46
 70
     0
102
RTVSPost2010Prop47
 90
       50
102
RTVSPost2010PropOp47
 70
     0
102
RTVSPost2010Prop48
 90
       50
102
RTVSPost2010PropOp48
 70
     0
102
RTVSPost2010Prop49
280
     0
102
RTVSPost2010PropOp49
 70
     0
102
RTVSPost2010Prop50
 90
       50
102
RTVSPost2010PropOp50
 70
     0
102
RTVSPost2010Prop51ColorIndex
 90
      256
102
RTVSPost2010Prop51ColorRGB
 90
-16777216
102
RTVSPost2010PropOp51
 70
     0
102
RTVSPost2010Prop52
140
1.0
102
RTVSPost2010PropOp52
 70
     0
102
RTVSPost2010Prop53
 90
        2
102
RTVSPost2010PropOp53
 70
     0
102
RTVSPost2010Prop54
  1
strokes_ogs.tif
102
RTVSPost2010PropOp54
 70
     0
102
RTVSPost2010Prop55
280
     0
102
RTVSPost2010PropOp55
 70
     0
102
RTVSPost2010Prop56
140
1.0
102
RTVSPost2010PropOp56
 70
     0
102
RTVSPost2010Prop57
140
1.0
102
RTVSPost2010PropOp57
 70
     0
  0
XRECORD
  5
184
102
{ACAD_REACTORS
330
183
102
}
330
183
100
AcDbXrecord
280
     1
102
RTVSPropertyOp0
 70
     1
102
RTVSPropertyOp1
 70
     1
102
RTVSPropertyOp2
 70
     1
102
RTVSPropertyOp3
 70
     1
102
RTVSPropertyOp4
 70
     1
102
RTVSPropertyOp5
 70
     1
102
RTVSPropertyOp6
 70
     1
102
RTVSPropertyOp7
 70
     1
102
RTVSPropertyOp8
 70
     1
102
RTVSPropertyOp9
 70
     1
102
RTVSPropertyOp10
 70
     1
102
RTVSPropertyOp11
 70
     1
102
RTVSPropertyOp12
 70
     1
102
RTVSPropertyOp13
 70
     1
102
RTVSPropertyOp14
 70
     1
102
RTVSPropertyOp15
 70
     1
102
RTVSPropertyOp16
 70
     1
102
RTVSPropertyOp17
 70
     1
102
RTVSPropertyOp18
 70
     1
102
RTVSPropertyOp19
 70
     1
102
RTVSPropertyOp20
 70
     1
102
RTVSPropertyOp21
 70
     1
102
RTVSPropertyOp22
 70
     1
102
RTVSPropertyOp23
 70
     1
102
RTVSPropertyOp24
 70
     1
102
RTVSPropertyOp25
 70
     1
102
RTVSPropertyOp26
 70
     1
102
RTVSPropertyOp27
 70
     1
102
RTVSPropertyOp28
 70
     1
102
RTVSPropertyOp29
 70
     1
102
RTVSPropertyOp30
 70
     1
102
RTVSPropertyOp31
 70
     1
102
RTVSPropertyOp32
 70
     1
102
RTVSPropertyOp33
 70
     1
102
RTVSPropertyOp34
 70
     1
102
RTVSPropertyOp35
 70
     1
102
RTVSPropertyOp36
 70
     1
102
RTVSPropertyOp37
 70
     1
102
RTVSPropertyOp38
 70
     1
102
RTVSPropertyOp39
 70
     1
102
RTVSPropertyOp40
 70
     1
102
RTVSPropertyOp41
 70
     1
102
RTVSPropertyOp42
 70
     1
102
RTVSPropertyOp43
 70
     1
102
RTVSPropertyOp44
 70
     1
102
RTVSPropertyOp45
 70
     1
102
RTVSPropertyOp46
 70
     1
102
RTVSPropertyOp47
 70
     1
102
RTVSPropertyOp48
 70
     1
102
RTVSPropertyOp49
 70
     1
102
RTVSPropertyOp50
 70
     1
102
RTVSPropertyOp51
 70
     0
102
RTVSPropertyOp52
 70
     0
102
RTVSPropertyOp53
 70
     1
102
RTVSPropertyOp54
 70
     1
102
RTVSPropertyOp55
 70
     1
102
RTVSPropertyOp56
 70
     1
102
RTVSPropertyOp57
 70
     1
102
RTVSPost2010Prop28
280
     0
102
RTVSPost2010PropOp28
 70
     1
102
RTVSPost2010Prop29
280
     1
102
RTVSPost2010PropOp29
 70
     1
102
RTVSPost2010Prop30
280
     1
102
RTVSPost2010PropOp30
 70
     1
102
RTVSPost2010Prop31
280
     0
102
RTVSPost2010PropOp31
 70
     1
102
RTVSPost2010Prop32
280
     0
102
RTVSPost2010PropOp32
 70
     1
102
RTVSPost2010Prop33
280
     0
102
RTVSPost2010PropOp33
 70
     1
102
RTVSPost2010Prop34
280
     0
102
RTVSPost2010PropOp34
 70
     1
102
RTVSPost2010Prop35
280
     0
102
RTVSPost2010PropOp35
 70
     1
102
RTVSPost2010Prop36
280
     0
102
RTVSPost2010PropOp36
 70
     1
102
RTVSPost2010Prop37
 90
       50
102
RTVSPost2010PropOp37
 70
     1
102
RTVSPost2010Prop38
140
0.0
102
RTVSPost2010PropOp38
 70
     1
102
RTVSPost2010Prop39
140
1.0
102
RTVSPost2010PropOp39
 70
     1
102
RTVSPost2010Prop40
 90
        0
102
RTVSPost2010PropOp40
 70
     1
102
RTVSPost2010Prop41ColorIndex
 90
       18
102
RTVSPost2010Prop41ColorRGB
 90
        0
102
RTVSPost2010PropOp41
 70
     1
102
RTVSPost2010Prop42
 90
       50
102
RTVSPost2010PropOp42
 70
     1
102
RTVSPost2010Prop43
 90
        3
102
RTVSPost2010PropOp43
 70
     1
102
RTVSPost2010Prop44ColorIndex
 90
        5
102
RTVSPost2010Prop44ColorRGB
 90
      255
102
RTVSPost2010PropOp44
 70
     1
102
RTVSPost2010Prop45
280
     0
102
RTVSPost2010PropOp45
 70
     1
102
RTVSPost2010Prop46
 90
       50
102
RTVSPost2010PropOp46
 70
     1
102
RTVSPost2010Prop47
 90
       50
102
RTVSPost2010PropOp47
 70
     1
102
RTVSPost2010Prop48
 90
       50
102
RTVSPost2010PropOp48
 70
     1
102
RTVSPost2010Prop49
280
     0
102
RTVSPost2010PropOp49
 70
     1
102
RTVSPost2010Prop50
 90
       50
102
RTVSPost2010PropOp50
 70
     1
102
RTVSPost2010Prop51ColorIndex
 90
      256
102
RTVSPost2010Prop51ColorRGB
 90
-16777216
102
RTVSPost2010PropOp51
 70
     0
102
RTVSPost2010Prop52
140
1.0
102
RTVSPost2010PropOp52
 70
     0
102
RTVSPost2010Prop53
 90
        2
102
RTVSPost2010PropOp53
 70
     1
102
RTVSPost2010Prop54
  1
strokes_ogs.tif
102
RTVSPost2010PropOp54
 70
     1
102
RTVSPost2010Prop55
280
     0
102
RTVSPost2010PropOp55
 70
     1
102
RTVSPost2010Prop56
140
1.0
102
RTVSPost2010PropOp56
 70
     1
102
RTVSPost2010Prop57
140
1.0
102
RTVSPost2010PropOp57
 70
     1
  0
XRECORD
  5
18C
102
{ACAD_REACTORS
330
18B
102
}
330
18B
100
AcDbXrecord
280
     1
102
RTVSPropertyOp0
 70
     0
102
RTVSPropertyOp1
 70
     0
102
RTVSPropertyOp2
 70
     0
102
RTVSPropertyOp3
 70
     0
102
RTVSPropertyOp4
 70
     0
102
RTVSPropertyOp5
 70
     0
102
RTVSPropertyOp6
 70
     0
102
RTVSPropertyOp7
 70
     0
102
RTVSPropertyOp8
 70
     0
102
RTVSPropertyOp9
 70
     0
102
RTVSPropertyOp10
 70
     0
102
RTVSPropertyOp11
 70
     0
102
RTVSPropertyOp12
 70
     0
102
RTVSPropertyOp13
 70
     0
102
RTVSPropertyOp14
 70
     2
102
RTVSPropertyOp15
 70
     0
102
RTVSPropertyOp16
 70
     0
102
RTVSPropertyOp17
 70
     0
102
RTVSPropertyOp18
 70
     0
102
RTVSPropertyOp19
 70
     0
102
RTVSPropertyOp20
 70
     0
102
RTVSPropertyOp21
 70
     0
102
RTVSPropertyOp22
 70
     0
102
RTVSPropertyOp23
 70
     0
102
RTVSPropertyOp24
 70
     0
102
RTVSPropertyOp25
 70
     0
102
RTVSPropertyOp26
 70
     0
102
RTVSPropertyOp27
 70
     0
102
RTVSPropertyOp28
 70
     0
102
RTVSPropertyOp29
 70
     0
102
RTVSPropertyOp30
 70
     0
102
RTVSPropertyOp31
 70
     0
102
RTVSPropertyOp32
 70
     0
102
RTVSPropertyOp33
 70
     0
102
RTVSPropertyOp34
 70
     0
102
RTVSPropertyOp35
 70
     0
102
RTVSPropertyOp36
 70
     0
102
RTVSPropertyOp37
 70
     0
102
RTVSPropertyOp38
 70
     0
102
RTVSPropertyOp39
 70
     0
102
RTVSPropertyOp40
 70
     0
102
RTVSPropertyOp41
 70
     0
102
RTVSPropertyOp42
 70
     0
102
RTVSPropertyOp43
 70
     0
102
RTVSPropertyOp44
 70
     0
102
RTVSPropertyOp45
 70
     0
102
RTVSPropertyOp46
 70
     0
102
RTVSPropertyOp47
 70
     0
102
RTVSPropertyOp48
 70
     0
102
RTVSPropertyOp49
 70
     0
102
RTVSPropertyOp50
 70
     0
102
RTVSPropertyOp51
 70
     0
102
RTVSPropertyOp52
 70
     0
102
RTVSPropertyOp53
 70
     0
102
RTVSPropertyOp54
 70
     0
102
RTVSPropertyOp55
 70
     0
102
RTVSPropertyOp56
 70
     0
102
RTVSPropertyOp57
 70
     0
102
RTVSPost2010Prop28
280
     0
102
RTVSPost2010PropOp28
 70
     0
102
RTVSPost2010Prop29
280
     1
102
RTVSPost2010PropOp29
 70
     0
102
RTVSPost2010Prop30
280
     1
102
RTVSPost2010PropOp30
 70
     0
102
RTVSPost2010Prop31
280
     0
102
RTVSPost2010PropOp31
 70
     0
102
RTVSPost2010Prop32
280
     0
102
RTVSPost2010PropOp32
 70
     0
102
RTVSPost2010Prop33
280
     0
102
RTVSPost2010PropOp33
 70
     0
102
RTVSPost2010Prop34
280
     0
102
RTVSPost2010PropOp34
 70
     0
102
RTVSPost2010Prop35
280
     0
102
RTVSPost2010PropOp35
 70
     0
102
RTVSPost2010Prop36
280
     0
102
RTVSPost2010PropOp36
 70
     0
102
RTVSPost2010Prop37
 90
       50
102
RTVSPost2010PropOp37
 70
     0
102
RTVSPost2010Prop38
140
0.0
102
RTVSPost2010PropOp38
 70
     0
102
RTVSPost2010Prop39
140
1.0
102
RTVSPost2010PropOp39
 70
     0
102
RTVSPost2010Prop40
 90
        0
102
RTVSPost2010PropOp40
 70
     0
102
RTVSPost2010Prop41ColorIndex
 90
       18
102
RTVSPost2010Prop41ColorRGB
 90
        0
102
RTVSPost2010PropOp41
 70
     0
102
RTVSPost2010Prop42
 90
       50
102
RTVSPost2010PropOp42
 70
     0
102
RTVSPost2010Prop43
 90
        3
102
RTVSPost2010PropOp43
 70
     0
102
RTVSPost2010Prop44ColorIndex
 90
        5
102
RTVSPost2010Prop44ColorRGB
 90
      255
102
RTVSPost2010PropOp44
 70
     0
102
RTVSPost2010Prop45
280
     0
102
RTVSPost2010PropOp45
 70
     0
102
RTVSPost2010Prop46
 90
       50
102
RTVSPost2010PropOp46
 70
     0
102
RTVSPost2010Prop47
 90
       50
102
RTVSPost2010PropOp47
 70
     0
102
RTVSPost2010Prop48
 90
       50
102
RTVSPost2010PropOp48
 70
     0
102
RTVSPost2010Prop49
280
     0
102
RTVSPost2010PropOp49
 70
     0
102
RTVSPost2010Prop50
 90
       50
102
RTVSPost2010PropOp50
 70
     0
102
RTVSPost2010Prop51ColorIndex
 90
      256
102
RTVSPost2010Prop51ColorRGB
 90
-16777216
102
RTVSPost2010PropOp51
 70
     0
102
RTVSPost2010Prop52
140
1.0
102
RTVSPost2010PropOp52
 70
     0
102
RTVSPost2010Prop53
 90
        2
102
RTVSPost2010PropOp53
 70
     0
102
RTVSPost2010Prop54
  1
strokes_ogs.tif
102
RTVSPost2010PropOp54
 70
     0
102
RTVSPost2010Prop55
280
     0
102
RTVSPost2010PropOp55
 70
     0
102
RTVSPost2010Prop56
140
1.0
102
RTVSPost2010PropOp56
 70
     0
102
RTVSPost2010Prop57
140
1.0
102
RTVSPost2010PropOp57
 70
     0
  0
XRECORD
  5
17A
102
{ACAD_REACTORS
330
179
102
}
330
179
100
AcDbXrecord
280
     1
102
RTVSPropertyOp0
 70
     1
102
RTVSPropertyOp1
 70
     1
102
RTVSPropertyOp2
 70
     1
102
RTVSPropertyOp3
 70
     1
102
RTVSPropertyOp4
 70
     1
102
RTVSPropertyOp5
 70
     1
102
RTVSPropertyOp6
 70
     1
102
RTVSPropertyOp7
 70
     1
102
RTVSPropertyOp8
 70
     1
102
RTVSPropertyOp9
 70
     1
102
RTVSPropertyOp10
 70
     1
102
RTVSPropertyOp11
 70
     1
102
RTVSPropertyOp12
 70
     1
102
RTVSPropertyOp13
 70
     1
102
RTVSPropertyOp14
 70
     1
102
RTVSPropertyOp15
 70
     1
102
RTVSPropertyOp16
 70
     1
102
RTVSPropertyOp17
 70
     1
102
RTVSPropertyOp18
 70
     1
102
RTVSPropertyOp19
 70
     1
102
RTVSPropertyOp20
 70
     1
102
RTVSPropertyOp21
 70
     1
102
RTVSPropertyOp22
 70
     1
102
RTVSPropertyOp23
 70
     1
102
RTVSPropertyOp24
 70
     1
102
RTVSPropertyOp25
 70
     1
102
RTVSPropertyOp26
 70
     1
102
RTVSPropertyOp27
 70
     1
102
RTVSPropertyOp28
 70
     1
102
RTVSPropertyOp29
 70
     1
102
RTVSPropertyOp30
 70
     1
102
RTVSPropertyOp31
 70
     1
102
RTVSPropertyOp32
 70
     1
102
RTVSPropertyOp33
 70
     1
102
RTVSPropertyOp34
 70
     1
102
RTVSPropertyOp35
 70
     1
102
RTVSPropertyOp36
 70
     1
102
RTVSPropertyOp37
 70
     1
102
RTVSPropertyOp38
 70
     1
102
RTVSPropertyOp39
 70
     1
102
RTVSPropertyOp40
 70
     1
102
RTVSPropertyOp41
 70
     1
102
RTVSPropertyOp42
 70
     1
102
RTVSPropertyOp43
 70
     1
102
RTVSPropertyOp44
 70
     1
102
RTVSPropertyOp45
 70
     1
102
RTVSPropertyOp46
 70
     1
102
RTVSPropertyOp47
 70
     1
102
RTVSPropertyOp48
 70
     1
102
RTVSPropertyOp49
 70
     1
102
RTVSPropertyOp50
 70
     1
102
RTVSPropertyOp51
 70
     0
102
RTVSPropertyOp52
 70
     0
102
RTVSPropertyOp53
 70
     1
102
RTVSPropertyOp54
 70
     1
102
RTVSPropertyOp55
 70
     1
102
RTVSPropertyOp56
 70
     1
102
RTVSPropertyOp57
 70
     1
102
RTVSPost2010Prop28
280
     0
102
RTVSPost2010PropOp28
 70
     1
102
RTVSPost2010Prop29
280
     1
102
RTVSPost2010PropOp29
 70
     1
102
RTVSPost2010Prop30
280
     1
102
RTVSPost2010PropOp30
 70
     1
102
RTVSPost2010Prop31
280
     0
102
RTVSPost2010PropOp31
 70
     1
102
RTVSPost2010Prop32
280
     0
102
RTVSPost2010PropOp32
 70
     1
102
RTVSPost2010Prop33
280
     0
102
RTVSPost2010PropOp33
 70
     1
102
RTVSPost2010Prop34
280
     0
102
RTVSPost2010PropOp34
 70
     1
102
RTVSPost2010Prop35
280
     0
102
RTVSPost2010PropOp35
 70
     1
102
RTVSPost2010Prop36
280
     0
102
RTVSPost2010PropOp36
 70
     1
102
RTVSPost2010Prop37
 90
       50
102
RTVSPost2010PropOp37
 70
     1
102
RTVSPost2010Prop38
140
0.0
102
RTVSPost2010PropOp38
 70
     1
102
RTVSPost2010Prop39
140
1.0
102
RTVSPost2010PropOp39
 70
     1
102
RTVSPost2010Prop40
 90
        0
102
RTVSPost2010PropOp40
 70
     1
102
RTVSPost2010Prop41ColorIndex
 90
       18
102
RTVSPost2010Prop41ColorRGB
 90
        0
102
RTVSPost2010PropOp41
 70
     1
102
RTVSPost2010Prop42
 90
       50
102
RTVSPost2010PropOp42
 70
     1
102
RTVSPost2010Prop43
 90
        3
102
RTVSPost2010PropOp43
 70
     1
102
RTVSPost2010Prop44ColorIndex
 90
        5
102
RTVSPost2010Prop44ColorRGB
 90
      255
102
RTVSPost2010PropOp44
 70
     1
102
RTVSPost2010Prop45
280
     0
102
RTVSPost2010PropOp45
 70
     1
102
RTVSPost2010Prop46
 90
       50
102
RTVSPost2010PropOp46
 70
     1
102
RTVSPost2010Prop47
 90
       50
102
RTVSPost2010PropOp47
 70
     1
102
RTVSPost2010Prop48
 90
       50
102
RTVSPost2010PropOp48
 70
     1
102
RTVSPost2010Prop49
280
     0
102
RTVSPost2010PropOp49
 70
     1
102
RTVSPost2010Prop50
 90
       50
102
RTVSPost2010PropOp50
 70
     1
102
RTVSPost2010Prop51ColorIndex
 90
      256
102
RTVSPost2010Prop51ColorRGB
 90
-16777216
102
RTVSPost2010PropOp51
 70
     0
102
RTVSPost2010Prop52
140
1.0
102
RTVSPost2010PropOp52
 70
     0
102
RTVSPost2010Prop53
 90
        2
102
RTVSPost2010PropOp53
 70
     1
102
RTVSPost2010Prop54
  1
strokes_ogs.tif
102
RTVSPost2010PropOp54
 70
     1
102
RTVSPost2010Prop55
280
     0
102
RTVSPost2010PropOp55
 70
     1
102
RTVSPost2010Prop56
140
1.0
102
RTVSPost2010PropOp56
 70
     1
102
RTVSPost2010Prop57
140
1.0
102
RTVSPost2010PropOp57
 70
     1
  0
XRECORD
  5
198
102
{ACAD_REACTORS
330
197
102
}
330
197
100
AcDbXrecord
280
     1
102
RTVSPropertyOp0
 70
     1
102
RTVSPropertyOp1
 70
     1
102
RTVSPropertyOp2
 70
     1
102
RTVSPropertyOp3
 70
     1
102
RTVSPropertyOp4
 70
     1
102
RTVSPropertyOp5
 70
     1
102
RTVSPropertyOp6
 70
     1
102
RTVSPropertyOp7
 70
     1
102
RTVSPropertyOp8
 70
     1
102
RTVSPropertyOp9
 70
     1
102
RTVSPropertyOp10
 70
     1
102
RTVSPropertyOp11
 70
     1
102
RTVSPropertyOp12
 70
     1
102
RTVSPropertyOp13
 70
     1
102
RTVSPropertyOp14
 70
     1
102
RTVSPropertyOp15
 70
     1
102
RTVSPropertyOp16
 70
     1
102
RTVSPropertyOp17
 70
     1
102
RTVSPropertyOp18
 70
     1
102
RTVSPropertyOp19
 70
     1
102
RTVSPropertyOp20
 70
     1
102
RTVSPropertyOp21
 70
     1
102
RTVSPropertyOp22
 70
     1
102
RTVSPropertyOp23
 70
     1
102
RTVSPropertyOp24
 70
     1
102
RTVSPropertyOp25
 70
     1
102
RTVSPropertyOp26
 70
     1
102
RTVSPropertyOp27
 70
     1
102
RTVSPropertyOp28
 70
     1
102
RTVSPropertyOp29
 70
     1
102
RTVSPropertyOp30
 70
     1
102
RTVSPropertyOp31
 70
     1
102
RTVSPropertyOp32
 70
     1
102
RTVSPropertyOp33
 70
     1
102
RTVSPropertyOp34
 70
     1
102
RTVSPropertyOp35
 70
     1
102
RTVSPropertyOp36
 70
     1
102
RTVSPropertyOp37
 70
     1
102
RTVSPropertyOp38
 70
     1
102
RTVSPropertyOp39
 70
     1
102
RTVSPropertyOp40
 70
     1
102
RTVSPropertyOp41
 70
     1
102
RTVSPropertyOp42
 70
     1
102
RTVSPropertyOp43
 70
     1
102
RTVSPropertyOp44
 70
     1
102
RTVSPropertyOp45
 70
     1
102
RTVSPropertyOp46
 70
     1
102
RTVSPropertyOp47
 70
     1
102
RTVSPropertyOp48
 70
     1
102
RTVSPropertyOp49
 70
     1
102
RTVSPropertyOp50
 70
     1
102
RTVSPropertyOp51
 70
     0
102
RTVSPropertyOp52
 70
     0
102
RTVSPropertyOp53
 70
     1
102
RTVSPropertyOp54
 70
     1
102
RTVSPropertyOp55
 70
     1
102
RTVSPropertyOp56
 70
     1
102
RTVSPropertyOp57
 70
     1
102
RTVSPost2010Prop28
280
     0
102
RTVSPost2010PropOp28
 70
     1
102
RTVSPost2010Prop29
280
     1
102
RTVSPost2010PropOp29
 70
     1
102
RTVSPost2010Prop30
280
     1
102
RTVSPost2010PropOp30
 70
     1
102
RTVSPost2010Prop31
280
     0
102
RTVSPost2010PropOp31
 70
     1
102
RTVSPost2010Prop32
280
     0
102
RTVSPost2010PropOp32
 70
     1
102
RTVSPost2010Prop33
280
     0
102
RTVSPost2010PropOp33
 70
     1
102
RTVSPost2010Prop34
280
     0
102
RTVSPost2010PropOp34
 70
     1
102
RTVSPost2010Prop35
280
     0
102
RTVSPost2010PropOp35
 70
     1
102
RTVSPost2010Prop36
280
     0
102
RTVSPost2010PropOp36
 70
     1
102
RTVSPost2010Prop37
 90
       50
102
RTVSPost2010PropOp37
 70
     1
102
RTVSPost2010Prop38
140
0.0
102
RTVSPost2010PropOp38
 70
     1
102
RTVSPost2010Prop39
140
1.0
102
RTVSPost2010PropOp39
 70
     1
102
RTVSPost2010Prop40
 90
        0
102
RTVSPost2010PropOp40
 70
     1
102
RTVSPost2010Prop41ColorIndex
 90
       18
102
RTVSPost2010Prop41ColorRGB
 90
        0
102
RTVSPost2010PropOp41
 70
     1
102
RTVSPost2010Prop42
 90
       50
102
RTVSPost2010PropOp42
 70
     1
102
RTVSPost2010Prop43
 90
        3
102
RTVSPost2010PropOp43
 70
     1
102
RTVSPost2010Prop44ColorIndex
 90
        5
102
RTVSPost2010Prop44ColorRGB
 90
      255
102
RTVSPost2010PropOp44
 70
     1
102
RTVSPost2010Prop45
280
     0
102
RTVSPost2010PropOp45
 70
     1
102
RTVSPost2010Prop46
 90
       50
102
RTVSPost2010PropOp46
 70
     1
102
RTVSPost2010Prop47
 90
       50
102
RTVSPost2010PropOp47
 70
     1
102
RTVSPost2010Prop48
 90
       50
102
RTVSPost2010PropOp48
 70
     1
102
RTVSPost2010Prop49
280
     0
102
RTVSPost2010PropOp49
 70
     1
102
RTVSPost2010Prop50
 90
       50
102
RTVSPost2010PropOp50
 70
     1
102
RTVSPost2010Prop51ColorIndex
 90
      256
102
RTVSPost2010Prop51ColorRGB
 90
-16777216
102
RTVSPost2010PropOp51
 70
     0
102
RTVSPost2010Prop52
140
1.0
102
RTVSPost2010PropOp52
 70
     0
102
RTVSPost2010Prop53
 90
        2
102
RTVSPost2010PropOp53
 70
     1
102
RTVSPost2010Prop54
  1
strokes_ogs.tif
102
RTVSPost2010PropOp54
 70
     1
102
RTVSPost2010Prop55
280
     0
102
RTVSPost2010PropOp55
 70
     1
102
RTVSPost2010Prop56
140
1.0
102
RTVSPost2010PropOp56
 70
     1
102
RTVSPost2010Prop57
140
1.0
102
RTVSPost2010PropOp57
 70
     1
  0
XRECORD
  5
196
102
{ACAD_REACTORS
330
195
102
}
330
195
100
AcDbXrecord
280
     1
102
RTVSPropertyOp0
 70
     1
102
RTVSPropertyOp1
 70
     1
102
RTVSPropertyOp2
 70
     1
102
RTVSPropertyOp3
 70
     1
102
RTVSPropertyOp4
 70
     1
102
RTVSPropertyOp5
 70
     1
102
RTVSPropertyOp6
 70
     1
102
RTVSPropertyOp7
 70
     1
102
RTVSPropertyOp8
 70
     1
102
RTVSPropertyOp9
 70
     1
102
RTVSPropertyOp10
 70
     1
102
RTVSPropertyOp11
 70
     1
102
RTVSPropertyOp12
 70
     1
102
RTVSPropertyOp13
 70
     1
102
RTVSPropertyOp14
 70
     1
102
RTVSPropertyOp15
 70
     1
102
RTVSPropertyOp16
 70
     1
102
RTVSPropertyOp17
 70
     1
102
RTVSPropertyOp18
 70
     1
102
RTVSPropertyOp19
 70
     1
102
RTVSPropertyOp20
 70
     1
102
RTVSPropertyOp21
 70
     1
102
RTVSPropertyOp22
 70
     1
102
RTVSPropertyOp23
 70
     1
102
RTVSPropertyOp24
 70
     1
102
RTVSPropertyOp25
 70
     1
102
RTVSPropertyOp26
 70
     1
102
RTVSPropertyOp27
 70
     1
102
RTVSPropertyOp28
 70
     1
102
RTVSPropertyOp29
 70
     1
102
RTVSPropertyOp30
 70
     1
102
RTVSPropertyOp31
 70
     1
102
RTVSPropertyOp32
 70
     1
102
RTVSPropertyOp33
 70
     1
102
RTVSPropertyOp34
 70
     1
102
RTVSPropertyOp35
 70
     1
102
RTVSPropertyOp36
 70
     1
102
RTVSPropertyOp37
 70
     1
102
RTVSPropertyOp38
 70
     1
102
RTVSPropertyOp39
 70
     1
102
RTVSPropertyOp40
 70
     1
102
RTVSPropertyOp41
 70
     1
102
RTVSPropertyOp42
 70
     1
102
RTVSPropertyOp43
 70
     1
102
RTVSPropertyOp44
 70
     1
102
RTVSPropertyOp45
 70
     1
102
RTVSPropertyOp46
 70
     1
102
RTVSPropertyOp47
 70
     1
102
RTVSPropertyOp48
 70
     1
102
RTVSPropertyOp49
 70
     1
102
RTVSPropertyOp50
 70
     1
102
RTVSPropertyOp51
 70
     0
102
RTVSPropertyOp52
 70
     0
102
RTVSPropertyOp53
 70
     1
102
RTVSPropertyOp54
 70
     1
102
RTVSPropertyOp55
 70
     1
102
RTVSPropertyOp56
 70
     1
102
RTVSPropertyOp57
 70
     1
102
RTVSPost2010Prop28
280
     0
102
RTVSPost2010PropOp28
 70
     1
102
RTVSPost2010Prop29
280
     1
102
RTVSPost2010PropOp29
 70
     1
102
RTVSPost2010Prop30
280
     1
102
RTVSPost2010PropOp30
 70
     1
102
RTVSPost2010Prop31
280
     0
102
RTVSPost2010PropOp31
 70
     1
102
RTVSPost2010Prop32
280
     0
102
RTVSPost2010PropOp32
 70
     1
102
RTVSPost2010Prop33
280
     0
102
RTVSPost2010PropOp33
 70
     1
102
RTVSPost2010Prop34
280
     0
102
RTVSPost2010PropOp34
 70
     1
102
RTVSPost2010Prop35
280
     0
102
RTVSPost2010PropOp35
 70
     1
102
RTVSPost2010Prop36
280
     0
102
RTVSPost2010PropOp36
 70
     1
102
RTVSPost2010Prop37
 90
       50
102
RTVSPost2010PropOp37
 70
     1
102
RTVSPost2010Prop38
140
0.0
102
RTVSPost2010PropOp38
 70
     1
102
RTVSPost2010Prop39
140
1.0
102
RTVSPost2010PropOp39
 70
     1
102
RTVSPost2010Prop40
 90
        0
102
RTVSPost2010PropOp40
 70
     1
102
RTVSPost2010Prop41ColorIndex
 90
       18
102
RTVSPost2010Prop41ColorRGB
 90
        0
102
RTVSPost2010PropOp41
 70
     1
102
RTVSPost2010Prop42
 90
       50
102
RTVSPost2010PropOp42
 70
     1
102
RTVSPost2010Prop43
 90
        3
102
RTVSPost2010PropOp43
 70
     1
102
RTVSPost2010Prop44ColorIndex
 90
        5
102
RTVSPost2010Prop44ColorRGB
 90
      255
102
RTVSPost2010PropOp44
 70
     1
102
RTVSPost2010Prop45
280
     0
102
RTVSPost2010PropOp45
 70
     1
102
RTVSPost2010Prop46
 90
       50
102
RTVSPost2010PropOp46
 70
     1
102
RTVSPost2010Prop47
 90
       50
102
RTVSPost2010PropOp47
 70
     1
102
RTVSPost2010Prop48
 90
       50
102
RTVSPost2010PropOp48
 70
     1
102
RTVSPost2010Prop49
280
     0
102
RTVSPost2010PropOp49
 70
     1
102
RTVSPost2010Prop50
 90
       50
102
RTVSPost2010PropOp50
 70
     1
102
RTVSPost2010Prop51ColorIndex
 90
      256
102
RTVSPost2010Prop51ColorRGB
 90
-16777216
102
RTVSPost2010PropOp51
 70
     0
102
RTVSPost2010Prop52
140
1.0
102
RTVSPost2010PropOp52
 70
     0
102
RTVSPost2010Prop53
 90
        2
102
RTVSPost2010PropOp53
 70
     1
102
RTVSPost2010Prop54
  1
strokes_ogs.tif
102
RTVSPost2010PropOp54
 70
     1
102
RTVSPost2010Prop55
280
     0
102
RTVSPost2010PropOp55
 70
     1
102
RTVSPost2010Prop56
140
1.0
102
RTVSPost2010PropOp56
 70
     1
102
RTVSPost2010Prop57
140
1.0
102
RTVSPost2010PropOp57
 70
     1
  0
XRECORD
  5
190
102
{ACAD_REACTORS
330
18F
102
}
330
18F
100
AcDbXrecord
280
     1
102
RTVSPropertyOp0
 70
     1
102
RTVSPropertyOp1
 70
     1
102
RTVSPropertyOp2
 70
     1
102
RTVSPropertyOp3
 70
     1
102
RTVSPropertyOp4
 70
     1
102
RTVSPropertyOp5
 70
     1
102
RTVSPropertyOp6
 70
     1
102
RTVSPropertyOp7
 70
     1
102
RTVSPropertyOp8
 70
     1
102
RTVSPropertyOp9
 70
     1
102
RTVSPropertyOp10
 70
     1
102
RTVSPropertyOp11
 70
     1
102
RTVSPropertyOp12
 70
     1
102
RTVSPropertyOp13
 70
     1
102
RTVSPropertyOp14
 70
     1
102
RTVSPropertyOp15
 70
     1
102
RTVSPropertyOp16
 70
     1
102
RTVSPropertyOp17
 70
     1
102
RTVSPropertyOp18
 70
     1
102
RTVSPropertyOp19
 70
     1
102
RTVSPropertyOp20
 70
     1
102
RTVSPropertyOp21
 70
     1
102
RTVSPropertyOp22
 70
     1
102
RTVSPropertyOp23
 70
     1
102
RTVSPropertyOp24
 70
     1
102
RTVSPropertyOp25
 70
     1
102
RTVSPropertyOp26
 70
     1
102
RTVSPropertyOp27
 70
     1
102
RTVSPropertyOp28
 70
     1
102
RTVSPropertyOp29
 70
     1
102
RTVSPropertyOp30
 70
     1
102
RTVSPropertyOp31
 70
     1
102
RTVSPropertyOp32
 70
     1
102
RTVSPropertyOp33
 70
     1
102
RTVSPropertyOp34
 70
     1
102
RTVSPropertyOp35
 70
     1
102
RTVSPropertyOp36
 70
     1
102
RTVSPropertyOp37
 70
     1
102
RTVSPropertyOp38
 70
     1
102
RTVSPropertyOp39
 70
     1
102
RTVSPropertyOp40
 70
     1
102
RTVSPropertyOp41
 70
     1
102
RTVSPropertyOp42
 70
     1
102
RTVSPropertyOp43
 70
     1
102
RTVSPropertyOp44
 70
     1
102
RTVSPropertyOp45
 70
     1
102
RTVSPropertyOp46
 70
     1
102
RTVSPropertyOp47
 70
     1
102
RTVSPropertyOp48
 70
     1
102
RTVSPropertyOp49
 70
     1
102
RTVSPropertyOp50
 70
     1
102
RTVSPropertyOp51
 70
     0
102
RTVSPropertyOp52
 70
     0
102
RTVSPropertyOp53
 70
     1
102
RTVSPropertyOp54
 70
     1
102
RTVSPropertyOp55
 70
     1
102
RTVSPropertyOp56
 70
     1
102
RTVSPropertyOp57
 70
     1
102
RTVSPost2010Prop28
280
     0
102
RTVSPost2010PropOp28
 70
     1
102
RTVSPost2010Prop29
280
     1
102
RTVSPost2010PropOp29
 70
     1
102
RTVSPost2010Prop30
280
     1
102
RTVSPost2010PropOp30
 70
     1
102
RTVSPost2010Prop31
280
     0
102
RTVSPost2010PropOp31
 70
     1
102
RTVSPost2010Prop32
280
     0
102
RTVSPost2010PropOp32
 70
     1
102
RTVSPost2010Prop33
280
     0
102
RTVSPost2010PropOp33
 70
     1
102
RTVSPost2010Prop34
280
     0
102
RTVSPost2010PropOp34
 70
     1
102
RTVSPost2010Prop35
280
     0
102
RTVSPost2010PropOp35
 70
     1
102
RTVSPost2010Prop36
280
     0
102
RTVSPost2010PropOp36
 70
     1
102
RTVSPost2010Prop37
 90
       50
102
RTVSPost2010PropOp37
 70
     1
102
RTVSPost2010Prop38
140
0.0
102
RTVSPost2010PropOp38
 70
     1
102
RTVSPost2010Prop39
140
1.0
102
RTVSPost2010PropOp39
 70
     1
102
RTVSPost2010Prop40
 90
        0
102
RTVSPost2010PropOp40
 70
     1
102
RTVSPost2010Prop41ColorIndex
 90
       18
102
RTVSPost2010Prop41ColorRGB
 90
        0
102
RTVSPost2010PropOp41
 70
     1
102
RTVSPost2010Prop42
 90
       50
102
RTVSPost2010PropOp42
 70
     1
102
RTVSPost2010Prop43
 90
        3
102
RTVSPost2010PropOp43
 70
     1
102
RTVSPost2010Prop44ColorIndex
 90
        5
102
RTVSPost2010Prop44ColorRGB
 90
      255
102
RTVSPost2010PropOp44
 70
     1
102
RTVSPost2010Prop45
280
     0
102
RTVSPost2010PropOp45
 70
     1
102
RTVSPost2010Prop46
 90
       50
102
RTVSPost2010PropOp46
 70
     1
102
RTVSPost2010Prop47
 90
       50
102
RTVSPost2010PropOp47
 70
     1
102
RTVSPost2010Prop48
 90
       50
102
RTVSPost2010PropOp48
 70
     1
102
RTVSPost2010Prop49
280
     0
102
RTVSPost2010PropOp49
 70
     1
102
RTVSPost2010Prop50
 90
       50
102
RTVSPost2010PropOp50
 70
     1
102
RTVSPost2010Prop51ColorIndex
 90
      256
102
RTVSPost2010Prop51ColorRGB
 90
-16777216
102
RTVSPost2010PropOp51
 70
     0
102
RTVSPost2010Prop52
140
1.0
102
RTVSPost2010PropOp52
 70
     0
102
RTVSPost2010Prop53
 90
        2
102
RTVSPost2010PropOp53
 70
     1
102
RTVSPost2010Prop54
  1
strokes_ogs.tif
102
RTVSPost2010PropOp54
 70
     1
102
RTVSPost2010Prop55
280
     0
102
RTVSPost2010PropOp55
 70
     1
102
RTVSPost2010Prop56
140
1.0
102
RTVSPost2010PropOp56
 70
     1
102
RTVSPost2010Prop57
140
1.0
102
RTVSPost2010PropOp57
 70
     1
  0
XRECORD
  5
192
102
{ACAD_REACTORS
330
191
102
}
330
191
100
AcDbXrecord
280
     1
102
RTVSPropertyOp0
 70
     1
102
RTVSPropertyOp1
 70
     1
102
RTVSPropertyOp2
 70
     1
102
RTVSPropertyOp3
 70
     1
102
RTVSPropertyOp4
 70
     1
102
RTVSPropertyOp5
 70
     1
102
RTVSPropertyOp6
 70
     1
102
RTVSPropertyOp7
 70
     1
102
RTVSPropertyOp8
 70
     1
102
RTVSPropertyOp9
 70
     1
102
RTVSPropertyOp10
 70
     1
102
RTVSPropertyOp11
 70
     1
102
RTVSPropertyOp12
 70
     1
102
RTVSPropertyOp13
 70
     1
102
RTVSPropertyOp14
 70
     1
102
RTVSPropertyOp15
 70
     1
102
RTVSPropertyOp16
 70
     1
102
RTVSPropertyOp17
 70
     1
102
RTVSPropertyOp18
 70
     1
102
RTVSPropertyOp19
 70
     1
102
RTVSPropertyOp20
 70
     1
102
RTVSPropertyOp21
 70
     1
102
RTVSPropertyOp22
 70
     1
102
RTVSPropertyOp23
 70
     1
102
RTVSPropertyOp24
 70
     1
102
RTVSPropertyOp25
 70
     1
102
RTVSPropertyOp26
 70
     1
102
RTVSPropertyOp27
 70
     1
102
RTVSPropertyOp28
 70
     1
102
RTVSPropertyOp29
 70
     1
102
RTVSPropertyOp30
 70
     1
102
RTVSPropertyOp31
 70
     1
102
RTVSPropertyOp32
 70
     1
102
RTVSPropertyOp33
 70
     1
102
RTVSPropertyOp34
 70
     1
102
RTVSPropertyOp35
 70
     1
102
RTVSPropertyOp36
 70
     1
102
RTVSPropertyOp37
 70
     1
102
RTVSPropertyOp38
 70
     1
102
RTVSPropertyOp39
 70
     1
102
RTVSPropertyOp40
 70
     1
102
RTVSPropertyOp41
 70
     1
102
RTVSPropertyOp42
 70
     1
102
RTVSPropertyOp43
 70
     1
102
RTVSPropertyOp44
 70
     1
102
RTVSPropertyOp45
 70
     1
102
RTVSPropertyOp46
 70
     1
102
RTVSPropertyOp47
 70
     1
102
RTVSPropertyOp48
 70
     1
102
RTVSPropertyOp49
 70
     1
102
RTVSPropertyOp50
 70
     1
102
RTVSPropertyOp51
 70
     0
102
RTVSPropertyOp52
 70
     0
102
RTVSPropertyOp53
 70
     1
102
RTVSPropertyOp54
 70
     1
102
RTVSPropertyOp55
 70
     1
102
RTVSPropertyOp56
 70
     1
102
RTVSPropertyOp57
 70
     1
102
RTVSPost2010Prop28
280
     0
102
RTVSPost2010PropOp28
 70
     1
102
RTVSPost2010Prop29
280
     1
102
RTVSPost2010PropOp29
 70
     1
102
RTVSPost2010Prop30
280
     1
102
RTVSPost2010PropOp30
 70
     1
102
RTVSPost2010Prop31
280
     0
102
RTVSPost2010PropOp31
 70
     1
102
RTVSPost2010Prop32
280
     0
102
RTVSPost2010PropOp32
 70
     1
102
RTVSPost2010Prop33
280
     0
102
RTVSPost2010PropOp33
 70
     1
102
RTVSPost2010Prop34
280
     0
102
RTVSPost2010PropOp34
 70
     1
102
RTVSPost2010Prop35
280
     0
102
RTVSPost2010PropOp35
 70
     1
102
RTVSPost2010Prop36
280
     0
102
RTVSPost2010PropOp36
 70
     1
102
RTVSPost2010Prop37
 90
       50
102
RTVSPost2010PropOp37
 70
     1
102
RTVSPost2010Prop38
140
0.0
102
RTVSPost2010PropOp38
 70
     1
102
RTVSPost2010Prop39
140
1.0
102
RTVSPost2010PropOp39
 70
     1
102
RTVSPost2010Prop40
 90
        0
102
RTVSPost2010PropOp40
 70
     1
102
RTVSPost2010Prop41ColorIndex
 90
       18
102
RTVSPost2010Prop41ColorRGB
 90
        0
102
RTVSPost2010PropOp41
 70
     1
102
RTVSPost2010Prop42
 90
       50
102
RTVSPost2010PropOp42
 70
     1
102
RTVSPost2010Prop43
 90
        3
102
RTVSPost2010PropOp43
 70
     1
102
RTVSPost2010Prop44ColorIndex
 90
        5
102
RTVSPost2010Prop44ColorRGB
 90
      255
102
RTVSPost2010PropOp44
 70
     1
102
RTVSPost2010Prop45
280
     0
102
RTVSPost2010PropOp45
 70
     1
102
RTVSPost2010Prop46
 90
       50
102
RTVSPost2010PropOp46
 70
     1
102
RTVSPost2010Prop47
 90
       50
102
RTVSPost2010PropOp47
 70
     1
102
RTVSPost2010Prop48
 90
       50
102
RTVSPost2010PropOp48
 70
     1
102
RTVSPost2010Prop49
280
     0
102
RTVSPost2010PropOp49
 70
     1
102
RTVSPost2010Prop50
 90
       50
102
RTVSPost2010PropOp50
 70
     1
102
RTVSPost2010Prop51ColorIndex
 90
      256
102
RTVSPost2010Prop51ColorRGB
 90
-16777216
102
RTVSPost2010PropOp51
 70
     0
102
RTVSPost2010Prop52
140
1.0
102
RTVSPost2010PropOp52
 70
     0
102
RTVSPost2010Prop53
 90
        2
102
RTVSPost2010PropOp53
 70
     1
102
RTVSPost2010Prop54
  1
strokes_ogs.tif
102
RTVSPost2010PropOp54
 70
     1
102
RTVSPost2010Prop55
280
     0
102
RTVSPost2010PropOp55
 70
     1
102
RTVSPost2010Prop56
140
1.0
102
RTVSPost2010PropOp56
 70
     1
102
RTVSPost2010Prop57
140
1.0
102
RTVSPost2010PropOp57
 70
     1
  0
XRECORD
  5
182
102
{ACAD_REACTORS
330
181
102
}
330
181
100
AcDbXrecord
280
     1
102
RTVSPropertyOp0
 70
     1
102
RTVSPropertyOp1
 70
     1
102
RTVSPropertyOp2
 70
     1
102
RTVSPropertyOp3
 70
     1
102
RTVSPropertyOp4
 70
     1
102
RTVSPropertyOp5
 70
     1
102
RTVSPropertyOp6
 70
     1
102
RTVSPropertyOp7
 70
     1
102
RTVSPropertyOp8
 70
     1
102
RTVSPropertyOp9
 70
     1
102
RTVSPropertyOp10
 70
     1
102
RTVSPropertyOp11
 70
     1
102
RTVSPropertyOp12
 70
     1
102
RTVSPropertyOp13
 70
     1
102
RTVSPropertyOp14
 70
     1
102
RTVSPropertyOp15
 70
     1
102
RTVSPropertyOp16
 70
     1
102
RTVSPropertyOp17
 70
     1
102
RTVSPropertyOp18
 70
     1
102
RTVSPropertyOp19
 70
     1
102
RTVSPropertyOp20
 70
     1
102
RTVSPropertyOp21
 70
     1
102
RTVSPropertyOp22
 70
     1
102
RTVSPropertyOp23
 70
     1
102
RTVSPropertyOp24
 70
     1
102
RTVSPropertyOp25
 70
     1
102
RTVSPropertyOp26
 70
     1
102
RTVSPropertyOp27
 70
     1
102
RTVSPropertyOp28
 70
     1
102
RTVSPropertyOp29
 70
     1
102
RTVSPropertyOp30
 70
     1
102
RTVSPropertyOp31
 70
     1
102
RTVSPropertyOp32
 70
     1
102
RTVSPropertyOp33
 70
     1
102
RTVSPropertyOp34
 70
     1
102
RTVSPropertyOp35
 70
     1
102
RTVSPropertyOp36
 70
     1
102
RTVSPropertyOp37
 70
     1
102
RTVSPropertyOp38
 70
     1
102
RTVSPropertyOp39
 70
     1
102
RTVSPropertyOp40
 70
     1
102
RTVSPropertyOp41
 70
     1
102
RTVSPropertyOp42
 70
     1
102
RTVSPropertyOp43
 70
     1
102
RTVSPropertyOp44
 70
     1
102
RTVSPropertyOp45
 70
     1
102
RTVSPropertyOp46
 70
     1
102
RTVSPropertyOp47
 70
     1
102
RTVSPropertyOp48
 70
     1
102
RTVSPropertyOp49
 70
     1
102
RTVSPropertyOp50
 70
     1
102
RTVSPropertyOp51
 70
     0
102
RTVSPropertyOp52
 70
     0
102
RTVSPropertyOp53
 70
     1
102
RTVSPropertyOp54
 70
     1
102
RTVSPropertyOp55
 70
     1
102
RTVSPropertyOp56
 70
     1
102
RTVSPropertyOp57
 70
     1
102
RTVSPost2010Prop28
280
     0
102
RTVSPost2010PropOp28
 70
     1
102
RTVSPost2010Prop29
280
     1
102
RTVSPost2010PropOp29
 70
     1
102
RTVSPost2010Prop30
280
     1
102
RTVSPost2010PropOp30
 70
     1
102
RTVSPost2010Prop31
280
     0
102
RTVSPost2010PropOp31
 70
     1
102
RTVSPost2010Prop32
280
     0
102
RTVSPost2010PropOp32
 70
     1
102
RTVSPost2010Prop33
280
     0
102
RTVSPost2010PropOp33
 70
     1
102
RTVSPost2010Prop34
280
     0
102
RTVSPost2010PropOp34
 70
     1
102
RTVSPost2010Prop35
280
     0
102
RTVSPost2010PropOp35
 70
     1
102
RTVSPost2010Prop36
280
     0
102
RTVSPost2010PropOp36
 70
     1
102
RTVSPost2010Prop37
 90
       50
102
RTVSPost2010PropOp37
 70
     1
102
RTVSPost2010Prop38
140
0.0
102
RTVSPost2010PropOp38
 70
     1
102
RTVSPost2010Prop39
140
1.0
102
RTVSPost2010PropOp39
 70
     1
102
RTVSPost2010Prop40
 90
        0
102
RTVSPost2010PropOp40
 70
     1
102
RTVSPost2010Prop41ColorIndex
 90
       18
102
RTVSPost2010Prop41ColorRGB
 90
        0
102
RTVSPost2010PropOp41
 70
     1
102
RTVSPost2010Prop42
 90
       50
102
RTVSPost2010PropOp42
 70
     1
102
RTVSPost2010Prop43
 90
        3
102
RTVSPost2010PropOp43
 70
     1
102
RTVSPost2010Prop44ColorIndex
 90
        5
102
RTVSPost2010Prop44ColorRGB
 90
      255
102
RTVSPost2010PropOp44
 70
     1
102
RTVSPost2010Prop45
280
     0
102
RTVSPost2010PropOp45
 70
     1
102
RTVSPost2010Prop46
 90
       50
102
RTVSPost2010PropOp46
 70
     1
102
RTVSPost2010Prop47
 90
       50
102
RTVSPost2010PropOp47
 70
     1
102
RTVSPost2010Prop48
 90
       50
102
RTVSPost2010PropOp48
 70
     1
102
RTVSPost2010Prop49
280
     0
102
RTVSPost2010PropOp49
 70
     1
102
RTVSPost2010Prop50
 90
       50
102
RTVSPost2010PropOp50
 70
     1
102
RTVSPost2010Prop51ColorIndex
 90
      256
102
RTVSPost2010Prop51ColorRGB
 90
-16777216
102
RTVSPost2010PropOp51
 70
     0
102
RTVSPost2010Prop52
140
1.0
102
RTVSPost2010PropOp52
 70
     0
102
RTVSPost2010Prop53
 90
        2
102
RTVSPost2010PropOp53
 70
     1
102
RTVSPost2010Prop54
  1
strokes_ogs.tif
102
RTVSPost2010PropOp54
 70
     1
102
RTVSPost2010Prop55
280
     0
102
RTVSPost2010PropOp55
 70
     1
102
RTVSPost2010Prop56
140
1.0
102
RTVSPost2010PropOp56
 70
     1
102
RTVSPost2010Prop57
140
1.0
102
RTVSPost2010PropOp57
 70
     1
  0
XRECORD
  5
174
102
{ACAD_REACTORS
330
173
102
}
330
173
100
AcDbXrecord
280
     1
102
RTVSPropertyOp0
 70
     1
102
RTVSPropertyOp1
 70
     1
102
RTVSPropertyOp2
 70
     1
102
RTVSPropertyOp3
 70
     1
102
RTVSPropertyOp4
 70
     1
102
RTVSPropertyOp5
 70
     1
102
RTVSPropertyOp6
 70
     1
102
RTVSPropertyOp7
 70
     1
102
RTVSPropertyOp8
 70
     1
102
RTVSPropertyOp9
 70
     1
102
RTVSPropertyOp10
 70
     1
102
RTVSPropertyOp11
 70
     1
102
RTVSPropertyOp12
 70
     1
102
RTVSPropertyOp13
 70
     1
102
RTVSPropertyOp14
 70
     1
102
RTVSPropertyOp15
 70
     1
102
RTVSPropertyOp16
 70
     1
102
RTVSPropertyOp17
 70
     1
102
RTVSPropertyOp18
 70
     1
102
RTVSPropertyOp19
 70
     1
102
RTVSPropertyOp20
 70
     1
102
RTVSPropertyOp21
 70
     1
102
RTVSPropertyOp22
 70
     1
102
RTVSPropertyOp23
 70
     1
102
RTVSPropertyOp24
 70
     1
102
RTVSPropertyOp25
 70
     1
102
RTVSPropertyOp26
 70
     1
102
RTVSPropertyOp27
 70
     1
102
RTVSPropertyOp28
 70
     1
102
RTVSPropertyOp29
 70
     1
102
RTVSPropertyOp30
 70
     1
102
RTVSPropertyOp31
 70
     1
102
RTVSPropertyOp32
 70
     1
102
RTVSPropertyOp33
 70
     1
102
RTVSPropertyOp34
 70
     1
102
RTVSPropertyOp35
 70
     1
102
RTVSPropertyOp36
 70
     1
102
RTVSPropertyOp37
 70
     1
102
RTVSPropertyOp38
 70
     1
102
RTVSPropertyOp39
 70
     1
102
RTVSPropertyOp40
 70
     1
102
RTVSPropertyOp41
 70
     1
102
RTVSPropertyOp42
 70
     1
102
RTVSPropertyOp43
 70
     1
102
RTVSPropertyOp44
 70
     1
102
RTVSPropertyOp45
 70
     1
102
RTVSPropertyOp46
 70
     1
102
RTVSPropertyOp47
 70
     1
102
RTVSPropertyOp48
 70
     1
102
RTVSPropertyOp49
 70
     1
102
RTVSPropertyOp50
 70
     1
102
RTVSPropertyOp51
 70
     0
102
RTVSPropertyOp52
 70
     0
102
RTVSPropertyOp53
 70
     1
102
RTVSPropertyOp54
 70
     1
102
RTVSPropertyOp55
 70
     1
102
RTVSPropertyOp56
 70
     1
102
RTVSPropertyOp57
 70
     1
102
RTVSPost2010Prop28
280
     0
102
RTVSPost2010PropOp28
 70
     1
102
RTVSPost2010Prop29
280
     1
102
RTVSPost2010PropOp29
 70
     1
102
RTVSPost2010Prop30
280
     1
102
RTVSPost2010PropOp30
 70
     1
102
RTVSPost2010Prop31
280
     0
102
RTVSPost2010PropOp31
 70
     1
102
RTVSPost2010Prop32
280
     0
102
RTVSPost2010PropOp32
 70
     1
102
RTVSPost2010Prop33
280
     0
102
RTVSPost2010PropOp33
 70
     1
102
RTVSPost2010Prop34
280
     0
102
RTVSPost2010PropOp34
 70
     1
102
RTVSPost2010Prop35
280
     0
102
RTVSPost2010PropOp35
 70
     1
102
RTVSPost2010Prop36
280
     0
102
RTVSPost2010PropOp36
 70
     1
102
RTVSPost2010Prop37
 90
       50
102
RTVSPost2010PropOp37
 70
     1
102
RTVSPost2010Prop38
140
0.0
102
RTVSPost2010PropOp38
 70
     1
102
RTVSPost2010Prop39
140
1.0
102
RTVSPost2010PropOp39
 70
     1
102
RTVSPost2010Prop40
 90
        0
102
RTVSPost2010PropOp40
 70
     1
102
RTVSPost2010Prop41ColorIndex
 90
       18
102
RTVSPost2010Prop41ColorRGB
 90
        0
102
RTVSPost2010PropOp41
 70
     1
102
RTVSPost2010Prop42
 90
       50
102
RTVSPost2010PropOp42
 70
     1
102
RTVSPost2010Prop43
 90
        3
102
RTVSPost2010PropOp43
 70
     1
102
RTVSPost2010Prop44ColorIndex
 90
        5
102
RTVSPost2010Prop44ColorRGB
 90
      255
102
RTVSPost2010PropOp44
 70
     1
102
RTVSPost2010Prop45
280
     0
102
RTVSPost2010PropOp45
 70
     1
102
RTVSPost2010Prop46
 90
       50
102
RTVSPost2010PropOp46
 70
     1
102
RTVSPost2010Prop47
 90
       50
102
RTVSPost2010PropOp47
 70
     1
102
RTVSPost2010Prop48
 90
       50
102
RTVSPost2010PropOp48
 70
     1
102
RTVSPost2010Prop49
280
     0
102
RTVSPost2010PropOp49
 70
     1
102
RTVSPost2010Prop50
 90
       50
102
RTVSPost2010PropOp50
 70
     1
102
RTVSPost2010Prop51ColorIndex
 90
      256
102
RTVSPost2010Prop51ColorRGB
 90
-16777216
102
RTVSPost2010PropOp51
 70
     0
102
RTVSPost2010Prop52
140
1.0
102
RTVSPost2010PropOp52
 70
     0
102
RTVSPost2010Prop53
 90
        2
102
RTVSPost2010PropOp53
 70
     1
102
RTVSPost2010Prop54
  1
strokes_ogs.tif
102
RTVSPost2010PropOp54
 70
     1
102
RTVSPost2010Prop55
280
     0
102
RTVSPost2010PropOp55
 70
     1
102
RTVSPost2010Prop56
140
1.0
102
RTVSPost2010PropOp56
 70
     1
102
RTVSPost2010Prop57
140
1.0
102
RTVSPost2010PropOp57
 70
     1
  0
XRECORD
  5
194
102
{ACAD_REACTORS
330
193
102
}
330
193
100
AcDbXrecord
280
     1
102
RTVSPropertyOp0
 70
     1
102
RTVSPropertyOp1
 70
     1
102
RTVSPropertyOp2
 70
     1
102
RTVSPropertyOp3
 70
     1
102
RTVSPropertyOp4
 70
     1
102
RTVSPropertyOp5
 70
     1
102
RTVSPropertyOp6
 70
     1
102
RTVSPropertyOp7
 70
     1
102
RTVSPropertyOp8
 70
     1
102
RTVSPropertyOp9
 70
     1
102
RTVSPropertyOp10
 70
     1
102
RTVSPropertyOp11
 70
     1
102
RTVSPropertyOp12
 70
     1
102
RTVSPropertyOp13
 70
     1
102
RTVSPropertyOp14
 70
     1
102
RTVSPropertyOp15
 70
     1
102
RTVSPropertyOp16
 70
     1
102
RTVSPropertyOp17
 70
     1
102
RTVSPropertyOp18
 70
     1
102
RTVSPropertyOp19
 70
     1
102
RTVSPropertyOp20
 70
     1
102
RTVSPropertyOp21
 70
     1
102
RTVSPropertyOp22
 70
     1
102
RTVSPropertyOp23
 70
     1
102
RTVSPropertyOp24
 70
     1
102
RTVSPropertyOp25
 70
     1
102
RTVSPropertyOp26
 70
     1
102
RTVSPropertyOp27
 70
     1
102
RTVSPropertyOp28
 70
     1
102
RTVSPropertyOp29
 70
     1
102
RTVSPropertyOp30
 70
     1
102
RTVSPropertyOp31
 70
     1
102
RTVSPropertyOp32
 70
     1
102
RTVSPropertyOp33
 70
     1
102
RTVSPropertyOp34
 70
     1
102
RTVSPropertyOp35
 70
     1
102
RTVSPropertyOp36
 70
     1
102
RTVSPropertyOp37
 70
     1
102
RTVSPropertyOp38
 70
     1
102
RTVSPropertyOp39
 70
     1
102
RTVSPropertyOp40
 70
     1
102
RTVSPropertyOp41
 70
     1
102
RTVSPropertyOp42
 70
     1
102
RTVSPropertyOp43
 70
     1
102
RTVSPropertyOp44
 70
     1
102
RTVSPropertyOp45
 70
     1
102
RTVSPropertyOp46
 70
     1
102
RTVSPropertyOp47
 70
     1
102
RTVSPropertyOp48
 70
     1
102
RTVSPropertyOp49
 70
     1
102
RTVSPropertyOp50
 70
     1
102
RTVSPropertyOp51
 70
     0
102
RTVSPropertyOp52
 70
     0
102
RTVSPropertyOp53
 70
     1
102
RTVSPropertyOp54
 70
     1
102
RTVSPropertyOp55
 70
     1
102
RTVSPropertyOp56
 70
     1
102
RTVSPropertyOp57
 70
     1
102
RTVSPost2010Prop28
280
     0
102
RTVSPost2010PropOp28
 70
     1
102
RTVSPost2010Prop29
280
     1
102
RTVSPost2010PropOp29
 70
     1
102
RTVSPost2010Prop30
280
     1
102
RTVSPost2010PropOp30
 70
     1
102
RTVSPost2010Prop31
280
     0
102
RTVSPost2010PropOp31
 70
     1
102
RTVSPost2010Prop32
280
     0
102
RTVSPost2010PropOp32
 70
     1
102
RTVSPost2010Prop33
280
     0
102
RTVSPost2010PropOp33
 70
     1
102
RTVSPost2010Prop34
280
     0
102
RTVSPost2010PropOp34
 70
     1
102
RTVSPost2010Prop35
280
     0
102
RTVSPost2010PropOp35
 70
     1
102
RTVSPost2010Prop36
280
     0
102
RTVSPost2010PropOp36
 70
     1
102
RTVSPost2010Prop37
 90
       50
102
RTVSPost2010PropOp37
 70
     1
102
RTVSPost2010Prop38
140
0.0
102
RTVSPost2010PropOp38
 70
     1
102
RTVSPost2010Prop39
140
1.0
102
RTVSPost2010PropOp39
 70
     1
102
RTVSPost2010Prop40
 90
        0
102
RTVSPost2010PropOp40
 70
     1
102
RTVSPost2010Prop41ColorIndex
 90
       18
102
RTVSPost2010Prop41ColorRGB
 90
        0
102
RTVSPost2010PropOp41
 70
     1
102
RTVSPost2010Prop42
 90
       50
102
RTVSPost2010PropOp42
 70
     1
102
RTVSPost2010Prop43
 90
        3
102
RTVSPost2010PropOp43
 70
     1
102
RTVSPost2010Prop44ColorIndex
 90
        5
102
RTVSPost2010Prop44ColorRGB
 90
      255
102
RTVSPost2010PropOp44
 70
     1
102
RTVSPost2010Prop45
280
     0
102
RTVSPost2010PropOp45
 70
     1
102
RTVSPost2010Prop46
 90
       50
102
RTVSPost2010PropOp46
 70
     1
102
RTVSPost2010Prop47
 90
       50
102
RTVSPost2010PropOp47
 70
     1
102
RTVSPost2010Prop48
 90
       50
102
RTVSPost2010PropOp48
 70
     1
102
RTVSPost2010Prop49
280
     0
102
RTVSPost2010PropOp49
 70
     1
102
RTVSPost2010Prop50
 90
       50
102
RTVSPost2010PropOp50
 70
     1
102
RTVSPost2010Prop51ColorIndex
 90
      256
102
RTVSPost2010Prop51ColorRGB
 90
-16777216
102
RTVSPost2010PropOp51
 70
     0
102
RTVSPost2010Prop52
140
1.0
102
RTVSPost2010PropOp52
 70
     0
102
RTVSPost2010Prop53
 90
        2
102
RTVSPost2010PropOp53
 70
     1
102
RTVSPost2010Prop54
  1
strokes_ogs.tif
102
RTVSPost2010PropOp54
 70
     1
102
RTVSPost2010Prop55
280
     0
102
RTVSPost2010PropOp55
 70
     1
102
RTVSPost2010Prop56
140
1.0
102
RTVSPost2010PropOp56
 70
     1
102
RTVSPost2010Prop57
140
1.0
102
RTVSPost2010PropOp57
 70
     1
  0
ENDSEC
  0
EOF
