  0
SECTION
  2
HEADER
  9
$ACADVER
  1
AC1021
  9
$ACADMAINTVER
 70
    25
  9
$DWGCODEPAGE
  3
ANSI_1252
  9
$LASTSAVEDBY
  1
colombo_c
  9
$INSBASE
 10
0.0
 20
0.0
 30
0.0
  9
$EXTMIN
 10
-152.5381265427874
 20
-669.5737262648863
 30
0.0
  9
$EXTMAX
 10
192.7240518781062
 20
747.5274826760489
 30
0.0
  9
$LIMMIN
 10
0.0
 20
0.0
  9
$LIMMAX
 10
12.0
 20
9.0
  9
$ORTHOMODE
 70
     0
  9
$REGENMODE
 70
     1
  9
$FILLMODE
 70
     1
  9
$QTEXTMODE
 70
     0
  9
$MIRRTEXT
 70
     1
  9
$LTSCALE
 40
1.0
  9
$ATTMODE
 70
     1
  9
$TEXTSIZE
 40
0.2
  9
$TRACEWID
 40
0.05
  9
$TEXTSTYLE
  7
Standard
  9
$CLAYER
  8
0
  9
$CELTYPE
  6
ByLayer
  9
$CECOLOR
 62
   256
  9
$CELTSCALE
 40
1.0
  9
$DISPSILH
 70
     0
  9
$DIMSCALE
 40
1.0
  9
$DIMASZ
 40
0.18
  9
$DIMEXO
 40
0.0625
  9
$DIMDLI
 40
0.38
  9
$DIMRND
 40
0.0
  9
$DIMDLE
 40
0.0
  9
$DIMEXE
 40
0.18
  9
$DIMTP
 40
0.0
  9
$DIMTM
 40
0.0
  9
$DIMTXT
 40
0.18
  9
$DIMCEN
 40
0.09
  9
$DIMTSZ
 40
0.0
  9
$DIMTOL
 70
     0
  9
$DIMLIM
 70
     0
  9
$DIMTIH
 70
     1
  9
$DIMTOH
 70
     1
  9
$DIMSE1
 70
     0
  9
$DIMSE2
 70
     0
  9
$DIMTAD
 70
     0
  9
$DIMZIN
 70
     0
  9
$DIMBLK
  1

  9
$DIMASO
 70
     1
  9
$DIMSHO
 70
     1
  9
$DIMPOST
  1

  9
$DIMAPOST
  1

  9
$DIMALT
 70
     0
  9
$DIMALTD
 70
     2
  9
$DIMALTF
 40
25.4
  9
$DIMLFAC
 40
1.0
  9
$DIMTOFL
 70
     0
  9
$DIMTVP
 40
0.0
  9
$DIMTIX
 70
     0
  9
$DIMSOXD
 70
     0
  9
$DIMSAH
 70
     0
  9
$DIMBLK1
  1

  9
$DIMBLK2
  1

  9
$DIMSTYLE
  2
STANDARD_ACAD
  9
$DIMCLRD
 70
     0
  9
$DIMCLRE
 70
     0
  9
$DIMCLRT
 70
     0
  9
$DIMTFAC
 40
1.0
  9
$DIMGAP
 40
0.09
  9
$DIMJUST
 70
     0
  9
$DIMSD1
 70
     0
  9
$DIMSD2
 70
     0
  9
$DIMTOLJ
 70
     1
  9
$DIMTZIN
 70
     0
  9
$DIMALTZ
 70
     0
  9
$DIMALTTZ
 70
     0
  9
$DIMUPT
 70
     0
  9
$DIMDEC
 70
     4
  9
$DIMTDEC
 70
     4
  9
$DIMALTU
 70
     2
  9
$DIMALTTD
 70
     2
  9
$DIMTXSTY
  7
Standard
  9
$DIMAUNIT
 70
     0
  9
$DIMADEC
 70
     0
  9
$DIMALTRND
 40
0.0
  9
$DIMAZIN
 70
     0
  9
$DIMDSEP
 70
    46
  9
$DIMATFIT
 70
     3
  9
$DIMFRAC
 70
     0
  9
$DIMLDRBLK
  1

  9
$DIMLUNIT
 70
     2
  9
$DIMLWD
 70
    -2
  9
$DIMLWE
 70
    -2
  9
$DIMTMOVE
 70
     2
  9
$DIMFXL
 40
1.0
  9
$DIMFXLON
 70
     0
  9
$DIMJOGANG
 40
0.7853981633974483
  9
$DIMTFILL
 70
     0
  9
$DIMTFILLCLR
 70
     0
  9
$DIMARCSYM
 70
     0
  9
$DIMLTYPE
  6

  9
$DIMLTEX1
  6

  9
$DIMLTEX2
  6

  9
$LUNITS
 70
     2
  9
$LUPREC
 70
     3
  9
$SKETCHINC
 40
0.1
  9
$FILLETRAD
 40
0.0
  9
$AUNITS
 70
     0
  9
$AUPREC
 70
     0
  9
$MENU
  1
.
  9
$ELEVATION
 40
0.0
  9
$PELEVATION
 40
0.0
  9
$THICKNESS
 40
0.0
  9
$LIMCHECK
 70
     0
  9
$CHAMFERA
 40
0.0
  9
$CHAMFERB
 40
0.0
  9
$CHAMFERC
 40
0.0
  9
$CHAMFERD
 40
0.0
  9
$SKPOLY
 70
     0
  9
$TDCREATE
 40
2460830.435838461
  9
$TDUCREATE
 40
2460830.352505128
  9
$TDUPDATE
 40
2460830.435852651
  9
$TDUUPDATE
 40
2460830.352519317
  9
$TDINDWG
 40
0.0000000116
  9
$TDUSRTIMER
 40
0.0000000116
  9
$USRTIMER
 70
     1
  9
$ANGBASE
 50
0.0
  9
$ANGDIR
 70
     0
  9
$PDMODE
 70
     0
  9
$PDSIZE
 40
0.0
  9
$PLINEWID
 40
0.0
  9
$SPLFRAME
 70
     0
  9
$SPLINETYPE
 70
     6
  9
$SPLINESEGS
 70
     8
  9
$HANDSEED
  5
189
  9
$SURFTAB1
 70
     6
  9
$SURFTAB2
 70
     6
  9
$SURFTYPE
 70
     6
  9
$SURFU
 70
     6
  9
$SURFV
 70
     6
  9
$UCSBASE
  2

  9
$UCSNAME
  2

  9
$UCSORG
 10
0.0
 20
0.0
 30
0.0
  9
$UCSXDIR
 10
1.0
 20
0.0
 30
0.0
  9
$UCSYDIR
 10
0.0
 20
1.0
 30
0.0
  9
$UCSORTHOREF
  2

  9
$UCSORTHOVIEW
 70
     0
  9
$UCSORGTOP
 10
0.0
 20
0.0
 30
0.0
  9
$UCSORGBOTTOM
 10
0.0
 20
0.0
 30
0.0
  9
$UCSORGLEFT
 10
0.0
 20
0.0
 30
0.0
  9
$UCSORGRIGHT
 10
0.0
 20
0.0
 30
0.0
  9
$UCSORGFRONT
 10
0.0
 20
0.0
 30
0.0
  9
$UCSORGBACK
 10
0.0
 20
0.0
 30
0.0
  9
$PUCSBASE
  2

  9
$PUCSNAME
  2

  9
$PUCSORG
 10
0.0
 20
0.0
 30
0.0
  9
$PUCSXDIR
 10
1.0
 20
0.0
 30
0.0
  9
$PUCSYDIR
 10
0.0
 20
1.0
 30
0.0
  9
$PUCSORTHOREF
  2

  9
$PUCSORTHOVIEW
 70
     0
  9
$PUCSORGTOP
 10
0.0
 20
0.0
 30
0.0
  9
$PUCSORGBOTTOM
 10
0.0
 20
0.0
 30
0.0
  9
$PUCSORGLEFT
 10
0.0
 20
0.0
 30
0.0
  9
$PUCSORGRIGHT
 10
0.0
 20
0.0
 30
0.0
  9
$PUCSORGFRONT
 10
0.0
 20
0.0
 30
0.0
  9
$PUCSORGBACK
 10
0.0
 20
0.0
 30
0.0
  9
$USERI1
 70
     0
  9
$USERI2
 70
     0
  9
$USERI3
 70
     0
  9
$USERI4
 70
     0
  9
$USERI5
 70
     0
  9
$USERR1
 40
0.0
  9
$USERR2
 40
0.0
  9
$USERR3
 40
0.0
  9
$USERR4
 40
0.0
  9
$USERR5
 40
0.0
  9
$WORLDVIEW
 70
     1
  9
$SHADEDGE
 70
     3
  9
$SHADEDIF
 70
    70
  9
$TILEMODE
 70
     1
  9
$MAXACTVP
 70
    64
  9
$PINSBASE
 10
0.0
 20
0.0
 30
0.0
  9
$PLIMCHECK
 70
     0
  9
$PEXTMIN
 10
1.000000000000000E+20
 20
1.000000000000000E+20
 30
1.000000000000000E+20
  9
$PEXTMAX
 10
-1.000000000000000E+20
 20
-1.000000000000000E+20
 30
-1.000000000000000E+20
  9
$PLIMMIN
 10
0.0
 20
0.0
  9
$PLIMMAX
 10
12.0
 20
9.0
  9
$UNITMODE
 70
     0
  9
$VISRETAIN
 70
     1
  9
$PLINEGEN
 70
     0
  9
$PSLTSCALE
 70
     1
  9
$TREEDEPTH
 70
  3020
  9
$CMLSTYLE
  2
Standard
  9
$CMLJUST
 70
     0
  9
$CMLSCALE
 40
1.0
  9
$PROXYGRAPHICS
 70
     1
  9
$MEASUREMENT
 70
     1
  9
$CELWEIGHT
370
    -1
  9
$ENDCAPS
280
     0
  9
$JOINSTYLE
280
     0
  9
$LWDISPLAY
290
     0
  9
$INSUNITS
 70
     4
  9
$HYPERLINKBASE
  1

  9
$STYLESHEET
  1

  9
$XEDIT
290
     1
  9
$CEPSNTYPE
380
     0
  9
$PSTYLEMODE
290
     1
  9
$FINGERPRINTGUID
  2
{82510edf-4f12-437c-9851-8b5e152cf899}
  9
$VERSIONGUID
  2
{FAEB1C32-E019-11D5-929B-00C0DF256EC4}
  9
$EXTNAMES
290
     1
  9
$PSVPSCALE
 40
0.0
  9
$OLESTARTUP
290
     0
  9
$SORTENTS
280
   127
  9
$INDEXCTL
280
     0
  9
$HIDETEXT
280
     1
  9
$XCLIPFRAME
290
     0
  9
$HALOGAP
280
     0
  9
$OBSCOLOR
 70
   257
  9
$OBSLTYPE
280
     0
  9
$INTERSECTIONDISPLAY
280
     0
  9
$INTERSECTIONCOLOR
 70
   257
  9
$DIMASSOC
280
     2
  9
$PROJECTNAME
  1

  9
$CAMERADISPLAY
290
     0
  9
$LENSLENGTH
 40
50.0
  9
$CAMERAHEIGHT
 40
0.0
  9
$STEPSPERSEC
 40
2.0
  9
$STEPSIZE
 40
6.0
  9
$3DDWFPREC
 40
2.0
  9
$PSOLWIDTH
 40
0.25
  9
$PSOLHEIGHT
 40
4.0
  9
$LOFTANG1
 40
1.570796326794897
  9
$LOFTANG2
 40
1.570796326794897
  9
$LOFTMAG1
 40
0.0
  9
$LOFTMAG2
 40
0.0
  9
$LOFTPARAM
 70
     7
  9
$LOFTNORMALS
280
     1
  9
$LATITUDE
 40
37.795
  9
$LONGITUDE
 40
-122.394
  9
$NORTHDIRECTION
 40
0.0
  9
$TIMEZONE
 70
 -8000
  9
$LIGHTGLYPHDISPLAY
280
     1
  9
$TILEMODELIGHTSYNCH
280
     1
  9
$CMATERIAL
347
44
  9
$SOLIDHIST
280
     0
  9
$SHOWHIST
280
     1
  9
$DWFFRAME
280
     2
  9
$DGNFRAME
280
     2
  9
$REALWORLDSCALE
290
     1
  9
$INTERFERECOLOR
 62
   256
  9
$CSHADOW
280
     0
  9
$SHADOWPLANELOCATION
 40
0.0
  0
ENDSEC
  0
SECTION
  2
CLASSES
  0
CLASS
  1
ACDBDICTIONARYWDFLT
  2
AcDbDictionaryWithDefault
  3
ObjectDBX Classes
 90
        0
 91
        3
280
     0
281
     0
  0
CLASS
  1
VISUALSTYLE
  2
AcDbVisualStyle
  3
ObjectDBX Classes
 90
     4095
 91
        3
280
     0
281
     0
  0
CLASS
  1
MATERIAL
  2
AcDbMaterial
  3
ObjectDBX Classes
 90
     1153
 91
        3
280
     0
281
     0
  0
CLASS
  1
SCALE
  2
AcDbScale
  3
ObjectDBX Classes
 90
     1153
 91
        3
280
     0
281
     0
  0
CLASS
  1
TABLESTYLE
  2
AcDbTableStyle
  3
ObjectDBX Classes
 90
     4095
 91
        3
280
     0
281
     0
  0
CLASS
  1
MLEADERSTYLE
  2
AcDbMLeaderStyle
  3
ACDB_MLEADERSTYLE_CLASS
 90
     4095
 91
        3
280
     0
281
     0
  0
CLASS
  1
SUN
  2
AcDbSun
  3
SCENEOE
 90
     1153
 91
        3
280
     0
281
     0
  0
CLASS
  1
DICTIONARYVAR
  2
AcDbDictionaryVar
  3
ObjectDBX Classes
 90
        0
 91
        3
280
     0
281
     0
  0
CLASS
  1
CELLSTYLEMAP
  2
AcDbCellStyleMap
  3
ObjectDBX Classes
 90
     1152
 91
        3
280
     0
281
     0
  0
ENDSEC
  0
SECTION
  2
TABLES
  0
TABLE
  2
VPORT
  5
8
330
0
100
AcDbSymbolTable
 70
     1
  0
VPORT
  5
29
330
8
100
AcDbSymbolTableRecord
100
AcDbViewportTableRecord
  2
*Active
 70
     0
 10
0.0
 20
0.0
 11
1.0
 21
1.0
 12
10.42990654205607
 22
4.5
 13
0.0
 23
0.0
 14
0.5
 24
0.5
 15
0.5
 25
0.5
 16
0.0
 26
0.0
 36
1.0
 17
0.0
 27
0.0
 37
0.0
 40
9.0
 41
1.972972972850329
 42
50.0
 43
0.0
 44
0.0
 50
0.0
 51
0.0
 71
     0
 72
   100
 73
     1
 74
     3
 75
     0
 76
     0
 77
     0
 78
     0
281
     0
 65
     1
110
0.0
120
0.0
130
0.0
111
1.0
121
0.0
131
0.0
112
0.0
122
1.0
132
0.0
 79
     0
146
0.0
348
2F
 60
     3
 61
     5
292
     1
282
     1
141
0.0
142
0.0
 63
   250
361
5D
  0
ENDTAB
  0
TABLE
  2
LTYPE
  5
5
330
0
100
AcDbSymbolTable
 70
     1
  0
LTYPE
  5
14
330
5
100
AcDbSymbolTableRecord
100
AcDbLinetypeTableRecord
  2
ByBlock
 70
     0
  3

 72
    65
 73
     0
 40
0.0
  0
LTYPE
  5
15
330
5
100
AcDbSymbolTableRecord
100
AcDbLinetypeTableRecord
  2
ByLayer
 70
     0
  3

 72
    65
 73
     0
 40
0.0
  0
LTYPE
  5
16
330
5
100
AcDbSymbolTableRecord
100
AcDbLinetypeTableRecord
  2
Continuous
 70
     0
  3
Solid line
 72
    65
 73
     0
 40
0.0
  0
ENDTAB
  0
TABLE
  2
LAYER
  5
2
330
0
100
AcDbSymbolTable
 70
     2
  0
LAYER
  5
10
330
2
100
AcDbSymbolTableRecord
100
AcDbLayerTableRecord
  2
0
 70
     0
 62
     7
  6
Continuous
370
    -3
390
F
347
46
  0
LAYER
  5
5F
330
2
100
AcDbSymbolTableRecord
100
AcDbLayerTableRecord
  2
Make2D$Visibile$90
 70
     0
 62
    18
420
        0
  6
Continuous
370
    -3
390
F
347
46
  0
ENDTAB
  0
TABLE
  2
STYLE
  5
3
330
0
100
AcDbSymbolTable
 70
     1
  0
STYLE
  5
11
330
3
100
AcDbSymbolTableRecord
100
AcDbTextStyleTableRecord
  2
Standard
 70
     0
 40
0.0
 41
1.0
 50
0.0
 71
     0
 42
0.2
  3
txt
  4

  0
ENDTAB
  0
TABLE
  2
VIEW
  5
6
330
0
100
AcDbSymbolTable
 70
     0
  0
ENDTAB
  0
TABLE
  2
UCS
  5
7
330
0
100
AcDbSymbolTable
 70
     0
  0
ENDTAB
  0
TABLE
  2
APPID
  5
9
330
0
100
AcDbSymbolTable
 70
     3
  0
APPID
  5
12
330
9
100
AcDbSymbolTableRecord
100
AcDbRegAppTableRecord
  2
ACAD
 70
     0
  0
APPID
  5
5E
330
9
100
AcDbSymbolTableRecord
100
AcDbRegAppTableRecord
  2
Rhino
 70
     0
  0
APPID
  5
181
330
9
100
AcDbSymbolTableRecord
100
AcDbRegAppTableRecord
  2
ACAD_MLEADERVER
 70
     0
  0
ENDTAB
  0
TABLE
  2
DIMSTYLE
  5
A
330
0
100
AcDbSymbolTable
 70
     1
100
AcDbDimStyleTable
  0
DIMSTYLE
105
27
330
A
100
AcDbSymbolTableRecord
100
AcDbDimStyleTableRecord
  2
STANDARD_ACAD
 70
     0
178
     0
340
11
  0
ENDTAB
  0
TABLE
  2
BLOCK_RECORD
  5
1
330
0
100
AcDbSymbolTable
 70
     1
  0
BLOCK_RECORD
  5
1F
330
1
100
AcDbSymbolTableRecord
100
AcDbBlockTableRecord
  2
*Model_Space
340
22
 70
     0
280
     1
281
     0
  0
BLOCK_RECORD
  5
1B
330
1
100
AcDbSymbolTableRecord
100
AcDbBlockTableRecord
  2
*Paper_Space
340
1E
 70
     0
280
     1
281
     0
  0
BLOCK_RECORD
  5
23
330
1
100
AcDbSymbolTableRecord
100
AcDbBlockTableRecord
  2
*Paper_Space0
340
26
 70
     0
280
     1
281
     0
  0
ENDTAB
  0
ENDSEC
  0
SECTION
  2
BLOCKS
  0
BLOCK
  5
20
330
1F
100
AcDbEntity
  8
0
100
AcDbBlockBegin
  2
*Model_Space
 70
     0
 10
0.0
 20
0.0
 30
0.0
  3
*Model_Space
  1

  0
ENDBLK
  5
21
330
1F
100
AcDbEntity
  8
0
100
AcDbBlockEnd
  0
BLOCK
  5
1C
330
1B
100
AcDbEntity
 67
     1
  8
0
100
AcDbBlockBegin
  2
*Paper_Space
 70
     0
 10
0.0
 20
0.0
 30
0.0
  3
*Paper_Space
  1

  0
ENDBLK
  5
1D
330
1B
100
AcDbEntity
 67
     1
  8
0
100
AcDbBlockEnd
  0
BLOCK
  5
24
330
23
100
AcDbEntity
  8
0
100
AcDbBlockBegin
  2
*Paper_Space0
 70
     0
 10
0.0
 20
0.0
 30
0.0
  3
*Paper_Space0
  1

  0
ENDBLK
  5
25
330
23
100
AcDbEntity
  8
0
100
AcDbBlockEnd
  0
ENDSEC
  0
SECTION
  2
ENTITIES
  0
POLYLINE
  5
60
330
1F
100
AcDbEntity
  8
Make2D$Visibile$90
100
AcDb2dPolyline
 66
     1
 10
0.0
 20
0.0
 30
0.0
  0
VERTEX
  5
61
330
60
100
AcDbEntity
  8
Make2D$Visibile$90
100
AcDbVertex
100
AcDb2dVertex
 10
-100.5052391680446
 20
346.3773671141024
 30
0.0
  0
VERTEX
  5
62
330
60
100
AcDbEntity
  8
Make2D$Visibile$90
100
AcDbVertex
100
AcDb2dVertex
 10
-100.5052391680441
 20
-474.9108737438147
 30
0.0
  0
SEQEND
  5
63
330
60
100
AcDbEntity
  8
Make2D$Visibile$90
  0
POLYLINE
  5
64
330
1F
100
AcDbEntity
  8
Make2D$Visibile$90
100
AcDb2dPolyline
 66
     1
 10
0.0
 20
0.0
 30
0.0
  0
VERTEX
  5
65
330
64
100
AcDbEntity
  8
Make2D$Visibile$90
100
AcDbVertex
100
AcDb2dVertex
 10
-28.60485615498145
 20
346.3773671141024
 30
0.0
  0
VERTEX
  5
66
330
64
100
AcDbEntity
  8
Make2D$Visibile$90
100
AcDbVertex
100
AcDb2dVertex
 10
-28.60485615498145
 20
-474.9108737438145
 30
0.0
  0
SEQEND
  5
67
330
64
100
AcDbEntity
  8
Make2D$Visibile$90
  0
SPLINE
  5
68
330
1F
100
AcDbEntity
  8
Make2D$Visibile$90
100
AcDbSpline
210
0.0
220
0.0
230
1.0
 70
    12
 71
     4
 72
    10
 73
     5
 74
     0
 42
0.0000000001
 43
0.0000000001
 40
300.5202932306674
 40
300.5202932306674
 40
300.5202932306674
 40
300.5202932306674
 40
300.5202932306674
 40
319.0578052664749
 40
319.0578052664749
 40
319.0578052664749
 40
319.0578052664749
 40
319.0578052664749
 10
93.3659145826897
 20
663.4678396781813
 30
0.0
 41
1.0
 10
91.04885395272791
 20
667.4814028767137
 30
0.0
 41
0.8568108607842306
 10
88.73170770970823
 20
671.4949166501752
 30
0.0
 41
0.7341248511578142
 10
86.41451866015986
 20
675.5084057111017
 30
0.0
 41
0.629006145643622
 10
84.09732961061165
 20
679.5218947720282
 30
0.0
 41
0.538939297087483
  0
SPLINE
  5
69
330
1F
100
AcDbEntity
  8
Make2D$Visibile$90
100
AcDbSpline
210
0.0
220
0.0
230
1.0
 70
    28
 71
     4
 72
    10
 73
     5
 74
     0
 42
0.0000000001
 43
0.0000000001
 40
319.0578052664749
 40
319.0578052664749
 40
319.0578052664749
 40
319.0578052664749
 40
319.0578052664749
 40
337.5953173022825
 40
337.5953173022825
 40
337.5953173022825
 40
337.5953173022825
 40
337.5953173022825
 10
84.09732961061165
 20
679.5218947720282
 30
0.0
 41
0.538939297087483
 10
81.78014056106346
 20
683.5353838329542
 30
0.0
 41
0.6290061456436221
 10
79.46295151151519
 20
687.5488728938808
 30
0.0
 41
0.7341248511578143
 10
77.14576246196695
 20
691.5623619548073
 30
0.0
 41
0.8568108607842309
 10
74.82857341241868
 20
695.5758510157333
 30
0.0
 41
1.0
  0
SPLINE
  5
6A
330
1F
100
AcDbEntity
  8
Make2D$Visibile$90
100
AcDbSpline
210
0.0
220
0.0
230
1.0
 70
    12
 71
     4
 72
    14
 73
     9
 74
     0
 42
0.0000000001
 43
0.0000000001
 40
219.3354205142911
 40
219.3354205142911
 40
219.3354205142911
 40
219.3354205142911
 40
219.3354205142911
 40
237.8737406657922
 40
237.8737406657922
 40
237.8737406657922
 40
237.8737406657922
 40
240.4718163170658
 40
240.4718163170658
 40
240.4718163170658
 40
240.4718163170658
 40
240.4718163170658
 10
127.3473151240449
 20
639.7185859859646
 30
0.0
 41
0.538939297087483
 10
125.03002503024
 20
635.7049219758045
 30
0.0
 41
0.538939297087483
 10
122.712734936435
 20
631.6912579656445
 30
0.0
 41
0.538939297087483
 10
120.3953073201889
 20
627.6776733729564
 30
0.0
 41
0.538939297087483
 10
118.0776046590602
 20
623.6642476152124
 30
0.0
 41
0.538939297087483
 10
117.78887820456
 20
623.1642774469645
 30
0.0
 41
0.471754616071178
 10
117.2115024456679
 20
622.9146544908947
 30
0.0
 41
0.4894165780802715
 10
116.6341780857454
 20
623.1650313674161
 30
0.0
 41
0.6426081549032938
 10
116.3455544291875
 20
623.665060886094
 30
0.0
 41
1.0
  0
SPLINE
  5
6B
330
1F
100
AcDbEntity
  8
Make2D$Visibile$90
100
AcDbSpline
210
0.0
220
0.0
230
1.0
 70
    12
 71
     4
 72
    14
 73
     9
 74
     0
 42
0.0000000001
 43
0.0000000001
 40
240.4718163170658
 40
240.4718163170658
 40
240.4718163170658
 40
240.4718163170658
 40
240.4718163170658
 40
259.0093001821709
 40
259.0093001821709
 40
259.0093001821709
 40
259.0093001821709
 40
277.546784047276
 40
277.546784047276
 40
277.546784047276
 40
277.546784047276
 40
277.546784047276
 10
116.3455544291875
 20
623.665060886094
 30
0.0
 41
1.0
 10
114.0287814783266
 20
627.678781997243
 30
0.0
 41
0.8568108607842306
 10
111.7117334560388
 20
631.6923443335239
 30
0.0
 41
0.7341248511578142
 10
109.3945478956108
 20
635.7058272809694
 30
0.0
 41
0.629006145643622
 10
107.0773623303282
 20
639.7193102256124
 30
0.0
 41
0.538939297087483
 10
104.7601767650457
 20
643.7327931702547
 30
0.0
 41
0.6290061456436221
 10
102.4429911949084
 20
647.7462761120948
 30
0.0
 41
0.7341248511578143
 10
100.1258056174896
 20
651.759759049731
 30
0.0
 41
0.8568108607842309
 10
97.80862003036134
 20
655.7732419817611
 30
0.0
 41
1.0
  0
SPLINE
  5
6C
330
1F
100
AcDbEntity
  8
Make2D$Visibile$90
100
AcDbSpline
210
0.0
220
0.0
230
1.0
 70
    12
 71
     4
 72
    14
 73
     9
 74
     0
 42
0.0000000001
 43
0.0000000001
 40
277.546784047276
 40
277.546784047276
 40
277.546784047276
 40
277.546784047276
 40
277.546784047276
 40
278.1105262228119
 40
278.1105262228119
 40
278.1105262228119
 40
278.1105262228119
 40
278.6742683983477
 40
278.6742683983477
 40
278.6742683983477
 40
278.6742683983477
 40
278.6742683983477
 10
97.80862003036134
 20
655.7732419817611
 30
0.0
 41
1.0
 10
97.74393562238872
 20
655.8852786562543
 30
0.0
 41
0.8568108607842301
 10
97.71031451950324
 20
656.0340286683147
 30
0.0
 41
0.7239337224817886
 10
97.74994500418815
 20
656.1812915941681
 30
0.0
 41
0.629006145643622
 10
97.81912324923877
 20
656.2906106660544
 30
0.0
 41
0.538939297087483
 10
97.88830149428932
 20
656.3999297379398
 30
0.0
 41
0.6290061456436221
 10
98.00442034197148
 20
656.4987900325998
 30
0.0
 41
0.7239337224817923
 10
98.15324309406918
 20
656.5320876767406
 30
0.0
 41
0.856810860784224
 10
98.282185695978
 20
656.5215950851006
 30
0.0
 41
1.0
  0
SPLINE
  5
6D
330
1F
100
AcDbEntity
  8
Make2D$Visibile$90
100
AcDbSpline
210
0.0
220
0.0
230
1.0
 70
    28
 71
     4
 72
    10
 73
     5
 74
     0
 42
0.0000000001
 43
0.0000000001
 40
278.6742683983477
 40
278.6742683983477
 40
278.6742683983477
 40
278.6742683983477
 40
278.6742683983477
 40
279.9066071268514
 40
279.9066071268514
 40
279.9066071268514
 40
279.9066071268514
 40
279.9066071268514
 10
98.282185695978
 20
656.5215950851006
 30
0.0
 41
1.0
 10
98.58598686609332
 20
656.5727909872525
 30
0.0
 41
1.0
 10
98.88978803620887
 20
656.6239868894044
 30
0.0
 41
1.0
 10
99.19358920632419
 20
656.6751827915563
 30
0.0
 41
1.0
 10
99.49739037643951
 20
656.7263786937082
 30
0.0
 41
1.0
  0
SPLINE
  5
6E
330
1F
100
AcDbEntity
  8
Make2D$Visibile$90
100
AcDbSpline
210
0.0
220
0.0
230
1.0
 70
    12
 71
     4
 72
    22
 73
    17
 74
     0
 42
0.0000000001
 43
0.0000000001
 40
279.9066071268514
 40
279.9066071268514
 40
279.9066071268514
 40
279.9066071268514
 40
279.9066071268514
 40
284.469855059263
 40
284.469855059263
 40
284.469855059263
 40
284.469855059263
 40
289.0331029916746
 40
289.0331029916746
 40
289.0331029916746
 40
289.0331029916746
 40
293.5963509240862
 40
293.5963509240862
 40
293.5963509240862
 40
293.5963509240862
 40
298.1595988564978
 40
298.1595988564978
 40
298.1595988564978
 40
298.1595988564978
 40
298.1595988564978
 10
99.49739037643951
 20
656.7263786937082
 30
0.0
 41
1.0
 10
100.6432855366493
 20
656.926652765865
 30
0.0
 41
0.808331214648076
 10
101.6847659198607
 20
657.4798801632429
 30
0.0
 41
0.6787410013759029
 10
102.4906437278169
 20
658.3408696524162
 30
0.0
 41
0.5934160326397341
 10
102.9830541533667
 20
659.3947754333003
 30
0.0
 41
0.538939297087483
 10
103.4754645789167
 20
660.4486812141841
 30
0.0
 41
0.5084453017292137
 10
103.6187748100461
 20
661.6192383975273
 30
0.0
 41
0.4982806366097906
 10
103.3748575148911
 20
662.7730348678581
 30
0.0
 41
0.5084453017292138
 10
102.7932250230693
 20
663.7804518950261
 30
0.0
 41
0.538939297087483
 10
102.2115925312477
 20
664.7878689221941
 30
0.0
 41
0.5084453017292137
 10
101.3343341247221
 20
665.5760057313861
 30
0.0
 41
0.4982806366097906
 10
100.2489467517996
 20
666.0371740222776
 30
0.0
 41
0.5084453017292138
 10
99.09003235958387
 20
666.1376869751051
 30
0.0
 41
0.538939297087483
 10
97.93111796736825
 20
666.2381999279324
 30
0.0
 41
0.5934160326397341
 10
96.78254029337472
 20
665.9707840184834
 30
0.0
 41
0.678741001375903
 10
95.78269112157042
 20
665.3454492477676
 30
0.0
 41
0.8083312146480763
 10
95.03630110725828
 20
664.4532119650306
 30
0.0
 41
1.0
  0
SPLINE
  5
6F
330
1F
100
AcDbEntity
  8
Make2D$Visibile$90
100
AcDbSpline
210
0.0
220
0.0
230
1.0
 70
    28
 71
     4
 72
    10
 73
     5
 74
     0
 42
0.0000000001
 43
0.0000000001
 40
298.1595988564978
 40
298.1595988564978
 40
298.1595988564978
 40
298.1595988564978
 40
298.1595988564978
 40
299.3919373118882
 40
299.3919373118882
 40
299.3919373118882
 40
299.3919373118882
 40
299.3919373118882
 10
95.03630110725828
 20
664.4532119650306
 30
0.0
 41
1.0
 10
94.84006343070348
 20
664.2157105890559
 30
0.0
 41
1.0
 10
94.64382575414845
 20
663.9782092130807
 30
0.0
 41
1.0
 10
94.44758807759365
 20
663.740707837106
 30
0.0
 41
1.0
 10
94.25135040103885
 20
663.5032064611308
 30
0.0
 41
1.0
  0
SPLINE
  5
70
330
1F
100
AcDbEntity
  8
Make2D$Visibile$90
100
AcDbSpline
210
0.0
220
0.0
230
1.0
 70
    12
 71
     4
 72
    14
 73
     9
 74
     0
 42
0.0000000001
 43
0.0000000001
 40
299.3919373118882
 40
299.3919373118882
 40
299.3919373118882
 40
299.3919373118882
 40
299.3919373118882
 40
299.9561152712778
 40
299.9561152712778
 40
299.9561152712778
 40
299.9561152712778
 40
300.5202932306674
 40
300.5202932306674
 40
300.5202932306674
 40
300.5202932306674
 40
300.5202932306674
 10
94.25135040103885
 20
663.5032064611308
 30
0.0
 41
1.0
 10
94.19593022085894
 20
663.3862173239925
 30
0.0
 41
0.8568108607842306
 10
94.0925755293356
 20
663.2738971280397
 30
0.0
 41
0.723905221215882
 10
93.94874097733292
 20
663.2228124891661
 30
0.0
 41
0.629006145643622
 10
93.81939145188434
 20
663.2176593497538
 30
0.0
 41
0.538939297087483
 10
93.69004192643591
 20
663.2125062103408
 30
0.0
 41
0.6290061456436221
 10
93.5425993618337
 20
663.2519866969419
 30
0.0
 41
0.7239052212158821
 10
93.43063698753775
 20
663.3557289034962
 30
0.0
 41
0.8568108607842309
 10
93.3659145826897
 20
663.4678396781813
 30
0.0
 41
1.0
  0
SPLINE
  5
71
330
1F
100
AcDbEntity
  8
Make2D$Visibile$90
100
AcDbSpline
210
0.0
220
0.0
230
1.0
 70
    12
 71
     4
 72
    14
 73
     9
 74
     0
 42
0.0000000001
 43
0.0000000001
 40
337.5953173022825
 40
337.5953173022825
 40
337.5953173022825
 40
337.5953173022825
 40
337.5953173022825
 40
338.6425148660331
 40
338.6425148660331
 40
338.6425148660331
 40
338.6425148660331
 40
339.6897124297837
 40
339.6897124297837
 40
339.6897124297837
 40
339.6897124297837
 40
339.6897124297837
 10
74.82857341241868
 20
695.5758510157333
 30
0.0
 41
1.0
 10
74.69459880869493
 20
695.8079018228516
 30
0.0
 41
0.799415414886338
 10
74.64556069671089
 20
696.0758510177232
 30
0.0
 41
0.66855546261799
 10
74.69459879860324
 20
696.3438002144414
 30
0.0
 41
0.586870722466695
 10
74.8285733935878
 20
696.5758510266055
 30
0.0
 41
0.538939297087483
 10
74.96254798857198
 20
696.8079018387696
 30
0.0
 41
0.5868707224666954
 10
75.17007974447735
 20
696.9843446843315
 30
0.0
 41
0.6685554626179903
 10
75.42664960785419
 20
697.0758510374775
 30
0.0
 41
0.799415414886338
 10
75.69459880364923
 20
697.0758510374775
 30
0.0
 41
1.0
  0
SPLINE
  5
72
330
1F
100
AcDbEntity
  8
Make2D$Visibile$90
100
AcDbSpline
210
0.0
220
0.0
230
1.0
 70
    12
 71
     4
 72
    10
 73
     5
 74
     0
 42
0.0000000001
 43
0.0000000001
 40
339.6897124297837
 40
339.6897124297837
 40
339.6897124297837
 40
339.6897124297837
 40
339.6897124297837
 40
376.7655164297836
 40
376.7655164297836
 40
376.7655164297836
 40
376.7655164297836
 40
376.7655164297836
 10
75.69459880364923
 20
697.0758510374775
 30
0.0
 41
1.0
 10
84.96354980364924
 20
697.0758510374775
 30
0.0
 41
1.0
 10
94.23250080364926
 20
697.0758510374775
 30
0.0
 41
1.0
 10
103.5014518036493
 20
697.075851053475
 30
0.0
 41
1.0
 10
112.7704028036493
 20
697.0758511014673
 30
0.0
 41
1.0
  0
SPLINE
  5
73
330
1F
100
AcDbEntity
  8
Make2D$Visibile$90
100
AcDbSpline
210
0.0
220
0.0
230
1.0
 70
    12
 71
     4
 72
    14
 73
     9
 74
     0
 42
0.0000000001
 43
0.0000000001
 40
376.7655164297836
 40
376.7655164297836
 40
376.7655164297836
 40
376.7655164297836
 40
376.7655164297836
 40
377.3292585153764
 40
377.3292585153764
 40
377.3292585153764
 40
377.3292585153764
 40
377.8930006009691
 40
377.8930006009691
 40
377.8930006009691
 40
377.8930006009691
 40
377.8930006009691
 10
112.7704028036493
 20
697.0758511014673
 30
0.0
 41
1.0
 10
112.8997715967045
 20
697.075851102137
 30
0.0
 41
0.8568108607842306
 10
113.0454034022689
 20
697.0305928058352
 30
0.0
 41
0.7239337283578129
 10
113.1531215657807
 20
696.9226403467349
 30
0.0
 41
0.629006145643622
 10
113.2132055219846
 20
696.8080707049296
 30
0.0
 41
0.538939297087483
 10
113.2732894781886
 20
696.6935010631238
 30
0.0
 41
0.6290061456436221
 10
113.3008455714995
 20
696.5435090703457
 30
0.0
 41
0.723933728357813
 10
113.2552708202541
 20
696.3979759874233
 30
0.0
 41
0.8568108607842309
 10
113.1817126988152
 20
696.2915547142351
 30
0.0
 41
1.0
  0
SPLINE
  5
74
330
1F
100
AcDbEntity
  8
Make2D$Visibile$90
100
AcDbSpline
210
0.0
220
0.0
230
1.0
 70
    28
 71
     4
 72
    10
 73
     5
 74
     0
 42
0.0000000001
 43
0.0000000001
 40
377.8930006009691
 40
377.8930006009691
 40
377.8930006009691
 40
377.8930006009691
 40
377.8930006009691
 40
379.1253389082617
 40
379.1253389082617
 40
379.1253389082617
 40
379.1253389082617
 40
379.1253389082617
 10
113.1817126988152
 20
696.2915547142351
 30
0.0
 41
1.0
 10
113.0741492058361
 20
696.0028572922612
 30
0.0
 41
1.0
 10
112.966585712857
 20
695.7141598702873
 30
0.0
 41
1.0
 10
112.8590222198778
 20
695.4254624483132
 30
0.0
 41
1.0
 10
112.7514587268987
 20
695.136765026339
 30
0.0
 41
1.0
  0
SPLINE
  5
75
330
1F
100
AcDbEntity
  8
Make2D$Visibile$90
100
AcDbSpline
210
0.0
220
0.0
230
1.0
 70
    12
 71
     4
 72
    22
 73
    17
 74
     0
 42
0.0000000001
 43
0.0000000001
 40
379.1253389082617
 40
379.1253389082617
 40
379.1253389082617
 40
379.1253389082617
 40
379.1253389082617
 40
383.6885868406732
 40
383.6885868406732
 40
383.6885868406732
 40
383.6885868406732
 40
388.2518347730847
 40
388.2518347730847
 40
388.2518347730847
 40
388.2518347730847
 40
392.8150827054963
 40
392.8150827054963
 40
392.8150827054963
 40
392.8150827054963
 40
397.3783306379078
 40
397.3783306379078
 40
397.3783306379078
 40
397.3783306379078
 40
397.3783306379078
 10
112.7514587268987
 20
695.136765026339
 30
0.0
 41
1.0
 10
112.3519535810011
 20
694.0442536714453
 30
0.0
 41
0.8083312146480767
 10
112.3103223695943
 20
692.8656915033525
 30
0.0
 41
0.6787410013759035
 10
112.6530222356315
 20
691.7372861047293
 30
0.0
 41
0.5934160326397345
 10
113.3195262022974
 20
690.7838932766731
 30
0.0
 41
0.538939297087483
 10
113.9860301689632
 20
689.8305004486166
 30
0.0
 41
0.5084453017292141
 10
114.9281073107562
 20
689.1211115561646
 30
0.0
 41
0.4982806366097911
 10
116.049283012437
 20
688.755451895026
 30
0.0
 41
0.5084453017292141
 10
117.2125479960802
 20
688.7554518950262
 30
0.0
 41
0.538939297087483
 10
118.3758129797234
 20
688.755451895026
 30
0.0
 41
0.5084453017292141
 10
119.4969886814042
 20
689.1211115561646
 30
0.0
 41
0.4982806366097911
 10
120.4390658231973
 20
689.8305004486166
 30
0.0
 41
0.5084453017292141
 10
121.1055697898631
 20
690.7838932766731
 30
0.0
 41
0.538939297087483
 10
121.7720737565288
 20
691.7372861047295
 30
0.0
 41
0.5934160326397346
 10
122.1147736225662
 20
692.8656915033524
 30
0.0
 41
0.6787410013759038
 10
122.0731424111592
 20
694.0442536714456
 30
0.0
 41
0.8083312146480769
 10
121.6736372652616
 20
695.136765026339
 30
0.0
 41
1.0
  0
SPLINE
  5
76
330
1F
100
AcDbEntity
  8
Make2D$Visibile$90
100
AcDbSpline
210
0.0
220
0.0
230
1.0
 70
    28
 71
     4
 72
    10
 73
     5
 74
     0
 42
0.0000000001
 43
0.0000000001
 40
397.3783306379078
 40
397.3783306379078
 40
397.3783306379078
 40
397.3783306379078
 40
397.3783306379078
 40
398.6106691299323
 40
398.6106691299323
 40
398.6106691299323
 40
398.6106691299323
 40
398.6106691299323
 10
121.6736372652616
 20
695.136765026339
 30
0.0
 41
1.0
 10
121.5660737182374
 20
695.4254624774613
 30
0.0
 41
1.0
 10
121.4585101712131
 20
695.7141599285834
 30
0.0
 41
1.0
 10
121.3509466241889
 20
696.0028573797055
 30
0.0
 41
1.0
 10
121.2433830771648
 20
696.2915548308277
 30
0.0
 41
1.0
  0
SPLINE
  5
77
330
1F
100
AcDbEntity
  8
Make2D$Visibile$90
100
AcDbSpline
210
0.0
220
0.0
230
1.0
 70
    12
 71
     4
 72
    14
 73
     9
 74
     0
 42
0.0000000001
 43
0.0000000001
 40
436.8139568625474
 40
436.8139568625474
 40
436.8139568625474
 40
436.8139568625474
 40
436.8139568625474
 40
437.861154426298
 40
437.861154426298
 40
437.861154426298
 40
437.861154426298
 40
438.9083519900485
 40
438.9083519900485
 40
438.9083519900485
 40
438.9083519900485
 40
438.9083519900485
 10
158.7304968036493
 20
697.0758510374775
 30
0.0
 41
1.0
 10
158.9984459994442
 20
697.0758510374776
 30
0.0
 41
0.7994154148863511
 10
159.2550158628207
 20
696.9843446843315
 30
0.0
 41
0.668555462618005
 10
159.4625476187259
 20
696.8079018387692
 30
0.0
 41
0.5868707224667049
 10
159.5965222137105
 20
696.5758510266055
 30
0.0
 41
0.538939297087483
 10
159.7304968086947
 20
696.3438002144414
 30
0.0
 41
0.5868707224667049
 10
159.7795349105874
 20
696.0758510177225
 30
0.0
 41
0.6685554626180052
 10
159.7304967986034
 20
695.8079018228514
 30
0.0
 41
0.7994154148863514
 10
159.5965221948796
 20
695.5758510157333
 30
0.0
 41
1.0
  0
SPLINE
  5
78
330
1F
100
AcDbEntity
  8
Make2D$Visibile$90
100
AcDbSpline
210
0.0
220
0.0
230
1.0
 70
    28
 71
     4
 72
    10
 73
     5
 74
     0
 42
0.0000000001
 43
0.0000000001
 40
438.9083519900485
 40
438.9083519900485
 40
438.9083519900485
 40
438.9083519900485
 40
438.9083519900485
 40
457.446643673642
 40
457.446643673642
 40
457.446643673642
 40
457.446643673642
 40
457.446643673642
 10
159.5965221948796
 20
695.5758510157333
 30
0.0
 41
1.0
 10
157.2792356893559
 20
691.5621931561127
 30
0.0
 41
0.8568108607842306
 10
154.9619491838316
 20
687.5485352964918
 30
0.0
 41
0.7341248511578142
 10
152.6446626783079
 20
683.5348774368716
 30
0.0
 41
0.629006145643622
 10
150.3273761727839
 20
679.5212195772511
 30
0.0
 41
0.538939297087483
  0
SPLINE
  5
79
330
1F
100
AcDbEntity
  8
Make2D$Visibile$90
100
AcDbSpline
210
0.0
220
0.0
230
1.0
 70
    12
 71
     4
 72
    18
 73
    13
 74
     0
 42
0.0000000001
 43
0.0000000001
 40
457.446643673642
 40
457.446643673642
 40
457.446643673642
 40
457.446643673642
 40
457.446643673642
 40
475.9849353572356
 40
475.9849353572356
 40
475.9849353572356
 40
475.9849353572356
 40
476.5482412659849
 40
476.5482412659849
 40
476.5482412659849
 40
476.5482412659849
 40
477.1115471747342
 40
477.1115471747342
 40
477.1115471747342
 40
477.1115471747342
 40
477.1115471747342
 10
150.3273761727839
 20
679.5212195772511
 30
0.0
 41
0.538939297087483
 10
148.0100896672599
 20
675.5075617176304
 30
0.0
 41
0.538939297087483
 10
145.692803161736
 20
671.4939038580097
 30
0.0
 41
0.538939297087483
 10
143.3754739188654
 20
667.4802706746286
 30
0.0
 41
0.538939297087483
 10
141.0580592013016
 20
663.4666868437266
 30
0.0
 41
0.538939297087483
 10
140.9934130041075
 20
663.3547246084734
 30
0.0
 41
0.538939297087483
 10
140.8813543663874
 20
663.2514833954675
 30
0.0
 41
0.5314786368938083
 10
140.7340998101145
 20
663.2123428537318
 30
0.0
 41
0.538939297087483
 10
140.6049250769063
 20
663.2176907693585
 30
0.0
 41
0.538939297087483
 10
140.4757503436981
 20
663.2230386849845
 30
0.0
 41
0.6290061456436221
 10
140.3322350568774
 20
663.2742172820667
 30
0.0
 41
0.7239621926101459
 10
140.2290937774602
 20
663.3863679077034
 30
0.0
 41
0.8568108607842309
 10
140.1737450166084
 20
663.5032063712891
 30
0.0
 41
1.0
  0
SPLINE
  5
7A
330
1F
100
AcDbEntity
  8
Make2D$Visibile$90
100
AcDbSpline
210
0.0
220
0.0
230
1.0
 70
    28
 71
     4
 72
    10
 73
     5
 74
     0
 42
0.0000000001
 43
0.0000000001
 40
477.1115471747342
 40
477.1115471747342
 40
477.1115471747342
 40
477.1115471747342
 40
477.1115471747342
 40
478.3438853334413
 40
478.3438853334413
 40
478.3438853334413
 40
478.3438853334413
 40
478.3438853334413
 10
140.1737450166084
 20
663.5032063712891
 30
0.0
 41
1.0
 10
139.977507483682
 20
663.7407077697247
 30
0.0
 41
1.0
 10
139.7812699507555
 20
663.9782091681599
 30
0.0
 41
1.0
 10
139.5850324178288
 20
664.2157105665955
 30
0.0
 41
1.0
 10
139.3887948849023
 20
664.4532119650306
 30
0.0
 41
1.0
  0
SPLINE
  5
7B
330
1F
100
AcDbEntity
  8
Make2D$Visibile$90
100
AcDbSpline
210
0.0
220
0.0
230
1.0
 70
    12
 71
     4
 72
    22
 73
    17
 74
     0
 42
0.0000000001
 43
0.0000000001
 40
478.3438853334413
 40
478.3438853334413
 40
478.3438853334413
 40
478.3438853334413
 40
478.3438853334413
 40
482.907133265853
 40
482.907133265853
 40
482.907133265853
 40
482.907133265853
 40
487.4703811982645
 40
487.4703811982645
 40
487.4703811982645
 40
487.4703811982645
 40
492.0336291306761
 40
492.0336291306761
 40
492.0336291306761
 40
492.0336291306761
 40
496.5968770630877
 40
496.5968770630877
 40
496.5968770630877
 40
496.5968770630877
 40
496.5968770630877
 10
139.3887948849023
 20
664.4532119650306
 30
0.0
 41
1.0
 10
138.6424048705905
 20
665.3454492477681
 30
0.0
 41
0.8083312146480761
 10
137.6425556987859
 20
665.9707840184833
 30
0.0
 41
0.6787410013759031
 10
136.4939780247919
 20
666.2381999279323
 30
0.0
 41
0.5934160326397341
 10
135.3350636325765
 20
666.1376869751051
 30
0.0
 41
0.538939297087483
 10
134.1761492403613
 20
666.0371740222776
 30
0.0
 41
0.5084453017292138
 10
133.0907618674385
 20
665.5760057313863
 30
0.0
 41
0.4982806366097907
 10
132.213503460913
 20
664.787868922194
 30
0.0
 41
0.5084453017292138
 10
131.6318709690911
 20
663.7804518950261
 30
0.0
 41
0.538939297087483
 10
131.0502384772697
 20
662.7730348678583
 30
0.0
 41
0.5084453017292138
 10
130.8063211821143
 20
661.6192383975275
 30
0.0
 41
0.4982806366097907
 10
130.9496314132441
 20
660.4486812141838
 30
0.0
 41
0.5084453017292138
 10
131.4420418387935
 20
659.3947754333003
 30
0.0
 41
0.538939297087483
 10
131.9344522643433
 20
658.3408696524164
 30
0.0
 41
0.5934160326397342
 10
132.7403300722997
 20
657.4798801632429
 30
0.0
 41
0.6787410013759032
 10
133.7818104555111
 20
656.9266527658652
 30
0.0
 41
0.8083312146480763
 10
134.9277056157208
 20
656.7263786937082
 30
0.0
 41
1.0
  0
SPLINE
  5
7C
330
1F
100
AcDbEntity
  8
Make2D$Visibile$90
100
AcDbSpline
210
0.0
220
0.0
230
1.0
 70
    28
 71
     4
 72
    10
 73
     5
 74
     0
 42
0.0000000001
 43
0.0000000001
 40
496.5968770630877
 40
496.5968770630877
 40
496.5968770630877
 40
496.5968770630877
 40
496.5968770630877
 40
497.8292154768079
 40
497.8292154768079
 40
497.8292154768079
 40
497.8292154768079
 40
497.8292154768079
 10
134.9277056157208
 20
656.7263786937082
 30
0.0
 41
1.0
 10
135.2315066949644
 20
656.6751827258876
 30
0.0
 41
1.0
 10
135.535307774208
 20
656.6239867580672
 30
0.0
 41
1.0
 10
135.8391088534516
 20
656.5727907902468
 30
0.0
 41
1.0
 10
136.1429099326953
 20
656.5215948224262
 30
0.0
 41
1.0
  0
SPLINE
  5
7D
330
1F
100
AcDbEntity
  8
Make2D$Visibile$90
100
AcDbSpline
210
0.0
220
0.0
230
1.0
 70
    12
 71
     4
 72
    14
 73
     9
 74
     0
 42
0.0000000001
 43
0.0000000001
 40
497.8292154768079
 40
497.8292154768079
 40
497.8292154768079
 40
497.8292154768079
 40
497.8292154768079
 40
498.392957348048
 40
498.392957348048
 40
498.392957348048
 40
498.392957348048
 40
498.956699219288
 40
498.956699219288
 40
498.956699219288
 40
498.956699219288
 40
498.956699219288
 10
136.1429099326953
 20
656.5215948224262
 30
0.0
 41
1.0
 10
136.2718524825119
 20
656.5320873368383
 30
0.0
 41
0.8568108607842296
 10
136.4206751329973
 20
656.4987896688997
 30
0.0
 41
0.7239337423615454
 10
136.5367939143744
 20
656.399929441309
 30
0.0
 41
0.629006145643622
 10
136.6059721446666
 20
656.2906104289389
 30
0.0
 41
0.538939297087483
 10
136.675150374959
 20
656.1812914165686
 30
0.0
 41
0.6290061456436221
 10
136.7147808714813
 20
656.0340285912084
 30
0.0
 41
0.723933742361545
 10
136.6811598781121
 20
655.885278650729
 30
0.0
 41
0.8568108607842309
 10
136.6164754992643
 20
655.7732420266053
 30
0.0
 41
1.0
  0
SPLINE
  5
7E
330
1F
100
AcDbEntity
  8
Make2D$Visibile$90
100
AcDbSpline
210
0.0
220
0.0
230
1.0
 70
    28
 71
     4
 72
    10
 73
     5
 74
     0
 42
0.0000000001
 43
0.0000000001
 40
498.956699219288
 40
498.956699219288
 40
498.956699219288
 40
498.956699219288
 40
498.956699219288
 40
517.495019370789
 40
517.495019370789
 40
517.495019370789
 40
517.495019370789
 40
517.495019370789
 10
136.6164754992643
 20
655.7732420266053
 30
0.0
 41
1.0
 10
134.2991854054596
 20
651.7595780164448
 30
0.0
 41
0.8568108607842306
 10
131.9818953116546
 20
647.7459140062847
 30
0.0
 41
0.7341248511578142
 10
129.6646052178498
 20
643.7322499961248
 30
0.0
 41
0.629006145643622
 10
127.3473151240449
 20
639.7185859859646
 30
0.0
 41
0.538939297087483
  0
SPLINE
  5
7F
330
1F
100
AcDbEntity
  8
Make2D$Visibile$90
100
AcDbSpline
210
0.0
220
0.0
230
1.0
 70
    24
 71
     2
 72
     6
 73
     3
 74
     0
 42
0.0000000001
 43
0.0000000001
 40
697.8977517190453
 40
697.8977517190453
 40
697.8977517190453
 40
734.9735557190454
 40
734.9735557190454
 40
734.9735557190454
 10
121.6546928036493
 20
697.0758510374775
 30
0.0
 10
140.1925948036493
 20
697.0758510374775
 30
0.0
 10
158.7304968036493
 20
697.0758510374775
 30
0.0
  0
SPLINE
  5
80
330
1F
100
AcDbEntity
  8
Make2D$Visibile$90
100
AcDbSpline
210
0.0
220
0.0
230
1.0
 70
    28
 71
     2
 72
     8
 73
     5
 74
     0
 42
0.0000000001
 43
0.0000000001
 40
0.0
 40
0.0
 40
0.0
 40
0.3970624048289396
 40
0.3970624048289396
 40
0.7941248096578791
 40
0.7941248096578791
 40
0.7941248096578791
 10
141.0691227240208
 20
663.099444302584
 30
0.0
 41
1.0
 10
141.0667260465864
 20
663.1018959998252
 30
0.0
 41
0.9222009716703332
 10
141.1694570262099
 20
662.9968066558293
 30
0.0
 41
1.0
 10
141.2721880058333
 20
662.8917173118331
 30
0.0
 41
0.9222009716703332
 10
141.4185948739647
 20
662.7419494250199
 30
0.0
 41
1.0
  0
SPLINE
  5
81
330
1F
100
AcDbEntity
  8
Make2D$Visibile$90
100
AcDbSpline
210
0.0
220
0.0
230
1.0
 70
    28
 71
     2
 72
     8
 73
     5
 74
     0
 42
0.0000000001
 43
0.0000000001
 40
0.0
 40
0.0
 40
0.0
 40
0.3970624048289224
 40
0.3970624048289224
 40
0.7941248096578448
 40
0.7941248096578448
 40
0.7941248096578448
 10
137.4811525602405
 20
655.922099285778
 30
0.0
 41
1.0
 10
137.2782463315236
 20
655.9740074094619
 30
0.0
 41
0.9222009716704087
 10
137.1358708001443
 20
656.0104303755733
 30
0.0
 41
1.0
 10
136.9934952687651
 20
656.0468533416849
 30
0.0
 41
0.9222009716704087
 10
136.9968168395752
 20
656.0460036067628
 30
0.0
 41
1.0
  0
SPLINE
  5
82
330
1F
100
AcDbEntity
  8
Make2D$Visibile$90
100
AcDbSpline
210
0.0
220
0.0
230
1.0
 70
    28
 71
     2
 72
     8
 73
     5
 74
     0
 42
0.0000000001
 43
0.0000000001
 40
0.0
 40
0.0
 40
0.0
 40
0.3970624048289028
 40
0.3970624048289028
 40
0.7941248096578056
 40
0.7941248096578056
 40
0.7941248096578056
 10
136.2950109252394
 20
656.8587148502583
 30
0.0
 41
1.0
 10
136.2953677251358
 20
656.8553049271036
 30
0.0
 41
0.922200971670354
 10
136.2800738844311
 20
657.0014675859205
 30
0.0
 41
1.0
 10
136.2647800437264
 20
657.1476302447371
 30
0.0
 41
0.922200971670354
 10
136.242984054557
 20
657.3559336912107
 30
0.0
 41
1.0
  0
SPLINE
  5
83
330
1F
100
AcDbEntity
  8
Make2D$Visibile$90
100
AcDbSpline
210
0.0
220
0.0
230
1.0
 70
    12
 71
     2
 72
     8
 73
     5
 74
     0
 42
0.0000000001
 43
0.0000000001
 40
-130.8006513990317
 40
-130.8006513990317
 40
-130.8006513990317
 40
-130.1708675406617
 40
-130.1708675406617
 40
-129.5410836822918
 40
-129.5410836822918
 40
-129.5410836822918
 10
136.9968168395754
 20
656.0460036067628
 30
0.0
 41
1.0
 10
137.0815036750478
 20
656.3770401611249
 30
0.0
 41
0.8863586191788156
 10
136.8581782917717
 20
656.6356573175761
 30
0.0
 41
1.0
 10
136.6348529084958
 20
656.8942744740275
 30
0.0
 41
0.8863586191788156
 10
136.2950109252394
 20
656.8587148502583
 30
0.0
 41
1.0
  0
SPLINE
  5
84
330
1F
100
AcDbEntity
  8
Make2D$Visibile$90
100
AcDbSpline
210
0.0
220
0.0
230
1.0
 70
    12
 71
     2
 72
     6
 73
     3
 74
     0
 42
0.0000000001
 43
0.0000000001
 40
-109.3317365225948
 40
-109.3317365225948
 40
-109.3317365225948
 40
-108.9210254154666
 40
-108.9210254154666
 40
-108.9210254154666
 10
140.0143911840443
 20
663.3008704311773
 30
0.0
 41
1.0
 10
140.1008580410802
 20
663.1068923833151
 30
0.0
 41
0.9511280869760951
 10
140.2847796731022
 20
663.0006999462574
 30
0.0
 41
1.0
  0
SPLINE
  5
85
330
1F
100
AcDbEntity
  8
Make2D$Visibile$90
100
AcDbSpline
210
0.0
220
0.0
230
1.0
 70
    12
 71
     2
 72
     8
 73
     5
 74
     0
 42
0.0000000001
 43
0.0000000001
 40
0.0
 40
0.0
 40
0.0
 40
12.50587514573022
 40
12.50587514573022
 40
20.41243301533119
 40
20.41243301533119
 40
20.41243301533119
 10
144.0737310249236
 20
639.2311644141972
 30
0.0
 41
1.0
 10
138.658528238544
 20
642.3576332006296
 30
0.0
 41
0.8535533905932737
 10
137.0401489068494
 20
648.3975070924333
 30
0.0
 41
0.8535533905932737
 10
136.0169650279204
 20
652.2160813140816
 30
0.0
 41
0.8535533905932737
 10
136.996752285131
 20
656.0460201212883
 30
0.0
 41
0.912089796298671
  0
SPLINE
  5
86
330
1F
100
AcDbEntity
  8
Make2D$Visibile$90
100
AcDbSpline
210
0.0
220
0.0
230
1.0
 70
    12
 71
     4
 72
    14
 73
     9
 74
     0
 42
0.0000000001
 43
0.0000000001
 40
398.6106691299323
 40
398.6106691299323
 40
398.6106691299323
 40
398.6106691299323
 40
398.6106691299323
 40
399.1744109962398
 40
399.1744109962398
 40
399.1744109962398
 40
399.1744109962398
 40
399.7381528625474
 40
399.7381528625474
 40
399.7381528625474
 40
399.7381528625474
 40
399.7381528625474
 10
121.2433830771648
 20
696.2915548308277
 30
0.0
 41
1.0
 10
121.1698250102398
 20
696.3979760907249
 30
0.0
 41
0.8568108607842306
 10
121.1242503104588
 20
696.5435091188083
 30
0.0
 41
0.7239337426837882
 10
121.1518063858039
 20
696.6935010460402
 30
0.0
 41
0.629006145643622
 10
121.2118903101825
 20
696.8080706571907
 30
0.0
 41
0.538939297087483
 10
121.2719742345613
 20
696.9226402683412
 30
0.0
 41
0.6290061456436221
 10
121.3796923310919
 20
697.0305926986199
 30
0.0
 41
0.7239337426837886
 10
121.5253240525229
 20
697.0758510374774
 30
0.0
 41
0.8568108607842303
 10
121.6546928036493
 20
697.0758510374775
 30
0.0
 41
1.0
  0
SPLINE
  5
87
330
1F
100
AcDbEntity
  8
Make2D$Visibile$90
100
AcDbSpline
210
0.0
220
0.0
230
1.0
 70
    12
 71
     2
 72
     8
 73
     5
 74
     0
 42
0.0000000001
 43
0.0000000001
 40
4.599317276129283
 40
4.599317276129283
 40
4.599317276129283
 40
12.50587514573015
 40
12.50587514573015
 40
25.01175029146029
 40
25.01175029146029
 40
25.01175029146029
 10
97.56607050254995
 20
656.0474606563046
 30
0.0
 41
0.9120897962986702
 10
98.5455779161323
 20
652.2174502694943
 30
0.0
 41
0.8535533905932737
 10
97.52211502929511
 20
648.3989508187148
 30
0.0
 41
0.8535533905932737
 10
95.9032943882313
 20
642.3591951926802
 30
0.0
 41
0.8535533905932737
 10
90.48786317553197
 20
639.233122085623
 30
0.0
 41
1.0
  0
SPLINE
  5
88
330
1F
100
AcDbEntity
  8
Make2D$Visibile$90
100
AcDbSpline
210
0.0
220
0.0
230
1.0
 70
    12
 71
     2
 72
     8
 73
     5
 74
     0
 42
0.0000000001
 43
0.0000000001
 40
0.0
 40
0.0
 40
0.0
 40
1.753286928236383
 40
1.753286928236383
 40
2.93142465334188
 40
2.93142465334188
 40
2.93142465334188
 10
101.0441579151599
 20
657.4506175603054
 30
0.0
 41
1.0
 10
100.2849303804734
 20
657.0123513013316
 30
0.0
 41
0.9267766952966369
 10
99.4176860095699
 20
656.8843240998589
 30
0.0
 41
0.8901650429449552
 10
98.8443065298153
 20
656.7996787880672
 30
0.0
 41
0.8675072301080049
 10
98.26786430227756
 20
656.8600378381178
 30
0.0
 41
0.8588716328657761
  0
SPLINE
  5
89
330
1F
100
AcDbEntity
  8
Make2D$Visibile$90
100
AcDbSpline
210
0.0
220
0.0
230
1.0
 70
    12
 71
     2
 72
     8
 73
     5
 74
     0
 42
0.0000000001
 43
0.0000000001
 40
-130.8006513990317
 40
-130.8006513990317
 40
-130.8006513990317
 40
-130.1708675406617
 40
-130.1708675406617
 40
-129.5410836822918
 40
-129.5410836822918
 40
-129.5410836822918
 10
113.1967920457502
 20
697.2688555099888
 30
0.0
 41
1.0
 10
113.5258215296508
 20
697.1766781854973
 30
0.0
 41
0.8863586191788156
 10
113.6381278671244
 20
696.8539641526608
 30
0.0
 41
1.0
 10
113.7504342045976
 20
696.5312501198241
 30
0.0
 41
0.8863586191788156
 10
113.549717676953
 20
696.2547181398353
 30
0.0
 41
1.0
  0
SPLINE
  5
8A
330
1F
100
AcDbEntity
  8
Make2D$Visibile$90
100
AcDbSpline
210
0.0
220
0.0
230
1.0
 70
    12
 71
     2
 72
     8
 73
     5
 74
     0
 42
0.0000000001
 43
0.0000000001
 40
4.599317276129283
 40
4.599317276129283
 40
4.599317276129283
 40
12.50587514573017
 40
12.50587514573017
 40
25.01175029146034
 40
25.01175029146034
 40
25.01175029146034
 10
113.1967740705268
 20
697.2687913469364
 30
0.0
 41
0.9120897962986704
 10
109.3900561340919
 20
698.3352400746124
 30
0.0
 41
0.8535533905932737
 10
106.5946657760403
 20
701.1306304019996
 30
0.0
 41
0.8535533905932737
 10
102.17317119168
 20
705.5521249378573
 30
0.0
 41
0.8535533905932737
 10
102.1731711573838
 20
711.8050625107225
 30
0.0
 41
1.0
  0
SPLINE
  5
8B
330
1F
100
AcDbEntity
  8
Make2D$Visibile$90
100
AcDbSpline
210
0.0
220
0.0
230
1.0
 70
    12
 71
     2
 72
     6
 73
     3
 74
     0
 42
0.0000000001
 43
0.0000000001
 40
-20.99912250873185
 40
-20.99912250873185
 40
-20.99912250873185
 40
-20.98658944734524
 40
-20.98658944734524
 40
-20.98658944734524
 10
136.8746586142134
 20
656.4811772368508
 30
0.0
 41
0.9569288677248151
 10
136.8718024761273
 20
656.4867827234644
 30
0.0
 41
0.9580413504123806
 10
136.8688390548983
 20
656.492332240521
 30
0.0
 41
0.9592438445547102
  0
SPLINE
  5
8C
330
1F
100
AcDbEntity
  8
Make2D$Visibile$90
100
AcDbSpline
210
0.0
220
0.0
230
1.0
 70
    12
 71
     2
 72
     6
 73
     3
 74
     0
 42
0.0000000001
 43
0.0000000001
 40
27.91187266814198
 40
27.91187266814198
 40
27.91187266814198
 40
27.92326966889801
 40
27.92326966889801
 40
27.92326966889801
 10
130.6685481980874
 20
718.5982759813968
 30
0.0
 41
0.9274519441344928
 10
130.6659038010268
 20
718.6034758341011
 30
0.0
 41
0.9274704904962776
 10
130.6632553858993
 20
718.608673641454
 30
0.0
 41
0.9274891757360011
  0
SPLINE
  5
8D
330
1F
100
AcDbEntity
  8
Make2D$Visibile$90
100
AcDbSpline
210
0.0
220
0.0
230
1.0
 70
    15
 71
     2
 72
    12
 73
     9
 74
     0
 42
0.0000000001
 43
0.0000000001
 40
0.0
 40
0.0
 40
0.0
 40
118.6002850880006
 40
118.6002850880006
 40
237.2005701760012
 40
237.2005701760012
 40
355.8008552640018
 40
355.8008552640018
 40
474.4011403520024
 40
474.4011403520024
 40
474.4011403520024
 10
182.6003121703594
 20
634.3538086472964
 30
0.0
 41
1.0
 10
144.8486689226326
 20
568.9660444730198
 30
0.0
 41
0.7071067811865476
 10
79.46090474835557
 20
606.7176877207465
 30
0.0
 41
1.0
 10
14.07314057407909
 20
644.4693309684735
 30
0.0
 41
0.7071067811865476
 10
51.82478382180591
 20
709.8570951427504
 30
0.0
 41
1.0
 10
89.57642706953295
 20
775.2448593170271
 30
0.0
 41
0.7071067811865476
 10
154.9641912438095
 20
737.4932160693
 30
0.0
 41
1.0
 10
220.3519554180866
 20
699.741572821573
 30
0.0
 41
0.7071067811865476
 10
182.6003121703594
 20
634.3538086472964
 30
0.0
 41
1.0
  0
SPLINE
  5
8E
330
1F
100
AcDbEntity
  8
Make2D$Visibile$90
100
AcDbSpline
210
0.0
220
0.0
230
1.0
 70
    12
 71
     2
 72
     6
 73
     3
 74
     0
 42
0.0000000001
 43
0.0000000001
 40
-150.3897717846229
 40
-150.3897717846229
 40
-150.3897717846229
 40
-130.8006513990317
 40
-130.8006513990317
 40
-130.8006513990317
 10
144.0024990553148
 20
639.2073075399452
 30
0.0
 41
1.0
 10
134.0882676351546
 20
644.9312850445742
 30
0.0
 41
0.7967945443744957
 10
136.9255467937563
 20
656.0220807825793
 30
0.0
 41
1.0
  0
SPLINE
  5
8F
330
1F
100
AcDbEntity
  8
Make2D$Visibile$90
100
AcDbSpline
210
0.0
220
0.0
230
1.0
 70
    12
 71
     2
 72
     6
 73
     3
 74
     0
 42
0.0000000001
 43
0.0000000001
 40
-130.8006513990317
 40
-130.8006513990317
 40
-130.8006513990317
 40
-130.3308493032876
 40
-130.3308493032876
 40
-130.3308493032876
 10
136.9255467937563
 20
656.0220807825793
 30
0.0
 41
1.0
 10
136.9867381924618
 20
656.2612447510536
 30
0.0
 41
0.915226536591092
 10
136.8746669388825
 20
656.4811969706933
 30
0.0
 41
0.9569305947753001
  0
SPLINE
  5
90
330
1F
100
AcDbEntity
  8
Make2D$Visibile$90
100
AcDbSpline
210
0.0
220
0.0
230
1.0
 70
    12
 71
     2
 72
    12
 73
     9
 74
     0
 42
0.0000000001
 43
0.0000000001
 40
-129.5410836822918
 40
-129.5410836822918
 40
-129.5410836822918
 40
-126.6555552502126
 40
-126.6555552502126
 40
-122.3246005683081
 40
-122.3246005683081
 40
-117.9936458864037
 40
-117.9936458864037
 40
-116.7749960718541
 40
-116.7749960718541
 40
-116.7749960718541
 10
136.2237408794202
 20
656.834792026075
 30
0.0
 41
1.0
 10
134.7397354144181
 20
656.6795167412458
 30
0.0
 41
0.9511280869761014
 10
133.4475354362502
 20
657.4255742796821
 30
0.0
 41
1.0
 10
131.4198499765383
 20
658.5962599408726
 30
0.0
 41
0.8910328189806898
 10
131.1748411998029
 20
660.9247753303024
 30
0.0
 41
1.0
 10
130.9298324230678
 20
663.2532907197323
 30
0.0
 41
0.8910328189806898
 10
132.6694468686529
 20
664.8203755114251
 30
0.0
 41
1.0
 10
133.1193991469182
 20
665.2257028953439
 30
0.0
 41
0.9693386690246362
 10
133.6589897416099
 20
665.5006380356472
 30
0.0
 41
0.9559323905960424
  0
SPLINE
  5
91
330
1F
100
AcDbEntity
  8
Make2D$Visibile$90
100
AcDbSpline
210
0.0
220
0.0
230
1.0
 70
    12
 71
     2
 72
     6
 73
     3
 74
     0
 42
0.0000000001
 43
0.0000000001
 40
43.75576260917771
 40
43.75576260917771
 40
43.75576260917771
 40
43.76065842925883
 40
43.76065842925883
 40
43.76065842925883
 10
69.41914207712513
 20
645.4298377829626
 30
0.0
 41
0.9253761118748833
 10
69.42028233017925
 20
645.4275999103401
 30
0.0
 41
0.9253793172981403
 10
69.42142332783712
 20
645.425362417268
 30
0.0
 41
0.9253825483487063
  0
SPLINE
  5
92
330
1F
100
AcDbEntity
  8
Make2D$Visibile$90
100
AcDbSpline
210
0.0
220
0.0
230
1.0
 70
     8
 71
     3
 72
    17
 73
    13
 74
     0
 42
0.0000000001
 43
0.0000000001
 40
114.9951108658183
 40
114.9951108658183
 40
114.9951108658183
 40
114.9951108658183
 40
117.928274246747
 40
117.928274246747
 40
117.928274246747
 40
122.4213237877322
 40
122.4213237877322
 40
122.4213237877322
 40
126.9143733075837
 40
126.9143733075837
 40
126.9143733075837
 40
128.1562451275256
 40
128.1562451275256
 40
128.1562451275256
 40
128.1562451275256
 10
136.2056827948669
 20
656.8394117033141
 30
0.0
 10
135.2411267653412
 20
656.7384877385381
 30
0.0
 10
134.2693659740199
 20
656.9452804421534
 30
0.0
 10
133.4294773692922
 20
657.4301939524197
 30
0.0
 10
132.1555814180341
 20
658.165678698064
 30
0.0
 10
131.3107102070138
 20
659.4665022656285
 30
0.0
 10
131.15678313153
 20
660.9293950033765
 30
0.0
 10
131.0028560567804
 20
662.3922877341469
 30
0.0
 10
131.5584738170934
 20
663.8404721804685
 30
0.0
 10
132.6513887928974
 20
664.8249951864135
 30
0.0
 10
132.953468773104
 20
665.0971157966468
 30
0.0
 10
133.286506606289
 20
665.3247255829277
 30
0.0
 10
133.6406952697504
 20
665.505193720884
 30
0.0
  0
SPLINE
  5
93
330
1F
100
AcDbEntity
  8
Make2D$Visibile$90
100
AcDbSpline
210
0.0
220
0.0
230
1.0
 70
    12
 71
     2
 72
     6
 73
     3
 74
     0
 42
0.0000000001
 43
0.0000000001
 40
-53.81376841004283
 40
-53.81376841004283
 40
-53.81376841004283
 40
-41.05803526202811
 40
-41.05803526202811
 40
-41.05803526202811
 10
156.3977352083269
 20
637.984255810554
 30
0.0
 41
0.9454771408238716
 10
149.9231697145066
 20
635.7890086324809
 30
0.0
 41
0.8857558548278887
 10
144.0024990553148
 20
639.207307539945
 30
0.0
 41
1.0
  0
SPLINE
  5
94
330
1F
100
AcDbEntity
  8
Make2D$Visibile$90
100
AcDbSpline
210
0.0
220
0.0
230
1.0
 70
     8
 71
     3
 72
    17
 73
    13
 74
     0
 42
0.0000000001
 43
0.0000000001
 40
31.18516253440542
 40
31.18516253440542
 40
31.18516253440542
 40
31.18516253440542
 40
39.85975638975093
 40
39.85975638975093
 40
39.85975638975093
 40
57.48692341191948
 40
57.48692341191948
 40
57.48692341191948
 40
75.11409042700397
 40
75.11409042700397
 40
75.11409042700397
 40
76.81556896310425
 40
76.81556896310425
 40
76.81556896310425
 40
76.81556896310425
 10
148.378103469396
 20
667.0479619985944
 30
0.0
 10
151.0333463008666
 20
667.6153313898661
 30
0.0
 10
153.842786276855
 20
667.4677060962916
 30
0.0
 10
156.5062466950677
 20
666.5382300394243
 30
0.0
 10
161.9185187197698
 20
664.6494926563511
 30
0.0
 10
165.7940446597032
 20
659.8582600771273
 30
0.0
 10
166.510011966351
 20
654.1707818829115
 30
0.0
 10
167.2259792727215
 20
648.4833036908984
 30
0.0
 10
164.6588373868166
 20
642.8810368792257
 30
0.0
 10
159.8835346186462
 20
639.7098382363505
 30
0.0
 10
159.4225941194555
 20
639.4037353657176
 30
0.0
 10
158.9487574884594
 20
639.1253821136619
 30
0.0
 10
158.4643443042654
 20
638.874851122292
 30
0.0
  0
SPLINE
  5
95
330
1F
100
AcDbEntity
  8
Make2D$Visibile$90
100
AcDbSpline
210
0.0
220
0.0
230
1.0
 70
     8
 71
     3
 72
    11
 73
     7
 74
     0
 42
0.0000000001
 43
0.0000000001
 40
129.4423761483527
 40
129.4423761483527
 40
129.4423761483527
 40
129.4423761483527
 40
131.4074228228451
 40
131.4074228228451
 40
131.4074228228451
 40
135.9004723620751
 40
135.9004723620751
 40
135.9004723620751
 40
135.9004723620751
 10
134.7982926501812
 20
665.9112859627049
 30
0.0
 10
135.4114115859123
 20
666.03787680111
 30
0.0
 10
136.0520575635825
 20
666.0396147041628
 30
0.0
 10
136.6813775011959
 20
665.9060769739473
 30
0.0
 10
138.1203080327904
 20
665.6007449708717
 30
0.0
 10
139.3261440352741
 20
664.6250868085621
 30
0.0
 10
139.925063053672
 20
663.2815672842333
 30
0.0
  0
SPLINE
  5
96
330
1F
100
AcDbEntity
  8
Make2D$Visibile$90
100
AcDbSpline
210
0.0
220
0.0
230
1.0
 70
     8
 71
     3
 72
    17
 73
    13
 74
     0
 42
0.0000000001
 43
0.0000000001
 40
31.18516253440347
 40
31.18516253440347
 40
31.18516253440347
 40
31.18516253440347
 40
39.85975638975093
 40
39.85975638975093
 40
39.85975638975093
 40
57.48692341191948
 40
57.48692341191948
 40
57.48692341191948
 40
75.11409042700397
 40
75.11409042700397
 40
75.11409042700397
 40
75.18539463184528
 40
75.18539463184528
 40
75.18539463184528
 40
75.18539463184528
 10
128.4154107954759
 20
701.6243597467197
 30
0.0
 10
130.2343885063264
 20
703.6401828063312
 30
0.0
 10
131.5112612260947
 20
706.1470418497357
 30
0.0
 10
132.0380415425442
 20
708.9184042652058
 30
0.0
 10
133.1084829691885
 20
714.5499380281975
 30
0.0
 10
130.8969167785593
 20
720.3018582226872
 30
0.0
 10
126.3293998132241
 20
723.7656431705792
 30
0.0
 10
121.7618828496578
 20
727.2294281171297
 30
0.0
 10
115.6266065258484
 20
727.8073514010024
 30
0.0
 10
110.4926165705725
 20
725.2574171862829
 30
0.0
 10
110.4718489071639
 20
725.2471023676047
 30
0.0
 10
110.4511121246793
 20
725.236743567741
 30
0.0
 10
110.430406313107
 20
725.2263409318638
 30
0.0
  0
SPLINE
  5
97
330
1F
100
AcDbEntity
  8
Make2D$Visibile$90
100
AcDbSpline
210
0.0
220
0.0
230
1.0
 70
    28
 71
     2
 72
     8
 73
     5
 74
     0
 42
0.0000000001
 43
0.0000000001
 40
0.0
 40
0.0
 40
0.0
 40
0.3970624048289053
 40
0.3970624048289053
 40
0.7941248096578105
 40
0.7941248096578105
 40
0.7941248096578105
 10
139.5577736011984
 20
663.0973176023916
 30
0.0
 41
1.0
 10
139.7490676721247
 20
663.1825934453065
 30
0.0
 41
0.9222009716703775
 10
139.8832951680971
 20
663.2424299201433
 30
0.0
 41
1.0
 10
140.0175226640694
 20
663.3022663949802
 30
0.0
 41
0.9222009716703775
 10
140.0143911840445
 20
663.3008704311775
 30
0.0
 41
1.0
  0
SPLINE
  5
98
330
1F
100
AcDbEntity
  8
Make2D$Visibile$90
100
AcDbSpline
210
0.0
220
0.0
230
1.0
 70
    12
 71
     2
 72
     6
 73
     3
 74
     0
 42
0.0000000001
 43
0.0000000001
 40
-108.9210254154666
 40
-108.9210254154666
 40
-108.9210254154666
 40
-108.0721688058548
 40
-108.0721688058548
 40
-108.0721688058548
 10
140.2847796731022
 20
663.0006999462574
 30
0.0
 41
1.0
 10
140.7143926987058
 20
662.7526679835771
 30
0.0
 41
0.7967945443744971
 10
141.0691227240208
 20
663.099444302584
 30
0.0
 41
1.0
  0
SPLINE
  5
99
330
1F
100
AcDbEntity
  8
Make2D$Visibile$90
100
AcDbSpline
210
0.0
220
0.0
230
1.0
 70
    12
 71
     2
 72
    28
 73
    25
 74
     0
 42
0.0000000001
 43
0.0000000001
 40
28.25961071388175
 40
28.25961071388175
 40
28.25961071388175
 40
29.7825808297638
 40
29.7825808297638
 40
36.03551840262891
 40
36.03551840262891
 40
42.28845597549402
 40
42.28845597549402
 40
48.04735787017187
 40
48.04735787017187
 40
53.80625976484974
 40
53.80625976484974
 40
60.05919733771485
 40
60.05919733771485
 40
66.31213491057996
 40
66.31213491057996
 40
72.0710368052578
 40
72.0710368052578
 40
77.82993869993567
 40
77.82993869993567
 40
84.08287627280079
 40
84.08287627280079
 40
90.33581384566588
 40
90.33581384566588
 40
96.09471574034376
 40
96.09471574034376
 40
96.09471574034376
 10
141.0690761447998
 20
663.0994919511102
 30
0.0
 41
0.9120897962986702
 10
141.6298986490902
 20
663.6477287472474
 30
0.0
 41
0.899847175657826
 10
142.2445132948556
 20
664.1348984334631
 30
0.0
 41
0.8901650429449552
 10
144.6946440939218
 20
666.0769762228433
 30
0.0
 41
0.8535533905932737
 10
147.7145810398236
 20
666.8861658886905
 30
0.0
 41
0.8535533905932737
 10
150.7345179857254
 20
667.6953555545377
 30
0.0
 41
0.8535533905932737
 10
153.8274323950021
 20
667.2385322523423
 30
0.0
 41
0.8901650429449552
 10
156.6759800486602
 20
666.8178019076224
 30
0.0
 41
0.9267766952966369
 10
159.1696577180068
 20
665.3780764339525
 30
0.0
 41
1.0
 10
161.6633353873534
 20
663.9383509602835
 30
0.0
 41
0.9267766952966369
 10
163.4519723808536
 20
661.6818015006846
 30
0.0
 41
0.8901650429449552
 10
165.3940501702334
 20
659.2316707016181
 30
0.0
 41
0.8535533905932737
 10
166.2032398360807
 20
656.2117337557163
 30
0.0
 41
0.8535533905932737
 10
167.012429501928
 20
653.1917968098145
 30
0.0
 41
0.8535533905932737
 10
166.5556061997328
 20
650.0988824005384
 30
0.0
 41
0.8901650429449552
 10
166.1348758550122
 20
647.2503347468802
 30
0.0
 41
0.9267766952966369
 10
164.6951503813428
 20
644.7566570775333
 30
0.0
 41
1.0
 10
163.2554249076732
 20
642.262979408187
 30
0.0
 41
0.9267766952966369
 10
160.998875448075
 20
640.4743424146866
 30
0.0
 41
0.8901650429449552
 10
158.5487446490083
 20
638.5322646253065
 30
0.0
 41
0.8535533905932737
 10
155.5288077031065
 20
637.723074959459
 30
0.0
 41
0.8535533905932737
 10
152.5088707572046
 20
636.9138852936119
 30
0.0
 41
0.8535533905932737
 10
149.4159563479288
 20
637.3707085958074
 30
0.0
 41
0.8901650429449552
 10
146.5674086942702
 20
637.7914389405281
 30
0.0
 41
0.9267766952966369
 10
144.0737310249236
 20
639.2311644141972
 30
0.0
 41
1.0
  0
SPLINE
  5
9A
330
1F
100
AcDbEntity
  8
Make2D$Visibile$90
100
AcDbSpline
210
0.0
220
0.0
230
1.0
 70
    12
 71
     2
 72
     8
 73
     5
 74
     0
 42
0.0000000001
 43
0.0000000001
 40
4.382539539026178
 40
4.382539539026178
 40
4.382539539026178
 40
5.560677264131643
 40
5.560677264131643
 40
7.313964192368048
 40
7.313964192368048
 40
7.313964192368048
 10
136.2950178596145
 20
656.8586485786934
 30
0.0
 41
0.8588716328657768
 10
135.7185712233789
 20
656.7983316475389
 30
0.0
 41
0.8675072301080058
 10
135.1451979299092
 20
656.8830188540543
 30
0.0
 41
0.8901650429449552
 10
134.2779629158462
 20
657.0111094218746
 30
0.0
 41
0.9267766952966369
 10
133.5187674058583
 20
657.4494311539335
 30
0.0
 41
1.0
  0
SPLINE
  5
9B
330
1F
100
AcDbEntity
  8
Make2D$Visibile$90
100
AcDbSpline
210
0.0
220
0.0
230
1.0
 70
    12
 71
     2
 72
    24
 73
    21
 74
     0
 42
0.0000000001
 43
0.0000000001
 40
0.0
 40
0.0
 40
0.0
 40
1.753286928236395
 40
1.753286928236395
 40
3.656982096184023
 40
3.656982096184023
 40
5.560677264131643
 40
5.560677264131643
 40
7.313964192368047
 40
7.313964192368047
 40
9.067251120604448
 40
9.067251120604448
 40
10.97094628855207
 40
10.97094628855207
 40
12.8746414564997
 40
12.8746414564997
 40
14.62792838473609
 40
14.62792838473609
 40
16.3812153129725
 40
16.3812153129725
 40
17.55935303807809
 40
17.55935303807809
 40
17.55935303807809
 10
133.5187674058583
 20
657.4494311539335
 30
0.0
 41
1.0
 10
132.7595718958703
 20
657.8877528859929
 30
0.0
 41
0.9267766952966369
 10
132.2150247031216
 20
658.5747551553122
 30
0.0
 41
0.8901650429449552
 10
131.6237627465866
 20
659.3206929019584
 30
0.0
 41
0.8535533905932737
 10
131.3774064638193
 20
660.2401070660096
 30
0.0
 41
0.8535533905932737
 10
131.1310501810521
 20
661.1595212300604
 30
0.0
 41
0.8535533905932737
 10
131.2701291823796
 20
662.1011532465653
 30
0.0
 41
0.8901650429449552
 10
131.3982197501996
 20
662.9683882606287
 30
0.0
 41
0.9267766952966369
 10
131.8365414822587
 20
663.7275837706164
 30
0.0
 41
1.0
 10
132.2748632143177
 20
664.4867792806043
 30
0.0
 41
0.9267766952966369
 10
132.9618654836376
 20
665.0313264733529
 30
0.0
 41
0.8901650429449552
 10
133.7078032302836
 20
665.6225884298876
 30
0.0
 41
0.8535533905932737
 10
134.6272173943347
 20
665.8689447126549
 30
0.0
 41
0.8535533905932737
 10
135.5466315583859
 20
666.1153009954221
 30
0.0
 41
0.8535533905932737
 10
136.4882635748907
 20
665.976221994095
 30
0.0
 41
0.8901650429449552
 10
137.3554985889536
 20
665.848131426275
 30
0.0
 41
0.9267766952966369
 10
138.1146940989414
 20
665.4098096942156
 30
0.0
 41
1.0
 10
138.8738896089293
 20
664.9714879621569
 30
0.0
 41
0.9267766952966369
 10
139.4184368016786
 20
664.284485692837
 30
0.0
 41
0.8901650429449552
 10
139.7784647206313
 20
663.8302734580983
 30
0.0
 41
0.8675072301080033
 10
140.0144520440907
 20
663.3008975616148
 30
0.0
 41
0.8588716328657748
  0
SPLINE
  5
9C
330
1F
100
AcDbEntity
  8
Make2D$Visibile$90
100
AcDbSpline
210
0.0
220
0.0
230
1.0
 70
    12
 71
     2
 72
     6
 73
     3
 74
     0
 42
0.0000000001
 43
0.0000000001
 40
-108.9210254154666
 40
-108.9210254154666
 40
-108.9210254154666
 40
-108.0721688058548
 40
-108.0721688058548
 40
-108.0721688058548
 10
94.27855127890109
 20
663.0023807080394
 30
0.0
 41
1.0
 10
93.8489201315656
 20
662.75438013643
 30
0.0
 41
0.7967945443744971
 10
93.49421544500103
 20
663.1011823734651
 30
0.0
 41
1.0
  0
SPLINE
  5
9D
330
1F
100
AcDbEntity
  8
Make2D$Visibile$90
100
AcDbSpline
210
0.0
220
0.0
230
1.0
 70
    12
 71
     2
 72
     8
 73
     5
 74
     0
 42
0.0000000001
 43
0.0000000001
 40
-130.8006513990317
 40
-130.8006513990317
 40
-130.8006513990317
 40
-130.1708675406617
 40
-130.1708675406617
 40
-129.5410836822918
 40
-129.5410836822918
 40
-129.5410836822918
 10
97.56600594689928
 20
656.0474441464961
 30
0.0
 41
1.0
 10
97.48134329940353
 20
656.3784868877625
 30
0.0
 41
0.8863586191788156
 10
97.70468757838705
 20
656.6370877258736
 30
0.0
 41
1.0
 10
97.9280318573706
 20
656.8956885639843
 30
0.0
 41
0.8863586191788156
 10
98.2678712414953
 20
656.8601041091757
 30
0.0
 41
1.0
  0
SPLINE
  5
9E
330
1F
100
AcDbEntity
  8
Make2D$Visibile$90
100
AcDbSpline
210
0.0
220
0.0
230
1.0
 70
    12
 71
     2
 72
     6
 73
     3
 74
     0
 42
0.0000000001
 43
0.0000000001
 40
-109.3317365225948
 40
-109.3317365225948
 40
-109.3317365225948
 40
-108.9210254154666
 40
-108.9210254154666
 40
-108.9210254154666
 10
94.54896169970573
 20
663.3025314357618
 30
0.0
 41
1.0
 10
94.46248066956382
 20
663.1085597062657
 30
0.0
 41
0.9511280869760951
 10
94.27855127890109
 20
663.0023807080394
 30
0.0
 41
1.0
  0
SPLINE
  5
9F
330
1F
100
AcDbEntity
  8
Make2D$Visibile$90
100
AcDbSpline
210
0.0
220
0.0
230
1.0
 70
    12
 71
     2
 72
    28
 73
    25
 74
     0
 42
0.0000000001
 43
0.0000000001
 40
0.0
 40
0.0
 40
0.0
 40
5.758901894677836
 40
5.758901894677836
 40
12.0118394675429
 40
12.0118394675429
 40
18.26477704040798
 40
18.26477704040798
 40
24.02367893508581
 40
24.02367893508581
 40
29.78258082976364
 40
29.78258082976364
 40
36.03551840262871
 40
36.03551840262871
 40
42.28845597549378
 40
42.28845597549378
 40
48.04735787017161
 40
48.04735787017161
 40
53.80625976484942
 40
53.80625976484942
 40
60.05919733771451
 40
60.05919733771451
 40
66.31213491057957
 40
66.31213491057957
 40
67.83510502646165
 40
67.83510502646165
 40
67.83510502646165
 10
90.48786317553197
 20
639.233122085623
 30
0.0
 41
1.0
 10
87.99408031684406
 20
637.7935788206097
 30
0.0
 41
0.9267766952966369
 10
85.14550192940938
 20
637.373056611006
 30
0.0
 41
0.8901650429449552
 10
82.05255414981525
 20
636.9164592990971
 30
0.0
 41
0.8535533905932737
 10
79.03267633679812
 20
637.7258696196291
 30
0.0
 41
0.8535533905932737
 10
76.01279852378084
 20
638.5352799401611
 30
0.0
 41
0.8535533905932737
 10
73.5628096324817
 20
640.4775367473434
 30
0.0
 41
0.8901650429449552
 10
71.30639086871966
 20
642.2663386147048
 30
0.0
 41
0.9267766952966369
 10
69.86684760370633
 20
644.7601214733926
 30
0.0
 41
1.0
 10
68.42730433869276
 20
647.2539043320805
 30
0.0
 41
0.9267766952966369
 10
68.00678212908942
 20
650.1024827195151
 30
0.0
 41
0.8901650429449552
 10
67.55018481718052
 20
653.1954304991091
 30
0.0
 41
0.8535533905932737
 10
68.35959513771249
 20
656.2153083121262
 30
0.0
 41
0.8535533905932737
 10
69.16900545824434
 20
659.2351861251434
 30
0.0
 41
0.8535533905932737
 10
71.1112622654271
 20
661.6851750164429
 30
0.0
 41
0.8901650429449552
 10
72.90006413278806
 20
663.9415937802052
 30
0.0
 41
0.9267766952966369
 10
75.39384699147593
 20
665.3811370452182
 30
0.0
 41
1.0
 10
77.88762985016378
 20
666.8206803102321
 30
0.0
 41
0.9267766952966369
 10
80.73620823759869
 20
667.2412025198352
 30
0.0
 41
0.8901650429449552
 10
83.82915601719236
 20
667.6977998317435
 30
0.0
 41
0.8535533905932737
 10
86.84903383020949
 20
666.8883895112116
 30
0.0
 41
0.8535533905932737
 10
89.86891164322677
 20
666.0789791906799
 30
0.0
 41
0.8535533905932737
 10
92.31890053452649
 20
664.1367223834975
 30
0.0
 41
0.8901650429449552
 10
92.93347958276713
 20
663.6495077907147
 30
0.0
 41
0.8998471756578263
 10
93.4942620277031
 20
663.1012300185878
 30
0.0
 41
0.9120897962986708
  0
SPLINE
  5
A0
330
1F
100
AcDbEntity
  8
Make2D$Visibile$90
100
AcDbSpline
210
0.0
220
0.0
230
1.0
 70
    12
 71
     2
 72
    24
 73
    21
 74
     0
 42
0.0000000001
 43
0.0000000001
 40
11.69650373139403
 40
11.69650373139403
 40
11.69650373139403
 40
12.87464145649953
 40
12.87464145649953
 40
14.62792838473592
 40
14.62792838473592
 40
16.38121531297229
 40
16.38121531297229
 40
18.28491048091989
 40
18.28491048091989
 40
20.18860564886749
 40
20.18860564886749
 40
21.94189257710387
 40
21.94189257710387
 40
23.69517950534025
 40
23.69517950534025
 40
25.59887467328785
 40
25.59887467328785
 40
27.50256984123545
 40
27.50256984123545
 40
29.25585676947182
 40
29.25585676947182
 40
29.25585676947182
 10
94.5489008416418
 20
663.3025585706456
 30
0.0
 41
0.8588716328657761
 10
94.78492684422423
 20
663.8319172229002
 30
0.0
 41
0.8675072301080049
 10
95.14498795000813
 20
664.2861031503719
 30
0.0
 41
0.8901650429449552
 10
95.68958533829606
 20
664.9730656295885
 30
0.0
 41
0.9267766952966369
 10
96.44881287298256
 20
665.4113318885624
 30
0.0
 41
1.0
 10
97.20804040766892
 20
665.8495981475367
 30
0.0
 41
0.9267766952966369
 10
98.07528477857285
 20
665.977625349009
 30
0.0
 41
0.8901650429449552
 10
99.01692695460807
 20
666.116635548015
 30
0.0
 41
0.8535533905932737
 10
99.93632311576287
 20
665.8702120873413
 30
0.0
 41
0.8535533905932737
 10
100.8557192769178
 20
665.6237886266672
 30
0.0
 41
0.8535533905932737
 10
101.6016138200095
 20
665.0324721684972
 30
0.0
 41
0.8901650429449552
 10
102.2885762992255
 20
664.4878747802094
 30
0.0
 41
0.9267766952966369
 10
102.7268425581996
 20
663.7286472455224
 30
0.0
 41
1.0
 10
103.1651088171736
 20
662.9694197108365
 30
0.0
 41
0.9267766952966369
 10
103.2931360186464
 20
662.1021753399324
 30
0.0
 41
0.8901650429449552
 10
103.4321462176524
 20
661.1605331638968
 30
0.0
 41
0.8535533905932737
 10
103.1857227569785
 20
660.241137002742
 30
0.0
 41
0.8535533905932737
 10
102.9392992963047
 20
659.321740841587
 30
0.0
 41
0.8535533905932737
 10
102.3479828381346
 20
658.5758462984955
 30
0.0
 41
0.8901650429449552
 10
101.8033854498462
 20
657.8888838192796
 30
0.0
 41
0.9267766952966369
 10
101.0441579151599
 20
657.4506175603054
 30
0.0
 41
1.0
  0
SPLINE
  5
A1
330
1F
100
AcDbEntity
  8
Make2D$Visibile$90
100
AcDbSpline
210
0.0
220
0.0
230
1.0
 70
    12
 71
     2
 72
     6
 73
     3
 74
     0
 42
0.0000000001
 43
0.0000000001
 40
-108.9210254154666
 40
-108.9210254154666
 40
-108.9210254154666
 40
-108.0721688058548
 40
-108.0721688058548
 40
-108.0721688058548
 10
120.8637171715776
 20
696.6389667228262
 30
0.0
 41
1.0
 10
120.8637217010269
 20
697.1350384981359
 30
0.0
 41
0.7967945443744971
 10
121.3414038146412
 20
697.2688555546605
 30
0.0
 41
1.0
  0
SPLINE
  5
A2
330
1F
100
AcDbEntity
  8
Make2D$Visibile$90
100
AcDbSpline
210
0.0
220
0.0
230
1.0
 70
    12
 71
     2
 72
    28
 73
    25
 74
     0
 42
0.0000000001
 43
0.0000000001
 40
0.0
 40
0.0
 40
0.0
 40
5.758901894677841
 40
5.758901894677841
 40
12.01183946754293
 40
12.01183946754293
 40
18.26477704040801
 40
18.26477704040801
 40
24.02367893508585
 40
24.02367893508585
 40
29.7825808297637
 40
29.7825808297637
 40
36.03551840262878
 40
36.03551840262878
 40
42.28845597549387
 40
42.28845597549387
 40
48.04735787017171
 40
48.04735787017171
 40
53.80625976484954
 40
53.80625976484954
 40
60.05919733771464
 40
60.05919733771464
 40
66.31213491057972
 40
66.31213491057972
 40
67.8351050264618
 40
67.8351050264618
 40
67.8351050264618
 10
102.1731711573838
 20
711.8050625107225
 30
0.0
 41
1.0
 10
102.1731711415905
 20
714.6845134580618
 30
0.0
 41
0.9267766952966369
 10
103.2330817870647
 20
717.3617932681939
 30
0.0
 41
0.8901650429449552
 10
104.3839183910163
 20
720.2687473757676
 30
0.0
 41
0.8535533905932737
 10
106.5946656589452
 20
722.4794946679475
 30
0.0
 41
0.8535533905932737
 10
108.8054129268742
 20
724.690241960128
 30
0.0
 41
0.8535533905932737
 10
111.7123670218243
 20
725.8410785959684
 30
0.0
 41
0.8901650429449552
 10
114.3896468203294
 20
726.9009892708115
 30
0.0
 41
0.9267766952966369
 10
117.2690977676683
 20
726.9009892866046
 30
0.0
 41
1.0
 10
120.1485487150073
 20
726.9009893023981
 30
0.0
 41
0.9267766952966369
 10
122.8258285251398
 20
725.8410786569239
 30
0.0
 41
0.8901650429449552
 10
125.7327826327135
 20
724.6902420529717
 30
0.0
 41
0.8535533905932737
 10
127.9435299248935
 20
722.4794947850429
 30
0.0
 41
0.8535533905932737
 10
130.1542772170738
 20
720.2687475171138
 30
0.0
 41
0.8535533905932737
 10
131.3051138529142
 20
717.3617934221643
 30
0.0
 41
0.8901650429449552
 10
132.3650245277568
 20
714.6845136236591
 30
0.0
 41
0.9267766952966369
 10
132.3650245435502
 20
711.8050626763201
 30
0.0
 41
1.0
 10
132.3650245593434
 20
708.9256117289812
 30
0.0
 41
0.9267766952966369
 10
131.3051139138697
 20
706.2483319188487
 30
0.0
 41
0.8901650429449552
 10
130.1542773099175
 20
703.3413778112744
 30
0.0
 41
0.8535533905932737
 10
127.9435300419886
 20
701.1306305190944
 30
0.0
 41
0.8535533905932737
 10
125.7327827740596
 20
698.9198832269145
 30
0.0
 41
0.8535533905932737
 10
122.8258286791102
 20
697.7690465910744
 30
0.0
 41
0.8901650429449552
 10
122.0966200335941
 20
697.4803595334116
 30
0.0
 41
0.8998471756578263
 10
121.341421789865
 20
697.2687913916087
 30
0.0
 41
0.9120897962986709
  0
SPLINE
  5
A3
330
1F
100
AcDbEntity
  8
Make2D$Visibile$90
100
AcDbSpline
210
0.0
220
0.0
230
1.0
 70
    12
 71
     2
 72
     8
 73
     5
 74
     0
 42
0.0000000001
 43
0.0000000001
 40
0.0
 40
0.0
 40
0.0
 40
1.75328692823639
 40
1.75328692823639
 40
2.931424653341907
 40
2.931424653341907
 40
2.931424653341907
 10
112.6731712574821
 20
693.5550625683142
 30
0.0
 41
1.0
 10
112.6731712526738
 20
694.4317060324327
 30
0.0
 41
0.9267766952966369
 10
112.9958590695172
 20
695.2467988713422
 30
0.0
 41
0.8901650429449552
 10
113.2092044410782
 20
695.7856983137665
 30
0.0
 41
0.8675072301080047
 10
113.5496637512819
 20
696.2547572809627
 30
0.0
 41
0.858871632865776
  0
SPLINE
  5
A4
330
1F
100
AcDbEntity
  8
Make2D$Visibile$90
100
AcDbSpline
210
0.0
220
0.0
230
1.0
 70
    12
 71
     2
 72
    24
 73
    21
 74
     0
 42
0.0000000001
 43
0.0000000001
 40
11.69650373139401
 40
11.69650373139401
 40
11.69650373139401
 40
12.87464145649959
 40
12.87464145649959
 40
14.62792838473598
 40
14.62792838473598
 40
16.38121531297236
 40
16.38121531297236
 40
18.28491048091997
 40
18.28491048091997
 40
20.18860564886757
 40
20.18860564886757
 40
21.94189257710396
 40
21.94189257710396
 40
23.69517950534035
 40
23.69517950534035
 40
25.59887467328795
 40
25.59887467328795
 40
27.50256984123556
 40
27.50256984123556
 40
29.25585676947195
 40
29.25585676947195
 40
29.25585676947195
 10
120.9885321202337
 20
696.2547573217638
 30
0.0
 41
0.8588716328657748
 10
121.3289914355831
 20
695.785698358302
 30
0.0
 41
0.8675072301080033
 10
121.5423368130559
 20
695.246798918218
 30
0.0
 41
0.8901650429449552
 10
121.8650246388402
 20
694.4317060828483
 30
0.0
 41
0.9267766952966369
 10
121.8650246436483
 20
693.55506261873
 30
0.0
 41
1.0
 10
121.8650246484567
 20
692.6784191546119
 30
0.0
 41
0.9267766952966369
 10
121.5423368316136
 20
691.8633263157018
 30
0.0
 41
0.8901650429449552
 10
121.1919667764974
 20
690.9783095658067
 30
0.0
 41
0.8535533905932737
 10
120.5189088989052
 20
690.3052516808312
 30
0.0
 41
0.8535533905932737
 10
119.8458510213129
 20
689.6321937958556
 30
0.0
 41
0.8535533905932737
 10
118.9608342752615
 20
689.2818237310315
 30
0.0
 41
0.8901650429449552
 10
118.1457414398912
 20
688.9591359052473
 30
0.0
 41
0.9267766952966369
 10
117.269097975773
 20
688.9591359004388
 30
0.0
 41
1.0
 10
116.3924545116549
 20
688.959135895631
 30
0.0
 41
0.9267766952966369
 10
115.5773616727452
 20
689.2818237124739
 30
0.0
 41
0.8901650429449552
 10
114.6923449228499
 20
689.6321937675896
 30
0.0
 41
0.8535533905932737
 10
114.0192870378743
 20
690.305251645182
 30
0.0
 41
0.8535533905932737
 10
113.3462291528988
 20
690.9783095227739
 30
0.0
 41
0.8535533905932737
 10
112.995859088075
 20
691.8633262688257
 30
0.0
 41
0.8901650429449552
 10
112.6731712622901
 20
692.6784191041963
 30
0.0
 41
0.9267766952966369
 10
112.6731712574821
 20
693.5550625683142
 30
0.0
 41
1.0
  0
SPLINE
  5
A5
330
1F
100
AcDbEntity
  8
Make2D$Visibile$90
100
AcDbSpline
210
0.0
220
0.0
230
1.0
 70
    12
 71
     2
 72
     8
 73
     5
 74
     0
 42
0.0000000001
 43
0.0000000001
 40
-21.46891487643688
 40
-21.46891487643688
 40
-21.46891487643688
 40
-20.83913101806694
 40
-20.83913101806694
 40
-20.20934715969699
 40
-20.20934715969699
 40
-20.20934715969699
 10
136.907488709203
 20
656.0267004598185
 30
0.0
 41
1.0
 10
136.9921755446754
 20
656.3577370141804
 30
0.0
 41
0.8863586191788155
 10
136.7688501613992
 20
656.6163541706322
 30
0.0
 41
1.0
 10
136.5455247781234
 20
656.874971327083
 30
0.0
 41
0.8863586191788155
 10
136.2056827948669
 20
656.8394117033141
 30
0.0
 41
1.0
  0
SPLINE
  5
A6
330
1F
100
AcDbEntity
  8
Make2D$Visibile$90
100
AcDbSpline
210
0.0
220
0.0
230
1.0
 70
     8
 71
     3
 72
    11
 73
     7
 74
     0
 42
0.0000000001
 43
0.0000000001
 40
76.91069677049853
 40
76.91069677049853
 40
76.91069677049853
 40
76.91069677049853
 40
92.74125745240443
 40
92.74125745240443
 40
92.74125745240443
 40
113.7355431490784
 40
113.7355431490784
 40
113.7355431490784
 40
113.7355431490784
 10
158.3829964920386
 20
638.833091293313
 30
0.0
 10
153.8650790863647
 20
636.5310973964082
 30
0.0
 10
148.4428341447648
 20
636.6378741486766
 30
0.0
 10
143.9844409883571
 20
639.2119272126828
 30
0.0
 10
138.1224429449295
 20
642.5963501031223
 30
0.0
 10
135.2298881740093
 20
649.4690335082993
 30
0.0
 10
136.907488709203
 20
656.0267004598185
 30
0.0
  0
SPLINE
  5
A7
330
1F
100
AcDbEntity
  8
Make2D$Visibile$90
100
AcDbSpline
210
0.0
220
0.0
230
1.0
 70
     8
 71
     3
 72
    11
 73
     7
 74
     0
 42
0.0000000001
 43
0.0000000001
 40
135.9004723620751
 40
135.9004723620751
 40
135.9004723620751
 40
135.9004723620751
 40
136.3179602213092
 40
136.3179602213092
 40
136.3179602213092
 40
137.0183743444113
 40
137.0183743444113
 40
137.0183743444113
 40
137.0183743444113
 10
139.925063053672
 20
663.2815672842333
 30
0.0
 10
139.9812637483018
 20
663.1554877616994
 30
0.0
 10
140.0759083838115
 20
663.0504184795908
 30
0.0
 10
140.1954515603251
 20
662.981396794812
 30
0.0
 10
140.3910213198216
 20
662.8684869225525
 30
0.0
 10
140.6260483325656
 20
662.8664304144826
 30
0.0
 10
140.8195697503385
 20
662.9650345018598
 30
0.0
  0
SPLINE
  5
A8
330
1F
100
AcDbEntity
  8
Make2D$Visibile$90
100
AcDbSpline
210
0.0
220
0.0
230
1.0
 70
    28
 71
     2
 72
     6
 73
     3
 74
     0
 42
0.0000000001
 43
0.0000000001
 40
0.7851800466276249
 40
0.7851800466276249
 40
0.7851800466276249
 40
0.7941248096578448
 40
0.7941248096578448
 40
0.7941248096578448
 10
113.1967740705267
 20
697.2687913469363
 30
0.0
 41
0.9965737515283273
 10
113.1967727975944
 20
697.2687868031701
 30
0.0
 41
0.9982473942032125
 10
113.1967920457502
 20
697.2688555099886
 30
0.0
 41
1.0
  0
SPLINE
  5
A9
330
1F
100
AcDbEntity
  8
Make2D$Visibile$90
100
AcDbSpline
210
0.0
220
0.0
230
1.0
 70
    28
 71
     2
 72
     6
 73
     3
 74
     0
 42
0.0000000001
 43
0.0000000001
 40
0.0
 40
0.0
 40
0.0
 40
0.0089447638652909
 40
0.0089447638652909
 40
0.0089447638652909
 10
113.549717676953
 20
696.2547181398353
 30
0.0
 41
1.0
 10
113.5496599324793
 20
696.2547600527823
 30
0.0
 41
0.9982473940395903
 10
113.549663751282
 20
696.2547572809627
 30
0.0
 41
0.9965737512158266
  0
SPLINE
  5
AA
330
1F
100
AcDbEntity
  8
Make2D$Visibile$90
100
AcDbSpline
210
0.0
220
0.0
230
1.0
 70
    28
 71
     2
 72
     6
 73
     3
 74
     0
 42
0.0000000001
 43
0.0000000001
 40
0.0
 40
0.0
 40
0.0
 40
0.0089447636550065
 40
0.0089447636550065
 40
0.0089447636550065
 10
121.3414038146412
 20
697.2688555546605
 30
0.0
 41
1.0
 10
121.341423062799
 20
697.2687868478372
 30
0.0
 41
0.9982473940807923
 10
121.3414217898652
 20
697.2687913916086
 30
0.0
 41
0.9965737512945181
  0
SPLINE
  5
AB
330
1F
100
AcDbEntity
  8
Make2D$Visibile$90
100
AcDbSpline
210
0.0
220
0.0
230
1.0
 70
    12
 71
     2
 72
     6
 73
     3
 74
     0
 42
0.0000000001
 43
0.0000000001
 40
-109.3317365225948
 40
-109.3317365225948
 40
-109.3317365225948
 40
-108.9210254154666
 40
-108.9210254154666
 40
-108.9210254154666
 10
120.9884781945631
 20
696.2547181806357
 30
0.0
 41
1.0
 10
120.8637217049131
 20
696.4265896986611
 30
0.0
 41
0.9511280869760951
 10
120.8637171715776
 20
696.6389667228262
 30
0.0
 41
1.0
  0
SPLINE
  5
AC
330
1F
100
AcDbEntity
  8
Make2D$Visibile$90
100
AcDbSpline
210
0.0
220
0.0
230
1.0
 70
    31
 71
     2
 72
     6
 73
     3
 74
     0
 42
0.0000000001
 43
0.0000000001
 40
0.7773695852552653
 40
0.7773695852552653
 40
0.7773695852552653
 40
0.7941248096578105
 40
0.7941248096578105
 40
0.7941248096578105
 10
120.9884781945634
 20
696.2547181806358
 30
0.0
 41
0.9937111475503582
 10
120.988586526896
 20
696.2547968120122
 30
0.0
 41
0.9967170395330566
 10
120.9884781945633
 20
696.2547181806357
 30
0.0
 41
1.0
  0
SPLINE
  5
AD
330
1F
100
AcDbEntity
  8
Make2D$Visibile$90
100
AcDbSpline
210
0.0
220
0.0
230
1.0
 70
    31
 71
     2
 72
     6
 73
     3
 74
     0
 42
0.0000000001
 43
0.0000000001
 40
-20.30045292417413
 40
-20.30045292417413
 40
-20.30045292417413
 40
-20.30045288504027
 40
-20.30045288504027
 40
-20.30045288504027
 10
113.5355408363486
 20
696.2623242661886
 30
0.0
 41
0.9718771961004111
 10
113.5355408272033
 20
696.2623242491197
 30
0.0
 41
0.9718772011188587
 10
113.5355408180581
 20
696.2623242320511
 30
0.0
 41
0.9718772061373071
  0
SPLINE
  5
AE
330
1F
100
AcDbEntity
  8
Make2D$Visibile$90
100
AcDbSpline
210
0.0
220
0.0
230
1.0
 70
     8
 71
     3
 72
     8
 73
     4
 74
     0
 42
0.0000000001
 43
0.0000000001
 40
80.90267113212145
 40
80.90267113212145
 40
80.90267113212145
 40
80.90267113212145
 40
80.92336232278717
 40
80.92336232278717
 40
80.92336232278717
 40
80.92336232278717
 10
106.0934692716975
 20
721.9534052763757
 30
0.0
 10
106.0890699153613
 20
721.9486175676635
 30
0.0
 10
106.0846737745233
 20
721.9438271478742
 30
0.0
 10
106.0802808513823
 20
721.9390340205551
 30
0.0
  0
SPLINE
  5
AF
330
1F
100
AcDbEntity
  8
Make2D$Visibile$90
100
AcDbSpline
210
0.0
220
0.0
230
1.0
 70
    27
 71
     3
 72
     8
 73
     4
 74
     0
 42
0.0000000001
 43
0.0000000001
 40
113.7355431410675
 40
113.7355431410675
 40
113.7355431410675
 40
113.7355431410675
 40
113.7355431490784
 40
113.7355431490784
 40
113.7355431490784
 40
113.7355431490784
 10
113.1354109578477
 20
697.201146655039
 30
0.0
 10
113.1354109603348
 20
697.2011466543423
 30
0.0
 10
113.1354109628218
 20
697.2011466536457
 30
0.0
 10
113.1354109653088
 20
697.201146652949
 30
0.0
  0
SPLINE
  5
B0
330
1F
100
AcDbEntity
  8
Make2D$Visibile$90
100
AcDbSpline
210
0.0
220
0.0
230
1.0
 70
    31
 71
     2
 72
     6
 73
     3
 74
     0
 42
0.0000000001
 43
0.0000000001
 40
0.7773695852597753
 40
0.7773695852597753
 40
0.7773695852597753
 40
0.7941248096578105
 40
0.7941248096578105
 40
0.7941248096578105
 10
94.5489616997058
 20
663.3025314357618
 30
0.0
 41
0.9937111475519763
 10
94.54883944075301
 20
663.3025859475597
 30
0.0
 41
0.9967170395339402
 10
94.54896169970573
 20
663.3025314357618
 30
0.0
 41
1.0
  0
SPLINE
  5
B1
330
1F
100
AcDbEntity
  8
Make2D$Visibile$90
100
AcDbSpline
210
0.0
220
0.0
230
1.0
 70
    31
 71
     2
 72
     6
 73
     3
 74
     0
 42
0.0000000001
 43
0.0000000001
 40
0.0
 40
0.0
 40
0.0
 40
0.0167552243907598
 40
0.0167552243907598
 40
0.0167552243907598
 10
98.2678712414953
 20
656.860104109176
 30
0.0
 41
1.0
 10
98.26785730116531
 20
656.8599709759536
 30
0.0
 41
0.9967170395353648
 10
98.26787124149516
 20
656.8601041091754
 30
0.0
 41
0.993711147554585
  0
SPLINE
  5
B2
330
1F
100
AcDbEntity
  8
Make2D$Visibile$90
100
AcDbSpline
210
0.0
220
0.0
230
1.0
 70
    31
 71
     2
 72
     6
 73
     3
 74
     0
 42
0.0000000001
 43
0.0000000001
 40
0.7773695849717696
 40
0.7773695849717696
 40
0.7773695849717696
 40
0.7941248096578448
 40
0.7941248096578448
 40
0.7941248096578448
 10
97.56600594689475
 20
656.047444146495
 30
0.0
 41
0.9937111474486302
 10
97.56613563400914
 20
656.0474773133735
 30
0.0
 41
0.9967170394775041
 10
97.56600594689928
 20
656.0474441464961
 30
0.0
 41
1.0
  0
SPLINE
  5
B3
330
1F
100
AcDbEntity
  8
Make2D$Visibile$90
100
AcDbSpline
210
0.0
220
0.0
230
1.0
 70
     8
 71
     3
 72
     8
 73
     4
 74
     0
 42
0.0000000001
 43
0.0000000001
 40
159.7279530497235
 40
159.7279530497235
 40
159.7279530497235
 40
159.7279530497235
 40
159.7332951621075
 40
159.7332951621075
 40
159.7332951621075
 40
159.7332951621075
 10
69.43533262423819
 20
645.4380805195859
 30
0.0
 10
69.43609138530906
 20
645.4365901460093
 30
0.0
 10
69.43685039484069
 20
645.4350998960971
 30
0.0
 10
69.43760965280319
 20
645.4336097699148
 30
0.0
  0
POLYLINE
  5
B4
330
1F
100
AcDbEntity
  8
Make2D$Visibile$90
100
AcDb2dPolyline
 66
     1
 10
0.0
 20
0.0
 30
0.0
  0
VERTEX
  5
B5
330
B4
100
AcDbEntity
  8
Make2D$Visibile$90
100
AcDbVertex
100
AcDb2dVertex
 10
75.70322014358064
 20
346.3773671141022
 30
0.0
  0
VERTEX
  5
B6
330
B4
100
AcDbEntity
  8
Make2D$Visibile$90
100
AcDbVertex
100
AcDb2dVertex
 10
75.71143753015016
 20
-474.9108737438148
 30
0.0
  0
SEQEND
  5
B7
330
B4
100
AcDbEntity
  8
Make2D$Visibile$90
  0
POLYLINE
  5
B8
330
1F
100
AcDbEntity
  8
Make2D$Visibile$90
100
AcDb2dPolyline
 66
     1
 10
0.0
 20
0.0
 30
0.0
  0
VERTEX
  5
B9
330
B8
100
AcDbEntity
  8
Make2D$Visibile$90
100
AcDbVertex
100
AcDb2dVertex
 10
158.7387141902188
 20
346.3773671141022
 30
0.0
  0
VERTEX
  5
BA
330
B8
100
AcDbEntity
  8
Make2D$Visibile$90
100
AcDbVertex
100
AcDb2dVertex
 10
158.7304968036493
 20
-474.9108737438148
 30
0.0
  0
SEQEND
  5
BB
330
B8
100
AcDbEntity
  8
Make2D$Visibile$90
  0
SPLINE
  5
BC
330
1F
100
AcDbEntity
  8
Make2D$Visibile$90
100
AcDbSpline
210
0.0
220
0.0
230
1.0
 70
    28
 71
     2
 72
     8
 73
     5
 74
     0
 42
0.0000000001
 43
0.0000000001
 40
49.50896544281841
 40
49.50896544281841
 40
49.50896544281841
 40
66.62210529529
 40
66.62210529529
 40
83.73524514776159
 40
83.73524514776159
 40
83.73524514776159
 10
68.35314577698978
 20
-475.3993762566424
 30
0.0
 41
1.0
 10
68.35314577698975
 20
-475.3993762566424
 30
0.0
 41
0.8330322569431075
 10
77.28752440634548
 20
-475.3993762566424
 30
0.0
 41
1.0
 10
86.2219030357012
 20
-475.3993762566424
 30
0.0
 41
0.8330322569431075
 10
93.15293456158724
 20
-475.3993762566424
 30
0.0
 41
1.0
  0
SPLINE
  5
BD
330
1F
100
AcDbEntity
  8
Make2D$Visibile$90
100
AcDbSpline
210
0.0
220
0.0
230
1.0
 70
    28
 71
     2
 72
     8
 73
     5
 74
     0
 42
0.0000000001
 43
0.0000000001
 40
0.0
 40
0.0
 40
0.0
 40
5.574919099745317
 40
5.574919099745317
 40
9.91001524829813
 40
9.91001524829813
 40
9.91001524829813
 10
95.01378179496874
 20
-475.3993762566424
 30
0.0
 41
1.0
 10
96.36410734756544
 20
-475.3993762566423
 30
0.0
 41
0.7772303537423393
 10
99.60736841064522
 20
-475.3993762566424
 30
0.0
 41
1.0
 10
101.9782270776879
 20
-475.3993762566425
 30
0.0
 41
0.826772762397543
 10
102.6768311872497
 20
-475.3993762566424
 30
0.0
 41
0.9229509518941665
  0
SPLINE
  5
BE
330
1F
100
AcDbEntity
  8
Make2D$Visibile$90
100
AcDbSpline
210
0.0
220
0.0
230
1.0
 70
    28
 71
     2
 72
     6
 73
     3
 74
     0
 42
0.0000000001
 43
0.0000000001
 40
0.0
 40
0.0
 40
0.0
 40
1.497582456986788
 40
1.497582456986788
 40
1.497582456986788
 10
93.15293456158724
 20
-475.3993762566426
 30
0.0
 41
1.0
 10
93.77872743564538
 20
-475.3993762566426
 30
0.0
 41
0.7967945443744897
 10
94.53669895460041
 20
-475.3993762566425
 30
0.0
 41
1.0
  0
SPLINE
  5
BF
330
1F
100
AcDbEntity
  8
Make2D$Visibile$90
100
AcDbSpline
210
0.0
220
0.0
230
1.0
 70
    28
 71
     2
 72
     6
 73
     3
 74
     0
 42
0.0000000001
 43
0.0000000001
 40
0.0
 40
0.0
 40
0.0
 40
5.461684884238173
 40
5.461684884238173
 40
5.461684884238173
 10
132.3166251905617
 20
347.1821827339556
 30
0.0
 41
0.9568456805154835
 10
132.3167238512683
 20
344.4513402946437
 30
0.0
 41
0.9568456805154835
 10
132.3168225119748
 20
341.7204978553318
 30
0.0
 41
0.9568456805154835
  0
SPLINE
  5
C0
330
1F
100
AcDbEntity
  8
Make2D$Visibile$90
100
AcDbSpline
210
0.0
220
0.0
230
1.0
 70
    12
 71
     2
 72
     8
 73
     5
 74
     0
 42
0.0000000001
 43
0.0000000001
 40
-88.48304490113983
 40
-88.48304490113983
 40
-88.48304490113983
 40
-64.77054008158397
 40
-64.77054008158397
 40
-41.05803526202811
 40
-41.05803526202811
 40
-41.05803526202811
 10
132.3168225119748
 20
341.7204978553319
 30
0.0
 41
1.0
 10
132.3168225269176
 20
341.7200842597464
 30
0.0
 41
0.7071068223964668
 10
117.2209689806244
 20
341.7195388721076
 30
0.0
 41
1.0
 10
102.1251154343313
 20
341.7189934844689
 30
0.0
 41
0.7071068223964668
 10
102.1251119002656
 20
341.7194070799272
 30
0.0
 41
1.0
  0
SPLINE
  5
C1
330
1F
100
AcDbEntity
  8
Make2D$Visibile$90
100
AcDbSpline
210
0.0
220
0.0
230
1.0
 70
    24
 71
     2
 72
     6
 73
     3
 74
     0
 42
0.0000000001
 43
0.0000000001
 40
0.0
 40
0.0
 40
0.0
 40
5.461684884238173
 40
5.461684884238173
 40
5.461684884238173
 10
102.1249145788523
 20
347.1810919585511
 30
0.0
 10
102.1250132395589
 20
344.4502495192392
 30
0.0
 10
102.1251119002656
 20
341.7194070799272
 30
0.0
  0
SPLINE
  5
C2
330
1F
100
AcDbEntity
  8
Make2D$Visibile$90
100
AcDbSpline
210
0.0
220
0.0
230
1.0
 70
    28
 71
     2
 72
     8
 73
     5
 74
     0
 42
0.0000000001
 43
0.0000000001
 40
18.94039453821616
 40
18.94039453821616
 40
18.94039453821616
 40
41.86762261390894
 40
41.86762261390894
 40
64.7948506896017
 40
64.7948506896017
 40
64.7948506896017
 10
102.6248384264306
 20
347.6898181617699
 30
0.0
 41
1.0
 10
102.6248383463736
 20
347.68981816177
 30
0.0
 41
0.7071067802169385
 10
117.2207650794865
 20
347.6898181617699
 30
0.0
 41
1.0
 10
131.8166918125991
 20
347.68981816177
 30
0.0
 41
0.7071067802169385
 10
131.8166918125985
 20
347.6898181617699
 30
0.0
 41
1.0
  0
SPLINE
  5
C3
330
1F
100
AcDbEntity
  8
Make2D$Visibile$90
100
AcDbSpline
210
0.0
220
0.0
230
1.0
 70
    28
 71
     2
 72
    10
 73
     7
 74
     0
 42
0.0000000001
 43
0.0000000001
 40
196.7482215779027
 40
196.7482215779027
 40
196.7482215779027
 40
237.2005701760012
 40
237.2005701760012
 40
355.8008552640018
 40
355.8008552640018
 40
433.9487917539039
 40
433.9487917539039
 40
433.9487917539039
 10
41.71747888719982
 20
511.3039544667182
 30
0.0
 41
0.8683475024126033
 10
41.71747888719974
 20
511.3039544667179
 30
0.0
 41
0.9000995774953691
 10
51.83300120837623
 20
511.303954466718
 30
0.0
 41
1.0
 10
89.58464445610328
 20
511.3039544667179
 30
0.0
 41
0.7071067811865476
 10
154.97240863038
 20
511.303954466718
 30
0.0
 41
1.0
 10
192.7240518781061
 20
511.3039544667177
 30
0.0
 41
0.8070072036911784
 10
192.7240518781061
 20
511.3039544667178
 30
0.0
 41
0.8683475024126035
  0
SPLINE
  5
C4
330
1F
100
AcDbEntity
  8
Make2D$Visibile$90
100
AcDbSpline
210
0.0
220
0.0
230
1.0
 70
    12
 71
     2
 72
    10
 73
     7
 74
     0
 42
0.0000000001
 43
0.0000000001
 40
20.93017295722595
 40
20.93017295722595
 40
20.93017295722595
 40
34.76663448865333
 40
34.76663448865333
 40
51.52016787461
 40
51.52016787461
 40
68.27370126056667
 40
68.27370126056667
 40
68.27370126056667
 10
132.3168225119748
 20
341.1517677747328
 30
0.0
 41
0.9568456803178189
 10
132.3168225110522
 20
341.1516191669843
 30
0.0
 41
0.8760765295477551
 10
126.3426454816765
 20
341.1513732296297
 30
0.0
 41
1.0
 10
118.8866103815993
 20
341.1510662890182
 30
0.0
 41
0.8499503652137049
 10
110.5058622362716
 20
341.1509297522108
 30
0.0
 41
1.0
 10
102.1251140909438
 20
341.1507932154031
 30
0.0
 41
0.8499503652137049
 10
102.1251119002656
 20
341.1509786843377
 30
0.0
 41
1.0
  0
SPLINE
  5
C5
330
1F
100
AcDbEntity
  8
Make2D$Visibile$90
100
AcDbSpline
210
0.0
220
0.0
230
1.0
 70
    24
 71
     3
 72
    14
 73
    10
 74
     0
 42
0.0000000001
 43
0.0000000001
 40
42.80371220728512
 40
42.80371220728512
 40
42.80371220728512
 40
42.80371220728512
 40
57.48692531925429
 40
57.48692531925429
 40
57.48692531925429
 40
75.11409462409058
 40
75.11409462409058
 40
75.11409462409058
 40
92.74126393924284
 40
92.74126393924284
 40
92.74126393924284
 40
92.74126393924284
 10
132.3122674294764
 20
-468.6912177616701
 30
0.0
 10
132.3122674294764
 20
-468.6912177616701
 30
0.0
 10
130.1423021045455
 20
-468.6912177616701
 30
0.0
 10
126.3376171997945
 20
-468.6912177616701
 30
0.0
 10
121.7701002362282
 20
-468.6912177616701
 30
0.0
 10
115.6348239124188
 20
-468.6912177616701
 30
0.0
 10
110.500833957143
 20
-468.6912177616701
 30
0.0
 10
105.3668439989715
 20
-468.6912177616701
 30
0.0
 10
102.1200849635334
 20
-468.6912177616701
 30
0.0
 10
102.1200836208332
 20
-468.6912177616701
 30
0.0
  0
SPLINE
  5
C6
330
1F
100
AcDbEntity
  8
Make2D$Visibile$90
100
AcDbSpline
210
0.0
220
0.0
230
1.0
 70
    12
 71
     2
 72
     6
 73
     3
 74
     0
 42
0.0000000001
 43
0.0000000001
 40
0.0
 40
0.0
 40
0.0
 40
0.9999999999999964
 40
0.9999999999999964
 40
0.9999999999999964
 10
102.6813885439543
 20
-475.3993762566424
 30
0.0
 41
1.0
 10
102.1813885439542
 20
-475.3993762566424
 30
0.0
 41
0.7071067811865476
 10
102.1813885439543
 20
-474.8993762566424
 30
0.0
 41
1.0
  0
SPLINE
  5
C7
330
1F
100
AcDbEntity
  8
Make2D$Visibile$90
100
AcDbSpline
210
0.0
220
0.0
230
1.0
 70
    12
 71
     2
 72
     8
 73
     5
 74
     0
 42
0.0000000001
 43
0.0000000001
 40
-88.48304490113948
 40
-88.48304490113948
 40
-88.48304490113948
 40
-64.77054008158379
 40
-64.77054008158379
 40
-41.05803526202811
 40
-41.05803526202811
 40
-41.05803526202811
 10
132.3733726294977
 20
-469.4300559502043
 30
0.0
 41
1.0
 10
132.3733726444401
 20
-469.429642354619
 30
0.0
 41
0.7071068223964709
 10
117.2775190981472
 20
-469.42909696698
 30
0.0
 41
1.0
 10
102.1816655518541
 20
-469.4285515793414
 30
0.0
 41
0.7071068223964709
 10
102.1816620177884
 20
-469.4289651747996
 30
0.0
 41
1.0
  0
SPLINE
  5
C8
330
1F
100
AcDbEntity
  8
Make2D$Visibile$90
100
AcDbSpline
210
0.0
220
0.0
230
1.0
 70
    28
 71
     2
 72
     8
 73
     5
 74
     0
 42
0.0000000001
 43
0.0000000001
 40
18.94039453821616
 40
18.94039453821616
 40
18.94039453821616
 40
41.86762261390901
 40
41.86762261390901
 40
64.79485068960186
 40
64.79485068960186
 40
64.79485068960186
 10
102.6813885439535
 20
-475.3993762566424
 30
0.0
 41
1.0
 10
102.6813884638964
 20
-475.3993762566424
 30
0.0
 41
0.7071067802169366
 10
117.2773151970094
 20
-475.3993762566424
 30
0.0
 41
1.0
 10
131.8732419301223
 20
-475.3993762566424
 30
0.0
 41
0.7071067802169366
 10
131.8732419301214
 20
-475.3993762566424
 30
0.0
 41
1.0
  0
SPLINE
  5
C9
330
1F
100
AcDbEntity
  8
Make2D$Visibile$90
100
AcDbSpline
210
0.0
220
0.0
230
1.0
 70
    28
 71
     2
 72
     6
 73
     3
 74
     0
 42
0.0000000001
 43
0.0000000001
 40
0.0
 40
0.0
 40
0.0
 40
821.2882408579145
 40
821.2882408579145
 40
821.2882408579145
 10
159.7387141902188
 20
346.3773671141024
 30
0.0
 41
0.6768255021811295
 10
159.7387141902188
 20
-64.26675331485495
 30
0.0
 41
0.6768255021811295
 10
159.7387141902188
 20
-474.9108737438123
 30
0.0
 41
0.6768255021811295
  0
SPLINE
  5
CA
330
1F
100
AcDbEntity
  8
Make2D$Visibile$90
100
AcDbSpline
210
0.0
220
0.0
230
1.0
 70
    28
 71
     2
 72
     6
 73
     3
 74
     0
 42
0.0000000001
 43
0.0000000001
 40
0.0
 40
0.0
 40
0.0
 40
821.2882408579143
 40
821.2882408579143
 40
821.2882408579143
 10
74.70281619021877
 20
-474.9108737438123
 30
0.0
 41
0.6768255021810745
 10
74.70281619021877
 20
-64.26675331485514
 30
0.0
 41
0.6768255021810745
 10
74.70281619021877
 20
346.3773671141021
 30
0.0
 41
0.6768255021810745
  0
SPLINE
  5
CB
330
1F
100
AcDbEntity
  8
Make2D$Visibile$90
100
AcDbSpline
210
0.0
220
0.0
230
1.0
 70
    24
 71
     2
 72
     6
 73
     3
 74
     0
 42
0.0000000001
 43
0.0000000001
 40
708.6192009006654
 40
708.6192009006654
 40
708.6192009006654
 40
734.9735557190454
 40
734.9735557190454
 40
734.9735557190454
 10
132.3843593718397
 20
-474.9108737438149
 30
0.0
 10
145.5615367810296
 20
-474.9108737438148
 30
0.0
 10
158.7387141902196
 20
-474.9108737438148
 30
0.0
  0
SPLINE
  5
CC
330
1F
100
AcDbEntity
  8
Make2D$Visibile$90
100
AcDbSpline
210
0.0
220
0.0
230
1.0
 70
    28
 71
     4
 72
    10
 73
     5
 74
     0
 42
0.0000000001
 43
0.0000000001
 40
339.6897124297837
 40
339.6897124297837
 40
339.6897124297837
 40
339.6897124297837
 40
339.6897124297837
 40
366.1537439893361
 40
366.1537439893361
 40
366.1537439893361
 40
366.1537439893361
 40
366.1537439893361
 10
75.70281619021966
 20
-474.9108737438148
 30
0.0
 41
1.0
 10
82.31882408010779
 20
-474.9108737438148
 30
0.0
 41
1.0
 10
88.93483196999591
 20
-474.9108737438148
 30
0.0
 41
1.0
 10
95.55083985988404
 20
-474.9108737438148
 30
0.0
 41
1.0
 10
102.1668477497722
 20
-474.9108737438148
 30
0.0
 41
1.0
  0
SPLINE
  5
CD
330
1F
100
AcDbEntity
  8
Make2D$Visibile$90
100
AcDbSpline
210
0.0
220
0.0
230
1.0
 70
    28
 71
     2
 72
     8
 73
     5
 74
     0
 42
0.0000000001
 43
0.0000000001
 40
49.51003191910278
 40
49.51003191910278
 40
49.51003191910278
 40
66.62263853343218
 40
66.62263853343218
 40
83.73524514776159
 40
83.73524514776159
 40
83.73524514776159
 10
166.1545993357902
 20
347.6898181617699
 30
0.0
 41
1.0
 10
166.1545993357898
 20
347.6898181617698
 30
0.0
 41
0.8330423623756386
 10
157.2207121922902
 20
347.6898181617699
 30
0.0
 41
1.0
 10
148.2868250487907
 20
347.6898181617698
 30
0.0
 41
0.8330423623756386
 10
141.3555731452052
 20
347.6898181617699
 30
0.0
 41
1.0
  0
SPLINE
  5
CE
330
1F
100
AcDbEntity
  8
Make2D$Visibile$90
100
AcDbSpline
210
0.0
220
0.0
230
1.0
 70
    28
 71
     2
 72
     8
 73
     5
 74
     0
 42
0.0000000001
 43
0.0000000001
 40
0.0
 40
0.0
 40
0.0
 40
5.5750687376809
 40
5.5750687376809
 40
9.963077607632055
 40
9.963077607632055
 40
9.963077607632055
 10
139.4947518724387
 20
347.6898181617699
 30
0.0
 41
1.0
 10
138.1445971771297
 20
347.6898181617698
 30
0.0
 41
0.7772188599246214
 10
134.9011897538433
 20
347.6898181617699
 30
0.0
 41
1.0
 10
132.4952192364706
 20
347.6898181617701
 30
0.0
 41
0.8246540689083527
 10
131.8166918125985
 20
347.6898181617699
 30
0.0
 41
0.9253296676463281
  0
SPLINE
  5
CF
330
1F
100
AcDbEntity
  8
Make2D$Visibile$90
100
AcDbSpline
210
0.0
220
0.0
230
1.0
 70
    28
 71
     2
 72
     6
 73
     3
 74
     0
 42
0.0000000001
 43
0.0000000001
 40
0.0
 40
0.0
 40
0.0
 40
1.497582456986788
 40
1.497582456986788
 40
1.497582456986788
 10
141.3555731452052
 20
347.6898181617699
 30
0.0
 41
1.0
 10
140.7297355677894
 20
347.6898181617699
 30
0.0
 41
0.7967945443744897
 10
139.9717960205535
 20
347.6898181617699
 30
0.0
 41
1.0
  0
SPLINE
  5
D0
330
1F
100
AcDbEntity
  8
Make2D$Visibile$90
100
AcDbSpline
210
0.0
220
0.0
230
1.0
 70
    12
 71
     2
 72
     6
 73
     3
 74
     0
 42
0.0000000001
 43
0.0000000001
 40
-87.60179577824627
 40
-87.60179577824627
 40
-87.60179577824627
 40
-72.67360408546224
 40
-72.67360408546224
 40
-72.67360408546224
 10
74.7299437999921
 20
-469.4300336163579
 30
0.0
 41
0.9559029758982497
 10
67.85324883815457
 20
-469.4297938410764
 30
0.0
 41
0.8591735575454645
 10
67.85324884024453
 20
-469.4294250224268
 30
0.0
 41
1.0
  0
SPLINE
  5
D1
330
1F
100
AcDbEntity
  8
Make2D$Visibile$90
100
AcDbSpline
210
0.0
220
0.0
230
1.0
 70
    12
 71
     2
 72
     6
 73
     3
 74
     0
 42
0.0000000001
 43
0.0000000001
 40
-87.65502498750324
 40
-87.65502498750324
 40
-87.65502498750324
 40
-72.6736040854621
 40
-72.6736040854621
 40
-72.6736040854621
 10
74.70281619021875
 20
341.7204770546551
 30
0.0
 41
0.9565958092209805
 10
67.7820097228158
 20
341.720237277745
 30
0.0
 41
0.8586714150000966
 10
67.78200972491436
 20
341.7198669275543
 30
0.0
 41
1.0
  0
SPLINE
  5
D2
330
1F
100
AcDbEntity
  8
Make2D$Visibile$90
100
AcDbSpline
210
0.0
220
0.0
230
1.0
 70
    28
 71
     2
 72
     6
 73
     3
 74
     0
 42
0.0000000001
 43
0.0000000001
 40
1.497582456986788
 40
1.497582456986788
 40
1.497582456986788
 40
2.222173326587355
 40
2.222173326587355
 40
2.222173326587355
 10
94.46545983927035
 20
347.6898181617699
 30
0.0
 41
1.0
 10
94.78996073532987
 20
347.6898181617697
 30
0.0
 41
0.9511280869760966
 10
94.94254267963856
 20
347.6898181617699
 30
0.0
 41
1.0
  0
SPLINE
  5
D3
330
1F
100
AcDbEntity
  8
Make2D$Visibile$90
100
AcDbSpline
210
0.0
220
0.0
230
1.0
 70
    28
 71
     2
 72
     6
 73
     3
 74
     0
 42
0.0000000001
 43
0.0000000001
 40
0.0
 40
0.0
 40
0.0
 40
5.461684884237946
 40
5.461684884237946
 40
5.461684884237946
 10
67.85321789180263
 20
-474.8911099010508
 30
0.0
 41
0.9690018267425592
 10
67.85323336602355
 20
-472.160267461739
 30
0.0
 41
0.9690018267425592
 10
67.85324884024446
 20
-469.4294250224272
 30
0.0
 41
0.9690018267425592
  0
SPLINE
  5
D4
330
1F
100
AcDbEntity
  8
Make2D$Visibile$90
100
AcDbSpline
210
0.0
220
0.0
230
1.0
 70
     8
 71
     3
 72
    10
 73
     6
 74
     0
 42
0.0000000001
 43
0.0000000001
 40
0.0000000000004495
 40
0.0000000000004495
 40
0.0000000000004495
 40
0.0000000000004495
 40
0.3271220088455943
 40
0.3271220088455943
 40
0.7812821286617884
 40
0.7812821286617884
 40
0.7812821286617884
 40
0.7812821286617884
 10
68.3531457769908
 20
-475.3993762566425
 30
0.0
 10
68.26475742934235
 20
-475.3627646042905
 30
0.0
 10
68.08798073404614
 20
-475.2895412995873
 30
0.0
 10
67.90567112802944
 20
-475.1590083888672
 30
0.0
 10
67.85314577699114
 20
-475.0317687058089
 30
0.0
 10
67.85314577699114
 20
-474.8993762566425
 30
0.0
  0
SPLINE
  5
D5
330
1F
100
AcDbEntity
  8
Make2D$Visibile$90
100
AcDbSpline
210
0.0
220
0.0
230
1.0
 70
    12
 71
     2
 72
     6
 73
     3
 74
     0
 42
0.0000000001
 43
0.0000000001
 40
2.356194490193158
 40
2.356194490193158
 40
2.356194490193158
 40
2.484110810259462
 40
2.484110810259462
 40
2.484110810259462
 10
90.24611220158192
 20
-475.3993762566425
 30
0.0
 41
1.0
 10
90.27660337957145
 20
-475.3988440043235
 30
0.0
 41
0.9522970329330984
 10
90.30615211171765
 20
-475.3837881732946
 30
0.0
 41
0.9201326507211771
  0
SPLINE
  5
D6
330
1F
100
AcDbEntity
  8
Make2D$Visibile$90
100
AcDbSpline
210
0.0
220
0.0
230
1.0
 70
    28
 71
     2
 72
     6
 73
     3
 74
     0
 42
0.0000000001
 43
0.0000000001
 40
1.497582456986788
 40
1.497582456986788
 40
1.497582456986788
 40
2.222173326587355
 40
2.222173326587355
 40
2.222173326587355
 10
94.53669895460041
 20
-475.3993762566424
 30
0.0
 41
1.0
 10
94.86119985065993
 20
-475.3993762566424
 30
0.0
 41
0.9511280869760966
 10
95.01378179496874
 20
-475.3993762566424
 30
0.0
 41
1.0
  0
SPLINE
  5
D7
330
1F
100
AcDbEntity
  8
Make2D$Visibile$90
100
AcDbSpline
210
0.0
220
0.0
230
1.0
 70
    28
 71
     2
 72
     8
 73
     5
 74
     0
 42
0.0000000001
 43
0.0000000001
 40
49.50896544281879
 40
49.50896544281879
 40
49.50896544281879
 40
66.6221052952902
 40
66.6221052952902
 40
83.73524514776159
 40
83.73524514776159
 40
83.73524514776159
 10
68.2819066616596
 20
347.6898181617699
 30
0.0
 41
1.0
 10
68.28190666166002
 20
347.6898181617701
 30
0.0
 41
0.8330322569431112
 10
77.21628529101554
 20
347.6898181617699
 30
0.0
 41
1.0
 10
86.15066392037126
 20
347.6898181617701
 30
0.0
 41
0.8330322569431112
 10
93.0816954462573
 20
347.6898181617699
 30
0.0
 41
1.0
  0
SPLINE
  5
D8
330
1F
100
AcDbEntity
  8
Make2D$Visibile$90
100
AcDbSpline
210
0.0
220
0.0
230
1.0
 70
    28
 71
     2
 72
     8
 73
     5
 74
     0
 42
0.0000000001
 43
0.0000000001
 40
0.0
 40
0.0
 40
0.0
 40
5.574919099745324
 40
5.574919099745324
 40
9.998105808342258
 40
9.998105808342258
 40
9.998105808342258
 10
94.94254267963856
 20
347.6898181617699
 30
0.0
 41
1.0
 10
96.29286823223545
 20
347.6898181617699
 30
0.0
 41
0.7772303537423387
 10
99.53612929531516
 20
347.6898181617699
 30
0.0
 41
1.0
 10
101.9655078014539
 20
347.6898181617699
 30
0.0
 41
0.8232527287345316
 10
102.6300621643349
 20
347.68981816177
 30
0.0
 41
0.9269709376149222
  0
SPLINE
  5
D9
330
1F
100
AcDbEntity
  8
Make2D$Visibile$90
100
AcDbSpline
210
0.0
220
0.0
230
1.0
 70
    28
 71
     2
 72
     6
 73
     3
 74
     0
 42
0.0000000001
 43
0.0000000001
 40
0.0
 40
0.0
 40
0.0
 40
5.46168488423823
 40
5.46168488423823
 40
5.46168488423823
 10
67.78200972491432
 20
341.7198669275543
 30
0.0
 41
0.9690018267425589
 10
67.78199425069346
 20
344.4507093668662
 30
0.0
 41
0.9690018267425589
 10
67.7819787764726
 20
347.1815518061781
 30
0.0
 41
0.9690018267425589
  0
SPLINE
  5
DA
330
1F
100
AcDbEntity
  8
Make2D$Visibile$90
100
AcDbSpline
210
0.0
220
0.0
230
1.0
 70
     8
 71
     3
 72
    10
 73
     6
 74
     0
 42
0.0000000001
 43
0.0000000001
 40
0.0
 40
0.0
 40
0.0
 40
0.0
 40
0.6380528319158156
 40
0.6380528319158156
 40
0.7894453105402144
 40
0.7894453105402144
 40
0.7894453105402144
 40
0.7894453105402144
 10
67.78190666166097
 20
347.1898181617699
 30
0.0
 10
67.78190666166097
 20
347.3222106109364
 30
0.0
 10
67.83443201269927
 20
347.4494502939948
 30
0.0
 10
67.95063821580698
 20
347.5656564971024
 30
0.0
 10
68.28188086038722
 20
347.6898181617697
 30
0.0
 10
68.28190666166097
 20
347.6898181617699
 30
0.0
  0
SPLINE
  5
DB
330
1F
100
AcDbEntity
  8
Make2D$Visibile$90
100
AcDbSpline
210
0.0
220
0.0
230
1.0
 70
    12
 71
     2
 72
     6
 73
     3
 74
     0
 42
0.0000000001
 43
0.0000000001
 40
-108.0721688058548
 40
-108.0721688058548
 40
-108.0721688058548
 40
-88.48304490113983
 40
-88.48304490113983
 40
-88.48304490113983
 10
121.293268405102
 20
341.7204978553294
 30
0.0
 41
1.0
 10
132.316822500643
 20
341.7208115062698
 30
0.0
 41
0.7967944739434899
 10
132.3168225119748
 20
341.7204978553319
 30
0.0
 41
1.0
  0
SPLINE
  5
DC
330
1F
100
AcDbEntity
  8
Make2D$Visibile$90
100
AcDbSpline
210
0.0
220
0.0
230
1.0
 70
    12
 71
     2
 72
     6
 73
     3
 74
     0
 42
0.0000000001
 43
0.0000000001
 40
-87.71993679020659
 40
-87.71993679020659
 40
-87.71993679020659
 40
-72.67470708953576
 40
-72.67470708953576
 40
-72.67470708953576
 10
159.7519749833313
 20
-469.4300370091108
 30
0.0
 41
0.9574430763005566
 10
166.7257354083595
 20
-469.4297972635205
 30
0.0
 41
0.8580736366777163
 10
166.7257354062517
 20
-469.4294250720474
 30
0.0
 41
1.0
  0
SPLINE
  5
DD
330
1F
100
AcDbEntity
  8
Make2D$Visibile$90
100
AcDbSpline
210
0.0
220
0.0
230
1.0
 70
    12
 71
     2
 72
     6
 73
     3
 74
     0
 42
0.0000000001
 43
0.0000000001
 40
-87.6500843293147
 40
-87.6500843293147
 40
-87.6500843293147
 40
-72.67470708953587
 40
-72.67470708953587
 40
-72.67470708953587
 10
159.7387141902188
 20
341.7204769126582
 30
0.0
 41
0.9565255665878034
 10
166.654496293018
 20
341.7202371563543
 30
0.0
 41
0.8587325768162692
 10
166.6544962909215
 20
341.719866977175
 30
0.0
 41
1.0
  0
SPLINE
  5
DE
330
1F
100
AcDbEntity
  8
Make2D$Visibile$90
100
AcDbSpline
210
0.0
220
0.0
230
1.0
 70
    24
 71
     3
 72
    11
 73
     7
 74
     0
 42
0.0000000001
 43
0.0000000001
 40
136.3474558025045
 40
136.3474558025045
 40
136.3474558025045
 40
136.3474558025045
 40
150.2494449119102
 40
150.2494449119102
 40
150.2494449119102
 40
152.2050074969427
 40
152.2050074969427
 40
152.2050074969427
 40
152.2050074969427
 10
74.712831095316
 20
-468.6912177616701
 30
0.0
 10
71.0135896098634
 20
-468.6912177616701
 30
0.0
 10
68.48340331612064
 20
-468.6912177616701
 30
0.0
 10
67.9184148046462
 20
-468.6912177616701
 30
0.0
 10
67.8389390990236
 20
-468.6912177616701
 30
0.0
 10
67.7998711323404
 20
-468.6912177616701
 30
0.0
 10
67.79974337818862
 20
-468.6912177616701
 30
0.0
  0
SPLINE
  5
DF
330
1F
100
AcDbEntity
  8
Make2D$Visibile$90
100
AcDbSpline
210
0.0
220
0.0
230
1.0
 70
    12
 71
     2
 72
     8
 73
     5
 74
     0
 42
0.0000000001
 43
0.0000000001
 40
21.66855091870825
 40
21.66855091870825
 40
21.66855091870825
 40
34.76663448865334
 40
34.76663448865334
 40
36.72640564217546
 40
36.72640564217546
 40
36.72640564217546
 10
74.7028161902186
 20
341.1517527270762
 30
0.0
 41
0.9488081657993561
 10
68.78071543634658
 20
341.1516042983821
 30
0.0
 41
0.8826896624852844
 10
67.90035639139433
 20
341.1513732296297
 30
0.0
 41
1.0
 10
67.78200972422711
 20
341.1513421670571
 30
0.0
 41
0.9824477058614272
 10
67.78200972491436
 20
341.1513113480048
 30
0.0
 41
0.969001826643034
  0
SPLINE
  5
E0
330
1F
100
AcDbEntity
  8
Make2D$Visibile$90
100
AcDbSpline
210
0.0
220
0.0
230
1.0
 70
    24
 71
     3
 72
    11
 73
     7
 74
     0
 42
0.0000000001
 43
0.0000000001
 40
43.63355856614049
 40
43.63355856614049
 40
43.63355856614049
 40
43.63355856614049
 40
57.48692341191948
 40
57.48692341191948
 40
57.48692341191948
 40
59.44454602598099
 40
59.44454602598099
 40
59.44454602598099
 40
59.44454602598099
 10
159.7633733284065
 20
-468.6912177616701
 30
0.0
 10
163.4413426461538
 20
-468.6912177616701
 30
0.0
 10
165.955543567726
 20
-468.6912177616701
 30
0.0
 10
166.5182293529215
 20
-468.6912177616701
 30
0.0
 10
166.597742628576
 20
-468.6912177616701
 30
0.0
 10
166.636763064481
 20
-468.6912177616701
 30
0.0
 10
166.636763064481
 20
-468.6912177616701
 30
0.0
  0
SPLINE
  5
E1
330
1F
100
AcDbEntity
  8
Make2D$Visibile$90
100
AcDbSpline
210
0.0
220
0.0
230
1.0
 70
    12
 71
     2
 72
     8
 73
     5
 74
     0
 42
0.0000000001
 43
0.0000000001
 40
21.67342177603448
 40
21.67342177603448
 40
21.67342177603448
 40
34.76663448865333
 40
34.76663448865333
 40
36.72527993224831
 40
36.72527993224831
 40
36.72527993224831
 10
159.7387141902188
 20
341.1517526243525
 30
0.0
 41
0.9487590154534492
 10
165.6568097275489
 20
341.151604201038
 30
0.0
 41
0.882733287334208
 10
166.5362874286772
 20
341.1513732296297
 30
0.0
 41
1.0
 10
166.6544962916086
 20
341.1513421852183
 30
0.0
 41
0.98245778805481
 10
166.6544962909216
 20
341.1513113839013
 30
0.0
 41
0.9690172748624126
  0
SPLINE
  5
E2
330
1F
100
AcDbEntity
  8
Make2D$Visibile$90
100
AcDbSpline
210
0.0
220
0.0
230
1.0
 70
    28
 71
     4
 72
    10
 73
     5
 74
     0
 42
0.0000000001
 43
0.0000000001
 40
410.412184111004
 40
410.412184111004
 40
410.412184111004
 40
410.412184111004
 40
410.412184111004
 40
436.8139568625474
 40
436.8139568625474
 40
436.8139568625474
 40
436.8139568625474
 40
436.8139568625474
 10
132.3369414386752
 20
346.3773671141022
 30
0.0
 41
1.0
 10
138.9373846265612
 20
346.3773671141022
 30
0.0
 41
1.0
 10
145.537827814447
 20
346.3773671141022
 30
0.0
 41
1.0
 10
152.1382710023329
 20
346.3773671141022
 30
0.0
 41
1.0
 10
158.7387141902188
 20
346.3773671141022
 30
0.0
 41
1.0
  0
SPLINE
  5
E3
330
1F
100
AcDbEntity
  8
Make2D$Visibile$90
100
AcDbSpline
210
0.0
220
0.0
230
1.0
 70
    28
 71
     2
 72
     6
 73
     3
 74
     0
 42
0.0000000001
 43
0.0000000001
 40
816.0647558058761
 40
816.0647558058761
 40
816.0647558058761
 40
816.6305693815533
 40
816.6305693815533
 40
816.6305693815533
 10
121.1629101894308
 20
341.153882062064
 30
0.0
 41
0.6979201911347677
 10
121.1629101894308
 20
341.4367888499026
 30
0.0
 41
0.6979201911347677
 10
121.1629101894308
 20
341.7196956377412
 30
0.0
 41
0.6979201911347677
  0
SPLINE
  5
E4
330
1F
100
AcDbEntity
  8
Make2D$Visibile$90
100
AcDbSpline
210
0.0
220
0.0
230
1.0
 70
    28
 71
     2
 72
     6
 73
     3
 74
     0
 42
0.0000000001
 43
0.0000000001
 40
4.643603300474917
 40
4.643603300474917
 40
4.643603300474917
 40
5.207559548587117
 40
5.207559548587117
 40
5.207559548587117
 10
113.2786204408944
 20
341.7337638136273
 30
0.0
 41
0.6979201612464494
 10
113.2786204408944
 20
341.4517856895712
 30
0.0
 41
0.6979201612464494
 10
113.2786204408944
 20
341.169807565515
 30
0.0
 41
0.6979201612464494
  0
SPLINE
  5
E5
330
1F
100
AcDbEntity
  8
Make2D$Visibile$90
100
AcDbSpline
210
0.0
220
0.0
230
1.0
 70
    28
 71
     2
 72
     6
 73
     3
 74
     0
 42
0.0000000001
 43
0.0000000001
 40
815.0685848757724
 40
815.0685848757724
 40
815.0685848757724
 40
815.8063343830275
 40
815.8063343830275
 40
815.8063343830275
 10
113.2786204408944
 20
-468.6912177616703
 30
0.0
 41
0.6979201612464494
 10
113.2786204408944
 20
-469.0600925152978
 30
0.0
 41
0.6979201612464494
 10
113.2786204408944
 20
-469.4289672689254
 30
0.0
 41
0.6979201612464494
  0
SPLINE
  5
E6
330
1F
100
AcDbEntity
  8
Make2D$Visibile$90
100
AcDbSpline
210
0.0
220
0.0
230
1.0
 70
    28
 71
     2
 72
     6
 73
     3
 74
     0
 42
0.0000000001
 43
0.0000000001
 40
14.38711877616175
 40
14.38711877616175
 40
14.38711877616175
 40
177.9999999999806
 40
177.9999999999806
 40
177.9999999999806
 10
109.2207653826531
 20
347.6910732428991
 30
0.0
 41
1.0
 10
109.2207653826531
 20
429.4975138548084
 30
0.0
 41
1.0
 10
109.2207653826531
 20
511.3039544667178
 30
0.0
 41
1.0
  0
SPLINE
  5
E7
330
1F
100
AcDbEntity
  8
Make2D$Visibile$90
100
AcDbSpline
210
0.0
220
0.0
230
1.0
 70
    12
 71
     2
 72
     6
 73
     3
 74
     0
 42
0.0000000001
 43
0.0000000001
 40
0.7447492309584444
 40
0.7447492309584444
 40
0.7447492309584444
 40
0.7941248096578791
 40
0.7941248096578791
 40
0.7941248096578791
 10
121.1712624415246
 20
347.687520748615
 30
0.0
 41
0.9830571266008776
 10
121.1647500230529
 20
347.6898444176613
 30
0.0
 41
0.9903255206251875
 10
121.158207510327
 20
347.6898181617702
 30
0.0
 41
1.0
  0
SPLINE
  5
E8
330
1F
100
AcDbEntity
  8
Make2D$Visibile$90
100
AcDbSpline
210
0.0
220
0.0
230
1.0
 70
     8
 71
     3
 72
    10
 73
     6
 74
     0
 42
0.0000000001
 43
0.0000000001
 40
0.0000000000001597
 40
0.0000000000001597
 40
0.0000000000001597
 40
0.0000000000001597
 40
0.2286294069143355
 40
0.2286294069143355
 40
0.8133442289149105
 40
0.8133442289149105
 40
0.8133442289149105
 40
0.8133442289149105
 10
131.8166918125978
 20
347.6898181617699
 30
0.0
 10
131.8433978076682
 20
347.6898181617699
 30
0.0
 10
132.1335210416178
 20
347.5800957139364
 30
0.0
 10
132.2641664615596
 20
347.4494502939946
 30
0.0
 10
132.3166918125978
 20
347.3222106109364
 30
0.0
 10
132.3166918125978
 20
347.1898181617699
 30
0.0
  0
SPLINE
  5
E9
330
1F
100
AcDbEntity
  8
Make2D$Visibile$90
100
AcDbSpline
210
0.0
220
0.0
230
1.0
 70
    12
 71
     2
 72
     6
 73
     3
 74
     0
 42
0.0000000001
 43
0.0000000001
 40
0.0
 40
0.0
 40
0.0
 40
1.0
 40
1.0
 40
1.0
 10
102.1248384264313
 20
347.1898181617699
 30
0.0
 41
1.0
 10
102.1248384264314
 20
347.68981816177
 30
0.0
 41
0.7071067811865476
 10
102.6248384264313
 20
347.6898181617699
 30
0.0
 41
1.0
  0
SPLINE
  5
EA
330
1F
100
AcDbEntity
  8
Make2D$Visibile$90
100
AcDbSpline
210
0.0
220
0.0
230
1.0
 70
    28
 71
     2
 72
     6
 73
     3
 74
     0
 42
0.0000000001
 43
0.0000000001
 40
202.9475500344778
 40
202.9475500344778
 40
202.9475500344778
 40
1012.790079351419
 40
1012.790079351419
 40
1012.790079351419
 10
67.8000681367862
 20
-468.691217754429
 30
0.0
 41
0.969001826643034
 10
67.79103893085028
 20
-63.76995320321219
 30
0.0
 41
0.969001826643034
 10
67.78200972491436
 20
341.1513113480046
 30
0.0
 41
0.969001826643034
  0
SPLINE
  5
EB
330
1F
100
AcDbEntity
  8
Make2D$Visibile$90
100
AcDbSpline
210
0.0
220
0.0
230
1.0
 70
    28
 71
     2
 72
     6
 73
     3
 74
     0
 42
0.0000000001
 43
0.0000000001
 40
0.0
 40
0.0
 40
0.0
 40
809.8425293528436
 40
809.8425293528436
 40
809.8425293528436
 10
166.6544962909215
 20
341.1513113839013
 30
0.0
 41
0.9690172748624128
 10
166.6454672537334
 20
-63.76995318526641
 30
0.0
 41
0.9690172748624128
 10
166.6364382165451
 20
-468.6912177544341
 30
0.0
 41
0.9690172748624128
  0
SPLINE
  5
EC
330
1F
100
AcDbEntity
  8
Make2D$Visibile$90
100
AcDbSpline
210
0.0
220
0.0
230
1.0
 70
    28
 71
     2
 72
     6
 73
     3
 74
     0
 42
0.0000000001
 43
0.0000000001
 40
4.500000000002883
 40
4.500000000002883
 40
4.500000000002883
 40
168.114136304951
 40
168.114136304951
 40
168.114136304951
 10
125.2207653826531
 20
511.3039544667182
 30
0.0
 41
1.0
 10
125.2207653826531
 20
429.4968863142441
 30
0.0
 41
1.0
 10
125.2207653826531
 20
347.6898181617699
 30
0.0
 41
1.0
  0
SPLINE
  5
ED
330
1F
100
AcDbEntity
  8
Make2D$Visibile$90
100
AcDbSpline
210
0.0
220
0.0
230
1.0
 70
    28
 71
     2
 72
    10
 73
     7
 74
     0
 42
0.0000000001
 43
0.0000000001
 40
196.7482215779027
 40
196.7482215779027
 40
196.7482215779027
 40
237.2005701760012
 40
237.2005701760012
 40
355.8008552640018
 40
355.8008552640018
 40
433.9487917539039
 40
433.9487917539039
 40
433.9487917539039
 10
41.71747888719982
 20
545.3039544667226
 30
0.0
 41
0.8683475024126034
 10
41.71747888719986
 20
545.3039544667229
 30
0.0
 41
0.9000995774953693
 10
51.83300120837623
 20
545.3039544667228
 30
0.0
 41
1.0
 10
89.58464445610328
 20
545.3039544667229
 30
0.0
 41
0.7071067811865476
 10
154.97240863038
 20
545.3039544667228
 30
0.0
 41
1.0
 10
192.7240518781063
 20
545.3039544667229
 30
0.0
 41
0.8070072036911783
 10
192.7240518781061
 20
545.3039544667226
 30
0.0
 41
0.8683475024126035
  0
SPLINE
  5
EE
330
1F
100
AcDbEntity
  8
Make2D$Visibile$90
100
AcDbSpline
210
0.0
220
0.0
230
1.0
 70
    28
 71
     2
 72
     6
 73
     3
 74
     0
 42
0.0000000001
 43
0.0000000001
 40
0.0
 40
0.0
 40
0.0
 40
34.00000000000489
 40
34.00000000000489
 40
34.00000000000489
 10
192.7240518781062
 20
545.3039544667228
 30
0.0
 41
0.8683475024126033
 10
192.7240518781062
 20
528.3039544667205
 30
0.0
 41
0.8683475024126033
 10
192.7240518781062
 20
511.3039544667182
 30
0.0
 41
0.8683475024126033
  0
SPLINE
  5
EF
330
1F
100
AcDbEntity
  8
Make2D$Visibile$90
100
AcDbSpline
210
0.0
220
0.0
230
1.0
 70
    28
 71
     2
 72
     6
 73
     3
 74
     0
 42
0.0000000001
 43
0.0000000001
 40
0.0
 40
0.0
 40
0.0
 40
34.00000000000489
 40
34.00000000000489
 40
34.00000000000489
 10
41.71747888719982
 20
511.3039544667182
 30
0.0
 41
0.8683475024126033
 10
41.71747888719982
 20
528.3039544667205
 30
0.0
 41
0.8683475024126033
 10
41.71747888719982
 20
545.3039544667228
 30
0.0
 41
0.8683475024126033
  0
SPLINE
  5
F0
330
1F
100
AcDbEntity
  8
Make2D$Visibile$90
100
AcDbSpline
210
0.0
220
0.0
230
1.0
 70
    28
 71
     2
 72
     6
 73
     3
 74
     0
 42
0.0000000001
 43
0.0000000001
 40
202.9478826909035
 40
202.9478826909035
 40
202.9478826909035
 40
1012.790079351419
 40
1012.790079351419
 40
1012.790079351419
 10
102.1200836208332
 20
-468.6912177616703
 30
0.0
 41
1.0
 10
102.1225977605494
 20
-63.77011953866628
 30
0.0
 41
1.0
 10
102.1251119002656
 20
341.1509786843377
 30
0.0
 41
1.0
  0
SPLINE
  5
F1
330
1F
100
AcDbEntity
  8
Make2D$Visibile$90
100
AcDbSpline
210
0.0
220
0.0
230
1.0
 70
    28
 71
     2
 72
     6
 73
     3
 74
     0
 42
0.0000000001
 43
0.0000000001
 40
0.0
 40
0.0
 40
0.0
 40
809.8429857479746
 40
809.8429857479746
 40
809.8429857479746
 10
132.3168225119748
 20
341.1517677747329
 30
0.0
 41
0.9568456803178188
 10
132.314308369809
 20
-63.76972499200032
 30
0.0
 41
0.9568456803178188
 10
132.3117942276431
 20
-468.6912177587336
 30
0.0
 41
0.9568456803178188
  0
SPLINE
  5
F2
330
1F
100
AcDbEntity
  8
Make2D$Visibile$90
100
AcDbSpline
210
0.0
220
0.0
230
1.0
 70
    28
 71
     4
 72
    10
 73
     5
 74
     0
 42
0.0000000001
 43
0.0000000001
 40
339.6897124297837
 40
339.6897124297837
 40
339.6897124297837
 40
339.6897124297837
 40
339.6897124297837
 40
366.1192265416478
 40
366.1192265416478
 40
366.1192265416478
 40
366.1192265416478
 40
366.1192265416478
 10
75.70281619021875
 20
346.377367114102
 30
0.0
 41
1.0
 10
82.31019471818479
 20
346.3773671141022
 30
0.0
 41
1.0
 10
88.91757324615082
 20
346.3773671141022
 30
0.0
 41
1.0
 10
95.52495177411697
 20
346.3773671141022
 30
0.0
 41
1.0
 10
102.1323303020829
 20
346.3773671141022
 30
0.0
 41
1.0
  0
SPLINE
  5
F3
330
1F
100
AcDbEntity
  8
Make2D$Visibile$90
100
AcDbSpline
210
0.0
220
0.0
230
1.0
 70
    28
 71
     2
 72
     6
 73
     3
 74
     0
 42
0.0000000001
 43
0.0000000001
 40
5.481622470157108
 40
5.481622470157108
 40
5.481622470157108
 40
6.219655982142036
 40
6.219655982142036
 40
6.219655982142036
 10
121.1629101894307
 20
-469.4292512736552
 30
0.0
 41
0.6979201911347676
 10
121.1629101894307
 20
-469.0602345176626
 30
0.0
 41
0.6979201911347677
 10
121.1629101894308
 20
-468.6912177616702
 30
0.0
 41
0.6979201911347677
  0
SPLINE
  5
F4
330
1F
100
AcDbEntity
  8
Make2D$Visibile$90
100
AcDbSpline
210
0.0
220
0.0
230
1.0
 70
    28
 71
     2
 72
     6
 73
     3
 74
     0
 42
0.0000000001
 43
0.0000000001
 40
0.0
 40
0.0
 40
0.0
 40
5.461684884238003
 40
5.461684884238003
 40
5.461684884238003
 10
132.3733726294977
 20
-469.4300559502047
 30
0.0
 41
0.9568456805154835
 10
132.3732739687911
 20
-472.1608983895165
 30
0.0
 41
0.9568456805154835
 10
132.3731753080844
 20
-474.8917408288283
 30
0.0
 41
0.9568456805154835
  0
SPLINE
  5
F5
330
1F
100
AcDbEntity
  8
Make2D$Visibile$90
100
AcDbSpline
210
0.0
220
0.0
230
1.0
 70
     8
 71
     3
 72
    10
 73
     6
 74
     0
 42
0.0000000001
 43
0.0000000001
 40
0.0
 40
0.0
 40
0.0
 40
0.0
 40
0.5078094918184732
 40
0.5078094918184732
 40
0.8162562600979975
 40
0.8162562600979975
 40
0.8162562600979975
 40
0.8162562600979975
 10
132.3732419301207
 20
-474.8993762566424
 30
0.0
 10
132.3732419301207
 20
-475.0317687058089
 30
0.0
 10
132.3207165790825
 20
-475.1590083888671
 30
0.0
 10
132.1697469411872
 20
-475.3099780267624
 30
0.0
 10
131.9375021831542
 20
-475.3993762566422
 30
0.0
 10
131.8732419301209
 20
-475.3993762566424
 30
0.0
  0
SPLINE
  5
F6
330
1F
100
AcDbEntity
  8
Make2D$Visibile$90
100
AcDbSpline
210
0.0
220
0.0
230
1.0
 70
    12
 71
     2
 72
     6
 73
     3
 74
     0
 42
0.0000000001
 43
0.0000000001
 40
-108.0721688058548
 40
-108.0721688058548
 40
-108.0721688058548
 40
-88.48304490113948
 40
-88.48304490113948
 40
-88.48304490113948
 10
121.3498185226249
 20
-469.4300559502018
 30
0.0
 41
1.0
 10
132.3733726181661
 20
-469.4303696011422
 30
0.0
 41
0.7967944739434828
 10
132.3733726294977
 20
-469.4300559502043
 30
0.0
 41
1.0
  0
SPLINE
  5
F7
330
1F
100
AcDbEntity
  8
Make2D$Visibile$90
100
AcDbSpline
210
0.0
220
0.0
230
1.0
 70
    24
 71
     2
 72
     6
 73
     3
 74
     0
 42
0.0000000001
 43
0.0000000001
 40
0.0
 40
0.0
 40
0.0
 40
5.461684884238173
 40
5.461684884238173
 40
5.461684884238173
 10
102.1814646963752
 20
-474.8906500534235
 30
0.0
 10
102.1815633570818
 20
-472.1598076141116
 30
0.0
 10
102.1816620177884
 20
-469.4289651747997
 30
0.0
  0
SPLINE
  5
F8
330
1F
100
AcDbEntity
  8
Make2D$Visibile$90
100
AcDbSpline
210
0.0
220
0.0
230
1.0
 70
    28
 71
     4
 72
    14
 73
     9
 74
     0
 42
0.0000000001
 43
0.0000000001
 40
338.1592937523492
 40
338.1592937523492
 40
338.1592937523492
 40
338.1592937523492
 40
338.1592937523492
 40
338.6425148660331
 40
338.6425148660331
 40
338.6425148660331
 40
338.6425148660331
 40
339.6897124297837
 40
339.6897124297837
 40
339.6897124297837
 40
339.6897124297837
 40
339.6897124297837
 10
74.70281619021881
 20
346.3773671141022
 30
0.0
 41
0.6768255021810743
 10
74.7028161902186
 20
346.3773671141021
 30
0.0
 41
0.6283684741481633
 10
74.72646545552314
 20
346.3773671141021
 30
0.0
 41
0.5903615140385902
 10
74.77212488630381
 20
346.3773671141022
 30
0.0
 41
0.5610568779088536
 10
74.83679078015733
 20
346.3773671141021
 30
0.0
 41
0.538939297087483
 10
74.97076537514174
 20
346.3773671141023
 30
0.0
 41
0.5868707224666954
 10
75.17829713104716
 20
346.3773671141021
 30
0.0
 41
0.6685554626179903
 10
75.43486699442388
 20
346.377367114102
 30
0.0
 41
0.799415414886338
 10
75.70281619021875
 20
346.377367114102
 30
0.0
 41
1.0
  0
SPLINE
  5
F9
330
1F
100
AcDbEntity
  8
Make2D$Visibile$90
100
AcDbSpline
210
0.0
220
0.0
230
1.0
 70
    28
 71
     4
 72
    14
 73
     9
 74
     0
 42
0.0000000001
 43
0.0000000001
 40
338.1592937523496
 40
338.1592937523496
 40
338.1592937523496
 40
338.1592937523496
 40
338.1592937523496
 40
338.6425148660331
 40
338.6425148660331
 40
338.6425148660331
 40
338.6425148660331
 40
339.6897124297837
 40
339.6897124297837
 40
339.6897124297837
 40
339.6897124297837
 40
339.6897124297837
 10
74.70281619021961
 20
-474.910873743815
 30
0.0
 41
0.6768255021809149
 10
74.70281619021962
 20
-474.9108737438149
 30
0.0
 41
0.6283684741480695
 10
74.72646545552394
 20
-474.910873743815
 30
0.0
 41
0.590361514038542
 10
74.77212488630482
 20
-474.9108737438149
 30
0.0
 41
0.5610568779088354
 10
74.83679078015817
 20
-474.9108737438149
 30
0.0
 41
0.538939297087483
 10
74.9707653751425
 20
-474.9108737438148
 30
0.0
 41
0.5868707224666954
 10
75.17829713104801
 20
-474.910873743815
 30
0.0
 41
0.6685554626179903
 10
75.43486699442474
 20
-474.910873743815
 30
0.0
 41
0.799415414886338
 10
75.70281619021966
 20
-474.9108737438148
 30
0.0
 41
1.0
  0
SPLINE
  5
FA
330
1F
100
AcDbEntity
  8
Make2D$Visibile$90
100
AcDbSpline
210
0.0
220
0.0
230
1.0
 70
    28
 71
     4
 72
    14
 73
     9
 74
     0
 42
0.0000000001
 43
0.0000000001
 40
436.8139568625474
 40
436.8139568625474
 40
436.8139568625474
 40
436.8139568625474
 40
436.8139568625474
 40
437.861154426298
 40
437.861154426298
 40
437.861154426298
 40
437.861154426298
 40
438.3443755399815
 40
438.3443755399815
 40
438.3443755399815
 40
438.3443755399815
 40
438.3443755399815
 10
158.7387141902196
 20
-474.9108737438148
 30
0.0
 41
1.0
 10
159.0066633860147
 20
-474.9108737438146
 30
0.0
 41
0.7994154148863511
 10
159.2632332493913
 20
-474.9108737438149
 30
0.0
 41
0.668555462618005
 10
159.4707650052968
 20
-474.9108737438149
 30
0.0
 41
0.5868707224667049
 10
159.6047396002811
 20
-474.9108737438146
 30
0.0
 41
0.538939297087483
 10
159.6694054941344
 20
-474.9108737438146
 30
0.0
 41
0.5610568779088451
 10
159.7150649249152
 20
-474.9108737438147
 30
0.0
 41
0.5903615140385634
 10
159.7387141902196
 20
-474.9108737438146
 30
0.0
 41
0.6283684741481059
 10
159.7387141902196
 20
-474.9108737438147
 30
0.0
 41
0.6768255021809702
  0
SPLINE
  5
FB
330
1F
100
AcDbEntity
  8
Make2D$Visibile$90
100
AcDbSpline
210
0.0
220
0.0
230
1.0
 70
    28
 71
     4
 72
    14
 73
     9
 74
     0
 42
0.0000000001
 43
0.0000000001
 40
436.8139568625474
 40
436.8139568625474
 40
436.8139568625474
 40
436.8139568625474
 40
436.8139568625474
 40
437.861154426298
 40
437.861154426298
 40
437.861154426298
 40
437.861154426298
 40
438.3443755399819
 40
438.3443755399819
 40
438.3443755399819
 40
438.3443755399819
 40
438.3443755399819
 10
158.7387141902188
 20
346.3773671141022
 30
0.0
 41
1.0
 10
159.0066633860138
 20
346.3773671141024
 30
0.0
 41
0.7994154148863511
 10
159.2632332493903
 20
346.3773671141021
 30
0.0
 41
0.668555462618005
 10
159.4707650052958
 20
346.3773671141021
 30
0.0
 41
0.5868707224667049
 10
159.6047396002801
 20
346.3773671141024
 30
0.0
 41
0.538939297087483
 10
159.6694054941337
 20
346.3773671141024
 30
0.0
 41
0.5610568779088632
 10
159.7150649249143
 20
346.3773671141024
 30
0.0
 41
0.5903615140386116
 10
159.7387141902187
 20
346.3773671141022
 30
0.0
 41
0.6283684741481996
 10
159.7387141902188
 20
346.3773671141024
 30
0.0
 41
0.6768255021811295
  0
SPLINE
  5
FC
330
1F
100
AcDbEntity
  8
Make2D$Visibile$90
100
AcDbSpline
210
0.0
220
0.0
230
1.0
 70
    28
 71
     2
 72
     8
 73
     5
 74
     0
 42
0.0000000001
 43
0.0000000001
 40
49.51003191910242
 40
49.51003191910242
 40
49.51003191910242
 40
66.622638533432
 40
66.622638533432
 40
83.73524514776159
 40
83.73524514776159
 40
83.73524514776159
 10
166.2258384511202
 20
-475.3993762566424
 30
0.0
 41
1.0
 10
166.2258384511201
 20
-475.3993762566425
 30
0.0
 41
0.8330423623756351
 10
157.2919513076205
 20
-475.3993762566424
 30
0.0
 41
1.0
 10
148.3580641641209
 20
-475.3993762566425
 30
0.0
 41
0.8330423623756351
 10
141.4268122605351
 20
-475.3993762566424
 30
0.0
 41
1.0
  0
SPLINE
  5
FD
330
1F
100
AcDbEntity
  8
Make2D$Visibile$90
100
AcDbSpline
210
0.0
220
0.0
230
1.0
 70
    28
 71
     2
 72
     8
 73
     5
 74
     0
 42
0.0000000001
 43
0.0000000001
 40
0.0
 40
0.0
 40
0.0
 40
5.575068737681162
 40
5.575068737681162
 40
10.01771429336628
 40
10.01771429336628
 40
10.01771429336628
 10
139.5659909877687
 20
-475.3993762566424
 30
0.0
 41
1.0
 10
138.2158362924597
 20
-475.3993762566426
 30
0.0
 41
0.7772188599246012
 10
134.9724288691732
 20
-475.3993762566424
 30
0.0
 41
1.0
 10
132.5300344323041
 20
-475.3993762566424
 30
0.0
 41
0.8224707732916501
 10
131.8732419301215
 20
-475.3993762566424
 30
0.0
 41
0.9278795576285628
  0
SPLINE
  5
FE
330
1F
100
AcDbEntity
  8
Make2D$Visibile$90
100
AcDbSpline
210
0.0
220
0.0
230
1.0
 70
    28
 71
     2
 72
     6
 73
     3
 74
     0
 42
0.0000000001
 43
0.0000000001
 40
0.0
 40
0.0
 40
0.0
 40
5.461684884237889
 40
5.461684884237889
 40
5.461684884237889
 10
166.7257354062518
 20
-469.4294250720478
 30
0.0
 41
0.9690172749619868
 10
166.7257508714963
 20
-472.1602675113596
 30
0.0
 41
0.9690172749619868
 10
166.7257663367407
 20
-474.8911099506713
 30
0.0
 41
0.9690172749619868
  0
SPLINE
  5
FF
330
1F
100
AcDbEntity
  8
Make2D$Visibile$90
100
AcDbSpline
210
0.0
220
0.0
230
1.0
 70
     8
 71
     3
 72
    10
 73
     6
 74
     0
 42
0.0000000001
 43
0.0000000001
 40
0.0
 40
0.0
 40
0.0
 40
0.0
 40
0.4541601198160683
 40
0.4541601198160683
 40
0.7812821286613351
 40
0.7812821286613351
 40
0.7812821286613351
 40
0.7812821286613351
 10
166.7258384511189
 20
-474.8993762566425
 30
0.0
 10
166.7258384511189
 20
-475.0317687058087
 30
0.0
 10
166.6733131000806
 20
-475.1590083888672
 30
0.0
 10
166.491003494064
 20
-475.2895412995873
 30
0.0
 10
166.3142267987677
 20
-475.3627646042906
 30
0.0
 10
166.2258384511192
 20
-475.3993762566423
 30
0.0
  0
SPLINE
  5
100
330
1F
100
AcDbEntity
  8
Make2D$Visibile$90
100
AcDbSpline
210
0.0
220
0.0
230
1.0
 70
    28
 71
     2
 72
     6
 73
     3
 74
     0
 42
0.0000000001
 43
0.0000000001
 40
0.0
 40
0.0
 40
0.0
 40
1.497582456986788
 40
1.497582456986788
 40
1.497582456986788
 10
141.4268122605351
 20
-475.3993762566426
 30
0.0
 41
1.0
 10
140.8009746831195
 20
-475.3993762566426
 30
0.0
 41
0.7967945443744897
 10
140.0430351358835
 20
-475.3993762566425
 30
0.0
 41
1.0
  0
SPLINE
  5
101
330
1F
100
AcDbEntity
  8
Make2D$Visibile$90
100
AcDbSpline
210
0.0
220
0.0
230
1.0
 70
    28
 71
     2
 72
     6
 73
     3
 74
     0
 42
0.0000000001
 43
0.0000000001
 40
1.497582456986788
 40
1.497582456986788
 40
1.497582456986788
 40
2.222173326587355
 40
2.222173326587355
 40
2.222173326587355
 10
140.0430351358835
 20
-475.3993762566424
 30
0.0
 41
1.0
 10
139.7185479274775
 20
-475.3993762566424
 30
0.0
 41
0.9511280869760966
 10
139.5659909877687
 20
-475.3993762566424
 30
0.0
 41
1.0
  0
SPLINE
  5
102
330
1F
100
AcDbEntity
  8
Make2D$Visibile$90
100
AcDbSpline
210
0.0
220
0.0
230
1.0
 70
    28
 71
     2
 72
     6
 73
     3
 74
     0
 42
0.0000000001
 43
0.0000000001
 40
0.0
 40
0.0
 40
0.0
 40
5.46168488423823
 40
5.46168488423823
 40
5.46168488423823
 10
166.6545272214105
 20
347.1815518557985
 30
0.0
 41
0.9690172749619864
 10
166.654511756166
 20
344.4507094164867
 30
0.0
 41
0.9690172749619864
 10
166.6544962909215
 20
341.7198669771749
 30
0.0
 41
0.9690172749619864
  0
SPLINE
  5
103
330
1F
100
AcDbEntity
  8
Make2D$Visibile$90
100
AcDbSpline
210
0.0
220
0.0
230
1.0
 70
     8
 71
     3
 72
    10
 73
     6
 74
     0
 42
0.0000000001
 43
0.0000000001
 40
0.0000000000001834
 40
0.0000000000001834
 40
0.0000000000001834
 40
0.0000000000001834
 40
0.1535204024142448
 40
0.1535204024142448
 40
0.7934458744186459
 40
0.7934458744186459
 40
0.7934458744186459
 40
0.7934458744186459
 10
166.1545993357887
 20
347.6898181617702
 30
0.0
 10
166.155081718371
 20
347.6898181617697
 30
0.0
 10
166.4856206816194
 20
347.5659035971258
 30
0.0
 10
166.6020739847504
 20
347.4494502939948
 30
0.0
 10
166.6545993357887
 20
347.3222106109366
 30
0.0
 10
166.6545993357887
 20
347.1898181617699
 30
0.0
  0
SPLINE
  5
104
330
1F
100
AcDbEntity
  8
Make2D$Visibile$90
100
AcDbSpline
210
0.0
220
0.0
230
1.0
 70
    12
 71
     2
 72
     6
 73
     3
 74
     0
 42
0.0000000001
 43
0.0000000001
 40
2.356194490193158
 40
2.356194490193158
 40
2.356194490193158
 40
2.484126282085342
 40
2.484126282085342
 40
2.484126282085342
 10
144.2607092961634
 20
347.6898181617699
 30
0.0
 41
1.0
 10
144.2302103855404
 20
347.6892858418483
 30
0.0
 41
0.9522912631298396
 10
144.2006543877351
 20
347.6742263087813
 30
0.0
 41
0.9201248702099538
  0
SPLINE
  5
105
330
1F
100
AcDbEntity
  8
Make2D$Visibile$90
100
AcDbSpline
210
0.0
220
0.0
230
1.0
 70
    28
 71
     2
 72
     6
 73
     3
 74
     0
 42
0.0000000001
 43
0.0000000001
 40
1.497582456986788
 40
1.497582456986788
 40
1.497582456986788
 40
2.222173326587355
 40
2.222173326587355
 40
2.222173326587355
 10
139.9717960205535
 20
347.6898181617699
 30
0.0
 41
1.0
 10
139.6473088121475
 20
347.6898181617697
 30
0.0
 41
0.9511280869760966
 10
139.4947518724387
 20
347.6898181617699
 30
0.0
 41
1.0
  0
SPLINE
  5
106
330
1F
100
AcDbEntity
  8
Make2D$Visibile$90
100
AcDbSpline
210
0.0
220
0.0
230
1.0
 70
    28
 71
     2
 72
     6
 73
     3
 74
     0
 42
0.0000000001
 43
0.0000000001
 40
0.0
 40
0.0
 40
0.0
 40
5.46168488423823
 40
5.46168488423823
 40
5.46168488423823
 10
-72.30594698037162
 20
341.7206315850574
 30
0.0
 41
0.9361701108508815
 10
-72.30582412793797
 20
344.4514740243694
 30
0.0
 41
0.9361701108508815
 10
-72.30570127550432
 20
347.1823164636813
 30
0.0
 41
0.9361701108508815
  0
SPLINE
  5
107
330
1F
100
AcDbEntity
  8
Make2D$Visibile$90
100
AcDbSpline
210
0.0
220
0.0
230
1.0
 70
    28
 71
     2
 72
     6
 73
     3
 74
     0
 42
0.0000000001
 43
0.0000000001
 40
0.0
 40
0.0
 40
0.0
 40
5.461684884238173
 40
5.461684884238173
 40
5.461684884238173
 10
-42.11399067464229
 20
347.180958228922
 30
0.0
 41
0.9252018640369599
 10
-42.11411352707595
 20
344.45011578961
 30
0.0
 41
0.9252018640369599
 10
-42.11423637950961
 20
341.719273350298
 30
0.0
 41
0.9252018640369599
  0
SPLINE
  5
108
330
1F
100
AcDbEntity
  8
Make2D$Visibile$90
100
AcDbSpline
210
0.0
220
0.0
230
1.0
 70
    28
 71
     2
 72
     8
 73
     5
 74
     0
 42
0.0000000001
 43
0.0000000001
 40
26.58280388343775
 40
26.58280388343775
 40
26.58280388343775
 40
49.51003191910229
 40
49.51003191910229
 40
72.43725995476683
 40
72.43725995476683
 40
72.43725995476683
 10
-42.6139133542506
 20
347.6898181617699
 30
0.0
 41
1.0
 10
-42.61391335425017
 20
347.6898181617699
 30
0.0
 41
0.7071067811865321
 10
-57.20984004733475
 20
347.6898181617699
 30
0.0
 41
1.0
 10
-71.80576674041937
 20
347.6898181617699
 30
0.0
 41
0.7071067811865321
 10
-71.80576674041856
 20
347.6898181617699
 30
0.0
 41
1.0
  0
SPLINE
  5
109
330
1F
100
AcDbEntity
  8
Make2D$Visibile$90
100
AcDbSpline
210
0.0
220
0.0
230
1.0
 70
    12
 71
     2
 72
    12
 73
     9
 74
     0
 42
0.0000000001
 43
0.0000000001
 40
-96.3872136724988
 40
-96.3872136724988
 40
-96.3872136724988
 40
-82.55491906988114
 40
-82.55491906988114
 40
-68.72262446726346
 40
-68.72262446726346
 40
-54.89032986464579
 40
-54.89032986464579
 40
-48.94516144311218
 40
-48.94516144311218
 40
-48.94516144311218
 10
-72.30594698037169
 20
341.7206315850575
 30
0.0
 41
1.0
 10
-72.30594698226825
 20
341.7205894258105
 30
0.0
 41
0.8968727547444535
 10
-66.39986684329074
 20
341.7202980640037
 30
0.0
 41
1.0
 10
-60.49378670431307
 20
341.7200067021973
 30
0.0
 41
0.8968727547444535
 10
-53.30299857206637
 20
341.7196941217572
 30
0.0
 41
1.0
 10
-46.11221043981977
 20
341.7193815413176
 30
0.0
 41
0.8968727547444535
 10
-43.26334097898166
 20
341.7192923292638
 30
0.0
 41
1.0
 10
-42.11422771476379
 20
341.7192563449003
 30
0.0
 41
0.9556755506221651
 10
-42.11423637957246
 20
341.7192733505446
 30
0.0
 41
0.9494527068438958
  0
SPLINE
  5
10A
330
1F
100
AcDbEntity
  8
Make2D$Visibile$90
100
AcDbSpline
210
0.0
220
0.0
230
1.0
 70
    12
 71
     2
 72
     6
 73
     3
 74
     0
 42
0.0000000001
 43
0.0000000001
 40
-108.0721688058548
 40
-108.0721688058548
 40
-108.0721688058548
 40
-96.3872136724988
 40
-96.3872136724988
 40
-96.3872136724988
 10
-68.00490963071127
 20
341.7204978553294
 30
0.0
 41
1.0
 10
-72.30594697880424
 20
341.7206664294427
 30
0.0
 41
0.9260358754202622
 10
-72.30594698037169
 20
341.7206315850575
 30
0.0
 41
1.0
  0
SPLINE
  5
10B
330
1F
100
AcDbEntity
  8
Make2D$Visibile$90
100
AcDbSpline
210
0.0
220
0.0
230
1.0
 70
    28
 71
     2
 72
     8
 73
     5
 74
     0
 42
0.0000000001
 43
0.0000000001
 40
315.3485066659032
 40
315.3485066659032
 40
315.3485066659032
 40
355.8008552640018
 40
355.8008552640018
 40
474.4011403520024
 40
474.4011403520024
 40
474.4011403520024
 10
-152.5381265427873
 20
511.3039544667182
 30
0.0
 41
0.8683475024126033
 10
-152.5381265427873
 20
511.3039544667179
 30
0.0
 41
0.9000995774953691
 10
-142.4226042216109
 20
511.303954466718
 30
0.0
 41
1.0
 10
-104.6709609738838
 20
511.3039544667179
 30
0.0
 41
0.7071067811865476
 10
-39.28319679960714
 20
511.303954466718
 30
0.0
 41
1.0
  0
SPLINE
  5
10C
330
1F
100
AcDbEntity
  8
Make2D$Visibile$90
100
AcDbSpline
210
0.0
220
0.0
230
1.0
 70
     8
 71
     3
 72
    10
 73
     6
 74
     0
 42
0.0000000001
 43
0.0000000001
 40
0.0
 40
0.0
 40
0.0
 40
0.0
 40
0.6395136870190354
 40
0.6395136870190354
 40
0.7921222465026955
 40
0.7921222465026955
 40
0.7921222465026955
 40
0.7921222465026955
 10
-42.13808188330245
 20
-474.8993762566424
 30
0.0
 10
-42.13808188330245
 20
-475.0317687058089
 30
0.0
 10
-42.19060723434063
 20
-475.1590083888672
 30
0.0
 10
-42.30694112942899
 20
-475.2753422839556
 30
0.0
 10
-42.63782013801415
 20
-475.3993762566425
 30
0.0
 10
-42.63808188330245
 20
-475.3993762566425
 30
0.0
  0
SPLINE
  5
10D
330
1F
100
AcDbEntity
  8
Make2D$Visibile$90
100
AcDbSpline
210
0.0
220
0.0
230
1.0
 70
    12
 71
     2
 72
    12
 73
     9
 74
     0
 42
0.0000000001
 43
0.0000000001
 40
-96.45941480839588
 40
-96.45941480839588
 40
-96.45941480839588
 40
-91.3186354198981
 40
-91.3186354198981
 40
-74.56510203394144
 40
-74.56510203394144
 40
-57.81156864798478
 40
-57.81156864798478
 40
-48.97418903262451
 40
-48.97418903262451
 40
-48.97418903262451
 10
-72.33011550848988
 20
-469.4301896789796
 30
0.0
 41
0.9361712557160013
 10
-72.33008707165185
 20
-469.4301751896869
 30
0.0
 41
0.953957648694717
 10
-71.48716704326739
 20
-469.4301235902293
 30
0.0
 41
1.0
 10
-68.40398369880715
 20
-469.4299348527656
 30
0.0
 41
0.8499503652137049
 10
-59.11971888928429
 20
-469.4295105626319
 30
0.0
 41
1.0
 10
-49.83545407976161
 20
-469.4290862724984
 30
0.0
 41
0.8499503652137049
 10
-44.6587752452532
 20
-469.4288975349438
 30
0.0
 41
1.0
 10
-42.13835426687537
 20
-469.4288056424182
 30
0.0
 41
0.9208497960875411
 10
-42.1384049094929
 20
-469.4288314461207
 30
0.0
 41
0.9252020250641227
  0
SPLINE
  5
10E
330
1F
100
AcDbEntity
  8
Make2D$Visibile$90
100
AcDbSpline
210
0.0
220
0.0
230
1.0
 70
    24
 71
     3
 72
    17
 73
    13
 74
     0
 42
0.0000000001
 43
0.0000000001
 40
34.56303624630961
 40
34.56303624630961
 40
34.56303624630961
 40
34.56303624630961
 40
39.85975638975093
 40
39.85975638975093
 40
39.85975638975093
 40
57.48692341191948
 40
57.48692341191948
 40
57.48692341191948
 40
75.11409042700397
 40
75.11409042700397
 40
75.11409042700397
 40
84.43171210207744
 40
84.43171210207744
 40
84.43171210207744
 40
84.43171210207744
 10
-72.31095451763633
 20
-468.6912177616701
 30
0.0
 10
-72.31119645623733
 20
-468.6912177616701
 30
0.0
 10
-72.03515767950273
 20
-468.6912177616701
 30
0.0
 10
-71.46761819173503
 20
-468.6912177616701
 30
0.0
 10
-69.57888080866178
 20
-468.6912177616701
 30
0.0
 10
-64.78764822943799
 20
-468.6912177616701
 30
0.0
 10
-59.10017003522216
 20
-468.6912177616701
 30
0.0
 10
-53.41269184320913
 20
-468.6912177616701
 30
0.0
 10
-47.8104250315364
 20
-468.6912177616701
 30
0.0
 10
-44.63922638866131
 20
-468.6912177616701
 30
0.0
 10
-42.96294856222983
 20
-468.6912177616701
 30
0.0
 10
-42.11884487170755
 20
-468.6912177616701
 30
0.0
 10
-42.11884487170755
 20
-468.6912177616701
 30
0.0
  0
SPLINE
  5
10F
330
1F
100
AcDbEntity
  8
Make2D$Visibile$90
100
AcDbSpline
210
0.0
220
0.0
230
1.0
 70
    28
 71
     2
 72
     6
 73
     3
 74
     0
 42
0.0000000001
 43
0.0000000001
 40
202.9469968553331
 40
202.9469968553331
 40
202.9469968553331
 40
1012.790079351419
 40
1012.790079351419
 40
1012.790079351419
 10
-72.31056665816287
 20
-468.6912177638841
 30
0.0
 41
0.9361701108747142
 10
-72.30825681926731
 20
-63.76967662309509
 30
0.0
 41
0.9361701108747142
 10
-72.30594698037176
 20
341.1518645176939
 30
0.0
 41
0.9361701108747142
  0
SPLINE
  5
110
330
1F
100
AcDbEntity
  8
Make2D$Visibile$90
100
AcDbSpline
210
0.0
220
0.0
230
1.0
 70
    12
 71
     2
 72
    12
 73
     9
 74
     0
 42
0.0000000001
 43
0.0000000001
 40
12.87215626393144
 40
12.87215626393144
 40
12.87215626393144
 40
18.01310110269667
 40
18.01310110269667
 40
34.76663448865333
 40
34.76663448865333
 40
51.52016787461
 40
51.52016787461
 40
60.35738397821829
 40
60.35738397821829
 40
60.35738397821829
 10
-72.30594698037177
 20
341.1518645176939
 30
0.0
 41
0.936170110874714
 10
-72.3059469804316
 20
341.1518540363996
 30
0.0
 41
0.9539561668728449
 10
-71.46299851421679
 20
341.1518167069827
 30
0.0
 41
1.0
 10
-68.37981516975654
 20
341.1516801702408
 30
0.0
 41
0.8499503652137049
 10
-59.09555036023357
 20
341.1513732296297
 30
0.0
 41
1.0
 10
-49.81128555071087
 20
341.1510662890182
 30
0.0
 41
0.8499503652137049
 10
-44.6346067162026
 20
341.1509297522108
 30
0.0
 41
1.0
 10
-42.11423637961605
 20
341.1508632765164
 30
0.0
 41
0.9208512605474913
 10
-42.11423637950966
 20
341.1508819414469
 30
0.0
 41
0.9252018640403116
  0
SPLINE
  5
111
330
1F
100
AcDbEntity
  8
Make2D$Visibile$90
100
AcDbSpline
210
0.0
220
0.0
230
1.0
 70
    28
 71
     4
 72
    10
 73
     5
 74
     0
 42
0.0000000001
 43
0.0000000001
 40
438.9083519900485
 40
438.9083519900485
 40
438.9083519900485
 40
438.9083519900485
 40
438.9083519900485
 40
457.446643673642
 40
457.446643673642
 40
457.446643673642
 40
457.446643673642
 40
457.446643673642
 10
-100.5052391680441
 20
-474.9108737438147
 30
0.0
 41
1.0
 10
-96.49158130842365
 20
-474.9108737438148
 30
0.0
 41
0.8568108607842306
 10
-92.47792344880294
 20
-474.9108737438148
 30
0.0
 41
0.7341248511578142
 10
-88.46426558918239
 20
-474.9108737438147
 30
0.0
 41
0.629006145643622
 10
-84.45060772956168
 20
-474.9108737438146
 30
0.0
 41
0.538939297087483
  0
SPLINE
  5
112
330
1F
100
AcDbEntity
  8
Make2D$Visibile$90
100
AcDbSpline
210
0.0
220
0.0
230
1.0
 70
    28
 71
     4
 72
    10
 73
     5
 74
     0
 42
0.0000000001
 43
0.0000000001
 40
438.9083519900485
 40
438.9083519900485
 40
438.9083519900485
 40
438.9083519900485
 40
438.9083519900485
 40
457.446643673642
 40
457.446643673642
 40
457.446643673642
 40
457.446643673642
 40
457.446643673642
 10
-100.5052391680446
 20
346.3773671141024
 30
0.0
 41
1.0
 10
-96.49158130842405
 20
346.3773671141022
 30
0.0
 41
0.8568108607842306
 10
-92.47792344880341
 20
346.3773671141024
 30
0.0
 41
0.7341248511578142
 10
-88.46426558918276
 20
346.3773671141023
 30
0.0
 41
0.629006145643622
 10
-84.45060772956201
 20
346.3773671141024
 30
0.0
 41
0.538939297087483
  0
SPLINE
  5
113
330
1F
100
AcDbEntity
  8
Make2D$Visibile$90
100
AcDbSpline
210
0.0
220
0.0
230
1.0
 70
    28
 71
     4
 72
    14
 73
     9
 74
     0
 42
0.0000000001
 43
0.0000000001
 40
436.8139568625474
 40
436.8139568625474
 40
436.8139568625474
 40
436.8139568625474
 40
436.8139568625474
 40
437.861154426298
 40
437.861154426298
 40
437.861154426298
 40
437.861154426298
 40
438.9083519900485
 40
438.9083519900485
 40
438.9083519900485
 40
438.9083519900485
 40
438.9083519900485
 10
-102.0052391897881
 20
-474.9108737438148
 30
0.0
 41
1.0
 10
-102.005239189788
 20
-474.9108737438146
 30
0.0
 41
0.7994154148863511
 10
-101.9137328366421
 20
-474.9108737438149
 30
0.0
 41
0.668555462618005
 10
-101.7372899910799
 20
-474.9108737438149
 30
0.0
 41
0.5868707224667049
 10
-101.505239178916
 20
-474.9108737438146
 30
0.0
 41
0.538939297087483
 10
-101.2731883667521
 20
-474.9108737438146
 30
0.0
 41
0.5868707224667049
 10
-101.0052391700339
 20
-474.9108737438148
 30
0.0
 41
0.6685554626180052
 10
-100.7372899751623
 20
-474.9108737438148
 30
0.0
 41
0.7994154148863514
 10
-100.5052391680441
 20
-474.9108737438147
 30
0.0
 41
1.0
  0
SPLINE
  5
114
330
1F
100
AcDbEntity
  8
Make2D$Visibile$90
100
AcDbSpline
210
0.0
220
0.0
230
1.0
 70
    28
 71
     4
 72
    14
 73
     9
 74
     0
 42
0.0000000001
 43
0.0000000001
 40
436.8139568625474
 40
436.8139568625474
 40
436.8139568625474
 40
436.8139568625474
 40
436.8139568625474
 40
437.861154426298
 40
437.861154426298
 40
437.861154426298
 40
437.861154426298
 40
438.9083519900485
 40
438.9083519900485
 40
438.9083519900485
 40
438.9083519900485
 40
438.9083519900485
 10
-102.0052391897885
 20
346.3773671141022
 30
0.0
 41
1.0
 10
-102.0052391897883
 20
346.3773671141024
 30
0.0
 41
0.7994154148863511
 10
-101.9137328366425
 20
346.3773671141021
 30
0.0
 41
0.668555462618005
 10
-101.7372899910803
 20
346.3773671141021
 30
0.0
 41
0.5868707224667049
 10
-101.5052391789165
 20
346.3773671141024
 30
0.0
 41
0.538939297087483
 10
-101.2731883667525
 20
346.3773671141024
 30
0.0
 41
0.5868707224667049
 10
-101.0052391700342
 20
346.3773671141022
 30
0.0
 41
0.6685554626180052
 10
-100.7372899751627
 20
346.3773671141022
 30
0.0
 41
0.7994154148863514
 10
-100.5052391680446
 20
346.3773671141024
 30
0.0
 41
1.0
  0
SPLINE
  5
115
330
1F
100
AcDbEntity
  8
Make2D$Visibile$90
100
AcDbSpline
210
0.0
220
0.0
230
1.0
 70
    28
 71
     2
 72
     6
 73
     3
 74
     0
 42
0.0000000001
 43
0.0000000001
 40
0.0
 40
0.0
 40
0.0
 40
1129.999999999981
 40
1129.999999999981
 40
1129.999999999981
 10
-102.0052391897885
 20
346.3773671141022
 30
0.0
 41
1.0
 10
-102.0052391897883
 20
-64.26675331485632
 30
0.0
 41
1.0
 10
-102.0052391897881
 20
-474.9108737438148
 30
0.0
 41
1.0
  0
SPLINE
  5
116
330
1F
100
AcDbEntity
  8
Make2D$Visibile$90
100
AcDbSpline
210
0.0
220
0.0
230
1.0
 70
    12
 71
     2
 72
     6
 73
     3
 74
     0
 42
0.0000000001
 43
0.0000000001
 40
-108.3859828663597
 40
-108.3859828663597
 40
-108.3859828663597
 40
-108.0721688058548
 40
-108.0721688058548
 40
-108.0721688058548
 10
-101.9985011497498
 20
341.7201094759118
 30
0.0
 41
0.905298379858549
 10
-102.1058635953131
 20
341.7203241535622
 30
0.0
 41
0.9248769127500198
 10
-102.1484834485457
 20
341.7204978553297
 30
0.0
 41
1.0
  0
SPLINE
  5
117
330
1F
100
AcDbEntity
  8
Make2D$Visibile$90
100
AcDbSpline
210
0.0
220
0.0
230
1.0
 70
    28
 71
     2
 72
     6
 73
     3
 74
     0
 42
0.0000000001
 43
0.0000000001
 40
1.497582456986788
 40
1.497582456986788
 40
1.497582456986788
 40
2.222173326587355
 40
2.222173326587355
 40
2.222173326587355
 10
-101.5187442529913
 20
347.6898181617699
 30
0.0
 41
1.0
 10
-101.1440586987475
 20
347.6898181617697
 30
0.0
 41
0.9511280869760966
 10
-100.8408296991571
 20
347.6898181617699
 30
0.0
 41
1.0
  0
SPLINE
  5
118
330
1F
100
AcDbEntity
  8
Make2D$Visibile$90
100
AcDbSpline
210
0.0
220
0.0
230
1.0
 70
    12
 71
     2
 72
     6
 73
     3
 74
     0
 42
0.0000000001
 43
0.0000000001
 40
0.9424984450696081
 40
0.9424984450696081
 40
0.9424984450696081
 40
1.259567716740008
 40
1.259567716740008
 40
1.259567716740008
 10
-101.9962188393488
 20
341.1514835188978
 30
0.0
 41
0.9048981779911357
 10
-102.105385184652
 20
341.1516407045987
 30
0.0
 41
0.9240976566771453
 10
-102.1484834485457
 20
341.1517677747316
 30
0.0
 41
1.0
  0
SPLINE
  5
119
330
1F
100
AcDbEntity
  8
Make2D$Visibile$90
100
AcDbSpline
210
0.0
220
0.0
230
1.0
 70
    28
 71
     2
 72
     6
 73
     3
 74
     0
 42
0.0000000001
 43
0.0000000001
 40
13.07341264736504
 40
13.07341264736504
 40
13.07341264736504
 40
177.9999999999807
 40
177.9999999999807
 40
177.9999999999807
 10
-85.034840047334
 20
346.3773671141024
 30
0.0
 41
1.0
 10
-85.034840047334
 20
428.8406607904102
 30
0.0
 41
1.0
 10
-85.034840047334
 20
511.303954466718
 30
0.0
 41
1.0
  0
SPLINE
  5
11A
330
1F
100
AcDbEntity
  8
Make2D$Visibile$90
100
AcDbSpline
210
0.0
220
0.0
230
1.0
 70
    12
 71
     2
 72
     6
 73
     3
 74
     0
 42
0.0000000001
 43
0.0000000001
 40
-108.4442979297702
 40
-108.4442979297702
 40
-108.4442979297702
 40
-108.0721688058548
 40
-108.0721688058548
 40
-108.0721688058548
 10
-102.0052391897881
 20
-469.4295852395879
 30
0.0
 41
0.8999399898933282
 10
-102.1467797773676
 20
-469.4298468133261
 30
0.0
 41
0.9109170296602437
 10
-102.1980940679495
 20
-469.430055950202
 30
0.0
 41
1.0
  0
SPLINE
  5
11B
330
1F
100
AcDbEntity
  8
Make2D$Visibile$90
100
AcDbSpline
210
0.0
220
0.0
230
1.0
 70
    28
 71
     4
 72
    14
 73
     9
 74
     0
 42
0.0000000001
 43
0.0000000001
 40
222.2374102323854
 40
222.2374102323854
 40
222.2374102323854
 40
222.2374102323854
 40
222.2374102323854
 40
237.8737406657922
 40
237.8737406657922
 40
237.8737406657922
 40
237.8737406657922
 40
239.0719747677375
 40
239.0719747677375
 40
239.0719747677375
 40
239.0719747677375
 40
239.0719747677375
 10
-42.13477856357498
 20
-474.9108737438146
 30
0.0
 41
0.538939297087483
 10
-38.74941867612742
 20
-474.9108737438146
 30
0.0
 41
0.538939297087483
 10
-35.36407647756538
 20
-474.9108737438146
 30
0.0
 41
0.538939297087483
 10
-31.9787996229951
 20
-474.9108737438146
 30
0.0
 41
0.538939297087483
 10
-28.59363576752303
 20
-474.9108737438146
 30
0.0
 41
0.538939297087483
 10
-28.37948185083626
 20
-474.9108737438146
 30
0.0
 41
0.5079536805283211
 10
-28.19919249883701
 20
-474.9108737438146
 30
0.0
 41
0.4950154550524368
 10
-28.09404240201221
 20
-474.9108737438146
 30
0.0
 41
0.5050966275286469
 10
-28.09404240201215
 20
-474.9108737438148
 30
0.0
 41
0.5439830367541572
  0
SPLINE
  5
11C
330
1F
100
AcDbEntity
  8
Make2D$Visibile$90
100
AcDbSpline
210
0.0
220
0.0
230
1.0
 70
    28
 71
     4
 72
    14
 73
     9
 74
     0
 42
0.0000000001
 43
0.0000000001
 40
222.293973387761
 40
222.293973387761
 40
222.293973387761
 40
222.293973387761
 40
222.293973387761
 40
237.8737406657922
 40
237.8737406657922
 40
237.8737406657922
 40
237.8737406657922
 40
239.0719747677366
 40
239.0719747677366
 40
239.0719747677366
 40
239.0719747677366
 40
239.0719747677366
 10
-42.08579350722412
 20
346.3773671141024
 30
0.0
 41
0.538939297087483
 10
-38.71268007734783
 20
346.3773671141024
 30
0.0
 41
0.538939297087483
 10
-35.3395845508993
 20
346.3773671141024
 30
0.0
 41
0.538939297087483
 10
-31.966554067688
 20
346.3773671141024
 30
0.0
 41
0.538939297087483
 10
-28.59363576752345
 20
346.3773671141024
 30
0.0
 41
0.538939297087483
 10
-28.37948185083677
 20
346.3773671141022
 30
0.0
 41
0.5079536805283461
 10
-28.19919249883766
 20
346.3773671141024
 30
0.0
 41
0.4950154550524577
 10
-28.09404240201289
 20
346.3773671141024
 30
0.0
 41
0.5050966275286226
 10
-28.09404240201258
 20
346.3773671141023
 30
0.0
 41
0.5439830367540317
  0
SPLINE
  5
11D
330
1F
100
AcDbEntity
  8
Make2D$Visibile$90
100
AcDbSpline
210
0.0
220
0.0
230
1.0
 70
    28
 71
     2
 72
     6
 73
     3
 74
     0
 42
0.0000000001
 43
0.0000000001
 40
4.65698157209056
 40
4.65698157209056
 40
4.65698157209056
 40
5.22568058924111
 40
5.22568058924111
 40
5.22568058924111
 10
-68.14665096888787
 20
341.7203855420119
 30
0.0
 41
0.538873978475169
 10
-68.14665096888787
 20
341.4360360334366
 30
0.0
 41
0.538873978475169
 10
-68.14665096888787
 20
341.1516865248613
 30
0.0
 41
0.538873978475169
  0
SPLINE
  5
11E
330
1F
100
AcDbEntity
  8
Make2D$Visibile$90
100
AcDbSpline
210
0.0
220
0.0
230
1.0
 70
    28
 71
     2
 72
     6
 73
     3
 74
     0
 42
0.0000000001
 43
0.0000000001
 40
6.407927710882125
 40
6.407927710882125
 40
6.407927710882125
 40
7.190270000947988
 40
7.190270000947988
 40
7.190270000947988
 10
-61.45098297473726
 20
341.7200612050623
 30
0.0
 41
1.0
 10
-61.45098297473726
 20
341.4357565487982
 30
0.0
 41
1.0
 10
-61.45098297473726
 20
341.1514518925341
 30
0.0
 41
1.0
  0
SPLINE
  5
11F
330
1F
100
AcDbEntity
  8
Make2D$Visibile$90
100
AcDbSpline
210
0.0
220
0.0
230
1.0
 70
    12
 71
     2
 72
     6
 73
     3
 74
     0
 42
0.0000000001
 43
0.0000000001
 40
0.6185785497942449
 40
0.6185785497942449
 40
0.6185785497942449
 40
0.7941248096578791
 40
0.7941248096578791
 40
0.7941248096578791
 10
-67.76982399680251
 20
347.6596394431298
 30
0.0
 41
0.9616218887762913
 10
-67.7104070298575
 20
347.6899138999199
 30
0.0
 41
0.9656040756359654
 10
-67.64716904828003
 20
347.6898181617702
 30
0.0
 41
1.0
  0
SPLINE
  5
120
330
1F
100
AcDbEntity
  8
Make2D$Visibile$90
100
AcDbSpline
210
0.0
220
0.0
230
1.0
 70
     8
 71
     3
 72
    10
 73
     6
 74
     0
 42
0.0000000001
 43
0.0000000001
 40
0.0000000000003371
 40
0.0000000000003371
 40
0.0000000000003371
 40
0.0000000000003371
 40
0.1971145389245604
 40
0.1971145389245604
 40
0.8095926452021425
 40
0.8095926452021425
 40
0.8095926452021425
 40
0.8095926452021425
 10
-42.61391335425174
 20
347.6898181617699
 30
0.0
 10
-42.59921294110916
 20
347.6898181617695
 30
0.0
 10
-42.29058675111219
 20
347.5735983398168
 30
0.0
 10
-42.16643870529003
 20
347.4494502939948
 30
0.0
 10
-42.11391335425174
 20
347.3222106109364
 30
0.0
 10
-42.11391335425174
 20
347.1898181617699
 30
0.0
  0
SPLINE
  5
121
330
1F
100
AcDbEntity
  8
Make2D$Visibile$90
100
AcDbSpline
210
0.0
220
0.0
230
1.0
 70
     8
 71
     3
 72
    12
 73
     8
 74
     0
 42
0.0000000001
 43
0.0000000001
 40
0.0
 40
0.0
 40
0.0
 40
0.0
 40
0.4557616899155028
 40
0.4557616899155028
 40
0.6893544332955339
 40
0.6893544332955339
 40
0.797981644011402
 40
0.797981644011402
 40
0.797981644011402
 40
0.797981644011402
 10
-72.30576674041811
 20
347.1898181617699
 30
0.0
 10
-72.30576674041811
 20
347.3222106109364
 30
0.0
 10
-72.25324138937992
 20
347.4494502939948
 30
0.0
 10
-72.11118242025282
 20
347.5915092631218
 30
0.0
 10
-72.05354748239131
 20
347.6294808455026
 30
0.0
 10
-71.96017627349283
 20
347.6664456556445
 30
0.0
 10
-71.80611570029987
 20
347.6898181617699
 30
0.0
 10
-71.80576674041811
 20
347.6898181617699
 30
0.0
  0
SPLINE
  5
122
330
1F
100
AcDbEntity
  8
Make2D$Visibile$90
100
AcDbSpline
210
0.0
220
0.0
230
1.0
 70
    28
 71
     2
 72
     6
 73
     3
 74
     0
 42
0.0000000001
 43
0.0000000001
 40
4.500000000002883
 40
4.500000000002883
 40
4.500000000002883
 40
168.114136304951
 40
168.114136304951
 40
168.114136304951
 10
-69.034840047334
 20
511.3039544667182
 30
0.0
 41
1.0
 10
-69.034840047334
 20
429.4968863142441
 30
0.0
 41
1.0
 10
-69.034840047334
 20
347.6898181617699
 30
0.0
 41
1.0
  0
SPLINE
  5
123
330
1F
100
AcDbEntity
  8
Make2D$Visibile$90
100
AcDbSpline
210
0.0
220
0.0
230
1.0
 70
    28
 71
     2
 72
     8
 73
     5
 74
     0
 42
0.0000000001
 43
0.0000000001
 40
315.3485066659033
 40
315.3485066659033
 40
315.3485066659033
 40
355.8008552640018
 40
355.8008552640018
 40
474.4011403520024
 40
474.4011403520024
 40
474.4011403520024
 10
-152.5381265427874
 20
545.3039544667226
 30
0.0
 41
0.8683475024126035
 10
-152.5381265427873
 20
545.3039544667229
 30
0.0
 41
0.9000995774953693
 10
-142.4226042216109
 20
545.3039544667228
 30
0.0
 41
1.0
 10
-104.6709609738838
 20
545.3039544667229
 30
0.0
 41
0.7071067811865476
 10
-39.28319679960714
 20
545.3039544667228
 30
0.0
 41
1.0
  0
SPLINE
  5
124
330
1F
100
AcDbEntity
  8
Make2D$Visibile$90
100
AcDbSpline
210
0.0
220
0.0
230
1.0
 70
    28
 71
     2
 72
     6
 73
     3
 74
     0
 42
0.0000000001
 43
0.0000000001
 40
0.0
 40
0.0
 40
0.0
 40
34.00000000000489
 40
34.00000000000489
 40
34.00000000000489
 10
-1.53155355188093
 20
545.3039544667226
 30
0.0
 41
0.8683475024126035
 10
-1.53155355188093
 20
528.3039544667203
 30
0.0
 41
0.8683475024126035
 10
-1.53155355188093
 20
511.3039544667178
 30
0.0
 41
0.8683475024126035
  0
SPLINE
  5
125
330
1F
100
AcDbEntity
  8
Make2D$Visibile$90
100
AcDbSpline
210
0.0
220
0.0
230
1.0
 70
    28
 71
     2
 72
     6
 73
     3
 74
     0
 42
0.0000000001
 43
0.0000000001
 40
0.0
 40
0.0
 40
0.0
 40
34.00000000000489
 40
34.00000000000489
 40
34.00000000000489
 10
-152.5381265427874
 20
511.3039544667178
 30
0.0
 41
0.8683475024126035
 10
-152.5381265427874
 20
528.3039544667203
 30
0.0
 41
0.8683475024126035
 10
-152.5381265427874
 20
545.3039544667226
 30
0.0
 41
0.8683475024126035
  0
SPLINE
  5
126
330
1F
100
AcDbEntity
  8
Make2D$Visibile$90
100
AcDbSpline
210
0.0
220
0.0
230
1.0
 70
    28
 71
     2
 72
     6
 73
     3
 74
     0
 42
0.0000000001
 43
0.0000000001
 40
0.0
 40
0.0
 40
0.0
 40
78.14793648990214
 40
78.14793648990214
 40
78.14793648990214
 10
-39.28319679960714
 20
545.3039544667228
 30
0.0
 41
1.0
 10
-1.531553551880715
 20
545.3039544667229
 30
0.0
 41
0.8070072036911783
 10
-1.53155355188093
 20
545.3039544667226
 30
0.0
 41
0.8683475024126035
  0
SPLINE
  5
127
330
1F
100
AcDbEntity
  8
Make2D$Visibile$90
100
AcDbSpline
210
0.0
220
0.0
230
1.0
 70
    28
 71
     2
 72
     6
 73
     3
 74
     0
 42
0.0000000001
 43
0.0000000001
 40
0.0
 40
0.0
 40
0.0
 40
78.14793648990214
 40
78.14793648990214
 40
78.14793648990214
 10
-39.28319679960714
 20
511.303954466718
 30
0.0
 41
1.0
 10
-1.531553551880715
 20
511.3039544667179
 30
0.0
 41
0.8070072036911783
 10
-1.53155355188093
 20
511.3039544667178
 30
0.0
 41
0.8683475024126035
  0
SPLINE
  5
128
330
1F
100
AcDbEntity
  8
Make2D$Visibile$90
100
AcDbSpline
210
0.0
220
0.0
230
1.0
 70
    28
 71
     2
 72
     8
 73
     5
 74
     0
 42
0.0000000001
 43
0.0000000001
 40
26.58280388343719
 40
26.58280388343719
 40
26.58280388343719
 40
49.51003191910188
 40
49.51003191910188
 40
72.43725995476656
 40
72.43725995476656
 40
72.43725995476656
 10
-42.6380818833012
 20
-475.3993762566424
 30
0.0
 41
1.0
 10
-42.63808188330024
 20
-475.3993762566425
 30
0.0
 41
0.7071067811865287
 10
-57.23400857638489
 20
-475.3993762566424
 30
0.0
 41
1.0
 10
-71.82993526946966
 20
-475.3993762566425
 30
0.0
 41
0.7071067811865287
 10
-71.82993526946916
 20
-475.3993762566424
 30
0.0
 41
1.0
  0
SPLINE
  5
129
330
1F
100
AcDbEntity
  8
Make2D$Visibile$90
100
AcDbSpline
210
0.0
220
0.0
230
1.0
 70
    28
 71
     2
 72
     6
 73
     3
 74
     0
 42
0.0000000001
 43
0.0000000001
 40
0.0
 40
0.0
 40
0.0
 40
5.46168488423806
 40
5.46168488423806
 40
5.46168488423806
 10
-72.32986980455497
 20
-474.8918745585539
 30
0.0
 41
0.9361701108508818
 10
-72.32999265698862
 20
-472.1610321192421
 30
0.0
 41
0.9361701108508818
 10
-72.33011550942227
 20
-469.4301896799303
 30
0.0
 41
0.9361701108508818
  0
SPLINE
  5
12A
330
1F
100
AcDbEntity
  8
Make2D$Visibile$90
100
AcDbSpline
210
0.0
220
0.0
230
1.0
 70
     8
 71
     3
 72
    10
 73
     6
 74
     0
 42
0.0000000001
 43
0.0000000001
 40
0.0000000000001769
 40
0.0000000000001769
 40
0.0000000000001769
 40
0.0000000000001769
 40
0.3271220088457355
 40
0.3271220088457355
 40
0.7812821286618457
 40
0.7812821286618457
 40
0.7812821286618457
 40
0.7812821286618457
 10
-71.82993526946905
 20
-475.3993762566424
 30
0.0
 10
-71.91832361711738
 20
-475.3627646042906
 30
0.0
 10
-72.09510031241393
 20
-475.2895412995874
 30
0.0
 10
-72.27740991843064
 20
-475.1590083888673
 30
0.0
 10
-72.32993526946893
 20
-475.0317687058088
 30
0.0
 10
-72.32993526946893
 20
-474.8993762566425
 30
0.0
  0
SPLINE
  5
12B
330
1F
100
AcDbEntity
  8
Make2D$Visibile$90
100
AcDbSpline
210
0.0
220
0.0
230
1.0
 70
    28
 71
     2
 72
     6
 73
     3
 74
     0
 42
0.0000000001
 43
0.0000000001
 40
0.0
 40
0.0
 40
0.0
 40
5.461684884237946
 40
5.461684884237946
 40
5.461684884237946
 10
-42.13840490856014
 20
-469.4288314451708
 30
0.0
 41
0.9252018640369599
 10
-42.13828205612648
 20
-472.1596738844826
 30
0.0
 41
0.9252018640369599
 10
-42.13815920369282
 20
-474.8905163237944
 30
0.0
 41
0.9252018640369599
  0
SPLINE
  5
12C
330
1F
100
AcDbEntity
  8
Make2D$Visibile$90
100
AcDbSpline
210
0.0
220
0.0
230
1.0
 70
    28
 71
     2
 72
     8
 73
     5
 74
     0
 42
0.0000000001
 43
0.0000000001
 40
41.86762265393709
 40
41.86762265393709
 40
41.86762265393709
 40
62.80143390084934
 40
62.80143390084934
 40
83.73524514776159
 40
83.73524514776159
 40
83.73524514776159
 10
-131.3303774389167
 20
-475.3993762566424
 30
0.0
 41
1.0
 10
-131.3303774389166
 20
-475.3993762566425
 30
0.0
 41
0.753707279592479
 10
-118.7216763365112
 20
-475.3993762566424
 30
0.0
 41
1.0
 10
-106.1129752341058
 20
-475.3993762566425
 30
0.0
 41
0.753707279592479
 10
-102.6796429047801
 20
-475.3993762566424
 30
0.0
 41
1.0
  0
SPLINE
  5
12D
330
1F
100
AcDbEntity
  8
Make2D$Visibile$90
100
AcDbSpline
210
0.0
220
0.0
230
1.0
 70
    12
 71
     2
 72
     8
 73
     5
 74
     0
 42
0.0000000001
 43
0.0000000001
 40
-108.0721688058548
 40
-108.0721688058548
 40
-108.0721688058548
 40
-86.42135355646744
 40
-86.42135355646744
 40
-64.7705383070801
 40
-64.7705383070801
 40
-64.7705383070801
 10
-102.1980940679495
 20
-469.4300559502018
 30
0.0
 41
1.0
 10
-105.7490196987107
 20
-469.4304165933054
 30
0.0
 41
0.7537072402266902
 10
-118.7895862633347
 20
-469.4299945610232
 30
0.0
 41
1.0
 10
-131.8301528279588
 20
-469.4295725287412
 30
0.0
 41
0.7537072402266902
 10
-131.8301528149294
 20
-469.4290969669159
 30
0.0
 41
1.0
  0
SPLINE
  5
12E
330
1F
100
AcDbEntity
  8
Make2D$Visibile$90
100
AcDbSpline
210
0.0
220
0.0
230
1.0
 70
    28
 71
     2
 72
     8
 73
     5
 74
     0
 42
0.0000000001
 43
0.0000000001
 40
0.0
 40
0.0
 40
0.0
 40
4.502757648194446
 40
4.502757648194446
 40
9.005515296388893
 40
9.005515296388893
 40
9.005515296388893
 10
-100.890440318561
 20
-475.3993762566424
 30
0.0
 41
1.0
 10
-98.85966284064457
 20
-475.3993762566425
 30
0.0
 41
0.8527006868139086
 10
-96.62409344669697
 20
-475.3993762566424
 30
0.0
 41
1.0
 10
-94.38852405274933
 20
-475.3993762566425
 30
0.0
 41
0.8527006868139086
 10
-94.38852405274963
 20
-475.3993762566424
 30
0.0
 41
1.0
  0
SPLINE
  5
12F
330
1F
100
AcDbEntity
  8
Make2D$Visibile$90
100
AcDbSpline
210
0.0
220
0.0
230
1.0
 70
    28
 71
     2
 72
     6
 73
     3
 74
     0
 42
0.0000000001
 43
0.0000000001
 40
0.0
 40
0.0
 40
0.0
 40
5.461684884237832
 40
5.461684884237832
 40
5.461684884237832
 10
-131.8303024539512
 20
-474.8907818455398
 30
0.0
 41
0.9270179637879669
 10
-131.8302276344403
 20
-472.159939406228
 30
0.0
 41
0.9270179637879669
 10
-131.8301528149295
 20
-469.4290969669162
 30
0.0
 41
0.9270179637879669
  0
SPLINE
  5
130
330
1F
100
AcDbEntity
  8
Make2D$Visibile$90
100
AcDbSpline
210
0.0
220
0.0
230
1.0
 70
    12
 71
     3
 72
    11
 73
     7
 74
     0
 42
0.0000000001
 43
0.0000000001
 40
0.0
 40
0.0
 40
0.0
 40
0.0
 40
0.4028719864637211
 40
0.4028719864637211
 40
0.4028719864637211
 40
0.8144665112987652
 40
0.8144665112987652
 40
0.8144665112987652
 40
0.8144665112987652
 10
-93.88852405274952
 20
-474.8993762566423
 30
0.0
 41
0.9999999977281104
 10
-93.88852405274945
 20
-475.0299781941244
 30
0.0
 41
0.9023689250120999
 10
-93.93733958921838
 20
-475.1552985742978
 30
0.0
 41
0.8535533886540948
 10
-94.03497066215631
 20
-475.2529296472357
 30
0.0
 41
0.8535533886540947
 10
-94.07502922581699
 20
-475.2929882108965
 30
0.0
 41
0.8535533886540947
 10
-94.35565688599625
 20
-475.3993762566425
 30
0.0
 41
0.8535533886540947
 10
-94.38852405274956
 20
-475.3993762566425
 30
0.0
 41
0.8535533886540947
  0
SPLINE
  5
131
330
1F
100
AcDbEntity
  8
Make2D$Visibile$90
100
AcDbSpline
210
0.0
220
0.0
230
1.0
 70
     8
 71
     3
 72
    10
 73
     6
 74
     0
 42
0.0000000001
 43
0.0000000001
 40
0.0000000000002134
 40
0.0000000000002134
 40
0.0000000000002134
 40
0.0000000000002134
 40
0.161533413667301
 40
0.161533413667301
 40
0.7997040134000868
 40
0.7997040134000868
 40
0.7997040134000868
 40
0.7997040134000868
 10
-131.3303774389151
 20
-475.3993762566424
 30
0.0
 10
-131.3331533631612
 20
-475.3993762566421
 30
0.0
 10
-131.6601575289418
 20
-475.2767029478022
 30
0.0
 10
-131.7778520878769
 20
-475.1590083888671
 30
0.0
 10
-131.8303774389151
 20
-475.0317687058088
 30
0.0
 10
-131.8303774389151
 20
-474.8993762566424
 30
0.0
  0
SPLINE
  5
132
330
1F
100
AcDbEntity
  8
Make2D$Visibile$90
100
AcDbSpline
210
0.0
220
0.0
230
1.0
 70
    28
 71
     2
 72
     6
 73
     3
 74
     0
 42
0.0000000001
 43
0.0000000001
 40
0.0
 40
0.0
 40
0.0
 40
1.497582456986788
 40
1.497582456986788
 40
1.497582456986788
 10
-102.6796429047801
 20
-475.3993762566426
 30
0.0
 41
1.0
 10
-102.4435480756474
 20
-475.3993762566426
 30
0.0
 41
0.7967945443744897
 10
-101.568354872395
 20
-475.3993762566425
 30
0.0
 41
1.0
  0
SPLINE
  5
133
330
1F
100
AcDbEntity
  8
Make2D$Visibile$90
100
AcDbSpline
210
0.0
220
0.0
230
1.0
 70
    28
 71
     2
 72
     6
 73
     3
 74
     0
 42
0.0000000001
 43
0.0000000001
 40
1.497582456986788
 40
1.497582456986788
 40
1.497582456986788
 40
2.222173326587355
 40
2.222173326587355
 40
2.222173326587355
 10
-101.568354872395
 20
-475.3993762566424
 30
0.0
 41
1.0
 10
-101.1936693181513
 20
-475.3993762566424
 30
0.0
 41
0.9511280869760966
 10
-100.8904403185609
 20
-475.3993762566424
 30
0.0
 41
1.0
  0
SPLINE
  5
134
330
1F
100
AcDbEntity
  8
Make2D$Visibile$90
100
AcDbSpline
210
0.0
220
0.0
230
1.0
 70
    24
 71
     3
 72
     8
 73
     4
 74
     0
 42
0.0000000001
 43
0.0000000001
 40
136.9379028603243
 40
136.9379028603243
 40
136.9379028603243
 40
136.9379028603243
 40
137.2277002316458
 40
137.2277002316458
 40
137.2277002316458
 40
137.2277002316458
 10
-102.0052391897881
 20
-468.6912177616701
 30
0.0
 10
-102.062030178814
 20
-468.6912177616701
 30
0.0
 10
-102.1053305141862
 20
-468.6912177616701
 30
0.0
 10
-102.1305348499316
 20
-468.6912177616701
 30
0.0
  0
SPLINE
  5
135
330
1F
100
AcDbEntity
  8
Make2D$Visibile$90
100
AcDbSpline
210
0.0
220
0.0
230
1.0
 70
    28
 71
     4
 72
    10
 73
     5
 74
     0
 42
0.0000000001
 43
0.0000000001
 40
457.446643673642
 40
457.446643673642
 40
457.446643673642
 40
457.446643673642
 40
457.446643673642
 40
471.4880863325643
 40
471.4880863325643
 40
471.4880863325643
 40
471.4880863325643
 40
471.4880863325643
 10
-84.45060772956201
 20
346.3773671141024
 30
0.0
 41
0.538939297087483
 10
-81.41054623682635
 20
346.3773671141024
 30
0.0
 41
0.538939297087483
 10
-78.3704847440906
 20
346.3773671141024
 30
0.0
 41
0.538939297087483
 10
-75.33043397407673
 20
346.3773671141024
 30
0.0
 41
0.538939297087483
 10
-72.29040464950621
 20
346.3773671141024
 30
0.0
 41
0.538939297087483
  0
SPLINE
  5
136
330
1F
100
AcDbEntity
  8
Make2D$Visibile$90
100
AcDbSpline
210
0.0
220
0.0
230
1.0
 70
    28
 71
     2
 72
     6
 73
     3
 74
     0
 42
0.0000000001
 43
0.0000000001
 40
815.0616254043385
 40
815.0616254043385
 40
815.0616254043385
 40
815.8073095201956
 40
815.8073095201956
 40
815.8073095201956
 10
-68.14665096888787
 20
-468.6842582902365
 30
0.0
 41
0.538873978475169
 10
-68.14665096888787
 20
-469.057100348165
 30
0.0
 41
0.538873978475169
 10
-68.14665096888787
 20
-469.4299424060936
 30
0.0
 41
0.538873978475169
  0
SPLINE
  5
137
330
1F
100
AcDbEntity
  8
Make2D$Visibile$90
100
AcDbSpline
210
0.0
220
0.0
230
1.0
 70
    28
 71
     2
 72
     6
 73
     3
 74
     0
 42
0.0000000001
 43
0.0000000001
 40
1121.442454779948
 40
1121.442454779948
 40
1121.442454779948
 40
1122.458410473676
 40
1122.458410473676
 40
1122.458410473676
 10
-61.4509829747368
 20
-468.6912177616702
 30
0.0
 41
1.0
 10
-61.4509829747368
 20
-469.0604179671972
 30
0.0
 41
1.0
 10
-61.4509829747368
 20
-469.4296181727241
 30
0.0
 41
1.0
  0
SPLINE
  5
138
330
1F
100
AcDbEntity
  8
Make2D$Visibile$90
100
AcDbSpline
210
0.0
220
0.0
230
1.0
 70
    28
 71
     2
 72
     6
 73
     3
 74
     0
 42
0.0000000001
 43
0.0000000001
 40
0.0
 40
0.0
 40
0.0
 40
809.8420999175614
 40
809.8420999175614
 40
809.8420999175614
 10
-42.11423637950966
 20
341.1508819414469
 30
0.0
 41
0.9252018640403116
 10
-42.11654621560267
 20
-63.77016791007993
 30
0.0
 41
0.9252018640403116
 10
-42.11885605169569
 20
-468.6912177616067
 30
0.0
 41
0.9252018640403116
  0
SPLINE
  5
139
330
1F
100
AcDbEntity
  8
Make2D$Visibile$90
100
AcDbSpline
210
0.0
220
0.0
230
1.0
 70
    28
 71
     4
 72
    10
 73
     5
 74
     0
 42
0.0000000001
 43
0.0000000001
 40
457.446643673642
 40
457.446643673642
 40
457.446643673642
 40
457.446643673642
 40
457.446643673642
 40
471.4535107236015
 40
471.4535107236015
 40
471.4535107236015
 40
471.4535107236015
 40
471.4535107236015
 10
-84.45060772956168
 20
-474.9108737438146
 30
0.0
 41
0.538939297087483
 10
-81.41803207570666
 20
-474.9108737438146
 30
0.0
 41
0.538939297087483
 10
-78.38545642185142
 20
-474.9108737438146
 30
0.0
 41
0.538939297087483
 10
-75.35289141170209
 20
-474.9108737438146
 30
0.0
 41
0.538939297087483
 10
-72.32034768896446
 20
-474.9108737438146
 30
0.0
 41
0.538939297087483
  0
SPLINE
  5
13A
330
1F
100
AcDbEntity
  8
Make2D$Visibile$90
100
AcDbSpline
210
0.0
220
0.0
230
1.0
 70
    28
 71
     2
 72
     6
 73
     3
 74
     0
 42
0.0000000001
 43
0.0000000001
 40
0.0
 40
0.0
 40
0.0
 40
821.2882408579144
 40
821.2882408579144
 40
821.2882408579144
 10
-28.0940424020127
 20
346.3773671141023
 30
0.0
 41
0.5439830367541203
 10
-28.0940424020127
 20
-64.26675331485492
 30
0.0
 41
0.5439830367541203
 10
-28.0940424020127
 20
-474.9108737438121
 30
0.0
 41
0.5439830367541203
  0
SPLINE
  5
13B
330
1F
100
AcDbEntity
  8
Make2D$Visibile$90
100
AcDbSpline
210
0.0
220
0.0
230
1.0
 70
    28
 71
     2
 72
     8
 73
     5
 74
     0
 42
0.0000000001
 43
0.0000000001
 40
41.86762265393718
 40
41.86762265393718
 40
41.86762265393718
 40
62.80143390084938
 40
62.80143390084938
 40
83.73524514776159
 40
83.73524514776159
 40
83.73524514776159
 10
-131.2807668195129
 20
347.6898181617699
 30
0.0
 41
1.0
 10
-131.2807668195128
 20
347.68981816177
 30
0.0
 41
0.7537072795924801
 10
-118.6720657171074
 20
347.6898181617699
 30
0.0
 41
1.0
 10
-106.0633646147021
 20
347.68981816177
 30
0.0
 41
0.7537072795924801
 10
-102.6300322853763
 20
347.6898181617699
 30
0.0
 41
1.0
  0
SPLINE
  5
13C
330
1F
100
AcDbEntity
  8
Make2D$Visibile$90
100
AcDbSpline
210
0.0
220
0.0
230
1.0
 70
    12
 71
     2
 72
     8
 73
     5
 74
     0
 42
0.0000000001
 43
0.0000000001
 40
-108.0721688058548
 40
-108.0721688058548
 40
-108.0721688058548
 40
-86.42135355646744
 40
-86.42135355646744
 40
-64.7705383070801
 40
-64.7705383070801
 40
-64.7705383070801
 10
-102.1484834485457
 20
341.7204978553294
 30
0.0
 41
1.0
 10
-105.6994090793068
 20
341.7208584984328
 30
0.0
 41
0.7537072402266902
 10
-118.739975643931
 20
341.7204364661508
 30
0.0
 41
1.0
 10
-131.7805422085551
 20
341.7200144338687
 30
0.0
 41
0.7537072402266902
 10
-131.7805421955256
 20
341.7195388720435
 30
0.0
 41
1.0
  0
SPLINE
  5
13D
330
1F
100
AcDbEntity
  8
Make2D$Visibile$90
100
AcDbSpline
210
0.0
220
0.0
230
1.0
 70
    28
 71
     2
 72
     8
 73
     5
 74
     0
 42
0.0000000001
 43
0.0000000001
 40
0.0
 40
0.0
 40
0.0
 40
4.502757648194294
 40
4.502757648194294
 40
9.005515296388587
 40
9.005515296388587
 40
9.005515296388587
 10
-100.8408296991571
 20
347.6898181617699
 30
0.0
 41
1.0
 10
-98.81005222124078
 20
347.6898181617698
 30
0.0
 41
0.8527006868139184
 10
-96.57448282729331
 20
347.6898181617699
 30
0.0
 41
1.0
 10
-94.33891343334561
 20
347.6898181617698
 30
0.0
 41
0.8527006868139184
 10
-94.33891343334574
 20
347.6898181617699
 30
0.0
 41
1.0
  0
SPLINE
  5
13E
330
1F
100
AcDbEntity
  8
Make2D$Visibile$90
100
AcDbSpline
210
0.0
220
0.0
230
1.0
 70
    28
 71
     2
 72
     6
 73
     3
 74
     0
 42
0.0000000001
 43
0.0000000001
 40
0.0
 40
0.0
 40
0.0
 40
0.8040931653985437
 40
0.8040931653985437
 40
0.8040931653985437
 10
-93.8389863286191
 20
347.1814602786742
 30
0.0
 41
0.9513858919519305
 10
-93.83897531336302
 20
346.7794136963882
 30
0.0
 41
0.9513858919519305
 10
-93.83896429810697
 20
346.3773671141023
 30
0.0
 41
0.9513858919519304
  0
SPLINE
  5
13F
330
1F
100
AcDbEntity
  8
Make2D$Visibile$90
100
AcDbSpline
210
0.0
220
0.0
230
1.0
 70
    28
 71
     2
 72
     6
 73
     3
 74
     0
 42
0.0000000001
 43
0.0000000001
 40
0.0
 40
0.0
 40
0.0
 40
5.46168488423823
 40
5.46168488423823
 40
5.46168488423823
 10
-131.7805421955254
 20
341.7195388720435
 30
0.0
 41
0.9270179637879669
 10
-131.7806170150363
 20
344.4503813113554
 30
0.0
 41
0.9270179637879669
 10
-131.7806918345472
 20
347.1812237506673
 30
0.0
 41
0.9270179637879669
  0
SPLINE
  5
140
330
1F
100
AcDbEntity
  8
Make2D$Visibile$90
100
AcDbSpline
210
0.0
220
0.0
230
1.0
 70
    12
 71
     3
 72
    11
 73
     7
 74
     0
 42
0.0000000001
 43
0.0000000001
 40
0.0000000000000108
 40
0.0000000000000108
 40
0.0000000000000108
 40
0.0000000000000108
 40
0.3826834323651098
 40
0.3826834323651098
 40
0.3826834323651098
 40
0.7855554188287661
 40
0.7855554188287661
 40
0.7855554188287661
 40
0.7855554188287661
 10
-94.33891343334574
 20
347.6898181617699
 30
0.0
 41
1.0
 10
-94.2505250856974
 20
347.6532065094183
 30
0.0
 41
1.0
 10
-94.07374839040074
 20
347.5799832047149
 30
0.0
 41
1.0
 10
-93.9853600427524
 20
347.5433715523633
 30
0.0
 41
1.0
 10
-93.88772896981459
 20
347.4457404794254
 30
0.0
 41
1.0
 10
-93.83891343334571
 20
347.3204200992518
 30
0.0
 41
1.057190958417937
 10
-93.83891343334572
 20
347.18981816177
 30
0.0
 41
1.17157287525381
  0
SPLINE
  5
141
330
1F
100
AcDbEntity
  8
Make2D$Visibile$90
100
AcDbSpline
210
0.0
220
0.0
230
1.0
 70
     8
 71
     3
 72
    10
 73
     6
 74
     0
 42
0.0000000001
 43
0.0000000001
 40
0.0
 40
0.0
 40
0.0
 40
0.0
 40
0.4541601198162287
 40
0.4541601198162287
 40
0.7812821286612864
 40
0.7812821286612864
 40
0.7812821286612864
 40
0.7812821286612864
 10
-131.7807668195113
 20
347.1898181617699
 30
0.0
 10
-131.7807668195113
 20
347.3222106109364
 30
0.0
 10
-131.7282414684731
 20
347.4494502939948
 30
0.0
 10
-131.5459318624564
 20
347.5799832047147
 30
0.0
 10
-131.3691551671602
 20
347.6532065094181
 30
0.0
 10
-131.2807668195118
 20
347.6898181617697
 30
0.0
  0
SPLINE
  5
142
330
1F
100
AcDbEntity
  8
Make2D$Visibile$90
100
AcDbSpline
210
0.0
220
0.0
230
1.0
 70
    28
 71
     2
 72
     6
 73
     3
 74
     0
 42
0.0000000001
 43
0.0000000001
 40
0.0
 40
0.0
 40
0.0
 40
1.497582456986788
 40
1.497582456986788
 40
1.497582456986788
 10
-102.6300322853763
 20
347.6898181617699
 30
0.0
 41
1.0
 10
-102.3939374562436
 20
347.6898181617699
 30
0.0
 41
0.7967945443744897
 10
-101.5187442529912
 20
347.6898181617699
 30
0.0
 41
1.0
  0
SPLINE
  5
143
330
1F
100
AcDbEntity
  8
Make2D$Visibile$90
100
AcDbSpline
210
0.0
220
0.0
230
1.0
 70
    28
 71
     2
 72
     6
 73
     3
 74
     0
 42
0.0000000001
 43
0.0000000001
 40
202.9477873517615
 40
202.9477873517615
 40
202.9477873517615
 40
1012.790079351419
 40
1012.790079351419
 40
1012.790079351419
 10
-131.7625936122871
 20
-468.6912177595598
 30
0.0
 41
0.9270179637700797
 10
-131.7715679039063
 20
-63.77007186698476
 30
0.0
 41
0.9270179637700797
 10
-131.7805421955256
 20
341.1510740255902
 30
0.0
 41
0.9270179637700797
  0
SPLINE
  5
144
330
1F
100
AcDbEntity
  8
Make2D$Visibile$90
100
AcDbSpline
210
0.0
220
0.0
230
1.0
 70
    24
 71
     3
 72
    14
 73
    10
 74
     0
 42
0.0000000001
 43
0.0000000001
 40
22.23258936582751
 40
22.23258936582751
 40
22.23258936582751
 40
22.23258936582751
 40
39.85975638975093
 40
39.85975638975093
 40
39.85975638975093
 40
57.48692341191948
 40
57.48692341191948
 40
57.48692341191948
 40
67.80991694886539
 40
67.80991694886539
 40
67.80991694886539
 40
67.80991694886539
 10
-102.1305348499316
 20
-468.6912177616701
 30
0.0
 10
-103.6769142767387
 20
-468.6912177616701
 30
0.0
 10
-108.2162586539846
 20
-468.6912177616701
 30
0.0
 10
-113.8477924175166
 20
-468.6912177616701
 30
0.0
 10
-119.4793261805083
 20
-468.6912177616701
 30
0.0
 10
-125.2312463749979
 20
-468.6912177616701
 30
0.0
 10
-128.6950313228899
 20
-468.6912177616701
 30
0.0
 10
-130.7235268596946
 20
-468.6912177616701
 30
0.0
 10
-131.7622808960722
 20
-468.6912177616701
 30
0.0
 10
-131.7626888401124
 20
-468.6912177616701
 30
0.0
  0
SPLINE
  5
145
330
1F
100
AcDbEntity
  8
Make2D$Visibile$90
100
AcDbSpline
210
0.0
220
0.0
230
1.0
 70
    12
 71
     2
 72
    10
 73
     7
 74
     0
 42
0.0000000001
 43
0.0000000001
 40
1.259567716740008
 40
1.259567716740008
 40
1.259567716740008
 40
18.01310110269667
 40
18.01310110269667
 40
34.76663448865333
 40
34.76663448865333
 40
44.5256456751764
 40
44.5256456751764
 40
44.5256456751764
 10
-102.1484834485457
 20
341.1517677747316
 30
0.0
 41
1.0
 10
-104.6728001371863
 20
341.1519532437244
 30
0.0
 41
0.8499503652137049
 10
-113.8657410172151
 20
341.1518167069827
 30
0.0
 41
1.0
 10
-123.0586818972441
 20
341.1516801702408
 30
0.0
 41
0.8499503652137049
 10
-128.7129799127597
 20
341.1513732296297
 30
0.0
 41
1.0
 10
-131.7805421984663
 20
341.1512067086148
 30
0.0
 41
0.9125953892424503
 10
-131.7805421955256
 20
341.1510740255902
 30
0.0
 41
0.9270179637700797
  0
SPLINE
  5
146
330
1F
100
AcDbEntity
  8
Make2D$Visibile$90
100
AcDbSpline
210
0.0
220
0.0
230
1.0
 70
    15
 71
     2
 72
    12
 73
     9
 74
     0
 42
0.0000000001
 43
0.0000000001
 40
0.0
 40
0.0
 40
0.0
 40
118.6002850880006
 40
118.6002850880006
 40
237.2005701760012
 40
237.2005701760012
 40
355.8008552640018
 40
355.8008552640018
 40
474.4011403520024
 40
474.4011403520024
 40
474.4011403520024
 10
182.6085295569299
 20
-556.4000522361339
 30
0.0
 41
1.0
 10
144.8568863092029
 20
-491.0122880618569
 30
0.0
 41
0.7071067811865476
 10
79.46912213492601
 20
-528.763931309584
 30
0.0
 41
1.0
 10
14.08135796064925
 20
-566.515574557311
 30
0.0
 41
0.7071067811865476
 10
51.83300120837623
 20
-631.9033387315878
 30
0.0
 41
1.0
 10
89.58464445610328
 20
-697.2911029058645
 30
0.0
 41
0.7071067811865476
 10
154.97240863038
 20
-659.5394596581375
 30
0.0
 41
1.0
 10
220.3601728046567
 20
-621.7878164104104
 30
0.0
 41
0.7071067811865476
 10
182.6085295569299
 20
-556.4000522361339
 30
0.0
 41
1.0
  0
SPLINE
  5
147
330
1F
100
AcDbEntity
  8
Make2D$Visibile$90
100
AcDbSpline
210
0.0
220
0.0
230
1.0
 70
    28
 71
     2
 72
     6
 73
     3
 74
     0
 42
0.0000000001
 43
0.0000000001
 40
-108.4444922417479
 40
-108.4444922417479
 40
-108.4444922417479
 40
-108.4444452158823
 40
-108.4444452158823
 40
-108.4444452158823
 10
-102.0052391897881
 20
-474.8912698417062
 30
0.0
 41
0.8999285475860288
 10
-102.0052572996064
 20
-474.8912698751657
 30
0.0
 41
0.8999299295979717
 10
-102.0052754082157
 20
-474.8912699086248
 30
0.0
 41
0.8999313128572127
  0
SPLINE
  5
148
330
1F
100
AcDbEntity
  8
Make2D$Visibile$90
100
AcDbSpline
210
0.0
220
0.0
230
1.0
 70
    28
 71
     2
 72
     6
 73
     3
 74
     0
 42
0.0000000001
 43
0.0000000001
 40
0.0
 40
0.0
 40
0.0
 40
1.497582456986788
 40
1.497582456986788
 40
1.497582456986788
 10
93.0816954462573
 20
347.6898181617699
 30
0.0
 41
1.0
 10
93.70748832031538
 20
347.6898181617699
 30
0.0
 41
0.7967945443744897
 10
94.46545983927035
 20
347.6898181617699
 30
0.0
 41
1.0
  0
SPLINE
  5
149
330
1F
100
AcDbEntity
  8
Make2D$Visibile$90
100
AcDbSpline
210
0.0
220
0.0
230
1.0
 70
    12
 71
     2
 72
     6
 73
     3
 74
     0
 42
0.0000000001
 43
0.0000000001
 40
2.356194490192343
 40
2.356194490192343
 40
2.356194490192343
 40
2.484126282085116
 40
2.484126282085116
 40
2.484126282085116
 10
133.7057456770985
 20
347.6898181617699
 30
0.0
 41
1.0
 10
133.6752467664754
 20
347.6892858418483
 30
0.0
 41
0.9522912631295717
 10
133.6456907686701
 20
347.6742263087813
 30
0.0
 41
0.9201248702095609
  0
SPLINE
  5
14A
330
1F
100
AcDbEntity
  8
Make2D$Visibile$90
100
AcDbSpline
210
0.0
220
0.0
230
1.0
 70
    12
 71
     2
 72
     6
 73
     3
 74
     0
 42
0.0000000001
 43
0.0000000001
 40
0.7745303244145172
 40
0.7745303244145172
 40
0.7745303244145172
 40
0.7941248096578105
 40
0.7941248096578105
 40
0.7941248096578105
 10
94.55722773853591
 20
-474.9108737438148
 30
0.0
 41
0.9927003752041268
 10
94.55703603005476
 20
-474.9013077965655
 30
0.0
 41
0.9961607246266384
 10
94.55717908627616
 20
-474.8917408288261
 30
0.0
 41
1.0
  0
SPLINE
  5
14B
330
1F
100
AcDbEntity
  8
Make2D$Visibile$90
100
AcDbSpline
210
0.0
220
0.0
230
1.0
 70
    12
 71
     2
 72
     6
 73
     3
 74
     0
 42
0.0000000001
 43
0.0000000001
 40
0.0
 40
0.0
 40
0.0
 40
0.01959448524345
 40
0.01959448524345
 40
0.01959448524345
 10
141.0773401105913
 20
-474.891740828826
 30
0.0
 41
1.0
 10
141.0772306189825
 20
-474.9013077965655
 30
0.0
 41
0.9961607246266059
 10
141.0773773477989
 20
-474.9108737438148
 30
0.0
 41
0.992700375204068
  0
ENDSEC
  0
SECTION
  2
OBJECTS
  0
DICTIONARY
  5
C
330
0
100
AcDbDictionary
281
     1
  3
ACAD_DETAILVIEWSTYLE
350
187
  3
ACAD_GROUP
350
D
  3
ACAD_LAYOUT
350
1A
  3
ACAD_MATERIAL
350
43
  3
ACAD_MLEADERSTYLE
350
5B
  3
ACAD_MLINESTYLE
350
17
  3
ACAD_PLOTSETTINGS
350
19
  3
ACAD_PLOTSTYLENAME
350
E
  3
ACAD_SCALELIST
350
47
  3
ACAD_SECTIONVIEWSTYLE
350
188
  3
ACAD_TABLESTYLE
350
59
  3
ACAD_VISUALSTYLE
350
2A
  3
ACDB_RECOMPOSE_DATA
350
184
  3
AcDbVariableDictionary
350
14C
  0
SUN
  5
5D
330
29
100
AcDbSun
 90
        1
290
     0
 63
     7
421
 16777215
 40
1.0
291
     1
 91
  2455826
 92
 54000000
292
     0
 70
     2
 71
   256
280
     1
  0
DICTIONARY
  5
187
102
{ACAD_REACTORS
330
C
102
}
330
C
100
AcDbDictionary
281
     1
  0
DICTIONARY
  5
D
102
{ACAD_REACTORS
330
C
102
}
330
C
100
AcDbDictionary
281
     1
  0
DICTIONARY
  5
1A
102
{ACAD_REACTORS
330
C
102
}
330
C
100
AcDbDictionary
281
     1
  3
Layout1
350
1E
  3
Layout2
350
26
  3
Model
350
22
  0
DICTIONARY
  5
43
102
{ACAD_REACTORS
330
C
102
}
330
C
100
AcDbDictionary
281
     1
  3
ByBlock
350
45
  3
ByLayer
350
44
  3
Global
350
46
  0
DICTIONARY
  5
5B
102
{ACAD_REACTORS
330
C
102
}
330
C
100
AcDbDictionary
281
     1
  3
Standard
350
5C
  0
DICTIONARY
  5
17
102
{ACAD_REACTORS
330
C
102
}
330
C
100
AcDbDictionary
281
     1
  3
Standard
350
18
  0
DICTIONARY
  5
19
102
{ACAD_REACTORS
330
C
102
}
330
C
100
AcDbDictionary
281
     1
  0
ACDBDICTIONARYWDFLT
  5
E
102
{ACAD_REACTORS
330
C
102
}
330
C
100
AcDbDictionary
281
     1
  3
Normal
350
F
100
AcDbDictionaryWithDefault
340
F
  0
DICTIONARY
  5
47
102
{ACAD_REACTORS
330
C
102
}
330
C
100
AcDbDictionary
281
     1
  3
A0
350
48
  3
A1
350
49
  3
A2
350
4A
  3
A3
350
4B
  3
A4
350
4C
  3
A5
350
4D
  3
A6
350
4E
  3
A7
350
4F
  3
A8
350
50
  3
A9
350
51
  3
B1
350
52
  3
B2
350
53
  3
B3
350
54
  3
B4
350
55
  3
B5
350
56
  3
B6
350
57
  3
B7
350
58
  0
DICTIONARY
  5
188
102
{ACAD_REACTORS
330
C
102
}
330
C
100
AcDbDictionary
281
     1
  0
DICTIONARY
  5
59
102
{ACAD_REACTORS
330
C
102
}
330
C
100
AcDbDictionary
281
     1
  3
Standard
350
5A
  0
DICTIONARY
  5
2A
102
{ACAD_REACTORS
330
C
102
}
330
C
100
AcDbDictionary
281
     1
  3
2dWireframe
350
2F
  3
Basic
350
32
  3
Brighten
350
36
  3
ColorChange
350
3A
  3
Conceptual
350
34
  3
Dim
350
35
  3
EdgeColorOff
350
3D
  3
Facepattern
350
39
  3
Flat
350
2B
  3
FlatWithEdges
350
2C
  3
Gouraud
350
2D
  3
GouraudWithEdges
350
2E
  3
Hidden
350
31
  3
JitterOff
350
3B
  3
Linepattern
350
38
  3
OverhangOff
350
3C
  3
Realistic
350
33
  3
Shaded
350
42
  3
Shaded with edges
350
41
  3
Shades of Gray
350
3E
  3
Sketchy
350
3F
  3
Thicken
350
37
  3
Wireframe
350
30
  3
X-Ray
350
40
  0
XRECORD
  5
184
102
{ACAD_REACTORS
330
C
102
}
330
C
100
AcDbXrecord
280
     1
 90
        1
330
5A
  0
DICTIONARY
  5
14C
102
{ACAD_REACTORS
330
C
102
}
330
C
100
AcDbDictionary
281
     1
  3
CANNOSCALE
350
14D
  3
CMLEADERSTYLE
350
186
  3
CTABLESTYLE
350
185
  3
XCLIPFRAME
350
14E
  0
LAYOUT
  5
1E
102
{ACAD_REACTORS
330
1A
102
}
330
1A
100
AcDbPlotSettings
  1

  2
none_device
  4

  6

 40
0.0
 41
0.0
 42
0.0
 43
0.0
 44
0.0
 45
0.0
 46
0.0
 47
0.0
 48
0.0
 49
0.0
140
0.0
141
0.0
142
1.0
143
1.0
 70
   688
 72
     0
 73
     0
 74
     5
  7

 75
    16
 76
     0
 77
     2
 78
   300
147
1.0
148
0.0
149
0.0
100
AcDbLayout
  1
Layout1
 70
     1
 71
     1
 10
0.0
 20
0.0
 11
12.0
 21
9.0
 12
0.0
 22
0.0
 32
0.0
 14
1.000000000000000E+20
 24
1.000000000000000E+20
 34
1.000000000000000E+20
 15
-1.000000000000000E+20
 25
-1.000000000000000E+20
 35
-1.000000000000000E+20
146
0.0
 13
0.0
 23
0.0
 33
0.0
 16
1.0
 26
0.0
 36
0.0
 17
0.0
 27
1.0
 37
0.0
 76
     0
330
1B
  0
LAYOUT
  5
26
102
{ACAD_REACTORS
330
1A
102
}
330
1A
100
AcDbPlotSettings
  1

  2
none_device
  4

  6

 40
0.0
 41
0.0
 42
0.0
 43
0.0
 44
0.0
 45
0.0
 46
0.0
 47
0.0
 48
0.0
 49
0.0
140
0.0
141
0.0
142
1.0
143
1.0
 70
   688
 72
     0
 73
     0
 74
     5
  7

 75
    16
 76
     0
 77
     2
 78
   300
147
1.0
148
0.0
149
0.0
100
AcDbLayout
  1
Layout2
 70
     1
 71
     2
 10
0.0
 20
0.0
 11
0.0
 21
0.0
 12
0.0
 22
0.0
 32
0.0
 14
0.0
 24
0.0
 34
0.0
 15
0.0
 25
0.0
 35
0.0
146
0.0
 13
0.0
 23
0.0
 33
0.0
 16
1.0
 26
0.0
 36
0.0
 17
0.0
 27
1.0
 37
0.0
 76
     0
330
23
  0
LAYOUT
  5
22
102
{ACAD_REACTORS
330
1A
102
}
330
1A
100
AcDbPlotSettings
  1

  2
none_device
  4
Letter_(8.50_x_11.00_Inches)
  6

 40
6.35
 41
6.35
 42
6.35000508
 43
6.35000508
 44
215.9
 45
279.4
 46
0.0
 47
0.0
 48
0.0
 49
0.0
140
0.0
141
0.0
142
1.0
143
1.0
 70
  1712
 72
     0
 73
     0
 74
     0
  7

 75
     0
 76
     0
 77
     2
 78
   300
147
1.0
148
0.0
149
0.0
100
AcDbLayout
  1
Model
 70
     1
 71
     0
 10
0.0
 20
0.0
 11
12.0
 21
9.0
 12
0.0
 22
0.0
 32
0.0
 14
-152.5381265427874
 24
-669.5737262648863
 34
0.0
 15
192.7240518781062
 25
747.5274826760489
 35
0.0
146
0.0
 13
0.0
 23
0.0
 33
0.0
 16
1.0
 26
0.0
 36
0.0
 17
0.0
 27
1.0
 37
0.0
 76
     0
330
1F
331
29
  0
MATERIAL
  5
45
102
{ACAD_REACTORS
330
43
102
}
330
43
100
AcDbMaterial
  1
ByBlock
 72
     1
 94
      127
  0
MATERIAL
  5
44
102
{ACAD_REACTORS
330
43
102
}
330
43
100
AcDbMaterial
  1
ByLayer
 72
     1
 94
      127
  0
MATERIAL
  5
46
102
{ACAD_REACTORS
330
43
102
}
330
43
100
AcDbMaterial
  1
Global
 72
     1
 94
      127
  0
MLEADERSTYLE
  5
5C
102
{ACAD_REACTORS
330
5B
102
}
102
{ACAD_XDICTIONARY
360
182
102
}
330
5B
100
AcDbMLeaderStyle
170
     2
171
     1
172
     0
 90
        2
 40
0.0
 41
0.0
173
     1
 91
-1056964608
340
14
 92
       -2
290
     1
 42
0.09
291
     1
 43
0.36
  3
Standard
341
0
 44
0.18
300

342
11
174
     1
178
     6
175
     1
176
     0
 93
-1056964608
 45
0.18
292
     0
297
     0
 46
0.18
343
0
 94
-1056964608
 47
1.0
 49
1.0
140
1.0
293
     1
141
0.0
294
     1
177
     0
142
1.0
295
     0
296
     0
143
0.125
1001
ACAD_MLEADERVER
1070
     2
  0
MLINESTYLE
  5
18
102
{ACAD_REACTORS
330
17
102
}
330
17
100
AcDbMlineStyle
  2
Standard
 70
     0
  3

 62
   256
 51
90.0
 52
90.0
 71
     2
 49
0.5
 62
   256
  6
BYLAYER
 49
-0.5
 62
   256
  6
BYLAYER
  0
ACDBPLACEHOLDER
  5
F
102
{ACAD_REACTORS
330
E
102
}
330
E
  0
SCALE
  5
48
102
{ACAD_REACTORS
330
47
102
}
330
47
100
AcDbScale
 70
     0
300
1:1
140
1.0
141
1.0
290
     1
  0
SCALE
  5
49
102
{ACAD_REACTORS
330
47
102
}
330
47
100
AcDbScale
 70
     0
300
1/128" = 1'-0"
140
0.0078125
141
12.0
290
     0
  0
SCALE
  5
4A
102
{ACAD_REACTORS
330
47
102
}
330
47
100
AcDbScale
 70
     0
300
1/64" = 1'-0"
140
0.015625
141
12.0
290
     0
  0
SCALE
  5
4B
102
{ACAD_REACTORS
330
47
102
}
330
47
100
AcDbScale
 70
     0
300
1/32" = 1'-0"
140
0.03125
141
12.0
290
     0
  0
SCALE
  5
4C
102
{ACAD_REACTORS
330
47
102
}
330
47
100
AcDbScale
 70
     0
300
1/16" = 1'-0"
140
0.0625
141
12.0
290
     0
  0
SCALE
  5
4D
102
{ACAD_REACTORS
330
47
102
}
330
47
100
AcDbScale
 70
     0
300
3/32" = 1'-0"
140
0.09375
141
12.0
290
     0
  0
SCALE
  5
4E
102
{ACAD_REACTORS
330
47
102
}
330
47
100
AcDbScale
 70
     0
300
1/8" = 1'-0"
140
0.125
141
12.0
290
     0
  0
SCALE
  5
4F
102
{ACAD_REACTORS
330
47
102
}
330
47
100
AcDbScale
 70
     0
300
3/16" = 1'-0"
140
0.1875
141
12.0
290
     0
  0
SCALE
  5
50
102
{ACAD_REACTORS
330
47
102
}
330
47
100
AcDbScale
 70
     0
300
1/4" = 1'-0"
140
0.25
141
12.0
290
     0
  0
SCALE
  5
51
102
{ACAD_REACTORS
330
47
102
}
330
47
100
AcDbScale
 70
     0
300
3/8" = 1'-0"
140
0.375
141
12.0
290
     0
  0
SCALE
  5
52
102
{ACAD_REACTORS
330
47
102
}
330
47
100
AcDbScale
 70
     0
300
1/2" = 1'-0"
140
0.5
141
12.0
290
     0
  0
SCALE
  5
53
102
{ACAD_REACTORS
330
47
102
}
330
47
100
AcDbScale
 70
     0
300
3/4" = 1'-0"
140
0.75
141
12.0
290
     0
  0
SCALE
  5
54
102
{ACAD_REACTORS
330
47
102
}
330
47
100
AcDbScale
 70
     0
300
1" = 1'-0"
140
1.0
141
12.0
290
     0
  0
SCALE
  5
55
102
{ACAD_REACTORS
330
47
102
}
330
47
100
AcDbScale
 70
     0
300
1-1/2" = 1'-0"
140
1.5
141
12.0
290
     0
  0
SCALE
  5
56
102
{ACAD_REACTORS
330
47
102
}
330
47
100
AcDbScale
 70
     0
300
3" = 1'-0"
140
3.0
141
12.0
290
     0
  0
SCALE
  5
57
102
{ACAD_REACTORS
330
47
102
}
330
47
100
AcDbScale
 70
     0
300
6" = 1'-0"
140
6.0
141
12.0
290
     0
  0
SCALE
  5
58
102
{ACAD_REACTORS
330
47
102
}
330
47
100
AcDbScale
 70
     0
300
1'-0" = 1'-0"
140
12.0
141
12.0
290
     0
  0
TABLESTYLE
  5
5A
102
{ACAD_REACTORS
330
59
102
}
102
{ACAD_XDICTIONARY
360
17F
102
}
330
59
100
AcDbTableStyle
  3
Standard
 70
     0
 71
     0
 40
0.06
 41
0.06
280
     0
281
     0
  7
Standard
140
0.18
170
     2
 62
     0
 63
   257
283
     0
 90
        4
 91
        0
  1

274
    -2
284
     1
 64
     0
275
    -2
285
     1
 65
     0
276
    -2
286
     1
 66
     0
277
    -2
287
     1
 67
     0
278
    -2
288
     1
 68
     0
279
    -2
289
     1
 69
     0
  7
Standard
140
0.25
170
     5
 62
     0
 63
   257
283
     0
 90
        4
 91
        0
  1

274
    -2
284
     1
 64
     0
275
    -2
285
     1
 65
     0
276
    -2
286
     1
 66
     0
277
    -2
287
     1
 67
     0
278
    -2
288
     1
 68
     0
279
    -2
289
     1
 69
     0
  7
Standard
140
0.18
170
     5
 62
     0
 63
   257
283
     0
 90
        4
 91
        0
  1

274
    -2
284
     1
 64
     0
275
    -2
285
     1
 65
     0
276
    -2
286
     1
 66
     0
277
    -2
287
     1
 67
     0
278
    -2
288
     1
 68
     0
279
    -2
289
     1
 69
     0
  0
VISUALSTYLE
  5
2F
102
{ACAD_REACTORS
330
2A
102
}
102
{ACAD_XDICTIONARY
360
157
102
}
330
2A
100
AcDbVisualStyle
  2
2dWireframe
 70
     4
 71
     0
 72
     2
 73
     0
 90
        0
 40
0.6
 41
30.0
 62
     5
 63
     7
421
 16777215
 74
     1
 91
        4
 64
     7
 65
   257
 75
     1
175
     1
 42
1.0
 92
        0
 66
   257
 43
1.0
 76
     1
 77
     6
 78
     2
 67
     7
 79
     5
170
     0
171
     0
290
     0
174
     0
 93
        1
 44
0.0
173
     0
291
     0
 45
0.0
  0
VISUALSTYLE
  5
32
102
{ACAD_REACTORS
330
2A
102
}
102
{ACAD_XDICTIONARY
360
15D
102
}
330
2A
100
AcDbVisualStyle
  2
Basic
 70
     7
 71
     1
 72
     0
 73
     1
 90
        0
 40
0.6
 41
30.0
 62
     5
 63
     7
421
 16777215
 74
     0
 91
        4
 64
     7
 65
   257
 75
     1
175
     1
 42
1.0
 92
        8
 66
     7
 43
1.0
 76
     1
 77
     6
 78
     2
 67
     7
 79
     5
170
     0
171
     0
290
     0
174
     0
 93
        1
 44
0.0
173
     0
291
     1
 45
0.0
  0
VISUALSTYLE
  5
36
102
{ACAD_REACTORS
330
2A
102
}
102
{ACAD_XDICTIONARY
360
165
102
}
330
2A
100
AcDbVisualStyle
  2
Brighten
 70
    12
 71
     2
 72
     2
 73
     0
 90
        0
 40
0.6
 41
30.0
 62
     5
 63
     7
421
 16777215
 74
     1
 91
        4
 64
     7
 65
   257
 75
     1
175
     1
 42
1.0
 92
        8
 66
     7
 43
1.0
 76
     1
 77
     6
 78
     2
 67
     7
 79
     5
170
     0
171
     0
290
     0
174
     0
 93
        1
 44
50.0
173
     0
291
     1
 45
0.0
  0
VISUALSTYLE
  5
3A
102
{ACAD_REACTORS
330
2A
102
}
102
{ACAD_XDICTIONARY
360
16D
102
}
330
2A
100
AcDbVisualStyle
  2
ColorChange
 70
    16
 71
     2
 72
     2
 73
     3
 90
        0
 40
0.6
 41
30.0
 62
     5
 63
     8
421
  8421504
 74
     1
 91
        4
 64
     7
 65
   257
 75
     1
175
     1
 42
1.0
 92
        8
 66
     8
424
  8421504
 43
1.0
 76
     1
 77
     6
 78
     2
 67
     7
 79
     5
170
     0
171
     0
290
     0
174
     0
 93
        1
 44
0.0
173
     0
291
     1
 45
0.0
  0
VISUALSTYLE
  5
34
102
{ACAD_REACTORS
330
2A
102
}
102
{ACAD_XDICTIONARY
360
161
102
}
330
2A
100
AcDbVisualStyle
  2
Conceptual
 70
     9
 71
     3
 72
     2
 73
     0
 90
        0
 40
0.6
 41
30.0
 62
     5
 63
     7
421
 16777215
 74
     2
 91
        2
 64
     7
 65
   257
 75
     1
175
     1
 42
179.0
 92
        8
 66
     7
 43
1.0
 76
     1
 77
     6
 78
     2
 67
     7
 79
     3
170
     0
171
     0
290
     0
174
     0
 93
        1
 44
0.0
173
     0
291
     0
 45
0.0
  0
VISUALSTYLE
  5
35
102
{ACAD_REACTORS
330
2A
102
}
102
{ACAD_XDICTIONARY
360
163
102
}
330
2A
100
AcDbVisualStyle
  2
Dim
 70
    11
 71
     2
 72
     2
 73
     0
 90
        0
 40
0.6
 41
30.0
 62
     5
 63
     7
421
 16777215
 74
     1
 91
        4
 64
     7
 65
   257
 75
     1
175
     1
 42
1.0
 92
        8
 66
     7
 43
1.0
 76
     1
 77
     6
 78
     2
 67
     7
 79
     5
170
     0
171
     0
290
     0
174
     0
 93
        1
 44
-50.0
173
     0
291
     1
 45
0.0
  0
VISUALSTYLE
  5
3D
102
{ACAD_REACTORS
330
2A
102
}
102
{ACAD_XDICTIONARY
360
173
102
}
330
2A
100
AcDbVisualStyle
  2
EdgeColorOff
 70
    22
 71
     2
 72
     2
 73
     0
 90
        0
 40
0.6
 41
30.0
 62
     5
 63
     7
421
 16777215
 74
     1
 91
        4
 64
     7
 65
   257
 75
     1
175
     1
 42
1.0
 92
        8
 66
     7
 43
1.0
 76
     1
 77
     6
 78
     2
 67
     7
 79
     5
170
     0
171
     0
290
     0
174
     0
 93
        1
 44
0.0
173
     0
291
     1
 45
0.0
  0
VISUALSTYLE
  5
39
102
{ACAD_REACTORS
330
2A
102
}
102
{ACAD_XDICTIONARY
360
16B
102
}
330
2A
100
AcDbVisualStyle
  2
Facepattern
 70
    15
 71
     2
 72
     2
 73
     0
 90
        0
 40
0.6
 41
30.0
 62
     5
 63
     7
421
 16777215
 74
     1
 91
        4
 64
     7
 65
   257
 75
     1
175
     1
 42
1.0
 92
        8
 66
     7
 43
1.0
 76
     1
 77
     6
 78
     2
 67
     7
 79
     5
170
     0
171
     0
290
     0
174
     0
 93
        1
 44
0.0
173
     0
291
     1
 45
0.0
  0
VISUALSTYLE
  5
2B
102
{ACAD_REACTORS
330
2A
102
}
102
{ACAD_XDICTIONARY
360
14F
102
}
330
2A
100
AcDbVisualStyle
  2
Flat
 70
     0
 71
     2
 72
     1
 73
     1
 90
        2
 40
0.6
 41
30.0
 62
     5
 63
     7
421
 16777215
 74
     0
 91
        0
 64
     7
 65
   257
 75
     1
175
     1
 42
1.0
 92
        8
 66
     7
 43
1.0
 76
     1
 77
     6
 78
     2
 67
     7
 79
     5
170
     0
171
     0
290
     0
174
     0
 93
       13
 44
0.0
173
     0
291
     1
 45
0.0
  0
VISUALSTYLE
  5
2C
102
{ACAD_REACTORS
330
2A
102
}
102
{ACAD_XDICTIONARY
360
151
102
}
330
2A
100
AcDbVisualStyle
  2
FlatWithEdges
 70
     1
 71
     2
 72
     1
 73
     1
 90
        2
 40
0.6
 41
30.0
 62
     5
 63
     7
421
 16777215
 74
     1
 91
        0
 64
     7
 65
   257
 75
     1
175
     1
 42
1.0
 92
        0
 66
   257
 43
1.0
 76
     1
 77
     6
 78
     2
 67
     7
 79
     5
170
     0
171
     0
290
     0
174
     0
 93
       13
 44
0.0
173
     0
291
     1
 45
0.0
  0
VISUALSTYLE
  5
2D
102
{ACAD_REACTORS
330
2A
102
}
102
{ACAD_XDICTIONARY
360
153
102
}
330
2A
100
AcDbVisualStyle
  2
Gouraud
 70
     2
 71
     2
 72
     2
 73
     1
 90
        2
 40
0.6
 41
30.0
 62
     5
 63
     7
421
 16777215
 74
     0
 91
        0
 64
     7
 65
   257
 75
     1
175
     1
 42
1.0
 92
        0
 66
     7
 43
1.0
 76
     1
 77
     6
 78
     2
 67
     7
 79
     5
170
     0
171
     0
290
     0
174
     0
 93
       13
 44
0.0
173
     0
291
     1
 45
0.0
  0
VISUALSTYLE
  5
2E
102
{ACAD_REACTORS
330
2A
102
}
102
{ACAD_XDICTIONARY
360
155
102
}
330
2A
100
AcDbVisualStyle
  2
GouraudWithEdges
 70
     3
 71
     2
 72
     2
 73
     1
 90
        2
 40
0.6
 41
30.0
 62
     5
 63
     7
421
 16777215
 74
     1
 91
        0
 64
     7
 65
   257
 75
     1
175
     1
 42
1.0
 92
        0
 66
   257
 43
1.0
 76
     1
 77
     6
 78
     2
 67
     7
 79
     5
170
     0
171
     0
290
     0
174
     0
 93
       13
 44
0.0
173
     0
291
     1
 45
0.0
  0
VISUALSTYLE
  5
31
102
{ACAD_REACTORS
330
2A
102
}
102
{ACAD_XDICTIONARY
360
15B
102
}
330
2A
100
AcDbVisualStyle
  2
Hidden
 70
     6
 71
     1
 72
     2
 73
     2
 90
        0
 40
0.6
 41
30.0
 62
     5
 63
     7
421
 16777215
 74
     2
 91
        2
 64
     7
 65
   257
 75
     2
175
     1
 42
40.0
 92
        0
 66
   257
 43
1.0
 76
     1
 77
     6
 78
     2
 67
     7
 79
     3
170
     0
171
     0
290
     0
174
     0
 93
        1
 44
0.0
173
     0
291
     0
 45
0.0
  0
VISUALSTYLE
  5
3B
102
{ACAD_REACTORS
330
2A
102
}
102
{ACAD_XDICTIONARY
360
16F
102
}
330
2A
100
AcDbVisualStyle
  2
JitterOff
 70
    20
 71
     2
 72
     2
 73
     0
 90
        0
 40
0.6
 41
30.0
 62
     5
 63
     7
421
 16777215
 74
     1
 91
        4
 64
     7
 65
   257
 75
     1
175
     1
 42
1.0
 92
       10
 66
     7
 43
1.0
 76
     1
 77
     6
 78
     2
 67
     7
 79
     5
170
     0
171
     0
290
     0
174
     0
 93
        1
 44
0.0
173
     0
291
     1
 45
0.0
  0
VISUALSTYLE
  5
38
102
{ACAD_REACTORS
330
2A
102
}
102
{ACAD_XDICTIONARY
360
169
102
}
330
2A
100
AcDbVisualStyle
  2
Linepattern
 70
    14
 71
     2
 72
     2
 73
     0
 90
        0
 40
0.6
 41
30.0
 62
     5
 63
     7
421
 16777215
 74
     1
 91
        4
 64
     7
 65
   257
 75
     7
175
     7
 42
1.0
 92
        8
 66
     7
 43
1.0
 76
     1
 77
     6
 78
     2
 67
     7
 79
     5
170
     0
171
     0
290
     0
174
     0
 93
        1
 44
0.0
173
     0
291
     1
 45
0.0
  0
VISUALSTYLE
  5
3C
102
{ACAD_REACTORS
330
2A
102
}
102
{ACAD_XDICTIONARY
360
171
102
}
330
2A
100
AcDbVisualStyle
  2
OverhangOff
 70
    21
 71
     2
 72
     2
 73
     0
 90
        0
 40
0.6
 41
30.0
 62
     5
 63
     7
421
 16777215
 74
     1
 91
        4
 64
     7
 65
   257
 75
     1
175
     1
 42
1.0
 92
        9
 66
     7
 43
1.0
 76
     1
 77
     6
 78
     2
 67
     7
 79
     5
170
     0
171
     0
290
     0
174
     0
 93
        1
 44
0.0
173
     0
291
     1
 45
0.0
  0
VISUALSTYLE
  5
33
102
{ACAD_REACTORS
330
2A
102
}
102
{ACAD_XDICTIONARY
360
15F
102
}
330
2A
100
AcDbVisualStyle
  2
Realistic
 70
     8
 71
     2
 72
     3
 73
     0
 90
        2
 40
0.6
 41
30.0
 62
     5
 63
     7
421
 16777215
 74
     0
 91
        0
 64
     7
 65
   257
 75
     1
175
     1
 42
1.0
 92
        8
 66
   257
 43
1.0
 76
     1
 77
     6
 78
     2
 67
     7
 79
     3
170
     0
171
     0
290
     0
174
     0
 93
       13
 44
0.0
173
     0
291
     0
 45
0.0
  0
VISUALSTYLE
  5
42
102
{ACAD_REACTORS
330
2A
102
}
102
{ACAD_XDICTIONARY
360
17D
102
}
330
2A
100
AcDbVisualStyle
  2
Shaded
 70
    27
 71
     2
 72
     2
 73
     1
 90
        2
 40
0.6
 41
30.0
 62
     5
 63
     7
421
 16777215
 74
     0
 91
        4
 64
     7
 65
   257
 75
     1
175
     1
 42
1.0
 92
        8
 66
   257
 43
1.0
 76
     1
 77
     6
 78
     2
 67
     8
425
  7895160
 79
     3
170
     0
171
     0
290
     0
174
     0
 93
        5
 44
0.0
173
     0
291
     0
 45
0.0
  0
VISUALSTYLE
  5
41
102
{ACAD_REACTORS
330
2A
102
}
102
{ACAD_XDICTIONARY
360
17B
102
}
330
2A
100
AcDbVisualStyle
  2
Shaded with edges
 70
    26
 71
     2
 72
     2
 73
     1
 90
        2
 40
0.6
 41
30.0
 62
     5
 63
     7
421
 16777215
 74
     1
 91
       10
 64
     7
 65
   257
 75
     2
175
     1
 42
1.0
 92
        8
 66
   257
 43
1.0
 76
     1
 77
     6
 78
     2
 67
     7
 79
     3
170
     0
171
     0
290
     0
174
     0
 93
        5
 44
0.0
173
     0
291
     0
 45
0.0
  0
VISUALSTYLE
  5
3E
102
{ACAD_REACTORS
330
2A
102
}
102
{ACAD_XDICTIONARY
360
175
102
}
330
2A
100
AcDbVisualStyle
  2
Shades of Gray
 70
    23
 71
     2
 72
     2
 73
     3
 90
        0
 40
0.6
 41
30.0
 62
     5
 63
     7
421
 16777215
 74
     2
 91
        2
 64
     7
 65
     7
 75
     1
175
     1
 42
40.0
 92
        8
 66
     7
 43
1.0
 76
     1
 77
     6
 78
     2
 67
     7
 79
     3
170
     0
171
     0
290
     0
174
     0
 93
        1
 44
0.0
173
     0
291
     0
 45
0.0
  0
VISUALSTYLE
  5
3F
102
{ACAD_REACTORS
330
2A
102
}
102
{ACAD_XDICTIONARY
360
177
102
}
330
2A
100
AcDbVisualStyle
  2
Sketchy
 70
    24
 71
     1
 72
     2
 73
     2
 90
        0
 40
0.6
 41
30.0
 62
     5
 63
     7
421
 16777215
 74
     2
 91
        2
 64
     7
 65
     7
 75
     1
175
     1
 42
40.0
 92
       11
 66
     7
 43
1.0
 76
     1
 77
     6
 78
     2
 67
     7
 79
     6
170
     0
171
     0
290
     0
174
     0
 93
        1
 44
0.0
173
     0
291
     0
 45
0.0
  0
VISUALSTYLE
  5
37
102
{ACAD_REACTORS
330
2A
102
}
102
{ACAD_XDICTIONARY
360
167
102
}
330
2A
100
AcDbVisualStyle
  2
Thicken
 70
    13
 71
     2
 72
     2
 73
     0
 90
        0
 40
0.6
 41
30.0
 62
     5
 63
     7
421
 16777215
 74
     1
 91
        4
 64
     7
 65
   257
 75
     1
175
     1
 42
1.0
 92
       12
 66
     7
 43
1.0
 76
     1
 77
     6
 78
     2
 67
     7
 79
     5
170
     0
171
     0
290
     0
174
     0
 93
        1
 44
0.0
173
     0
291
     1
 45
0.0
  0
VISUALSTYLE
  5
30
102
{ACAD_REACTORS
330
2A
102
}
102
{ACAD_XDICTIONARY
360
159
102
}
330
2A
100
AcDbVisualStyle
  2
Wireframe
 70
     5
 71
     0
 72
     2
 73
     0
 90
        0
 40
0.6
 41
30.0
 62
     5
 63
     7
421
 16777215
 74
     1
 91
        4
 64
     7
 65
   257
 75
     1
175
     1
 42
1.0
 92
        0
 66
   257
 43
1.0
 76
     1
 77
     6
 78
     2
 67
     7
 79
     3
170
     0
171
     0
290
     0
174
     0
 93
        1
 44
0.0
173
     0
291
     0
 45
0.0
  0
VISUALSTYLE
  5
40
102
{ACAD_REACTORS
330
2A
102
}
102
{ACAD_XDICTIONARY
360
179
102
}
330
2A
100
AcDbVisualStyle
  2
X-Ray
 70
    25
 71
     2
 72
     2
 73
     1
 90
        1
 40
0.5
 41
30.0
 62
     5
 63
     7
421
 16777215
 74
     1
 91
        0
 64
     7
 65
   257
 75
     1
175
     1
 42
1.0
 92
        8
 66
     7
 43
1.0
 76
     1
 77
     6
 78
     2
 67
     7
 79
     3
170
     0
171
     0
290
     0
174
     0
 93
       13
 44
0.0
173
     0
291
     0
 45
0.0
  0
DICTIONARYVAR
  5
14D
102
{ACAD_REACTORS
330
14C
102
}
330
14C
100
DictionaryVariables
280
     0
  1
1:1
  0
DICTIONARYVAR
  5
186
102
{ACAD_REACTORS
330
14C
102
}
330
14C
100
DictionaryVariables
280
     0
  1
Standard
  0
DICTIONARYVAR
  5
185
102
{ACAD_REACTORS
330
14C
102
}
330
14C
100
DictionaryVariables
280
     0
  1
Standard
  0
DICTIONARYVAR
  5
14E
102
{ACAD_REACTORS
330
14C
102
}
330
14C
100
DictionaryVariables
280
     0
  1
2
  0
DICTIONARY
  5
182
330
5C
100
AcDbDictionary
280
     1
281
     1
  3
ACAD_XREC_ROUNDTRIP
360
183
  0
DICTIONARY
  5
17F
330
5A
100
AcDbDictionary
280
     1
281
     1
  3
ACAD_ROUNDTRIP_2008_TABLESTYLE_CELLSTYLEMAP
360
180
  0
DICTIONARY
  5
157
330
2F
100
AcDbDictionary
280
     1
281
     1
  3
ACAD_XREC_ROUNDTRIP
360
158
  0
DICTIONARY
  5
15D
330
32
100
AcDbDictionary
280
     1
281
     1
  3
ACAD_XREC_ROUNDTRIP
360
15E
  0
DICTIONARY
  5
165
330
36
100
AcDbDictionary
280
     1
281
     1
  3
ACAD_XREC_ROUNDTRIP
360
166
  0
DICTIONARY
  5
16D
330
3A
100
AcDbDictionary
280
     1
281
     1
  3
ACAD_XREC_ROUNDTRIP
360
16E
  0
DICTIONARY
  5
161
330
34
100
AcDbDictionary
280
     1
281
     1
  3
ACAD_XREC_ROUNDTRIP
360
162
  0
DICTIONARY
  5
163
330
35
100
AcDbDictionary
280
     1
281
     1
  3
ACAD_XREC_ROUNDTRIP
360
164
  0
DICTIONARY
  5
173
330
3D
100
AcDbDictionary
280
     1
281
     1
  3
ACAD_XREC_ROUNDTRIP
360
174
  0
DICTIONARY
  5
16B
330
39
100
AcDbDictionary
280
     1
281
     1
  3
ACAD_XREC_ROUNDTRIP
360
16C
  0
DICTIONARY
  5
14F
330
2B
100
AcDbDictionary
280
     1
281
     1
  3
ACAD_XREC_ROUNDTRIP
360
150
  0
DICTIONARY
  5
151
330
2C
100
AcDbDictionary
280
     1
281
     1
  3
ACAD_XREC_ROUNDTRIP
360
152
  0
DICTIONARY
  5
153
330
2D
100
AcDbDictionary
280
     1
281
     1
  3
ACAD_XREC_ROUNDTRIP
360
154
  0
DICTIONARY
  5
155
330
2E
100
AcDbDictionary
280
     1
281
     1
  3
ACAD_XREC_ROUNDTRIP
360
156
  0
DICTIONARY
  5
15B
330
31
100
AcDbDictionary
280
     1
281
     1
  3
ACAD_XREC_ROUNDTRIP
360
15C
  0
DICTIONARY
  5
16F
330
3B
100
AcDbDictionary
280
     1
281
     1
  3
ACAD_XREC_ROUNDTRIP
360
170
  0
DICTIONARY
  5
169
330
38
100
AcDbDictionary
280
     1
281
     1
  3
ACAD_XREC_ROUNDTRIP
360
16A
  0
DICTIONARY
  5
171
330
3C
100
AcDbDictionary
280
     1
281
     1
  3
ACAD_XREC_ROUNDTRIP
360
172
  0
DICTIONARY
  5
15F
330
33
100
AcDbDictionary
280
     1
281
     1
  3
ACAD_XREC_ROUNDTRIP
360
160
  0
DICTIONARY
  5
17D
330
42
100
AcDbDictionary
280
     1
281
     1
  3
ACAD_XREC_ROUNDTRIP
360
17E
  0
DICTIONARY
  5
17B
330
41
100
AcDbDictionary
280
     1
281
     1
  3
ACAD_XREC_ROUNDTRIP
360
17C
  0
DICTIONARY
  5
175
330
3E
100
AcDbDictionary
280
     1
281
     1
  3
ACAD_XREC_ROUNDTRIP
360
176
  0
DICTIONARY
  5
177
330
3F
100
AcDbDictionary
280
     1
281
     1
  3
ACAD_XREC_ROUNDTRIP
360
178
  0
DICTIONARY
  5
167
330
37
100
AcDbDictionary
280
     1
281
     1
  3
ACAD_XREC_ROUNDTRIP
360
168
  0
DICTIONARY
  5
159
330
30
100
AcDbDictionary
280
     1
281
     1
  3
ACAD_XREC_ROUNDTRIP
360
15A
  0
DICTIONARY
  5
179
330
40
100
AcDbDictionary
280
     1
281
     1
  3
ACAD_XREC_ROUNDTRIP
360
17A
  0
XRECORD
  5
183
102
{ACAD_REACTORS
330
182
102
}
330
182
100
AcDbXrecord
280
     1
102
ACAD_ROUNDTRIP_2010_MLEADER_STYLE
  0
CELLSTYLEMAP
  5
180
102
{ACAD_REACTORS
330
17F
102
}
330
17F
100
AcDbCellStyleMap
 90
        3
300
CELLSTYLE
  1
TABLEFORMAT_BEGIN
 90
        5
170
     1
 91
        0
 92
    32768
 62
   257
 93
        1
300
CONTENTFORMAT
  1
CONTENTFORMAT_BEGIN
 90
        0
 91
        0
 92
        4
 93
        0
300

 40
0.0
140
1.0
 94
        5
 62
     0
340
11
144
0.25
309
CONTENTFORMAT_END
171
     1
301
MARGIN
  1
CELLMARGIN_BEGIN
 40
0.06
 40
0.06
 40
0.06
 40
0.06
 40
0.06
 40
0.06
309
CELLMARGIN_END
 94
        6
 95
        1
302
GRIDFORMAT
  1
GRIDFORMAT_BEGIN
 90
        0
 91
        1
 62
     0
 92
       -2
340
14
 93
        0
 40
0.045
309
GRIDFORMAT_END
 95
        2
302
GRIDFORMAT
  1
GRIDFORMAT_BEGIN
 90
        0
 91
        1
 62
     0
 92
       -2
340
14
 93
        0
 40
0.045
309
GRIDFORMAT_END
 95
        4
302
GRIDFORMAT
  1
GRIDFORMAT_BEGIN
 90
        0
 91
        1
 62
     0
 92
       -2
340
14
 93
        0
 40
0.045
309
GRIDFORMAT_END
 95
        8
302
GRIDFORMAT
  1
GRIDFORMAT_BEGIN
 90
        0
 91
        1
 62
     0
 92
       -2
340
14
 93
        0
 40
0.045
309
GRIDFORMAT_END
 95
       16
302
GRIDFORMAT
  1
GRIDFORMAT_BEGIN
 90
        0
 91
        1
 62
     0
 92
       -2
340
14
 93
        0
 40
0.045
309
GRIDFORMAT_END
 95
       32
302
GRIDFORMAT
  1
GRIDFORMAT_BEGIN
 90
        0
 91
        1
 62
     0
 92
       -2
340
14
 93
        0
 40
0.045
309
GRIDFORMAT_END
309
TABLEFORMAT_END
  1
CELLSTYLE_BEGIN
 90
        1
 91
        1
300
_TITLE
309
CELLSTYLE_END
300
CELLSTYLE
  1
TABLEFORMAT_BEGIN
 90
        5
170
     1
 91
        0
 92
        0
 62
   257
 93
        1
300
CONTENTFORMAT
  1
CONTENTFORMAT_BEGIN
 90
        0
 91
        0
 92
        4
 93
        0
300

 40
0.0
140
1.0
 94
        5
 62
     0
340
11
144
0.18
309
CONTENTFORMAT_END
171
     1
301
MARGIN
  1
CELLMARGIN_BEGIN
 40
0.06
 40
0.06
 40
0.06
 40
0.06
 40
0.06
 40
0.06
309
CELLMARGIN_END
 94
        6
 95
        1
302
GRIDFORMAT
  1
GRIDFORMAT_BEGIN
 90
        0
 91
        1
 62
     0
 92
       -2
340
14
 93
        0
 40
0.045
309
GRIDFORMAT_END
 95
        2
302
GRIDFORMAT
  1
GRIDFORMAT_BEGIN
 90
        0
 91
        1
 62
     0
 92
       -2
340
14
 93
        0
 40
0.045
309
GRIDFORMAT_END
 95
        4
302
GRIDFORMAT
  1
GRIDFORMAT_BEGIN
 90
        0
 91
        1
 62
     0
 92
       -2
340
14
 93
        0
 40
0.045
309
GRIDFORMAT_END
 95
        8
302
GRIDFORMAT
  1
GRIDFORMAT_BEGIN
 90
        0
 91
        1
 62
     0
 92
       -2
340
14
 93
        0
 40
0.045
309
GRIDFORMAT_END
 95
       16
302
GRIDFORMAT
  1
GRIDFORMAT_BEGIN
 90
        0
 91
        1
 62
     0
 92
       -2
340
14
 93
        0
 40
0.045
309
GRIDFORMAT_END
 95
       32
302
GRIDFORMAT
  1
GRIDFORMAT_BEGIN
 90
        0
 91
        1
 62
     0
 92
       -2
340
14
 93
        0
 40
0.045
309
GRIDFORMAT_END
309
TABLEFORMAT_END
  1
CELLSTYLE_BEGIN
 90
        2
 91
        1
300
_HEADER
309
CELLSTYLE_END
300
CELLSTYLE
  1
TABLEFORMAT_BEGIN
 90
        5
170
     1
 91
        0
 92
        0
 62
   257
 93
        1
300
CONTENTFORMAT
  1
CONTENTFORMAT_BEGIN
 90
        0
 91
        0
 92
        4
 93
        0
300

 40
0.0
140
1.0
 94
        2
 62
     0
340
11
144
0.18
309
CONTENTFORMAT_END
171
     1
301
MARGIN
  1
CELLMARGIN_BEGIN
 40
0.06
 40
0.06
 40
0.06
 40
0.06
 40
0.06
 40
0.06
309
CELLMARGIN_END
 94
        6
 95
        1
302
GRIDFORMAT
  1
GRIDFORMAT_BEGIN
 90
        0
 91
        1
 62
     0
 92
       -2
340
14
 93
        0
 40
0.045
309
GRIDFORMAT_END
 95
        2
302
GRIDFORMAT
  1
GRIDFORMAT_BEGIN
 90
        0
 91
        1
 62
     0
 92
       -2
340
14
 93
        0
 40
0.045
309
GRIDFORMAT_END
 95
        4
302
GRIDFORMAT
  1
GRIDFORMAT_BEGIN
 90
        0
 91
        1
 62
     0
 92
       -2
340
14
 93
        0
 40
0.045
309
GRIDFORMAT_END
 95
        8
302
GRIDFORMAT
  1
GRIDFORMAT_BEGIN
 90
        0
 91
        1
 62
     0
 92
       -2
340
14
 93
        0
 40
0.045
309
GRIDFORMAT_END
 95
       16
302
GRIDFORMAT
  1
GRIDFORMAT_BEGIN
 90
        0
 91
        1
 62
     0
 92
       -2
340
14
 93
        0
 40
0.045
309
GRIDFORMAT_END
 95
       32
302
GRIDFORMAT
  1
GRIDFORMAT_BEGIN
 90
        0
 91
        1
 62
     0
 92
       -2
340
14
 93
        0
 40
0.045
309
GRIDFORMAT_END
309
TABLEFORMAT_END
  1
CELLSTYLE_BEGIN
 90
        3
 91
        2
300
_DATA
309
CELLSTYLE_END
  0
XRECORD
  5
158
102
{ACAD_REACTORS
330
157
102
}
330
157
100
AcDbXrecord
280
     1
102
RTVSPropertyOp0
 70
     1
102
RTVSPropertyOp1
 70
     1
102
RTVSPropertyOp2
 70
     1
102
RTVSPropertyOp3
 70
     1
102
RTVSPropertyOp4
 70
     1
102
RTVSPropertyOp5
 70
     1
102
RTVSPropertyOp6
 70
     1
102
RTVSPropertyOp7
 70
     1
102
RTVSPropertyOp8
 70
     1
102
RTVSPropertyOp9
 70
     1
102
RTVSPropertyOp10
 70
     1
102
RTVSPropertyOp11
 70
     1
102
RTVSPropertyOp12
 70
     1
102
RTVSPropertyOp13
 70
     1
102
RTVSPropertyOp14
 70
     1
102
RTVSPropertyOp15
 70
     1
102
RTVSPropertyOp16
 70
     1
102
RTVSPropertyOp17
 70
     1
102
RTVSPropertyOp18
 70
     1
102
RTVSPropertyOp19
 70
     1
102
RTVSPropertyOp20
 70
     1
102
RTVSPropertyOp21
 70
     1
102
RTVSPropertyOp22
 70
     1
102
RTVSPropertyOp23
 70
     1
102
RTVSPropertyOp24
 70
     1
102
RTVSPropertyOp25
 70
     1
102
RTVSPropertyOp26
 70
     1
102
RTVSPropertyOp27
 70
     1
102
RTVSPropertyOp28
 70
     1
102
RTVSPropertyOp29
 70
     1
102
RTVSPropertyOp30
 70
     1
102
RTVSPropertyOp31
 70
     1
102
RTVSPropertyOp32
 70
     1
102
RTVSPropertyOp33
 70
     1
102
RTVSPropertyOp34
 70
     1
102
RTVSPropertyOp35
 70
     1
102
RTVSPropertyOp36
 70
     1
102
RTVSPropertyOp37
 70
     1
102
RTVSPropertyOp38
 70
     1
102
RTVSPropertyOp39
 70
     1
102
RTVSPropertyOp40
 70
     1
102
RTVSPropertyOp41
 70
     1
102
RTVSPropertyOp42
 70
     1
102
RTVSPropertyOp43
 70
     1
102
RTVSPropertyOp44
 70
     1
102
RTVSPropertyOp45
 70
     1
102
RTVSPropertyOp46
 70
     1
102
RTVSPropertyOp47
 70
     1
102
RTVSPropertyOp48
 70
     1
102
RTVSPropertyOp49
 70
     1
102
RTVSPropertyOp50
 70
     1
102
RTVSPropertyOp51
 70
     0
102
RTVSPropertyOp52
 70
     0
102
RTVSPropertyOp53
 70
     1
102
RTVSPropertyOp54
 70
     1
102
RTVSPropertyOp55
 70
     1
102
RTVSPropertyOp56
 70
     1
102
RTVSPropertyOp57
 70
     1
102
RTVSPost2010Prop28
280
     1
102
RTVSPost2010PropOp28
 70
     1
102
RTVSPost2010Prop29
280
     1
102
RTVSPost2010PropOp29
 70
     1
102
RTVSPost2010Prop30
280
     0
102
RTVSPost2010PropOp30
 70
     1
102
RTVSPost2010Prop31
280
     0
102
RTVSPost2010PropOp31
 70
     1
102
RTVSPost2010Prop32
280
     0
102
RTVSPost2010PropOp32
 70
     1
102
RTVSPost2010Prop33
280
     0
102
RTVSPost2010PropOp33
 70
     1
102
RTVSPost2010Prop34
280
     0
102
RTVSPost2010PropOp34
 70
     1
102
RTVSPost2010Prop35
280
     0
102
RTVSPost2010PropOp35
 70
     1
102
RTVSPost2010Prop36
280
     0
102
RTVSPost2010PropOp36
 70
     1
102
RTVSPost2010Prop37
 90
       50
102
RTVSPost2010PropOp37
 70
     1
102
RTVSPost2010Prop38
140
0.0
102
RTVSPost2010PropOp38
 70
     1
102
RTVSPost2010Prop39
140
1.0
102
RTVSPost2010PropOp39
 70
     1
102
RTVSPost2010Prop40
 90
        0
102
RTVSPost2010PropOp40
 70
     1
102
RTVSPost2010Prop41ColorIndex
 90
       18
102
RTVSPost2010Prop41ColorRGB
 90
        0
102
RTVSPost2010PropOp41
 70
     1
102
RTVSPost2010Prop42
 90
       50
102
RTVSPost2010PropOp42
 70
     1
102
RTVSPost2010Prop43
 90
        3
102
RTVSPost2010PropOp43
 70
     1
102
RTVSPost2010Prop44ColorIndex
 90
        5
102
RTVSPost2010Prop44ColorRGB
 90
      255
102
RTVSPost2010PropOp44
 70
     1
102
RTVSPost2010Prop45
280
     0
102
RTVSPost2010PropOp45
 70
     1
102
RTVSPost2010Prop46
 90
       50
102
RTVSPost2010PropOp46
 70
     1
102
RTVSPost2010Prop47
 90
       50
102
RTVSPost2010PropOp47
 70
     1
102
RTVSPost2010Prop48
 90
       50
102
RTVSPost2010PropOp48
 70
     1
102
RTVSPost2010Prop49
280
     0
102
RTVSPost2010PropOp49
 70
     1
102
RTVSPost2010Prop50
 90
       50
102
RTVSPost2010PropOp50
 70
     1
102
RTVSPost2010Prop51ColorIndex
 90
      256
102
RTVSPost2010Prop51ColorRGB
 90
-16777216
102
RTVSPost2010PropOp51
 70
     0
102
RTVSPost2010Prop52
140
1.0
102
RTVSPost2010PropOp52
 70
     0
102
RTVSPost2010Prop53
 90
        2
102
RTVSPost2010PropOp53
 70
     1
102
RTVSPost2010Prop54
  1
strokes_ogs.tif
102
RTVSPost2010PropOp54
 70
     1
102
RTVSPost2010Prop55
280
     0
102
RTVSPost2010PropOp55
 70
     1
102
RTVSPost2010Prop56
140
1.0
102
RTVSPost2010PropOp56
 70
     1
102
RTVSPost2010Prop57
140
1.0
102
RTVSPost2010PropOp57
 70
     1
  0
XRECORD
  5
15E
102
{ACAD_REACTORS
330
15D
102
}
330
15D
100
AcDbXrecord
280
     1
102
RTVSPropertyOp0
 70
     1
102
RTVSPropertyOp1
 70
     1
102
RTVSPropertyOp2
 70
     1
102
RTVSPropertyOp3
 70
     1
102
RTVSPropertyOp4
 70
     1
102
RTVSPropertyOp5
 70
     1
102
RTVSPropertyOp6
 70
     1
102
RTVSPropertyOp7
 70
     1
102
RTVSPropertyOp8
 70
     1
102
RTVSPropertyOp9
 70
     1
102
RTVSPropertyOp10
 70
     1
102
RTVSPropertyOp11
 70
     1
102
RTVSPropertyOp12
 70
     1
102
RTVSPropertyOp13
 70
     1
102
RTVSPropertyOp14
 70
     1
102
RTVSPropertyOp15
 70
     1
102
RTVSPropertyOp16
 70
     1
102
RTVSPropertyOp17
 70
     1
102
RTVSPropertyOp18
 70
     1
102
RTVSPropertyOp19
 70
     1
102
RTVSPropertyOp20
 70
     1
102
RTVSPropertyOp21
 70
     1
102
RTVSPropertyOp22
 70
     1
102
RTVSPropertyOp23
 70
     1
102
RTVSPropertyOp24
 70
     1
102
RTVSPropertyOp25
 70
     1
102
RTVSPropertyOp26
 70
     1
102
RTVSPropertyOp27
 70
     1
102
RTVSPropertyOp28
 70
     1
102
RTVSPropertyOp29
 70
     1
102
RTVSPropertyOp30
 70
     1
102
RTVSPropertyOp31
 70
     1
102
RTVSPropertyOp32
 70
     1
102
RTVSPropertyOp33
 70
     1
102
RTVSPropertyOp34
 70
     1
102
RTVSPropertyOp35
 70
     1
102
RTVSPropertyOp36
 70
     1
102
RTVSPropertyOp37
 70
     1
102
RTVSPropertyOp38
 70
     1
102
RTVSPropertyOp39
 70
     1
102
RTVSPropertyOp40
 70
     1
102
RTVSPropertyOp41
 70
     1
102
RTVSPropertyOp42
 70
     1
102
RTVSPropertyOp43
 70
     1
102
RTVSPropertyOp44
 70
     1
102
RTVSPropertyOp45
 70
     1
102
RTVSPropertyOp46
 70
     1
102
RTVSPropertyOp47
 70
     1
102
RTVSPropertyOp48
 70
     1
102
RTVSPropertyOp49
 70
     1
102
RTVSPropertyOp50
 70
     1
102
RTVSPropertyOp51
 70
     0
102
RTVSPropertyOp52
 70
     0
102
RTVSPropertyOp53
 70
     1
102
RTVSPropertyOp54
 70
     1
102
RTVSPropertyOp55
 70
     1
102
RTVSPropertyOp56
 70
     1
102
RTVSPropertyOp57
 70
     1
102
RTVSPost2010Prop28
280
     0
102
RTVSPost2010PropOp28
 70
     1
102
RTVSPost2010Prop29
280
     1
102
RTVSPost2010PropOp29
 70
     1
102
RTVSPost2010Prop30
280
     1
102
RTVSPost2010PropOp30
 70
     1
102
RTVSPost2010Prop31
280
     0
102
RTVSPost2010PropOp31
 70
     1
102
RTVSPost2010Prop32
280
     0
102
RTVSPost2010PropOp32
 70
     1
102
RTVSPost2010Prop33
280
     0
102
RTVSPost2010PropOp33
 70
     1
102
RTVSPost2010Prop34
280
     0
102
RTVSPost2010PropOp34
 70
     1
102
RTVSPost2010Prop35
280
     0
102
RTVSPost2010PropOp35
 70
     1
102
RTVSPost2010Prop36
280
     0
102
RTVSPost2010PropOp36
 70
     1
102
RTVSPost2010Prop37
 90
       50
102
RTVSPost2010PropOp37
 70
     1
102
RTVSPost2010Prop38
140
0.0
102
RTVSPost2010PropOp38
 70
     1
102
RTVSPost2010Prop39
140
1.0
102
RTVSPost2010PropOp39
 70
     1
102
RTVSPost2010Prop40
 90
        0
102
RTVSPost2010PropOp40
 70
     1
102
RTVSPost2010Prop41ColorIndex
 90
       18
102
RTVSPost2010Prop41ColorRGB
 90
        0
102
RTVSPost2010PropOp41
 70
     1
102
RTVSPost2010Prop42
 90
       50
102
RTVSPost2010PropOp42
 70
     1
102
RTVSPost2010Prop43
 90
        3
102
RTVSPost2010PropOp43
 70
     1
102
RTVSPost2010Prop44ColorIndex
 90
        5
102
RTVSPost2010Prop44ColorRGB
 90
      255
102
RTVSPost2010PropOp44
 70
     1
102
RTVSPost2010Prop45
280
     0
102
RTVSPost2010PropOp45
 70
     1
102
RTVSPost2010Prop46
 90
       50
102
RTVSPost2010PropOp46
 70
     1
102
RTVSPost2010Prop47
 90
       50
102
RTVSPost2010PropOp47
 70
     1
102
RTVSPost2010Prop48
 90
       50
102
RTVSPost2010PropOp48
 70
     1
102
RTVSPost2010Prop49
280
     0
102
RTVSPost2010PropOp49
 70
     1
102
RTVSPost2010Prop50
 90
       50
102
RTVSPost2010PropOp50
 70
     1
102
RTVSPost2010Prop51ColorIndex
 90
      256
102
RTVSPost2010Prop51ColorRGB
 90
-16777216
102
RTVSPost2010PropOp51
 70
     0
102
RTVSPost2010Prop52
140
1.0
102
RTVSPost2010PropOp52
 70
     0
102
RTVSPost2010Prop53
 90
        2
102
RTVSPost2010PropOp53
 70
     1
102
RTVSPost2010Prop54
  1
strokes_ogs.tif
102
RTVSPost2010PropOp54
 70
     1
102
RTVSPost2010Prop55
280
     0
102
RTVSPost2010PropOp55
 70
     1
102
RTVSPost2010Prop56
140
1.0
102
RTVSPost2010PropOp56
 70
     1
102
RTVSPost2010Prop57
140
1.0
102
RTVSPost2010PropOp57
 70
     1
  0
XRECORD
  5
166
102
{ACAD_REACTORS
330
165
102
}
330
165
100
AcDbXrecord
280
     1
102
RTVSPropertyOp0
 70
     1
102
RTVSPropertyOp1
 70
     1
102
RTVSPropertyOp2
 70
     1
102
RTVSPropertyOp3
 70
     1
102
RTVSPropertyOp4
 70
     1
102
RTVSPropertyOp5
 70
     1
102
RTVSPropertyOp6
 70
     1
102
RTVSPropertyOp7
 70
     1
102
RTVSPropertyOp8
 70
     1
102
RTVSPropertyOp9
 70
     1
102
RTVSPropertyOp10
 70
     1
102
RTVSPropertyOp11
 70
     1
102
RTVSPropertyOp12
 70
     1
102
RTVSPropertyOp13
 70
     1
102
RTVSPropertyOp14
 70
     1
102
RTVSPropertyOp15
 70
     1
102
RTVSPropertyOp16
 70
     1
102
RTVSPropertyOp17
 70
     1
102
RTVSPropertyOp18
 70
     1
102
RTVSPropertyOp19
 70
     1
102
RTVSPropertyOp20
 70
     1
102
RTVSPropertyOp21
 70
     1
102
RTVSPropertyOp22
 70
     1
102
RTVSPropertyOp23
 70
     1
102
RTVSPropertyOp24
 70
     1
102
RTVSPropertyOp25
 70
     1
102
RTVSPropertyOp26
 70
     1
102
RTVSPropertyOp27
 70
     1
102
RTVSPropertyOp28
 70
     1
102
RTVSPropertyOp29
 70
     1
102
RTVSPropertyOp30
 70
     1
102
RTVSPropertyOp31
 70
     1
102
RTVSPropertyOp32
 70
     1
102
RTVSPropertyOp33
 70
     1
102
RTVSPropertyOp34
 70
     1
102
RTVSPropertyOp35
 70
     1
102
RTVSPropertyOp36
 70
     1
102
RTVSPropertyOp37
 70
     1
102
RTVSPropertyOp38
 70
     1
102
RTVSPropertyOp39
 70
     1
102
RTVSPropertyOp40
 70
     1
102
RTVSPropertyOp41
 70
     1
102
RTVSPropertyOp42
 70
     1
102
RTVSPropertyOp43
 70
     1
102
RTVSPropertyOp44
 70
     1
102
RTVSPropertyOp45
 70
     1
102
RTVSPropertyOp46
 70
     1
102
RTVSPropertyOp47
 70
     1
102
RTVSPropertyOp48
 70
     1
102
RTVSPropertyOp49
 70
     1
102
RTVSPropertyOp50
 70
     1
102
RTVSPropertyOp51
 70
     0
102
RTVSPropertyOp52
 70
     0
102
RTVSPropertyOp53
 70
     1
102
RTVSPropertyOp54
 70
     1
102
RTVSPropertyOp55
 70
     1
102
RTVSPropertyOp56
 70
     1
102
RTVSPropertyOp57
 70
     1
102
RTVSPost2010Prop28
280
     0
102
RTVSPost2010PropOp28
 70
     1
102
RTVSPost2010Prop29
280
     1
102
RTVSPost2010PropOp29
 70
     1
102
RTVSPost2010Prop30
280
     1
102
RTVSPost2010PropOp30
 70
     1
102
RTVSPost2010Prop31
280
     0
102
RTVSPost2010PropOp31
 70
     1
102
RTVSPost2010Prop32
280
     0
102
RTVSPost2010PropOp32
 70
     1
102
RTVSPost2010Prop33
280
     0
102
RTVSPost2010PropOp33
 70
     1
102
RTVSPost2010Prop34
280
     0
102
RTVSPost2010PropOp34
 70
     1
102
RTVSPost2010Prop35
280
     0
102
RTVSPost2010PropOp35
 70
     1
102
RTVSPost2010Prop36
280
     0
102
RTVSPost2010PropOp36
 70
     1
102
RTVSPost2010Prop37
 90
       50
102
RTVSPost2010PropOp37
 70
     1
102
RTVSPost2010Prop38
140
0.0
102
RTVSPost2010PropOp38
 70
     1
102
RTVSPost2010Prop39
140
1.0
102
RTVSPost2010PropOp39
 70
     1
102
RTVSPost2010Prop40
 90
        0
102
RTVSPost2010PropOp40
 70
     1
102
RTVSPost2010Prop41ColorIndex
 90
       18
102
RTVSPost2010Prop41ColorRGB
 90
        0
102
RTVSPost2010PropOp41
 70
     1
102
RTVSPost2010Prop42
 90
       50
102
RTVSPost2010PropOp42
 70
     1
102
RTVSPost2010Prop43
 90
        3
102
RTVSPost2010PropOp43
 70
     1
102
RTVSPost2010Prop44ColorIndex
 90
        5
102
RTVSPost2010Prop44ColorRGB
 90
      255
102
RTVSPost2010PropOp44
 70
     1
102
RTVSPost2010Prop45
280
     0
102
RTVSPost2010PropOp45
 70
     1
102
RTVSPost2010Prop46
 90
       50
102
RTVSPost2010PropOp46
 70
     1
102
RTVSPost2010Prop47
 90
       50
102
RTVSPost2010PropOp47
 70
     1
102
RTVSPost2010Prop48
 90
       50
102
RTVSPost2010PropOp48
 70
     1
102
RTVSPost2010Prop49
280
     0
102
RTVSPost2010PropOp49
 70
     1
102
RTVSPost2010Prop50
 90
       50
102
RTVSPost2010PropOp50
 70
     1
102
RTVSPost2010Prop51ColorIndex
 90
      256
102
RTVSPost2010Prop51ColorRGB
 90
-16777216
102
RTVSPost2010PropOp51
 70
     0
102
RTVSPost2010Prop52
140
1.0
102
RTVSPost2010PropOp52
 70
     0
102
RTVSPost2010Prop53
 90
        2
102
RTVSPost2010PropOp53
 70
     1
102
RTVSPost2010Prop54
  1
strokes_ogs.tif
102
RTVSPost2010PropOp54
 70
     1
102
RTVSPost2010Prop55
280
     0
102
RTVSPost2010PropOp55
 70
     1
102
RTVSPost2010Prop56
140
1.0
102
RTVSPost2010PropOp56
 70
     1
102
RTVSPost2010Prop57
140
1.0
102
RTVSPost2010PropOp57
 70
     1
  0
XRECORD
  5
16E
102
{ACAD_REACTORS
330
16D
102
}
330
16D
100
AcDbXrecord
280
     1
102
RTVSPropertyOp0
 70
     1
102
RTVSPropertyOp1
 70
     1
102
RTVSPropertyOp2
 70
     1
102
RTVSPropertyOp3
 70
     1
102
RTVSPropertyOp4
 70
     1
102
RTVSPropertyOp5
 70
     1
102
RTVSPropertyOp6
 70
     1
102
RTVSPropertyOp7
 70
     1
102
RTVSPropertyOp8
 70
     1
102
RTVSPropertyOp9
 70
     1
102
RTVSPropertyOp10
 70
     1
102
RTVSPropertyOp11
 70
     1
102
RTVSPropertyOp12
 70
     1
102
RTVSPropertyOp13
 70
     1
102
RTVSPropertyOp14
 70
     1
102
RTVSPropertyOp15
 70
     1
102
RTVSPropertyOp16
 70
     1
102
RTVSPropertyOp17
 70
     1
102
RTVSPropertyOp18
 70
     1
102
RTVSPropertyOp19
 70
     1
102
RTVSPropertyOp20
 70
     1
102
RTVSPropertyOp21
 70
     1
102
RTVSPropertyOp22
 70
     1
102
RTVSPropertyOp23
 70
     1
102
RTVSPropertyOp24
 70
     1
102
RTVSPropertyOp25
 70
     1
102
RTVSPropertyOp26
 70
     1
102
RTVSPropertyOp27
 70
     1
102
RTVSPropertyOp28
 70
     1
102
RTVSPropertyOp29
 70
     1
102
RTVSPropertyOp30
 70
     1
102
RTVSPropertyOp31
 70
     1
102
RTVSPropertyOp32
 70
     1
102
RTVSPropertyOp33
 70
     1
102
RTVSPropertyOp34
 70
     1
102
RTVSPropertyOp35
 70
     1
102
RTVSPropertyOp36
 70
     1
102
RTVSPropertyOp37
 70
     1
102
RTVSPropertyOp38
 70
     1
102
RTVSPropertyOp39
 70
     1
102
RTVSPropertyOp40
 70
     1
102
RTVSPropertyOp41
 70
     1
102
RTVSPropertyOp42
 70
     1
102
RTVSPropertyOp43
 70
     1
102
RTVSPropertyOp44
 70
     1
102
RTVSPropertyOp45
 70
     1
102
RTVSPropertyOp46
 70
     1
102
RTVSPropertyOp47
 70
     1
102
RTVSPropertyOp48
 70
     1
102
RTVSPropertyOp49
 70
     1
102
RTVSPropertyOp50
 70
     1
102
RTVSPropertyOp51
 70
     0
102
RTVSPropertyOp52
 70
     0
102
RTVSPropertyOp53
 70
     1
102
RTVSPropertyOp54
 70
     1
102
RTVSPropertyOp55
 70
     1
102
RTVSPropertyOp56
 70
     1
102
RTVSPropertyOp57
 70
     1
102
RTVSPost2010Prop28
280
     0
102
RTVSPost2010PropOp28
 70
     1
102
RTVSPost2010Prop29
280
     1
102
RTVSPost2010PropOp29
 70
     1
102
RTVSPost2010Prop30
280
     1
102
RTVSPost2010PropOp30
 70
     1
102
RTVSPost2010Prop31
280
     0
102
RTVSPost2010PropOp31
 70
     1
102
RTVSPost2010Prop32
280
     0
102
RTVSPost2010PropOp32
 70
     1
102
RTVSPost2010Prop33
280
     0
102
RTVSPost2010PropOp33
 70
     1
102
RTVSPost2010Prop34
280
     0
102
RTVSPost2010PropOp34
 70
     1
102
RTVSPost2010Prop35
280
     0
102
RTVSPost2010PropOp35
 70
     1
102
RTVSPost2010Prop36
280
     0
102
RTVSPost2010PropOp36
 70
     1
102
RTVSPost2010Prop37
 90
       50
102
RTVSPost2010PropOp37
 70
     1
102
RTVSPost2010Prop38
140
0.0
102
RTVSPost2010PropOp38
 70
     1
102
RTVSPost2010Prop39
140
1.0
102
RTVSPost2010PropOp39
 70
     1
102
RTVSPost2010Prop40
 90
        0
102
RTVSPost2010PropOp40
 70
     1
102
RTVSPost2010Prop41ColorIndex
 90
       18
102
RTVSPost2010Prop41ColorRGB
 90
        0
102
RTVSPost2010PropOp41
 70
     1
102
RTVSPost2010Prop42
 90
       50
102
RTVSPost2010PropOp42
 70
     1
102
RTVSPost2010Prop43
 90
        3
102
RTVSPost2010PropOp43
 70
     1
102
RTVSPost2010Prop44ColorIndex
 90
        5
102
RTVSPost2010Prop44ColorRGB
 90
      255
102
RTVSPost2010PropOp44
 70
     1
102
RTVSPost2010Prop45
280
     0
102
RTVSPost2010PropOp45
 70
     1
102
RTVSPost2010Prop46
 90
       50
102
RTVSPost2010PropOp46
 70
     1
102
RTVSPost2010Prop47
 90
       50
102
RTVSPost2010PropOp47
 70
     1
102
RTVSPost2010Prop48
 90
       50
102
RTVSPost2010PropOp48
 70
     1
102
RTVSPost2010Prop49
280
     0
102
RTVSPost2010PropOp49
 70
     1
102
RTVSPost2010Prop50
 90
       50
102
RTVSPost2010PropOp50
 70
     1
102
RTVSPost2010Prop51ColorIndex
 90
      256
102
RTVSPost2010Prop51ColorRGB
 90
-16777216
102
RTVSPost2010PropOp51
 70
     0
102
RTVSPost2010Prop52
140
1.0
102
RTVSPost2010PropOp52
 70
     0
102
RTVSPost2010Prop53
 90
        2
102
RTVSPost2010PropOp53
 70
     1
102
RTVSPost2010Prop54
  1
strokes_ogs.tif
102
RTVSPost2010PropOp54
 70
     1
102
RTVSPost2010Prop55
280
     0
102
RTVSPost2010PropOp55
 70
     1
102
RTVSPost2010Prop56
140
1.0
102
RTVSPost2010PropOp56
 70
     1
102
RTVSPost2010Prop57
140
1.0
102
RTVSPost2010PropOp57
 70
     1
  0
XRECORD
  5
162
102
{ACAD_REACTORS
330
161
102
}
330
161
100
AcDbXrecord
280
     1
102
RTVSPropertyOp0
 70
     1
102
RTVSPropertyOp1
 70
     1
102
RTVSPropertyOp2
 70
     1
102
RTVSPropertyOp3
 70
     1
102
RTVSPropertyOp4
 70
     1
102
RTVSPropertyOp5
 70
     1
102
RTVSPropertyOp6
 70
     1
102
RTVSPropertyOp7
 70
     1
102
RTVSPropertyOp8
 70
     1
102
RTVSPropertyOp9
 70
     1
102
RTVSPropertyOp10
 70
     1
102
RTVSPropertyOp11
 70
     1
102
RTVSPropertyOp12
 70
     1
102
RTVSPropertyOp13
 70
     1
102
RTVSPropertyOp14
 70
     1
102
RTVSPropertyOp15
 70
     1
102
RTVSPropertyOp16
 70
     1
102
RTVSPropertyOp17
 70
     1
102
RTVSPropertyOp18
 70
     1
102
RTVSPropertyOp19
 70
     1
102
RTVSPropertyOp20
 70
     1
102
RTVSPropertyOp21
 70
     1
102
RTVSPropertyOp22
 70
     1
102
RTVSPropertyOp23
 70
     1
102
RTVSPropertyOp24
 70
     1
102
RTVSPropertyOp25
 70
     1
102
RTVSPropertyOp26
 70
     1
102
RTVSPropertyOp27
 70
     1
102
RTVSPropertyOp28
 70
     1
102
RTVSPropertyOp29
 70
     1
102
RTVSPropertyOp30
 70
     1
102
RTVSPropertyOp31
 70
     1
102
RTVSPropertyOp32
 70
     1
102
RTVSPropertyOp33
 70
     1
102
RTVSPropertyOp34
 70
     1
102
RTVSPropertyOp35
 70
     1
102
RTVSPropertyOp36
 70
     1
102
RTVSPropertyOp37
 70
     1
102
RTVSPropertyOp38
 70
     1
102
RTVSPropertyOp39
 70
     1
102
RTVSPropertyOp40
 70
     1
102
RTVSPropertyOp41
 70
     1
102
RTVSPropertyOp42
 70
     1
102
RTVSPropertyOp43
 70
     1
102
RTVSPropertyOp44
 70
     1
102
RTVSPropertyOp45
 70
     1
102
RTVSPropertyOp46
 70
     1
102
RTVSPropertyOp47
 70
     1
102
RTVSPropertyOp48
 70
     1
102
RTVSPropertyOp49
 70
     1
102
RTVSPropertyOp50
 70
     1
102
RTVSPropertyOp51
 70
     0
102
RTVSPropertyOp52
 70
     0
102
RTVSPropertyOp53
 70
     1
102
RTVSPropertyOp54
 70
     1
102
RTVSPropertyOp55
 70
     1
102
RTVSPropertyOp56
 70
     1
102
RTVSPropertyOp57
 70
     1
102
RTVSPost2010Prop28
280
     0
102
RTVSPost2010PropOp28
 70
     1
102
RTVSPost2010Prop29
280
     1
102
RTVSPost2010PropOp29
 70
     1
102
RTVSPost2010Prop30
280
     1
102
RTVSPost2010PropOp30
 70
     1
102
RTVSPost2010Prop31
280
     0
102
RTVSPost2010PropOp31
 70
     1
102
RTVSPost2010Prop32
280
     0
102
RTVSPost2010PropOp32
 70
     1
102
RTVSPost2010Prop33
280
     0
102
RTVSPost2010PropOp33
 70
     1
102
RTVSPost2010Prop34
280
     0
102
RTVSPost2010PropOp34
 70
     1
102
RTVSPost2010Prop35
280
     0
102
RTVSPost2010PropOp35
 70
     1
102
RTVSPost2010Prop36
280
     0
102
RTVSPost2010PropOp36
 70
     1
102
RTVSPost2010Prop37
 90
       50
102
RTVSPost2010PropOp37
 70
     1
102
RTVSPost2010Prop38
140
0.0
102
RTVSPost2010PropOp38
 70
     1
102
RTVSPost2010Prop39
140
1.0
102
RTVSPost2010PropOp39
 70
     1
102
RTVSPost2010Prop40
 90
        0
102
RTVSPost2010PropOp40
 70
     1
102
RTVSPost2010Prop41ColorIndex
 90
       18
102
RTVSPost2010Prop41ColorRGB
 90
        0
102
RTVSPost2010PropOp41
 70
     1
102
RTVSPost2010Prop42
 90
       50
102
RTVSPost2010PropOp42
 70
     1
102
RTVSPost2010Prop43
 90
        3
102
RTVSPost2010PropOp43
 70
     1
102
RTVSPost2010Prop44ColorIndex
 90
        5
102
RTVSPost2010Prop44ColorRGB
 90
      255
102
RTVSPost2010PropOp44
 70
     1
102
RTVSPost2010Prop45
280
     0
102
RTVSPost2010PropOp45
 70
     1
102
RTVSPost2010Prop46
 90
       50
102
RTVSPost2010PropOp46
 70
     1
102
RTVSPost2010Prop47
 90
       50
102
RTVSPost2010PropOp47
 70
     1
102
RTVSPost2010Prop48
 90
       50
102
RTVSPost2010PropOp48
 70
     1
102
RTVSPost2010Prop49
280
     0
102
RTVSPost2010PropOp49
 70
     1
102
RTVSPost2010Prop50
 90
       50
102
RTVSPost2010PropOp50
 70
     1
102
RTVSPost2010Prop51ColorIndex
 90
      256
102
RTVSPost2010Prop51ColorRGB
 90
-16777216
102
RTVSPost2010PropOp51
 70
     0
102
RTVSPost2010Prop52
140
1.0
102
RTVSPost2010PropOp52
 70
     0
102
RTVSPost2010Prop53
 90
        2
102
RTVSPost2010PropOp53
 70
     1
102
RTVSPost2010Prop54
  1
strokes_ogs.tif
102
RTVSPost2010PropOp54
 70
     1
102
RTVSPost2010Prop55
280
     0
102
RTVSPost2010PropOp55
 70
     1
102
RTVSPost2010Prop56
140
1.0
102
RTVSPost2010PropOp56
 70
     1
102
RTVSPost2010Prop57
140
1.0
102
RTVSPost2010PropOp57
 70
     1
  0
XRECORD
  5
164
102
{ACAD_REACTORS
330
163
102
}
330
163
100
AcDbXrecord
280
     1
102
RTVSPropertyOp0
 70
     1
102
RTVSPropertyOp1
 70
     1
102
RTVSPropertyOp2
 70
     1
102
RTVSPropertyOp3
 70
     1
102
RTVSPropertyOp4
 70
     1
102
RTVSPropertyOp5
 70
     1
102
RTVSPropertyOp6
 70
     1
102
RTVSPropertyOp7
 70
     1
102
RTVSPropertyOp8
 70
     1
102
RTVSPropertyOp9
 70
     1
102
RTVSPropertyOp10
 70
     1
102
RTVSPropertyOp11
 70
     1
102
RTVSPropertyOp12
 70
     1
102
RTVSPropertyOp13
 70
     1
102
RTVSPropertyOp14
 70
     1
102
RTVSPropertyOp15
 70
     1
102
RTVSPropertyOp16
 70
     1
102
RTVSPropertyOp17
 70
     1
102
RTVSPropertyOp18
 70
     1
102
RTVSPropertyOp19
 70
     1
102
RTVSPropertyOp20
 70
     1
102
RTVSPropertyOp21
 70
     1
102
RTVSPropertyOp22
 70
     1
102
RTVSPropertyOp23
 70
     1
102
RTVSPropertyOp24
 70
     1
102
RTVSPropertyOp25
 70
     1
102
RTVSPropertyOp26
 70
     1
102
RTVSPropertyOp27
 70
     1
102
RTVSPropertyOp28
 70
     1
102
RTVSPropertyOp29
 70
     1
102
RTVSPropertyOp30
 70
     1
102
RTVSPropertyOp31
 70
     1
102
RTVSPropertyOp32
 70
     1
102
RTVSPropertyOp33
 70
     1
102
RTVSPropertyOp34
 70
     1
102
RTVSPropertyOp35
 70
     1
102
RTVSPropertyOp36
 70
     1
102
RTVSPropertyOp37
 70
     1
102
RTVSPropertyOp38
 70
     1
102
RTVSPropertyOp39
 70
     1
102
RTVSPropertyOp40
 70
     1
102
RTVSPropertyOp41
 70
     1
102
RTVSPropertyOp42
 70
     1
102
RTVSPropertyOp43
 70
     1
102
RTVSPropertyOp44
 70
     1
102
RTVSPropertyOp45
 70
     1
102
RTVSPropertyOp46
 70
     1
102
RTVSPropertyOp47
 70
     1
102
RTVSPropertyOp48
 70
     1
102
RTVSPropertyOp49
 70
     1
102
RTVSPropertyOp50
 70
     1
102
RTVSPropertyOp51
 70
     0
102
RTVSPropertyOp52
 70
     0
102
RTVSPropertyOp53
 70
     1
102
RTVSPropertyOp54
 70
     1
102
RTVSPropertyOp55
 70
     1
102
RTVSPropertyOp56
 70
     1
102
RTVSPropertyOp57
 70
     1
102
RTVSPost2010Prop28
280
     0
102
RTVSPost2010PropOp28
 70
     1
102
RTVSPost2010Prop29
280
     1
102
RTVSPost2010PropOp29
 70
     1
102
RTVSPost2010Prop30
280
     1
102
RTVSPost2010PropOp30
 70
     1
102
RTVSPost2010Prop31
280
     0
102
RTVSPost2010PropOp31
 70
     1
102
RTVSPost2010Prop32
280
     0
102
RTVSPost2010PropOp32
 70
     1
102
RTVSPost2010Prop33
280
     0
102
RTVSPost2010PropOp33
 70
     1
102
RTVSPost2010Prop34
280
     0
102
RTVSPost2010PropOp34
 70
     1
102
RTVSPost2010Prop35
280
     0
102
RTVSPost2010PropOp35
 70
     1
102
RTVSPost2010Prop36
280
     0
102
RTVSPost2010PropOp36
 70
     1
102
RTVSPost2010Prop37
 90
       50
102
RTVSPost2010PropOp37
 70
     1
102
RTVSPost2010Prop38
140
0.0
102
RTVSPost2010PropOp38
 70
     1
102
RTVSPost2010Prop39
140
1.0
102
RTVSPost2010PropOp39
 70
     1
102
RTVSPost2010Prop40
 90
        0
102
RTVSPost2010PropOp40
 70
     1
102
RTVSPost2010Prop41ColorIndex
 90
       18
102
RTVSPost2010Prop41ColorRGB
 90
        0
102
RTVSPost2010PropOp41
 70
     1
102
RTVSPost2010Prop42
 90
       50
102
RTVSPost2010PropOp42
 70
     1
102
RTVSPost2010Prop43
 90
        3
102
RTVSPost2010PropOp43
 70
     1
102
RTVSPost2010Prop44ColorIndex
 90
        5
102
RTVSPost2010Prop44ColorRGB
 90
      255
102
RTVSPost2010PropOp44
 70
     1
102
RTVSPost2010Prop45
280
     0
102
RTVSPost2010PropOp45
 70
     1
102
RTVSPost2010Prop46
 90
       50
102
RTVSPost2010PropOp46
 70
     1
102
RTVSPost2010Prop47
 90
       50
102
RTVSPost2010PropOp47
 70
     1
102
RTVSPost2010Prop48
 90
       50
102
RTVSPost2010PropOp48
 70
     1
102
RTVSPost2010Prop49
280
     0
102
RTVSPost2010PropOp49
 70
     1
102
RTVSPost2010Prop50
 90
       50
102
RTVSPost2010PropOp50
 70
     1
102
RTVSPost2010Prop51ColorIndex
 90
      256
102
RTVSPost2010Prop51ColorRGB
 90
-16777216
102
RTVSPost2010PropOp51
 70
     0
102
RTVSPost2010Prop52
140
1.0
102
RTVSPost2010PropOp52
 70
     0
102
RTVSPost2010Prop53
 90
        2
102
RTVSPost2010PropOp53
 70
     1
102
RTVSPost2010Prop54
  1
strokes_ogs.tif
102
RTVSPost2010PropOp54
 70
     1
102
RTVSPost2010Prop55
280
     0
102
RTVSPost2010PropOp55
 70
     1
102
RTVSPost2010Prop56
140
1.0
102
RTVSPost2010PropOp56
 70
     1
102
RTVSPost2010Prop57
140
1.0
102
RTVSPost2010PropOp57
 70
     1
  0
XRECORD
  5
174
102
{ACAD_REACTORS
330
173
102
}
330
173
100
AcDbXrecord
280
     1
102
RTVSPropertyOp0
 70
     0
102
RTVSPropertyOp1
 70
     0
102
RTVSPropertyOp2
 70
     0
102
RTVSPropertyOp3
 70
     0
102
RTVSPropertyOp4
 70
     0
102
RTVSPropertyOp5
 70
     0
102
RTVSPropertyOp6
 70
     0
102
RTVSPropertyOp7
 70
     0
102
RTVSPropertyOp8
 70
     0
102
RTVSPropertyOp9
 70
     0
102
RTVSPropertyOp10
 70
     0
102
RTVSPropertyOp11
 70
     0
102
RTVSPropertyOp12
 70
     0
102
RTVSPropertyOp13
 70
     0
102
RTVSPropertyOp14
 70
     2
102
RTVSPropertyOp15
 70
     0
102
RTVSPropertyOp16
 70
     0
102
RTVSPropertyOp17
 70
     0
102
RTVSPropertyOp18
 70
     0
102
RTVSPropertyOp19
 70
     0
102
RTVSPropertyOp20
 70
     0
102
RTVSPropertyOp21
 70
     0
102
RTVSPropertyOp22
 70
     0
102
RTVSPropertyOp23
 70
     0
102
RTVSPropertyOp24
 70
     0
102
RTVSPropertyOp25
 70
     0
102
RTVSPropertyOp26
 70
     0
102
RTVSPropertyOp27
 70
     0
102
RTVSPropertyOp28
 70
     0
102
RTVSPropertyOp29
 70
     0
102
RTVSPropertyOp30
 70
     0
102
RTVSPropertyOp31
 70
     0
102
RTVSPropertyOp32
 70
     0
102
RTVSPropertyOp33
 70
     0
102
RTVSPropertyOp34
 70
     0
102
RTVSPropertyOp35
 70
     0
102
RTVSPropertyOp36
 70
     0
102
RTVSPropertyOp37
 70
     0
102
RTVSPropertyOp38
 70
     0
102
RTVSPropertyOp39
 70
     0
102
RTVSPropertyOp40
 70
     0
102
RTVSPropertyOp41
 70
     0
102
RTVSPropertyOp42
 70
     0
102
RTVSPropertyOp43
 70
     0
102
RTVSPropertyOp44
 70
     0
102
RTVSPropertyOp45
 70
     0
102
RTVSPropertyOp46
 70
     0
102
RTVSPropertyOp47
 70
     0
102
RTVSPropertyOp48
 70
     0
102
RTVSPropertyOp49
 70
     0
102
RTVSPropertyOp50
 70
     0
102
RTVSPropertyOp51
 70
     0
102
RTVSPropertyOp52
 70
     0
102
RTVSPropertyOp53
 70
     0
102
RTVSPropertyOp54
 70
     0
102
RTVSPropertyOp55
 70
     0
102
RTVSPropertyOp56
 70
     0
102
RTVSPropertyOp57
 70
     0
102
RTVSPost2010Prop28
280
     0
102
RTVSPost2010PropOp28
 70
     0
102
RTVSPost2010Prop29
280
     1
102
RTVSPost2010PropOp29
 70
     0
102
RTVSPost2010Prop30
280
     1
102
RTVSPost2010PropOp30
 70
     0
102
RTVSPost2010Prop31
280
     0
102
RTVSPost2010PropOp31
 70
     0
102
RTVSPost2010Prop32
280
     0
102
RTVSPost2010PropOp32
 70
     0
102
RTVSPost2010Prop33
280
     0
102
RTVSPost2010PropOp33
 70
     0
102
RTVSPost2010Prop34
280
     0
102
RTVSPost2010PropOp34
 70
     0
102
RTVSPost2010Prop35
280
     0
102
RTVSPost2010PropOp35
 70
     0
102
RTVSPost2010Prop36
280
     0
102
RTVSPost2010PropOp36
 70
     0
102
RTVSPost2010Prop37
 90
       50
102
RTVSPost2010PropOp37
 70
     0
102
RTVSPost2010Prop38
140
0.0
102
RTVSPost2010PropOp38
 70
     0
102
RTVSPost2010Prop39
140
1.0
102
RTVSPost2010PropOp39
 70
     0
102
RTVSPost2010Prop40
 90
        0
102
RTVSPost2010PropOp40
 70
     0
102
RTVSPost2010Prop41ColorIndex
 90
       18
102
RTVSPost2010Prop41ColorRGB
 90
        0
102
RTVSPost2010PropOp41
 70
     0
102
RTVSPost2010Prop42
 90
       50
102
RTVSPost2010PropOp42
 70
     0
102
RTVSPost2010Prop43
 90
        3
102
RTVSPost2010PropOp43
 70
     0
102
RTVSPost2010Prop44ColorIndex
 90
        5
102
RTVSPost2010Prop44ColorRGB
 90
      255
102
RTVSPost2010PropOp44
 70
     0
102
RTVSPost2010Prop45
280
     0
102
RTVSPost2010PropOp45
 70
     0
102
RTVSPost2010Prop46
 90
       50
102
RTVSPost2010PropOp46
 70
     0
102
RTVSPost2010Prop47
 90
       50
102
RTVSPost2010PropOp47
 70
     0
102
RTVSPost2010Prop48
 90
       50
102
RTVSPost2010PropOp48
 70
     0
102
RTVSPost2010Prop49
280
     0
102
RTVSPost2010PropOp49
 70
     0
102
RTVSPost2010Prop50
 90
       50
102
RTVSPost2010PropOp50
 70
     0
102
RTVSPost2010Prop51ColorIndex
 90
      256
102
RTVSPost2010Prop51ColorRGB
 90
-16777216
102
RTVSPost2010PropOp51
 70
     0
102
RTVSPost2010Prop52
140
1.0
102
RTVSPost2010PropOp52
 70
     0
102
RTVSPost2010Prop53
 90
        2
102
RTVSPost2010PropOp53
 70
     0
102
RTVSPost2010Prop54
  1
strokes_ogs.tif
102
RTVSPost2010PropOp54
 70
     0
102
RTVSPost2010Prop55
280
     0
102
RTVSPost2010PropOp55
 70
     0
102
RTVSPost2010Prop56
140
1.0
102
RTVSPost2010PropOp56
 70
     0
102
RTVSPost2010Prop57
140
1.0
102
RTVSPost2010PropOp57
 70
     0
  0
XRECORD
  5
16C
102
{ACAD_REACTORS
330
16B
102
}
330
16B
100
AcDbXrecord
280
     1
102
RTVSPropertyOp0
 70
     1
102
RTVSPropertyOp1
 70
     1
102
RTVSPropertyOp2
 70
     1
102
RTVSPropertyOp3
 70
     1
102
RTVSPropertyOp4
 70
     1
102
RTVSPropertyOp5
 70
     1
102
RTVSPropertyOp6
 70
     1
102
RTVSPropertyOp7
 70
     1
102
RTVSPropertyOp8
 70
     1
102
RTVSPropertyOp9
 70
     1
102
RTVSPropertyOp10
 70
     1
102
RTVSPropertyOp11
 70
     1
102
RTVSPropertyOp12
 70
     1
102
RTVSPropertyOp13
 70
     1
102
RTVSPropertyOp14
 70
     1
102
RTVSPropertyOp15
 70
     1
102
RTVSPropertyOp16
 70
     1
102
RTVSPropertyOp17
 70
     1
102
RTVSPropertyOp18
 70
     1
102
RTVSPropertyOp19
 70
     1
102
RTVSPropertyOp20
 70
     1
102
RTVSPropertyOp21
 70
     1
102
RTVSPropertyOp22
 70
     1
102
RTVSPropertyOp23
 70
     1
102
RTVSPropertyOp24
 70
     1
102
RTVSPropertyOp25
 70
     1
102
RTVSPropertyOp26
 70
     1
102
RTVSPropertyOp27
 70
     1
102
RTVSPropertyOp28
 70
     1
102
RTVSPropertyOp29
 70
     1
102
RTVSPropertyOp30
 70
     1
102
RTVSPropertyOp31
 70
     1
102
RTVSPropertyOp32
 70
     1
102
RTVSPropertyOp33
 70
     1
102
RTVSPropertyOp34
 70
     1
102
RTVSPropertyOp35
 70
     1
102
RTVSPropertyOp36
 70
     1
102
RTVSPropertyOp37
 70
     1
102
RTVSPropertyOp38
 70
     1
102
RTVSPropertyOp39
 70
     1
102
RTVSPropertyOp40
 70
     1
102
RTVSPropertyOp41
 70
     1
102
RTVSPropertyOp42
 70
     1
102
RTVSPropertyOp43
 70
     1
102
RTVSPropertyOp44
 70
     1
102
RTVSPropertyOp45
 70
     1
102
RTVSPropertyOp46
 70
     1
102
RTVSPropertyOp47
 70
     1
102
RTVSPropertyOp48
 70
     1
102
RTVSPropertyOp49
 70
     1
102
RTVSPropertyOp50
 70
     1
102
RTVSPropertyOp51
 70
     0
102
RTVSPropertyOp52
 70
     0
102
RTVSPropertyOp53
 70
     1
102
RTVSPropertyOp54
 70
     1
102
RTVSPropertyOp55
 70
     1
102
RTVSPropertyOp56
 70
     1
102
RTVSPropertyOp57
 70
     1
102
RTVSPost2010Prop28
280
     0
102
RTVSPost2010PropOp28
 70
     1
102
RTVSPost2010Prop29
280
     1
102
RTVSPost2010PropOp29
 70
     1
102
RTVSPost2010Prop30
280
     1
102
RTVSPost2010PropOp30
 70
     1
102
RTVSPost2010Prop31
280
     0
102
RTVSPost2010PropOp31
 70
     1
102
RTVSPost2010Prop32
280
     0
102
RTVSPost2010PropOp32
 70
     1
102
RTVSPost2010Prop33
280
     0
102
RTVSPost2010PropOp33
 70
     1
102
RTVSPost2010Prop34
280
     0
102
RTVSPost2010PropOp34
 70
     1
102
RTVSPost2010Prop35
280
     0
102
RTVSPost2010PropOp35
 70
     1
102
RTVSPost2010Prop36
280
     0
102
RTVSPost2010PropOp36
 70
     1
102
RTVSPost2010Prop37
 90
       50
102
RTVSPost2010PropOp37
 70
     1
102
RTVSPost2010Prop38
140
0.0
102
RTVSPost2010PropOp38
 70
     1
102
RTVSPost2010Prop39
140
1.0
102
RTVSPost2010PropOp39
 70
     1
102
RTVSPost2010Prop40
 90
        0
102
RTVSPost2010PropOp40
 70
     1
102
RTVSPost2010Prop41ColorIndex
 90
       18
102
RTVSPost2010Prop41ColorRGB
 90
        0
102
RTVSPost2010PropOp41
 70
     1
102
RTVSPost2010Prop42
 90
       50
102
RTVSPost2010PropOp42
 70
     1
102
RTVSPost2010Prop43
 90
        3
102
RTVSPost2010PropOp43
 70
     1
102
RTVSPost2010Prop44ColorIndex
 90
        5
102
RTVSPost2010Prop44ColorRGB
 90
      255
102
RTVSPost2010PropOp44
 70
     1
102
RTVSPost2010Prop45
280
     0
102
RTVSPost2010PropOp45
 70
     1
102
RTVSPost2010Prop46
 90
       50
102
RTVSPost2010PropOp46
 70
     1
102
RTVSPost2010Prop47
 90
       50
102
RTVSPost2010PropOp47
 70
     1
102
RTVSPost2010Prop48
 90
       50
102
RTVSPost2010PropOp48
 70
     1
102
RTVSPost2010Prop49
280
     0
102
RTVSPost2010PropOp49
 70
     1
102
RTVSPost2010Prop50
 90
       50
102
RTVSPost2010PropOp50
 70
     1
102
RTVSPost2010Prop51ColorIndex
 90
      256
102
RTVSPost2010Prop51ColorRGB
 90
-16777216
102
RTVSPost2010PropOp51
 70
     0
102
RTVSPost2010Prop52
140
1.0
102
RTVSPost2010PropOp52
 70
     0
102
RTVSPost2010Prop53
 90
        2
102
RTVSPost2010PropOp53
 70
     1
102
RTVSPost2010Prop54
  1
strokes_ogs.tif
102
RTVSPost2010PropOp54
 70
     1
102
RTVSPost2010Prop55
280
     0
102
RTVSPost2010PropOp55
 70
     1
102
RTVSPost2010Prop56
140
1.0
102
RTVSPost2010PropOp56
 70
     1
102
RTVSPost2010Prop57
140
1.0
102
RTVSPost2010PropOp57
 70
     1
  0
XRECORD
  5
150
102
{ACAD_REACTORS
330
14F
102
}
330
14F
100
AcDbXrecord
280
     1
102
RTVSPropertyOp0
 70
     1
102
RTVSPropertyOp1
 70
     1
102
RTVSPropertyOp2
 70
     1
102
RTVSPropertyOp3
 70
     1
102
RTVSPropertyOp4
 70
     1
102
RTVSPropertyOp5
 70
     1
102
RTVSPropertyOp6
 70
     1
102
RTVSPropertyOp7
 70
     1
102
RTVSPropertyOp8
 70
     1
102
RTVSPropertyOp9
 70
     1
102
RTVSPropertyOp10
 70
     1
102
RTVSPropertyOp11
 70
     1
102
RTVSPropertyOp12
 70
     1
102
RTVSPropertyOp13
 70
     1
102
RTVSPropertyOp14
 70
     1
102
RTVSPropertyOp15
 70
     1
102
RTVSPropertyOp16
 70
     1
102
RTVSPropertyOp17
 70
     1
102
RTVSPropertyOp18
 70
     1
102
RTVSPropertyOp19
 70
     1
102
RTVSPropertyOp20
 70
     1
102
RTVSPropertyOp21
 70
     1
102
RTVSPropertyOp22
 70
     1
102
RTVSPropertyOp23
 70
     1
102
RTVSPropertyOp24
 70
     1
102
RTVSPropertyOp25
 70
     1
102
RTVSPropertyOp26
 70
     1
102
RTVSPropertyOp27
 70
     1
102
RTVSPropertyOp28
 70
     1
102
RTVSPropertyOp29
 70
     1
102
RTVSPropertyOp30
 70
     1
102
RTVSPropertyOp31
 70
     1
102
RTVSPropertyOp32
 70
     1
102
RTVSPropertyOp33
 70
     1
102
RTVSPropertyOp34
 70
     1
102
RTVSPropertyOp35
 70
     1
102
RTVSPropertyOp36
 70
     1
102
RTVSPropertyOp37
 70
     1
102
RTVSPropertyOp38
 70
     1
102
RTVSPropertyOp39
 70
     1
102
RTVSPropertyOp40
 70
     1
102
RTVSPropertyOp41
 70
     1
102
RTVSPropertyOp42
 70
     1
102
RTVSPropertyOp43
 70
     1
102
RTVSPropertyOp44
 70
     1
102
RTVSPropertyOp45
 70
     1
102
RTVSPropertyOp46
 70
     1
102
RTVSPropertyOp47
 70
     1
102
RTVSPropertyOp48
 70
     1
102
RTVSPropertyOp49
 70
     1
102
RTVSPropertyOp50
 70
     1
102
RTVSPropertyOp51
 70
     0
102
RTVSPropertyOp52
 70
     0
102
RTVSPropertyOp53
 70
     1
102
RTVSPropertyOp54
 70
     1
102
RTVSPropertyOp55
 70
     1
102
RTVSPropertyOp56
 70
     1
102
RTVSPropertyOp57
 70
     1
102
RTVSPost2010Prop28
280
     0
102
RTVSPost2010PropOp28
 70
     1
102
RTVSPost2010Prop29
280
     1
102
RTVSPost2010PropOp29
 70
     1
102
RTVSPost2010Prop30
280
     1
102
RTVSPost2010PropOp30
 70
     1
102
RTVSPost2010Prop31
280
     0
102
RTVSPost2010PropOp31
 70
     1
102
RTVSPost2010Prop32
280
     0
102
RTVSPost2010PropOp32
 70
     1
102
RTVSPost2010Prop33
280
     0
102
RTVSPost2010PropOp33
 70
     1
102
RTVSPost2010Prop34
280
     0
102
RTVSPost2010PropOp34
 70
     1
102
RTVSPost2010Prop35
280
     0
102
RTVSPost2010PropOp35
 70
     1
102
RTVSPost2010Prop36
280
     0
102
RTVSPost2010PropOp36
 70
     1
102
RTVSPost2010Prop37
 90
       50
102
RTVSPost2010PropOp37
 70
     1
102
RTVSPost2010Prop38
140
0.0
102
RTVSPost2010PropOp38
 70
     1
102
RTVSPost2010Prop39
140
1.0
102
RTVSPost2010PropOp39
 70
     1
102
RTVSPost2010Prop40
 90
        0
102
RTVSPost2010PropOp40
 70
     1
102
RTVSPost2010Prop41ColorIndex
 90
       18
102
RTVSPost2010Prop41ColorRGB
 90
        0
102
RTVSPost2010PropOp41
 70
     1
102
RTVSPost2010Prop42
 90
       50
102
RTVSPost2010PropOp42
 70
     1
102
RTVSPost2010Prop43
 90
        3
102
RTVSPost2010PropOp43
 70
     1
102
RTVSPost2010Prop44ColorIndex
 90
        5
102
RTVSPost2010Prop44ColorRGB
 90
      255
102
RTVSPost2010PropOp44
 70
     1
102
RTVSPost2010Prop45
280
     0
102
RTVSPost2010PropOp45
 70
     1
102
RTVSPost2010Prop46
 90
       50
102
RTVSPost2010PropOp46
 70
     1
102
RTVSPost2010Prop47
 90
       50
102
RTVSPost2010PropOp47
 70
     1
102
RTVSPost2010Prop48
 90
       50
102
RTVSPost2010PropOp48
 70
     1
102
RTVSPost2010Prop49
280
     0
102
RTVSPost2010PropOp49
 70
     1
102
RTVSPost2010Prop50
 90
       50
102
RTVSPost2010PropOp50
 70
     1
102
RTVSPost2010Prop51ColorIndex
 90
      256
102
RTVSPost2010Prop51ColorRGB
 90
-16777216
102
RTVSPost2010PropOp51
 70
     0
102
RTVSPost2010Prop52
140
1.0
102
RTVSPost2010PropOp52
 70
     0
102
RTVSPost2010Prop53
 90
        2
102
RTVSPost2010PropOp53
 70
     1
102
RTVSPost2010Prop54
  1
strokes_ogs.tif
102
RTVSPost2010PropOp54
 70
     1
102
RTVSPost2010Prop55
280
     0
102
RTVSPost2010PropOp55
 70
     1
102
RTVSPost2010Prop56
140
1.0
102
RTVSPost2010PropOp56
 70
     1
102
RTVSPost2010Prop57
140
1.0
102
RTVSPost2010PropOp57
 70
     1
  0
XRECORD
  5
152
102
{ACAD_REACTORS
330
151
102
}
330
151
100
AcDbXrecord
280
     1
102
RTVSPropertyOp0
 70
     1
102
RTVSPropertyOp1
 70
     1
102
RTVSPropertyOp2
 70
     1
102
RTVSPropertyOp3
 70
     1
102
RTVSPropertyOp4
 70
     1
102
RTVSPropertyOp5
 70
     1
102
RTVSPropertyOp6
 70
     1
102
RTVSPropertyOp7
 70
     1
102
RTVSPropertyOp8
 70
     1
102
RTVSPropertyOp9
 70
     1
102
RTVSPropertyOp10
 70
     1
102
RTVSPropertyOp11
 70
     1
102
RTVSPropertyOp12
 70
     1
102
RTVSPropertyOp13
 70
     1
102
RTVSPropertyOp14
 70
     1
102
RTVSPropertyOp15
 70
     1
102
RTVSPropertyOp16
 70
     1
102
RTVSPropertyOp17
 70
     1
102
RTVSPropertyOp18
 70
     1
102
RTVSPropertyOp19
 70
     1
102
RTVSPropertyOp20
 70
     1
102
RTVSPropertyOp21
 70
     1
102
RTVSPropertyOp22
 70
     1
102
RTVSPropertyOp23
 70
     1
102
RTVSPropertyOp24
 70
     1
102
RTVSPropertyOp25
 70
     1
102
RTVSPropertyOp26
 70
     1
102
RTVSPropertyOp27
 70
     1
102
RTVSPropertyOp28
 70
     1
102
RTVSPropertyOp29
 70
     1
102
RTVSPropertyOp30
 70
     1
102
RTVSPropertyOp31
 70
     1
102
RTVSPropertyOp32
 70
     1
102
RTVSPropertyOp33
 70
     1
102
RTVSPropertyOp34
 70
     1
102
RTVSPropertyOp35
 70
     1
102
RTVSPropertyOp36
 70
     1
102
RTVSPropertyOp37
 70
     1
102
RTVSPropertyOp38
 70
     1
102
RTVSPropertyOp39
 70
     1
102
RTVSPropertyOp40
 70
     1
102
RTVSPropertyOp41
 70
     1
102
RTVSPropertyOp42
 70
     1
102
RTVSPropertyOp43
 70
     1
102
RTVSPropertyOp44
 70
     1
102
RTVSPropertyOp45
 70
     1
102
RTVSPropertyOp46
 70
     1
102
RTVSPropertyOp47
 70
     1
102
RTVSPropertyOp48
 70
     1
102
RTVSPropertyOp49
 70
     1
102
RTVSPropertyOp50
 70
     1
102
RTVSPropertyOp51
 70
     0
102
RTVSPropertyOp52
 70
     0
102
RTVSPropertyOp53
 70
     1
102
RTVSPropertyOp54
 70
     1
102
RTVSPropertyOp55
 70
     1
102
RTVSPropertyOp56
 70
     1
102
RTVSPropertyOp57
 70
     1
102
RTVSPost2010Prop28
280
     0
102
RTVSPost2010PropOp28
 70
     1
102
RTVSPost2010Prop29
280
     1
102
RTVSPost2010PropOp29
 70
     1
102
RTVSPost2010Prop30
280
     1
102
RTVSPost2010PropOp30
 70
     1
102
RTVSPost2010Prop31
280
     0
102
RTVSPost2010PropOp31
 70
     1
102
RTVSPost2010Prop32
280
     0
102
RTVSPost2010PropOp32
 70
     1
102
RTVSPost2010Prop33
280
     0
102
RTVSPost2010PropOp33
 70
     1
102
RTVSPost2010Prop34
280
     0
102
RTVSPost2010PropOp34
 70
     1
102
RTVSPost2010Prop35
280
     0
102
RTVSPost2010PropOp35
 70
     1
102
RTVSPost2010Prop36
280
     0
102
RTVSPost2010PropOp36
 70
     1
102
RTVSPost2010Prop37
 90
       50
102
RTVSPost2010PropOp37
 70
     1
102
RTVSPost2010Prop38
140
0.0
102
RTVSPost2010PropOp38
 70
     1
102
RTVSPost2010Prop39
140
1.0
102
RTVSPost2010PropOp39
 70
     1
102
RTVSPost2010Prop40
 90
        0
102
RTVSPost2010PropOp40
 70
     1
102
RTVSPost2010Prop41ColorIndex
 90
       18
102
RTVSPost2010Prop41ColorRGB
 90
        0
102
RTVSPost2010PropOp41
 70
     1
102
RTVSPost2010Prop42
 90
       50
102
RTVSPost2010PropOp42
 70
     1
102
RTVSPost2010Prop43
 90
        3
102
RTVSPost2010PropOp43
 70
     1
102
RTVSPost2010Prop44ColorIndex
 90
        5
102
RTVSPost2010Prop44ColorRGB
 90
      255
102
RTVSPost2010PropOp44
 70
     1
102
RTVSPost2010Prop45
280
     0
102
RTVSPost2010PropOp45
 70
     1
102
RTVSPost2010Prop46
 90
       50
102
RTVSPost2010PropOp46
 70
     1
102
RTVSPost2010Prop47
 90
       50
102
RTVSPost2010PropOp47
 70
     1
102
RTVSPost2010Prop48
 90
       50
102
RTVSPost2010PropOp48
 70
     1
102
RTVSPost2010Prop49
280
     0
102
RTVSPost2010PropOp49
 70
     1
102
RTVSPost2010Prop50
 90
       50
102
RTVSPost2010PropOp50
 70
     1
102
RTVSPost2010Prop51ColorIndex
 90
      256
102
RTVSPost2010Prop51ColorRGB
 90
-16777216
102
RTVSPost2010PropOp51
 70
     0
102
RTVSPost2010Prop52
140
1.0
102
RTVSPost2010PropOp52
 70
     0
102
RTVSPost2010Prop53
 90
        2
102
RTVSPost2010PropOp53
 70
     1
102
RTVSPost2010Prop54
  1
strokes_ogs.tif
102
RTVSPost2010PropOp54
 70
     1
102
RTVSPost2010Prop55
280
     0
102
RTVSPost2010PropOp55
 70
     1
102
RTVSPost2010Prop56
140
1.0
102
RTVSPost2010PropOp56
 70
     1
102
RTVSPost2010Prop57
140
1.0
102
RTVSPost2010PropOp57
 70
     1
  0
XRECORD
  5
154
102
{ACAD_REACTORS
330
153
102
}
330
153
100
AcDbXrecord
280
     1
102
RTVSPropertyOp0
 70
     1
102
RTVSPropertyOp1
 70
     1
102
RTVSPropertyOp2
 70
     1
102
RTVSPropertyOp3
 70
     1
102
RTVSPropertyOp4
 70
     1
102
RTVSPropertyOp5
 70
     1
102
RTVSPropertyOp6
 70
     1
102
RTVSPropertyOp7
 70
     1
102
RTVSPropertyOp8
 70
     1
102
RTVSPropertyOp9
 70
     1
102
RTVSPropertyOp10
 70
     1
102
RTVSPropertyOp11
 70
     1
102
RTVSPropertyOp12
 70
     1
102
RTVSPropertyOp13
 70
     1
102
RTVSPropertyOp14
 70
     1
102
RTVSPropertyOp15
 70
     1
102
RTVSPropertyOp16
 70
     1
102
RTVSPropertyOp17
 70
     1
102
RTVSPropertyOp18
 70
     1
102
RTVSPropertyOp19
 70
     1
102
RTVSPropertyOp20
 70
     1
102
RTVSPropertyOp21
 70
     1
102
RTVSPropertyOp22
 70
     1
102
RTVSPropertyOp23
 70
     1
102
RTVSPropertyOp24
 70
     1
102
RTVSPropertyOp25
 70
     1
102
RTVSPropertyOp26
 70
     1
102
RTVSPropertyOp27
 70
     1
102
RTVSPropertyOp28
 70
     1
102
RTVSPropertyOp29
 70
     1
102
RTVSPropertyOp30
 70
     1
102
RTVSPropertyOp31
 70
     1
102
RTVSPropertyOp32
 70
     1
102
RTVSPropertyOp33
 70
     1
102
RTVSPropertyOp34
 70
     1
102
RTVSPropertyOp35
 70
     1
102
RTVSPropertyOp36
 70
     1
102
RTVSPropertyOp37
 70
     1
102
RTVSPropertyOp38
 70
     1
102
RTVSPropertyOp39
 70
     1
102
RTVSPropertyOp40
 70
     1
102
RTVSPropertyOp41
 70
     1
102
RTVSPropertyOp42
 70
     1
102
RTVSPropertyOp43
 70
     1
102
RTVSPropertyOp44
 70
     1
102
RTVSPropertyOp45
 70
     1
102
RTVSPropertyOp46
 70
     1
102
RTVSPropertyOp47
 70
     1
102
RTVSPropertyOp48
 70
     1
102
RTVSPropertyOp49
 70
     1
102
RTVSPropertyOp50
 70
     1
102
RTVSPropertyOp51
 70
     0
102
RTVSPropertyOp52
 70
     0
102
RTVSPropertyOp53
 70
     1
102
RTVSPropertyOp54
 70
     1
102
RTVSPropertyOp55
 70
     1
102
RTVSPropertyOp56
 70
     1
102
RTVSPropertyOp57
 70
     1
102
RTVSPost2010Prop28
280
     0
102
RTVSPost2010PropOp28
 70
     1
102
RTVSPost2010Prop29
280
     1
102
RTVSPost2010PropOp29
 70
     1
102
RTVSPost2010Prop30
280
     1
102
RTVSPost2010PropOp30
 70
     1
102
RTVSPost2010Prop31
280
     0
102
RTVSPost2010PropOp31
 70
     1
102
RTVSPost2010Prop32
280
     0
102
RTVSPost2010PropOp32
 70
     1
102
RTVSPost2010Prop33
280
     0
102
RTVSPost2010PropOp33
 70
     1
102
RTVSPost2010Prop34
280
     0
102
RTVSPost2010PropOp34
 70
     1
102
RTVSPost2010Prop35
280
     0
102
RTVSPost2010PropOp35
 70
     1
102
RTVSPost2010Prop36
280
     0
102
RTVSPost2010PropOp36
 70
     1
102
RTVSPost2010Prop37
 90
       50
102
RTVSPost2010PropOp37
 70
     1
102
RTVSPost2010Prop38
140
0.0
102
RTVSPost2010PropOp38
 70
     1
102
RTVSPost2010Prop39
140
1.0
102
RTVSPost2010PropOp39
 70
     1
102
RTVSPost2010Prop40
 90
        0
102
RTVSPost2010PropOp40
 70
     1
102
RTVSPost2010Prop41ColorIndex
 90
       18
102
RTVSPost2010Prop41ColorRGB
 90
        0
102
RTVSPost2010PropOp41
 70
     1
102
RTVSPost2010Prop42
 90
       50
102
RTVSPost2010PropOp42
 70
     1
102
RTVSPost2010Prop43
 90
        3
102
RTVSPost2010PropOp43
 70
     1
102
RTVSPost2010Prop44ColorIndex
 90
        5
102
RTVSPost2010Prop44ColorRGB
 90
      255
102
RTVSPost2010PropOp44
 70
     1
102
RTVSPost2010Prop45
280
     0
102
RTVSPost2010PropOp45
 70
     1
102
RTVSPost2010Prop46
 90
       50
102
RTVSPost2010PropOp46
 70
     1
102
RTVSPost2010Prop47
 90
       50
102
RTVSPost2010PropOp47
 70
     1
102
RTVSPost2010Prop48
 90
       50
102
RTVSPost2010PropOp48
 70
     1
102
RTVSPost2010Prop49
280
     0
102
RTVSPost2010PropOp49
 70
     1
102
RTVSPost2010Prop50
 90
       50
102
RTVSPost2010PropOp50
 70
     1
102
RTVSPost2010Prop51ColorIndex
 90
      256
102
RTVSPost2010Prop51ColorRGB
 90
-16777216
102
RTVSPost2010PropOp51
 70
     0
102
RTVSPost2010Prop52
140
1.0
102
RTVSPost2010PropOp52
 70
     0
102
RTVSPost2010Prop53
 90
        2
102
RTVSPost2010PropOp53
 70
     1
102
RTVSPost2010Prop54
  1
strokes_ogs.tif
102
RTVSPost2010PropOp54
 70
     1
102
RTVSPost2010Prop55
280
     0
102
RTVSPost2010PropOp55
 70
     1
102
RTVSPost2010Prop56
140
1.0
102
RTVSPost2010PropOp56
 70
     1
102
RTVSPost2010Prop57
140
1.0
102
RTVSPost2010PropOp57
 70
     1
  0
XRECORD
  5
156
102
{ACAD_REACTORS
330
155
102
}
330
155
100
AcDbXrecord
280
     1
102
RTVSPropertyOp0
 70
     1
102
RTVSPropertyOp1
 70
     1
102
RTVSPropertyOp2
 70
     1
102
RTVSPropertyOp3
 70
     1
102
RTVSPropertyOp4
 70
     1
102
RTVSPropertyOp5
 70
     1
102
RTVSPropertyOp6
 70
     1
102
RTVSPropertyOp7
 70
     1
102
RTVSPropertyOp8
 70
     1
102
RTVSPropertyOp9
 70
     1
102
RTVSPropertyOp10
 70
     1
102
RTVSPropertyOp11
 70
     1
102
RTVSPropertyOp12
 70
     1
102
RTVSPropertyOp13
 70
     1
102
RTVSPropertyOp14
 70
     1
102
RTVSPropertyOp15
 70
     1
102
RTVSPropertyOp16
 70
     1
102
RTVSPropertyOp17
 70
     1
102
RTVSPropertyOp18
 70
     1
102
RTVSPropertyOp19
 70
     1
102
RTVSPropertyOp20
 70
     1
102
RTVSPropertyOp21
 70
     1
102
RTVSPropertyOp22
 70
     1
102
RTVSPropertyOp23
 70
     1
102
RTVSPropertyOp24
 70
     1
102
RTVSPropertyOp25
 70
     1
102
RTVSPropertyOp26
 70
     1
102
RTVSPropertyOp27
 70
     1
102
RTVSPropertyOp28
 70
     1
102
RTVSPropertyOp29
 70
     1
102
RTVSPropertyOp30
 70
     1
102
RTVSPropertyOp31
 70
     1
102
RTVSPropertyOp32
 70
     1
102
RTVSPropertyOp33
 70
     1
102
RTVSPropertyOp34
 70
     1
102
RTVSPropertyOp35
 70
     1
102
RTVSPropertyOp36
 70
     1
102
RTVSPropertyOp37
 70
     1
102
RTVSPropertyOp38
 70
     1
102
RTVSPropertyOp39
 70
     1
102
RTVSPropertyOp40
 70
     1
102
RTVSPropertyOp41
 70
     1
102
RTVSPropertyOp42
 70
     1
102
RTVSPropertyOp43
 70
     1
102
RTVSPropertyOp44
 70
     1
102
RTVSPropertyOp45
 70
     1
102
RTVSPropertyOp46
 70
     1
102
RTVSPropertyOp47
 70
     1
102
RTVSPropertyOp48
 70
     1
102
RTVSPropertyOp49
 70
     1
102
RTVSPropertyOp50
 70
     1
102
RTVSPropertyOp51
 70
     0
102
RTVSPropertyOp52
 70
     0
102
RTVSPropertyOp53
 70
     1
102
RTVSPropertyOp54
 70
     1
102
RTVSPropertyOp55
 70
     1
102
RTVSPropertyOp56
 70
     1
102
RTVSPropertyOp57
 70
     1
102
RTVSPost2010Prop28
280
     0
102
RTVSPost2010PropOp28
 70
     1
102
RTVSPost2010Prop29
280
     1
102
RTVSPost2010PropOp29
 70
     1
102
RTVSPost2010Prop30
280
     1
102
RTVSPost2010PropOp30
 70
     1
102
RTVSPost2010Prop31
280
     0
102
RTVSPost2010PropOp31
 70
     1
102
RTVSPost2010Prop32
280
     0
102
RTVSPost2010PropOp32
 70
     1
102
RTVSPost2010Prop33
280
     0
102
RTVSPost2010PropOp33
 70
     1
102
RTVSPost2010Prop34
280
     0
102
RTVSPost2010PropOp34
 70
     1
102
RTVSPost2010Prop35
280
     0
102
RTVSPost2010PropOp35
 70
     1
102
RTVSPost2010Prop36
280
     0
102
RTVSPost2010PropOp36
 70
     1
102
RTVSPost2010Prop37
 90
       50
102
RTVSPost2010PropOp37
 70
     1
102
RTVSPost2010Prop38
140
0.0
102
RTVSPost2010PropOp38
 70
     1
102
RTVSPost2010Prop39
140
1.0
102
RTVSPost2010PropOp39
 70
     1
102
RTVSPost2010Prop40
 90
        0
102
RTVSPost2010PropOp40
 70
     1
102
RTVSPost2010Prop41ColorIndex
 90
       18
102
RTVSPost2010Prop41ColorRGB
 90
        0
102
RTVSPost2010PropOp41
 70
     1
102
RTVSPost2010Prop42
 90
       50
102
RTVSPost2010PropOp42
 70
     1
102
RTVSPost2010Prop43
 90
        3
102
RTVSPost2010PropOp43
 70
     1
102
RTVSPost2010Prop44ColorIndex
 90
        5
102
RTVSPost2010Prop44ColorRGB
 90
      255
102
RTVSPost2010PropOp44
 70
     1
102
RTVSPost2010Prop45
280
     0
102
RTVSPost2010PropOp45
 70
     1
102
RTVSPost2010Prop46
 90
       50
102
RTVSPost2010PropOp46
 70
     1
102
RTVSPost2010Prop47
 90
       50
102
RTVSPost2010PropOp47
 70
     1
102
RTVSPost2010Prop48
 90
       50
102
RTVSPost2010PropOp48
 70
     1
102
RTVSPost2010Prop49
280
     0
102
RTVSPost2010PropOp49
 70
     1
102
RTVSPost2010Prop50
 90
       50
102
RTVSPost2010PropOp50
 70
     1
102
RTVSPost2010Prop51ColorIndex
 90
      256
102
RTVSPost2010Prop51ColorRGB
 90
-16777216
102
RTVSPost2010PropOp51
 70
     0
102
RTVSPost2010Prop52
140
1.0
102
RTVSPost2010PropOp52
 70
     0
102
RTVSPost2010Prop53
 90
        2
102
RTVSPost2010PropOp53
 70
     1
102
RTVSPost2010Prop54
  1
strokes_ogs.tif
102
RTVSPost2010PropOp54
 70
     1
102
RTVSPost2010Prop55
280
     0
102
RTVSPost2010PropOp55
 70
     1
102
RTVSPost2010Prop56
140
1.0
102
RTVSPost2010PropOp56
 70
     1
102
RTVSPost2010Prop57
140
1.0
102
RTVSPost2010PropOp57
 70
     1
  0
XRECORD
  5
15C
102
{ACAD_REACTORS
330
15B
102
}
330
15B
100
AcDbXrecord
280
     1
102
RTVSPropertyOp0
 70
     1
102
RTVSPropertyOp1
 70
     1
102
RTVSPropertyOp2
 70
     1
102
RTVSPropertyOp3
 70
     1
102
RTVSPropertyOp4
 70
     1
102
RTVSPropertyOp5
 70
     1
102
RTVSPropertyOp6
 70
     1
102
RTVSPropertyOp7
 70
     1
102
RTVSPropertyOp8
 70
     1
102
RTVSPropertyOp9
 70
     1
102
RTVSPropertyOp10
 70
     1
102
RTVSPropertyOp11
 70
     1
102
RTVSPropertyOp12
 70
     1
102
RTVSPropertyOp13
 70
     1
102
RTVSPropertyOp14
 70
     1
102
RTVSPropertyOp15
 70
     1
102
RTVSPropertyOp16
 70
     1
102
RTVSPropertyOp17
 70
     1
102
RTVSPropertyOp18
 70
     1
102
RTVSPropertyOp19
 70
     1
102
RTVSPropertyOp20
 70
     1
102
RTVSPropertyOp21
 70
     1
102
RTVSPropertyOp22
 70
     1
102
RTVSPropertyOp23
 70
     1
102
RTVSPropertyOp24
 70
     1
102
RTVSPropertyOp25
 70
     1
102
RTVSPropertyOp26
 70
     1
102
RTVSPropertyOp27
 70
     1
102
RTVSPropertyOp28
 70
     1
102
RTVSPropertyOp29
 70
     1
102
RTVSPropertyOp30
 70
     1
102
RTVSPropertyOp31
 70
     1
102
RTVSPropertyOp32
 70
     1
102
RTVSPropertyOp33
 70
     1
102
RTVSPropertyOp34
 70
     1
102
RTVSPropertyOp35
 70
     1
102
RTVSPropertyOp36
 70
     1
102
RTVSPropertyOp37
 70
     1
102
RTVSPropertyOp38
 70
     1
102
RTVSPropertyOp39
 70
     1
102
RTVSPropertyOp40
 70
     1
102
RTVSPropertyOp41
 70
     1
102
RTVSPropertyOp42
 70
     1
102
RTVSPropertyOp43
 70
     1
102
RTVSPropertyOp44
 70
     1
102
RTVSPropertyOp45
 70
     1
102
RTVSPropertyOp46
 70
     1
102
RTVSPropertyOp47
 70
     1
102
RTVSPropertyOp48
 70
     1
102
RTVSPropertyOp49
 70
     1
102
RTVSPropertyOp50
 70
     1
102
RTVSPropertyOp51
 70
     0
102
RTVSPropertyOp52
 70
     0
102
RTVSPropertyOp53
 70
     1
102
RTVSPropertyOp54
 70
     1
102
RTVSPropertyOp55
 70
     1
102
RTVSPropertyOp56
 70
     1
102
RTVSPropertyOp57
 70
     1
102
RTVSPost2010Prop28
280
     0
102
RTVSPost2010PropOp28
 70
     1
102
RTVSPost2010Prop29
280
     1
102
RTVSPost2010PropOp29
 70
     1
102
RTVSPost2010Prop30
280
     1
102
RTVSPost2010PropOp30
 70
     1
102
RTVSPost2010Prop31
280
     0
102
RTVSPost2010PropOp31
 70
     1
102
RTVSPost2010Prop32
280
     0
102
RTVSPost2010PropOp32
 70
     1
102
RTVSPost2010Prop33
280
     0
102
RTVSPost2010PropOp33
 70
     1
102
RTVSPost2010Prop34
280
     0
102
RTVSPost2010PropOp34
 70
     1
102
RTVSPost2010Prop35
280
     0
102
RTVSPost2010PropOp35
 70
     1
102
RTVSPost2010Prop36
280
     0
102
RTVSPost2010PropOp36
 70
     1
102
RTVSPost2010Prop37
 90
       50
102
RTVSPost2010PropOp37
 70
     1
102
RTVSPost2010Prop38
140
0.0
102
RTVSPost2010PropOp38
 70
     1
102
RTVSPost2010Prop39
140
1.0
102
RTVSPost2010PropOp39
 70
     1
102
RTVSPost2010Prop40
 90
        0
102
RTVSPost2010PropOp40
 70
     1
102
RTVSPost2010Prop41ColorIndex
 90
       18
102
RTVSPost2010Prop41ColorRGB
 90
        0
102
RTVSPost2010PropOp41
 70
     1
102
RTVSPost2010Prop42
 90
       50
102
RTVSPost2010PropOp42
 70
     1
102
RTVSPost2010Prop43
 90
        3
102
RTVSPost2010PropOp43
 70
     1
102
RTVSPost2010Prop44ColorIndex
 90
        5
102
RTVSPost2010Prop44ColorRGB
 90
      255
102
RTVSPost2010PropOp44
 70
     1
102
RTVSPost2010Prop45
280
     0
102
RTVSPost2010PropOp45
 70
     1
102
RTVSPost2010Prop46
 90
       50
102
RTVSPost2010PropOp46
 70
     1
102
RTVSPost2010Prop47
 90
       50
102
RTVSPost2010PropOp47
 70
     1
102
RTVSPost2010Prop48
 90
       50
102
RTVSPost2010PropOp48
 70
     1
102
RTVSPost2010Prop49
280
     0
102
RTVSPost2010PropOp49
 70
     1
102
RTVSPost2010Prop50
 90
       50
102
RTVSPost2010PropOp50
 70
     1
102
RTVSPost2010Prop51ColorIndex
 90
      256
102
RTVSPost2010Prop51ColorRGB
 90
-16777216
102
RTVSPost2010PropOp51
 70
     0
102
RTVSPost2010Prop52
140
1.0
102
RTVSPost2010PropOp52
 70
     0
102
RTVSPost2010Prop53
 90
        2
102
RTVSPost2010PropOp53
 70
     1
102
RTVSPost2010Prop54
  1
strokes_ogs.tif
102
RTVSPost2010PropOp54
 70
     1
102
RTVSPost2010Prop55
280
     0
102
RTVSPost2010PropOp55
 70
     1
102
RTVSPost2010Prop56
140
1.0
102
RTVSPost2010PropOp56
 70
     1
102
RTVSPost2010Prop57
140
1.0
102
RTVSPost2010PropOp57
 70
     1
  0
XRECORD
  5
170
102
{ACAD_REACTORS
330
16F
102
}
330
16F
100
AcDbXrecord
280
     1
102
RTVSPropertyOp0
 70
     0
102
RTVSPropertyOp1
 70
     0
102
RTVSPropertyOp2
 70
     0
102
RTVSPropertyOp3
 70
     0
102
RTVSPropertyOp4
 70
     0
102
RTVSPropertyOp5
 70
     0
102
RTVSPropertyOp6
 70
     0
102
RTVSPropertyOp7
 70
     0
102
RTVSPropertyOp8
 70
     0
102
RTVSPropertyOp9
 70
     0
102
RTVSPropertyOp10
 70
     0
102
RTVSPropertyOp11
 70
     0
102
RTVSPropertyOp12
 70
     0
102
RTVSPropertyOp13
 70
     0
102
RTVSPropertyOp14
 70
     2
102
RTVSPropertyOp15
 70
     0
102
RTVSPropertyOp16
 70
     0
102
RTVSPropertyOp17
 70
     0
102
RTVSPropertyOp18
 70
     0
102
RTVSPropertyOp19
 70
     0
102
RTVSPropertyOp20
 70
     0
102
RTVSPropertyOp21
 70
     0
102
RTVSPropertyOp22
 70
     0
102
RTVSPropertyOp23
 70
     0
102
RTVSPropertyOp24
 70
     0
102
RTVSPropertyOp25
 70
     0
102
RTVSPropertyOp26
 70
     0
102
RTVSPropertyOp27
 70
     0
102
RTVSPropertyOp28
 70
     0
102
RTVSPropertyOp29
 70
     0
102
RTVSPropertyOp30
 70
     0
102
RTVSPropertyOp31
 70
     0
102
RTVSPropertyOp32
 70
     0
102
RTVSPropertyOp33
 70
     0
102
RTVSPropertyOp34
 70
     0
102
RTVSPropertyOp35
 70
     0
102
RTVSPropertyOp36
 70
     0
102
RTVSPropertyOp37
 70
     0
102
RTVSPropertyOp38
 70
     0
102
RTVSPropertyOp39
 70
     0
102
RTVSPropertyOp40
 70
     0
102
RTVSPropertyOp41
 70
     0
102
RTVSPropertyOp42
 70
     0
102
RTVSPropertyOp43
 70
     0
102
RTVSPropertyOp44
 70
     0
102
RTVSPropertyOp45
 70
     0
102
RTVSPropertyOp46
 70
     0
102
RTVSPropertyOp47
 70
     0
102
RTVSPropertyOp48
 70
     0
102
RTVSPropertyOp49
 70
     0
102
RTVSPropertyOp50
 70
     0
102
RTVSPropertyOp51
 70
     0
102
RTVSPropertyOp52
 70
     0
102
RTVSPropertyOp53
 70
     0
102
RTVSPropertyOp54
 70
     0
102
RTVSPropertyOp55
 70
     0
102
RTVSPropertyOp56
 70
     0
102
RTVSPropertyOp57
 70
     0
102
RTVSPost2010Prop28
280
     0
102
RTVSPost2010PropOp28
 70
     0
102
RTVSPost2010Prop29
280
     1
102
RTVSPost2010PropOp29
 70
     0
102
RTVSPost2010Prop30
280
     1
102
RTVSPost2010PropOp30
 70
     0
102
RTVSPost2010Prop31
280
     0
102
RTVSPost2010PropOp31
 70
     0
102
RTVSPost2010Prop32
280
     0
102
RTVSPost2010PropOp32
 70
     0
102
RTVSPost2010Prop33
280
     0
102
RTVSPost2010PropOp33
 70
     0
102
RTVSPost2010Prop34
280
     0
102
RTVSPost2010PropOp34
 70
     0
102
RTVSPost2010Prop35
280
     0
102
RTVSPost2010PropOp35
 70
     0
102
RTVSPost2010Prop36
280
     0
102
RTVSPost2010PropOp36
 70
     0
102
RTVSPost2010Prop37
 90
       50
102
RTVSPost2010PropOp37
 70
     0
102
RTVSPost2010Prop38
140
0.0
102
RTVSPost2010PropOp38
 70
     0
102
RTVSPost2010Prop39
140
1.0
102
RTVSPost2010PropOp39
 70
     0
102
RTVSPost2010Prop40
 90
        0
102
RTVSPost2010PropOp40
 70
     0
102
RTVSPost2010Prop41ColorIndex
 90
       18
102
RTVSPost2010Prop41ColorRGB
 90
        0
102
RTVSPost2010PropOp41
 70
     0
102
RTVSPost2010Prop42
 90
       50
102
RTVSPost2010PropOp42
 70
     0
102
RTVSPost2010Prop43
 90
        3
102
RTVSPost2010PropOp43
 70
     0
102
RTVSPost2010Prop44ColorIndex
 90
        5
102
RTVSPost2010Prop44ColorRGB
 90
      255
102
RTVSPost2010PropOp44
 70
     0
102
RTVSPost2010Prop45
280
     0
102
RTVSPost2010PropOp45
 70
     0
102
RTVSPost2010Prop46
 90
       50
102
RTVSPost2010PropOp46
 70
     0
102
RTVSPost2010Prop47
 90
       50
102
RTVSPost2010PropOp47
 70
     0
102
RTVSPost2010Prop48
 90
       50
102
RTVSPost2010PropOp48
 70
     0
102
RTVSPost2010Prop49
280
     0
102
RTVSPost2010PropOp49
 70
     0
102
RTVSPost2010Prop50
 90
       50
102
RTVSPost2010PropOp50
 70
     0
102
RTVSPost2010Prop51ColorIndex
 90
      256
102
RTVSPost2010Prop51ColorRGB
 90
-16777216
102
RTVSPost2010PropOp51
 70
     0
102
RTVSPost2010Prop52
140
1.0
102
RTVSPost2010PropOp52
 70
     0
102
RTVSPost2010Prop53
 90
        2
102
RTVSPost2010PropOp53
 70
     0
102
RTVSPost2010Prop54
  1
strokes_ogs.tif
102
RTVSPost2010PropOp54
 70
     0
102
RTVSPost2010Prop55
280
     0
102
RTVSPost2010PropOp55
 70
     0
102
RTVSPost2010Prop56
140
1.0
102
RTVSPost2010PropOp56
 70
     0
102
RTVSPost2010Prop57
140
1.0
102
RTVSPost2010PropOp57
 70
     0
  0
XRECORD
  5
16A
102
{ACAD_REACTORS
330
169
102
}
330
169
100
AcDbXrecord
280
     1
102
RTVSPropertyOp0
 70
     1
102
RTVSPropertyOp1
 70
     1
102
RTVSPropertyOp2
 70
     1
102
RTVSPropertyOp3
 70
     1
102
RTVSPropertyOp4
 70
     1
102
RTVSPropertyOp5
 70
     1
102
RTVSPropertyOp6
 70
     1
102
RTVSPropertyOp7
 70
     1
102
RTVSPropertyOp8
 70
     1
102
RTVSPropertyOp9
 70
     1
102
RTVSPropertyOp10
 70
     1
102
RTVSPropertyOp11
 70
     1
102
RTVSPropertyOp12
 70
     1
102
RTVSPropertyOp13
 70
     1
102
RTVSPropertyOp14
 70
     1
102
RTVSPropertyOp15
 70
     1
102
RTVSPropertyOp16
 70
     1
102
RTVSPropertyOp17
 70
     1
102
RTVSPropertyOp18
 70
     1
102
RTVSPropertyOp19
 70
     1
102
RTVSPropertyOp20
 70
     1
102
RTVSPropertyOp21
 70
     1
102
RTVSPropertyOp22
 70
     1
102
RTVSPropertyOp23
 70
     1
102
RTVSPropertyOp24
 70
     1
102
RTVSPropertyOp25
 70
     1
102
RTVSPropertyOp26
 70
     1
102
RTVSPropertyOp27
 70
     1
102
RTVSPropertyOp28
 70
     1
102
RTVSPropertyOp29
 70
     1
102
RTVSPropertyOp30
 70
     1
102
RTVSPropertyOp31
 70
     1
102
RTVSPropertyOp32
 70
     1
102
RTVSPropertyOp33
 70
     1
102
RTVSPropertyOp34
 70
     1
102
RTVSPropertyOp35
 70
     1
102
RTVSPropertyOp36
 70
     1
102
RTVSPropertyOp37
 70
     1
102
RTVSPropertyOp38
 70
     1
102
RTVSPropertyOp39
 70
     1
102
RTVSPropertyOp40
 70
     1
102
RTVSPropertyOp41
 70
     1
102
RTVSPropertyOp42
 70
     1
102
RTVSPropertyOp43
 70
     1
102
RTVSPropertyOp44
 70
     1
102
RTVSPropertyOp45
 70
     1
102
RTVSPropertyOp46
 70
     1
102
RTVSPropertyOp47
 70
     1
102
RTVSPropertyOp48
 70
     1
102
RTVSPropertyOp49
 70
     1
102
RTVSPropertyOp50
 70
     1
102
RTVSPropertyOp51
 70
     0
102
RTVSPropertyOp52
 70
     0
102
RTVSPropertyOp53
 70
     1
102
RTVSPropertyOp54
 70
     1
102
RTVSPropertyOp55
 70
     1
102
RTVSPropertyOp56
 70
     1
102
RTVSPropertyOp57
 70
     1
102
RTVSPost2010Prop28
280
     0
102
RTVSPost2010PropOp28
 70
     1
102
RTVSPost2010Prop29
280
     1
102
RTVSPost2010PropOp29
 70
     1
102
RTVSPost2010Prop30
280
     1
102
RTVSPost2010PropOp30
 70
     1
102
RTVSPost2010Prop31
280
     0
102
RTVSPost2010PropOp31
 70
     1
102
RTVSPost2010Prop32
280
     0
102
RTVSPost2010PropOp32
 70
     1
102
RTVSPost2010Prop33
280
     0
102
RTVSPost2010PropOp33
 70
     1
102
RTVSPost2010Prop34
280
     0
102
RTVSPost2010PropOp34
 70
     1
102
RTVSPost2010Prop35
280
     0
102
RTVSPost2010PropOp35
 70
     1
102
RTVSPost2010Prop36
280
     0
102
RTVSPost2010PropOp36
 70
     1
102
RTVSPost2010Prop37
 90
       50
102
RTVSPost2010PropOp37
 70
     1
102
RTVSPost2010Prop38
140
0.0
102
RTVSPost2010PropOp38
 70
     1
102
RTVSPost2010Prop39
140
1.0
102
RTVSPost2010PropOp39
 70
     1
102
RTVSPost2010Prop40
 90
        0
102
RTVSPost2010PropOp40
 70
     1
102
RTVSPost2010Prop41ColorIndex
 90
       18
102
RTVSPost2010Prop41ColorRGB
 90
        0
102
RTVSPost2010PropOp41
 70
     1
102
RTVSPost2010Prop42
 90
       50
102
RTVSPost2010PropOp42
 70
     1
102
RTVSPost2010Prop43
 90
        3
102
RTVSPost2010PropOp43
 70
     1
102
RTVSPost2010Prop44ColorIndex
 90
        5
102
RTVSPost2010Prop44ColorRGB
 90
      255
102
RTVSPost2010PropOp44
 70
     1
102
RTVSPost2010Prop45
280
     0
102
RTVSPost2010PropOp45
 70
     1
102
RTVSPost2010Prop46
 90
       50
102
RTVSPost2010PropOp46
 70
     1
102
RTVSPost2010Prop47
 90
       50
102
RTVSPost2010PropOp47
 70
     1
102
RTVSPost2010Prop48
 90
       50
102
RTVSPost2010PropOp48
 70
     1
102
RTVSPost2010Prop49
280
     0
102
RTVSPost2010PropOp49
 70
     1
102
RTVSPost2010Prop50
 90
       50
102
RTVSPost2010PropOp50
 70
     1
102
RTVSPost2010Prop51ColorIndex
 90
      256
102
RTVSPost2010Prop51ColorRGB
 90
-16777216
102
RTVSPost2010PropOp51
 70
     0
102
RTVSPost2010Prop52
140
1.0
102
RTVSPost2010PropOp52
 70
     0
102
RTVSPost2010Prop53
 90
        2
102
RTVSPost2010PropOp53
 70
     1
102
RTVSPost2010Prop54
  1
strokes_ogs.tif
102
RTVSPost2010PropOp54
 70
     1
102
RTVSPost2010Prop55
280
     0
102
RTVSPost2010PropOp55
 70
     1
102
RTVSPost2010Prop56
140
1.0
102
RTVSPost2010PropOp56
 70
     1
102
RTVSPost2010Prop57
140
1.0
102
RTVSPost2010PropOp57
 70
     1
  0
XRECORD
  5
172
102
{ACAD_REACTORS
330
171
102
}
330
171
100
AcDbXrecord
280
     1
102
RTVSPropertyOp0
 70
     0
102
RTVSPropertyOp1
 70
     0
102
RTVSPropertyOp2
 70
     0
102
RTVSPropertyOp3
 70
     0
102
RTVSPropertyOp4
 70
     0
102
RTVSPropertyOp5
 70
     0
102
RTVSPropertyOp6
 70
     0
102
RTVSPropertyOp7
 70
     0
102
RTVSPropertyOp8
 70
     0
102
RTVSPropertyOp9
 70
     0
102
RTVSPropertyOp10
 70
     0
102
RTVSPropertyOp11
 70
     0
102
RTVSPropertyOp12
 70
     0
102
RTVSPropertyOp13
 70
     0
102
RTVSPropertyOp14
 70
     2
102
RTVSPropertyOp15
 70
     0
102
RTVSPropertyOp16
 70
     0
102
RTVSPropertyOp17
 70
     0
102
RTVSPropertyOp18
 70
     0
102
RTVSPropertyOp19
 70
     0
102
RTVSPropertyOp20
 70
     0
102
RTVSPropertyOp21
 70
     0
102
RTVSPropertyOp22
 70
     0
102
RTVSPropertyOp23
 70
     0
102
RTVSPropertyOp24
 70
     0
102
RTVSPropertyOp25
 70
     0
102
RTVSPropertyOp26
 70
     0
102
RTVSPropertyOp27
 70
     0
102
RTVSPropertyOp28
 70
     0
102
RTVSPropertyOp29
 70
     0
102
RTVSPropertyOp30
 70
     0
102
RTVSPropertyOp31
 70
     0
102
RTVSPropertyOp32
 70
     0
102
RTVSPropertyOp33
 70
     0
102
RTVSPropertyOp34
 70
     0
102
RTVSPropertyOp35
 70
     0
102
RTVSPropertyOp36
 70
     0
102
RTVSPropertyOp37
 70
     0
102
RTVSPropertyOp38
 70
     0
102
RTVSPropertyOp39
 70
     0
102
RTVSPropertyOp40
 70
     0
102
RTVSPropertyOp41
 70
     0
102
RTVSPropertyOp42
 70
     0
102
RTVSPropertyOp43
 70
     0
102
RTVSPropertyOp44
 70
     0
102
RTVSPropertyOp45
 70
     0
102
RTVSPropertyOp46
 70
     0
102
RTVSPropertyOp47
 70
     0
102
RTVSPropertyOp48
 70
     0
102
RTVSPropertyOp49
 70
     0
102
RTVSPropertyOp50
 70
     0
102
RTVSPropertyOp51
 70
     0
102
RTVSPropertyOp52
 70
     0
102
RTVSPropertyOp53
 70
     0
102
RTVSPropertyOp54
 70
     0
102
RTVSPropertyOp55
 70
     0
102
RTVSPropertyOp56
 70
     0
102
RTVSPropertyOp57
 70
     0
102
RTVSPost2010Prop28
280
     0
102
RTVSPost2010PropOp28
 70
     0
102
RTVSPost2010Prop29
280
     1
102
RTVSPost2010PropOp29
 70
     0
102
RTVSPost2010Prop30
280
     1
102
RTVSPost2010PropOp30
 70
     0
102
RTVSPost2010Prop31
280
     0
102
RTVSPost2010PropOp31
 70
     0
102
RTVSPost2010Prop32
280
     0
102
RTVSPost2010PropOp32
 70
     0
102
RTVSPost2010Prop33
280
     0
102
RTVSPost2010PropOp33
 70
     0
102
RTVSPost2010Prop34
280
     0
102
RTVSPost2010PropOp34
 70
     0
102
RTVSPost2010Prop35
280
     0
102
RTVSPost2010PropOp35
 70
     0
102
RTVSPost2010Prop36
280
     0
102
RTVSPost2010PropOp36
 70
     0
102
RTVSPost2010Prop37
 90
       50
102
RTVSPost2010PropOp37
 70
     0
102
RTVSPost2010Prop38
140
0.0
102
RTVSPost2010PropOp38
 70
     0
102
RTVSPost2010Prop39
140
1.0
102
RTVSPost2010PropOp39
 70
     0
102
RTVSPost2010Prop40
 90
        0
102
RTVSPost2010PropOp40
 70
     0
102
RTVSPost2010Prop41ColorIndex
 90
       18
102
RTVSPost2010Prop41ColorRGB
 90
        0
102
RTVSPost2010PropOp41
 70
     0
102
RTVSPost2010Prop42
 90
       50
102
RTVSPost2010PropOp42
 70
     0
102
RTVSPost2010Prop43
 90
        3
102
RTVSPost2010PropOp43
 70
     0
102
RTVSPost2010Prop44ColorIndex
 90
        5
102
RTVSPost2010Prop44ColorRGB
 90
      255
102
RTVSPost2010PropOp44
 70
     0
102
RTVSPost2010Prop45
280
     0
102
RTVSPost2010PropOp45
 70
     0
102
RTVSPost2010Prop46
 90
       50
102
RTVSPost2010PropOp46
 70
     0
102
RTVSPost2010Prop47
 90
       50
102
RTVSPost2010PropOp47
 70
     0
102
RTVSPost2010Prop48
 90
       50
102
RTVSPost2010PropOp48
 70
     0
102
RTVSPost2010Prop49
280
     0
102
RTVSPost2010PropOp49
 70
     0
102
RTVSPost2010Prop50
 90
       50
102
RTVSPost2010PropOp50
 70
     0
102
RTVSPost2010Prop51ColorIndex
 90
      256
102
RTVSPost2010Prop51ColorRGB
 90
-16777216
102
RTVSPost2010PropOp51
 70
     0
102
RTVSPost2010Prop52
140
1.0
102
RTVSPost2010PropOp52
 70
     0
102
RTVSPost2010Prop53
 90
        2
102
RTVSPost2010PropOp53
 70
     0
102
RTVSPost2010Prop54
  1
strokes_ogs.tif
102
RTVSPost2010PropOp54
 70
     0
102
RTVSPost2010Prop55
280
     0
102
RTVSPost2010PropOp55
 70
     0
102
RTVSPost2010Prop56
140
1.0
102
RTVSPost2010PropOp56
 70
     0
102
RTVSPost2010Prop57
140
1.0
102
RTVSPost2010PropOp57
 70
     0
  0
XRECORD
  5
160
102
{ACAD_REACTORS
330
15F
102
}
330
15F
100
AcDbXrecord
280
     1
102
RTVSPropertyOp0
 70
     1
102
RTVSPropertyOp1
 70
     1
102
RTVSPropertyOp2
 70
     1
102
RTVSPropertyOp3
 70
     1
102
RTVSPropertyOp4
 70
     1
102
RTVSPropertyOp5
 70
     1
102
RTVSPropertyOp6
 70
     1
102
RTVSPropertyOp7
 70
     1
102
RTVSPropertyOp8
 70
     1
102
RTVSPropertyOp9
 70
     1
102
RTVSPropertyOp10
 70
     1
102
RTVSPropertyOp11
 70
     1
102
RTVSPropertyOp12
 70
     1
102
RTVSPropertyOp13
 70
     1
102
RTVSPropertyOp14
 70
     1
102
RTVSPropertyOp15
 70
     1
102
RTVSPropertyOp16
 70
     1
102
RTVSPropertyOp17
 70
     1
102
RTVSPropertyOp18
 70
     1
102
RTVSPropertyOp19
 70
     1
102
RTVSPropertyOp20
 70
     1
102
RTVSPropertyOp21
 70
     1
102
RTVSPropertyOp22
 70
     1
102
RTVSPropertyOp23
 70
     1
102
RTVSPropertyOp24
 70
     1
102
RTVSPropertyOp25
 70
     1
102
RTVSPropertyOp26
 70
     1
102
RTVSPropertyOp27
 70
     1
102
RTVSPropertyOp28
 70
     1
102
RTVSPropertyOp29
 70
     1
102
RTVSPropertyOp30
 70
     1
102
RTVSPropertyOp31
 70
     1
102
RTVSPropertyOp32
 70
     1
102
RTVSPropertyOp33
 70
     1
102
RTVSPropertyOp34
 70
     1
102
RTVSPropertyOp35
 70
     1
102
RTVSPropertyOp36
 70
     1
102
RTVSPropertyOp37
 70
     1
102
RTVSPropertyOp38
 70
     1
102
RTVSPropertyOp39
 70
     1
102
RTVSPropertyOp40
 70
     1
102
RTVSPropertyOp41
 70
     1
102
RTVSPropertyOp42
 70
     1
102
RTVSPropertyOp43
 70
     1
102
RTVSPropertyOp44
 70
     1
102
RTVSPropertyOp45
 70
     1
102
RTVSPropertyOp46
 70
     1
102
RTVSPropertyOp47
 70
     1
102
RTVSPropertyOp48
 70
     1
102
RTVSPropertyOp49
 70
     1
102
RTVSPropertyOp50
 70
     1
102
RTVSPropertyOp51
 70
     0
102
RTVSPropertyOp52
 70
     0
102
RTVSPropertyOp53
 70
     1
102
RTVSPropertyOp54
 70
     1
102
RTVSPropertyOp55
 70
     1
102
RTVSPropertyOp56
 70
     1
102
RTVSPropertyOp57
 70
     1
102
RTVSPost2010Prop28
280
     0
102
RTVSPost2010PropOp28
 70
     1
102
RTVSPost2010Prop29
280
     1
102
RTVSPost2010PropOp29
 70
     1
102
RTVSPost2010Prop30
280
     1
102
RTVSPost2010PropOp30
 70
     1
102
RTVSPost2010Prop31
280
     0
102
RTVSPost2010PropOp31
 70
     1
102
RTVSPost2010Prop32
280
     0
102
RTVSPost2010PropOp32
 70
     1
102
RTVSPost2010Prop33
280
     0
102
RTVSPost2010PropOp33
 70
     1
102
RTVSPost2010Prop34
280
     0
102
RTVSPost2010PropOp34
 70
     1
102
RTVSPost2010Prop35
280
     0
102
RTVSPost2010PropOp35
 70
     1
102
RTVSPost2010Prop36
280
     0
102
RTVSPost2010PropOp36
 70
     1
102
RTVSPost2010Prop37
 90
       50
102
RTVSPost2010PropOp37
 70
     1
102
RTVSPost2010Prop38
140
0.0
102
RTVSPost2010PropOp38
 70
     1
102
RTVSPost2010Prop39
140
1.0
102
RTVSPost2010PropOp39
 70
     1
102
RTVSPost2010Prop40
 90
        0
102
RTVSPost2010PropOp40
 70
     1
102
RTVSPost2010Prop41ColorIndex
 90
       18
102
RTVSPost2010Prop41ColorRGB
 90
        0
102
RTVSPost2010PropOp41
 70
     1
102
RTVSPost2010Prop42
 90
       50
102
RTVSPost2010PropOp42
 70
     1
102
RTVSPost2010Prop43
 90
        3
102
RTVSPost2010PropOp43
 70
     1
102
RTVSPost2010Prop44ColorIndex
 90
        5
102
RTVSPost2010Prop44ColorRGB
 90
      255
102
RTVSPost2010PropOp44
 70
     1
102
RTVSPost2010Prop45
280
     0
102
RTVSPost2010PropOp45
 70
     1
102
RTVSPost2010Prop46
 90
       50
102
RTVSPost2010PropOp46
 70
     1
102
RTVSPost2010Prop47
 90
       50
102
RTVSPost2010PropOp47
 70
     1
102
RTVSPost2010Prop48
 90
       50
102
RTVSPost2010PropOp48
 70
     1
102
RTVSPost2010Prop49
280
     0
102
RTVSPost2010PropOp49
 70
     1
102
RTVSPost2010Prop50
 90
       50
102
RTVSPost2010PropOp50
 70
     1
102
RTVSPost2010Prop51ColorIndex
 90
      256
102
RTVSPost2010Prop51ColorRGB
 90
-16777216
102
RTVSPost2010PropOp51
 70
     0
102
RTVSPost2010Prop52
140
1.0
102
RTVSPost2010PropOp52
 70
     0
102
RTVSPost2010Prop53
 90
        2
102
RTVSPost2010PropOp53
 70
     1
102
RTVSPost2010Prop54
  1
strokes_ogs.tif
102
RTVSPost2010PropOp54
 70
     1
102
RTVSPost2010Prop55
280
     0
102
RTVSPost2010PropOp55
 70
     1
102
RTVSPost2010Prop56
140
1.0
102
RTVSPost2010PropOp56
 70
     1
102
RTVSPost2010Prop57
140
1.0
102
RTVSPost2010PropOp57
 70
     1
  0
XRECORD
  5
17E
102
{ACAD_REACTORS
330
17D
102
}
330
17D
100
AcDbXrecord
280
     1
102
RTVSPropertyOp0
 70
     1
102
RTVSPropertyOp1
 70
     1
102
RTVSPropertyOp2
 70
     1
102
RTVSPropertyOp3
 70
     1
102
RTVSPropertyOp4
 70
     1
102
RTVSPropertyOp5
 70
     1
102
RTVSPropertyOp6
 70
     1
102
RTVSPropertyOp7
 70
     1
102
RTVSPropertyOp8
 70
     1
102
RTVSPropertyOp9
 70
     1
102
RTVSPropertyOp10
 70
     1
102
RTVSPropertyOp11
 70
     1
102
RTVSPropertyOp12
 70
     1
102
RTVSPropertyOp13
 70
     1
102
RTVSPropertyOp14
 70
     1
102
RTVSPropertyOp15
 70
     1
102
RTVSPropertyOp16
 70
     1
102
RTVSPropertyOp17
 70
     1
102
RTVSPropertyOp18
 70
     1
102
RTVSPropertyOp19
 70
     1
102
RTVSPropertyOp20
 70
     1
102
RTVSPropertyOp21
 70
     1
102
RTVSPropertyOp22
 70
     1
102
RTVSPropertyOp23
 70
     1
102
RTVSPropertyOp24
 70
     1
102
RTVSPropertyOp25
 70
     1
102
RTVSPropertyOp26
 70
     1
102
RTVSPropertyOp27
 70
     1
102
RTVSPropertyOp28
 70
     1
102
RTVSPropertyOp29
 70
     1
102
RTVSPropertyOp30
 70
     1
102
RTVSPropertyOp31
 70
     1
102
RTVSPropertyOp32
 70
     1
102
RTVSPropertyOp33
 70
     1
102
RTVSPropertyOp34
 70
     1
102
RTVSPropertyOp35
 70
     1
102
RTVSPropertyOp36
 70
     1
102
RTVSPropertyOp37
 70
     1
102
RTVSPropertyOp38
 70
     1
102
RTVSPropertyOp39
 70
     1
102
RTVSPropertyOp40
 70
     1
102
RTVSPropertyOp41
 70
     1
102
RTVSPropertyOp42
 70
     1
102
RTVSPropertyOp43
 70
     1
102
RTVSPropertyOp44
 70
     1
102
RTVSPropertyOp45
 70
     1
102
RTVSPropertyOp46
 70
     1
102
RTVSPropertyOp47
 70
     1
102
RTVSPropertyOp48
 70
     1
102
RTVSPropertyOp49
 70
     1
102
RTVSPropertyOp50
 70
     1
102
RTVSPropertyOp51
 70
     0
102
RTVSPropertyOp52
 70
     0
102
RTVSPropertyOp53
 70
     1
102
RTVSPropertyOp54
 70
     1
102
RTVSPropertyOp55
 70
     1
102
RTVSPropertyOp56
 70
     1
102
RTVSPropertyOp57
 70
     1
102
RTVSPost2010Prop28
280
     0
102
RTVSPost2010PropOp28
 70
     1
102
RTVSPost2010Prop29
280
     1
102
RTVSPost2010PropOp29
 70
     1
102
RTVSPost2010Prop30
280
     1
102
RTVSPost2010PropOp30
 70
     1
102
RTVSPost2010Prop31
280
     0
102
RTVSPost2010PropOp31
 70
     1
102
RTVSPost2010Prop32
280
     0
102
RTVSPost2010PropOp32
 70
     1
102
RTVSPost2010Prop33
280
     0
102
RTVSPost2010PropOp33
 70
     1
102
RTVSPost2010Prop34
280
     0
102
RTVSPost2010PropOp34
 70
     1
102
RTVSPost2010Prop35
280
     0
102
RTVSPost2010PropOp35
 70
     1
102
RTVSPost2010Prop36
280
     0
102
RTVSPost2010PropOp36
 70
     1
102
RTVSPost2010Prop37
 90
       50
102
RTVSPost2010PropOp37
 70
     1
102
RTVSPost2010Prop38
140
0.0
102
RTVSPost2010PropOp38
 70
     1
102
RTVSPost2010Prop39
140
1.0
102
RTVSPost2010PropOp39
 70
     1
102
RTVSPost2010Prop40
 90
        0
102
RTVSPost2010PropOp40
 70
     1
102
RTVSPost2010Prop41ColorIndex
 90
       18
102
RTVSPost2010Prop41ColorRGB
 90
        0
102
RTVSPost2010PropOp41
 70
     1
102
RTVSPost2010Prop42
 90
       50
102
RTVSPost2010PropOp42
 70
     1
102
RTVSPost2010Prop43
 90
        3
102
RTVSPost2010PropOp43
 70
     1
102
RTVSPost2010Prop44ColorIndex
 90
        5
102
RTVSPost2010Prop44ColorRGB
 90
      255
102
RTVSPost2010PropOp44
 70
     1
102
RTVSPost2010Prop45
280
     0
102
RTVSPost2010PropOp45
 70
     1
102
RTVSPost2010Prop46
 90
       50
102
RTVSPost2010PropOp46
 70
     1
102
RTVSPost2010Prop47
 90
       50
102
RTVSPost2010PropOp47
 70
     1
102
RTVSPost2010Prop48
 90
       50
102
RTVSPost2010PropOp48
 70
     1
102
RTVSPost2010Prop49
280
     0
102
RTVSPost2010PropOp49
 70
     1
102
RTVSPost2010Prop50
 90
       50
102
RTVSPost2010PropOp50
 70
     1
102
RTVSPost2010Prop51ColorIndex
 90
      256
102
RTVSPost2010Prop51ColorRGB
 90
-16777216
102
RTVSPost2010PropOp51
 70
     0
102
RTVSPost2010Prop52
140
1.0
102
RTVSPost2010PropOp52
 70
     0
102
RTVSPost2010Prop53
 90
        2
102
RTVSPost2010PropOp53
 70
     1
102
RTVSPost2010Prop54
  1
strokes_ogs.tif
102
RTVSPost2010PropOp54
 70
     1
102
RTVSPost2010Prop55
280
     0
102
RTVSPost2010PropOp55
 70
     1
102
RTVSPost2010Prop56
140
1.0
102
RTVSPost2010PropOp56
 70
     1
102
RTVSPost2010Prop57
140
1.0
102
RTVSPost2010PropOp57
 70
     1
  0
XRECORD
  5
17C
102
{ACAD_REACTORS
330
17B
102
}
330
17B
100
AcDbXrecord
280
     1
102
RTVSPropertyOp0
 70
     1
102
RTVSPropertyOp1
 70
     1
102
RTVSPropertyOp2
 70
     1
102
RTVSPropertyOp3
 70
     1
102
RTVSPropertyOp4
 70
     1
102
RTVSPropertyOp5
 70
     1
102
RTVSPropertyOp6
 70
     1
102
RTVSPropertyOp7
 70
     1
102
RTVSPropertyOp8
 70
     1
102
RTVSPropertyOp9
 70
     1
102
RTVSPropertyOp10
 70
     1
102
RTVSPropertyOp11
 70
     1
102
RTVSPropertyOp12
 70
     1
102
RTVSPropertyOp13
 70
     1
102
RTVSPropertyOp14
 70
     1
102
RTVSPropertyOp15
 70
     1
102
RTVSPropertyOp16
 70
     1
102
RTVSPropertyOp17
 70
     1
102
RTVSPropertyOp18
 70
     1
102
RTVSPropertyOp19
 70
     1
102
RTVSPropertyOp20
 70
     1
102
RTVSPropertyOp21
 70
     1
102
RTVSPropertyOp22
 70
     1
102
RTVSPropertyOp23
 70
     1
102
RTVSPropertyOp24
 70
     1
102
RTVSPropertyOp25
 70
     1
102
RTVSPropertyOp26
 70
     1
102
RTVSPropertyOp27
 70
     1
102
RTVSPropertyOp28
 70
     1
102
RTVSPropertyOp29
 70
     1
102
RTVSPropertyOp30
 70
     1
102
RTVSPropertyOp31
 70
     1
102
RTVSPropertyOp32
 70
     1
102
RTVSPropertyOp33
 70
     1
102
RTVSPropertyOp34
 70
     1
102
RTVSPropertyOp35
 70
     1
102
RTVSPropertyOp36
 70
     1
102
RTVSPropertyOp37
 70
     1
102
RTVSPropertyOp38
 70
     1
102
RTVSPropertyOp39
 70
     1
102
RTVSPropertyOp40
 70
     1
102
RTVSPropertyOp41
 70
     1
102
RTVSPropertyOp42
 70
     1
102
RTVSPropertyOp43
 70
     1
102
RTVSPropertyOp44
 70
     1
102
RTVSPropertyOp45
 70
     1
102
RTVSPropertyOp46
 70
     1
102
RTVSPropertyOp47
 70
     1
102
RTVSPropertyOp48
 70
     1
102
RTVSPropertyOp49
 70
     1
102
RTVSPropertyOp50
 70
     1
102
RTVSPropertyOp51
 70
     0
102
RTVSPropertyOp52
 70
     0
102
RTVSPropertyOp53
 70
     1
102
RTVSPropertyOp54
 70
     1
102
RTVSPropertyOp55
 70
     1
102
RTVSPropertyOp56
 70
     1
102
RTVSPropertyOp57
 70
     1
102
RTVSPost2010Prop28
280
     0
102
RTVSPost2010PropOp28
 70
     1
102
RTVSPost2010Prop29
280
     1
102
RTVSPost2010PropOp29
 70
     1
102
RTVSPost2010Prop30
280
     1
102
RTVSPost2010PropOp30
 70
     1
102
RTVSPost2010Prop31
280
     0
102
RTVSPost2010PropOp31
 70
     1
102
RTVSPost2010Prop32
280
     0
102
RTVSPost2010PropOp32
 70
     1
102
RTVSPost2010Prop33
280
     0
102
RTVSPost2010PropOp33
 70
     1
102
RTVSPost2010Prop34
280
     0
102
RTVSPost2010PropOp34
 70
     1
102
RTVSPost2010Prop35
280
     0
102
RTVSPost2010PropOp35
 70
     1
102
RTVSPost2010Prop36
280
     0
102
RTVSPost2010PropOp36
 70
     1
102
RTVSPost2010Prop37
 90
       50
102
RTVSPost2010PropOp37
 70
     1
102
RTVSPost2010Prop38
140
0.0
102
RTVSPost2010PropOp38
 70
     1
102
RTVSPost2010Prop39
140
1.0
102
RTVSPost2010PropOp39
 70
     1
102
RTVSPost2010Prop40
 90
        0
102
RTVSPost2010PropOp40
 70
     1
102
RTVSPost2010Prop41ColorIndex
 90
       18
102
RTVSPost2010Prop41ColorRGB
 90
        0
102
RTVSPost2010PropOp41
 70
     1
102
RTVSPost2010Prop42
 90
       50
102
RTVSPost2010PropOp42
 70
     1
102
RTVSPost2010Prop43
 90
        3
102
RTVSPost2010PropOp43
 70
     1
102
RTVSPost2010Prop44ColorIndex
 90
        5
102
RTVSPost2010Prop44ColorRGB
 90
      255
102
RTVSPost2010PropOp44
 70
     1
102
RTVSPost2010Prop45
280
     0
102
RTVSPost2010PropOp45
 70
     1
102
RTVSPost2010Prop46
 90
       50
102
RTVSPost2010PropOp46
 70
     1
102
RTVSPost2010Prop47
 90
       50
102
RTVSPost2010PropOp47
 70
     1
102
RTVSPost2010Prop48
 90
       50
102
RTVSPost2010PropOp48
 70
     1
102
RTVSPost2010Prop49
280
     0
102
RTVSPost2010PropOp49
 70
     1
102
RTVSPost2010Prop50
 90
       50
102
RTVSPost2010PropOp50
 70
     1
102
RTVSPost2010Prop51ColorIndex
 90
      256
102
RTVSPost2010Prop51ColorRGB
 90
-16777216
102
RTVSPost2010PropOp51
 70
     0
102
RTVSPost2010Prop52
140
1.0
102
RTVSPost2010PropOp52
 70
     0
102
RTVSPost2010Prop53
 90
        2
102
RTVSPost2010PropOp53
 70
     1
102
RTVSPost2010Prop54
  1
strokes_ogs.tif
102
RTVSPost2010PropOp54
 70
     1
102
RTVSPost2010Prop55
280
     0
102
RTVSPost2010PropOp55
 70
     1
102
RTVSPost2010Prop56
140
1.0
102
RTVSPost2010PropOp56
 70
     1
102
RTVSPost2010Prop57
140
1.0
102
RTVSPost2010PropOp57
 70
     1
  0
XRECORD
  5
176
102
{ACAD_REACTORS
330
175
102
}
330
175
100
AcDbXrecord
280
     1
102
RTVSPropertyOp0
 70
     1
102
RTVSPropertyOp1
 70
     1
102
RTVSPropertyOp2
 70
     1
102
RTVSPropertyOp3
 70
     1
102
RTVSPropertyOp4
 70
     1
102
RTVSPropertyOp5
 70
     1
102
RTVSPropertyOp6
 70
     1
102
RTVSPropertyOp7
 70
     1
102
RTVSPropertyOp8
 70
     1
102
RTVSPropertyOp9
 70
     1
102
RTVSPropertyOp10
 70
     1
102
RTVSPropertyOp11
 70
     1
102
RTVSPropertyOp12
 70
     1
102
RTVSPropertyOp13
 70
     1
102
RTVSPropertyOp14
 70
     1
102
RTVSPropertyOp15
 70
     1
102
RTVSPropertyOp16
 70
     1
102
RTVSPropertyOp17
 70
     1
102
RTVSPropertyOp18
 70
     1
102
RTVSPropertyOp19
 70
     1
102
RTVSPropertyOp20
 70
     1
102
RTVSPropertyOp21
 70
     1
102
RTVSPropertyOp22
 70
     1
102
RTVSPropertyOp23
 70
     1
102
RTVSPropertyOp24
 70
     1
102
RTVSPropertyOp25
 70
     1
102
RTVSPropertyOp26
 70
     1
102
RTVSPropertyOp27
 70
     1
102
RTVSPropertyOp28
 70
     1
102
RTVSPropertyOp29
 70
     1
102
RTVSPropertyOp30
 70
     1
102
RTVSPropertyOp31
 70
     1
102
RTVSPropertyOp32
 70
     1
102
RTVSPropertyOp33
 70
     1
102
RTVSPropertyOp34
 70
     1
102
RTVSPropertyOp35
 70
     1
102
RTVSPropertyOp36
 70
     1
102
RTVSPropertyOp37
 70
     1
102
RTVSPropertyOp38
 70
     1
102
RTVSPropertyOp39
 70
     1
102
RTVSPropertyOp40
 70
     1
102
RTVSPropertyOp41
 70
     1
102
RTVSPropertyOp42
 70
     1
102
RTVSPropertyOp43
 70
     1
102
RTVSPropertyOp44
 70
     1
102
RTVSPropertyOp45
 70
     1
102
RTVSPropertyOp46
 70
     1
102
RTVSPropertyOp47
 70
     1
102
RTVSPropertyOp48
 70
     1
102
RTVSPropertyOp49
 70
     1
102
RTVSPropertyOp50
 70
     1
102
RTVSPropertyOp51
 70
     0
102
RTVSPropertyOp52
 70
     0
102
RTVSPropertyOp53
 70
     1
102
RTVSPropertyOp54
 70
     1
102
RTVSPropertyOp55
 70
     1
102
RTVSPropertyOp56
 70
     1
102
RTVSPropertyOp57
 70
     1
102
RTVSPost2010Prop28
280
     0
102
RTVSPost2010PropOp28
 70
     1
102
RTVSPost2010Prop29
280
     1
102
RTVSPost2010PropOp29
 70
     1
102
RTVSPost2010Prop30
280
     1
102
RTVSPost2010PropOp30
 70
     1
102
RTVSPost2010Prop31
280
     0
102
RTVSPost2010PropOp31
 70
     1
102
RTVSPost2010Prop32
280
     0
102
RTVSPost2010PropOp32
 70
     1
102
RTVSPost2010Prop33
280
     0
102
RTVSPost2010PropOp33
 70
     1
102
RTVSPost2010Prop34
280
     0
102
RTVSPost2010PropOp34
 70
     1
102
RTVSPost2010Prop35
280
     0
102
RTVSPost2010PropOp35
 70
     1
102
RTVSPost2010Prop36
280
     0
102
RTVSPost2010PropOp36
 70
     1
102
RTVSPost2010Prop37
 90
       50
102
RTVSPost2010PropOp37
 70
     1
102
RTVSPost2010Prop38
140
0.0
102
RTVSPost2010PropOp38
 70
     1
102
RTVSPost2010Prop39
140
1.0
102
RTVSPost2010PropOp39
 70
     1
102
RTVSPost2010Prop40
 90
        0
102
RTVSPost2010PropOp40
 70
     1
102
RTVSPost2010Prop41ColorIndex
 90
       18
102
RTVSPost2010Prop41ColorRGB
 90
        0
102
RTVSPost2010PropOp41
 70
     1
102
RTVSPost2010Prop42
 90
       50
102
RTVSPost2010PropOp42
 70
     1
102
RTVSPost2010Prop43
 90
        3
102
RTVSPost2010PropOp43
 70
     1
102
RTVSPost2010Prop44ColorIndex
 90
        5
102
RTVSPost2010Prop44ColorRGB
 90
      255
102
RTVSPost2010PropOp44
 70
     1
102
RTVSPost2010Prop45
280
     0
102
RTVSPost2010PropOp45
 70
     1
102
RTVSPost2010Prop46
 90
       50
102
RTVSPost2010PropOp46
 70
     1
102
RTVSPost2010Prop47
 90
       50
102
RTVSPost2010PropOp47
 70
     1
102
RTVSPost2010Prop48
 90
       50
102
RTVSPost2010PropOp48
 70
     1
102
RTVSPost2010Prop49
280
     0
102
RTVSPost2010PropOp49
 70
     1
102
RTVSPost2010Prop50
 90
       50
102
RTVSPost2010PropOp50
 70
     1
102
RTVSPost2010Prop51ColorIndex
 90
      256
102
RTVSPost2010Prop51ColorRGB
 90
-16777216
102
RTVSPost2010PropOp51
 70
     0
102
RTVSPost2010Prop52
140
1.0
102
RTVSPost2010PropOp52
 70
     0
102
RTVSPost2010Prop53
 90
        2
102
RTVSPost2010PropOp53
 70
     1
102
RTVSPost2010Prop54
  1
strokes_ogs.tif
102
RTVSPost2010PropOp54
 70
     1
102
RTVSPost2010Prop55
280
     0
102
RTVSPost2010PropOp55
 70
     1
102
RTVSPost2010Prop56
140
1.0
102
RTVSPost2010PropOp56
 70
     1
102
RTVSPost2010Prop57
140
1.0
102
RTVSPost2010PropOp57
 70
     1
  0
XRECORD
  5
178
102
{ACAD_REACTORS
330
177
102
}
330
177
100
AcDbXrecord
280
     1
102
RTVSPropertyOp0
 70
     1
102
RTVSPropertyOp1
 70
     1
102
RTVSPropertyOp2
 70
     1
102
RTVSPropertyOp3
 70
     1
102
RTVSPropertyOp4
 70
     1
102
RTVSPropertyOp5
 70
     1
102
RTVSPropertyOp6
 70
     1
102
RTVSPropertyOp7
 70
     1
102
RTVSPropertyOp8
 70
     1
102
RTVSPropertyOp9
 70
     1
102
RTVSPropertyOp10
 70
     1
102
RTVSPropertyOp11
 70
     1
102
RTVSPropertyOp12
 70
     1
102
RTVSPropertyOp13
 70
     1
102
RTVSPropertyOp14
 70
     1
102
RTVSPropertyOp15
 70
     1
102
RTVSPropertyOp16
 70
     1
102
RTVSPropertyOp17
 70
     1
102
RTVSPropertyOp18
 70
     1
102
RTVSPropertyOp19
 70
     1
102
RTVSPropertyOp20
 70
     1
102
RTVSPropertyOp21
 70
     1
102
RTVSPropertyOp22
 70
     1
102
RTVSPropertyOp23
 70
     1
102
RTVSPropertyOp24
 70
     1
102
RTVSPropertyOp25
 70
     1
102
RTVSPropertyOp26
 70
     1
102
RTVSPropertyOp27
 70
     1
102
RTVSPropertyOp28
 70
     1
102
RTVSPropertyOp29
 70
     1
102
RTVSPropertyOp30
 70
     1
102
RTVSPropertyOp31
 70
     1
102
RTVSPropertyOp32
 70
     1
102
RTVSPropertyOp33
 70
     1
102
RTVSPropertyOp34
 70
     1
102
RTVSPropertyOp35
 70
     1
102
RTVSPropertyOp36
 70
     1
102
RTVSPropertyOp37
 70
     1
102
RTVSPropertyOp38
 70
     1
102
RTVSPropertyOp39
 70
     1
102
RTVSPropertyOp40
 70
     1
102
RTVSPropertyOp41
 70
     1
102
RTVSPropertyOp42
 70
     1
102
RTVSPropertyOp43
 70
     1
102
RTVSPropertyOp44
 70
     1
102
RTVSPropertyOp45
 70
     1
102
RTVSPropertyOp46
 70
     1
102
RTVSPropertyOp47
 70
     1
102
RTVSPropertyOp48
 70
     1
102
RTVSPropertyOp49
 70
     1
102
RTVSPropertyOp50
 70
     1
102
RTVSPropertyOp51
 70
     0
102
RTVSPropertyOp52
 70
     0
102
RTVSPropertyOp53
 70
     1
102
RTVSPropertyOp54
 70
     1
102
RTVSPropertyOp55
 70
     1
102
RTVSPropertyOp56
 70
     1
102
RTVSPropertyOp57
 70
     1
102
RTVSPost2010Prop28
280
     0
102
RTVSPost2010PropOp28
 70
     1
102
RTVSPost2010Prop29
280
     1
102
RTVSPost2010PropOp29
 70
     1
102
RTVSPost2010Prop30
280
     1
102
RTVSPost2010PropOp30
 70
     1
102
RTVSPost2010Prop31
280
     0
102
RTVSPost2010PropOp31
 70
     1
102
RTVSPost2010Prop32
280
     0
102
RTVSPost2010PropOp32
 70
     1
102
RTVSPost2010Prop33
280
     0
102
RTVSPost2010PropOp33
 70
     1
102
RTVSPost2010Prop34
280
     0
102
RTVSPost2010PropOp34
 70
     1
102
RTVSPost2010Prop35
280
     0
102
RTVSPost2010PropOp35
 70
     1
102
RTVSPost2010Prop36
280
     0
102
RTVSPost2010PropOp36
 70
     1
102
RTVSPost2010Prop37
 90
       50
102
RTVSPost2010PropOp37
 70
     1
102
RTVSPost2010Prop38
140
0.0
102
RTVSPost2010PropOp38
 70
     1
102
RTVSPost2010Prop39
140
1.0
102
RTVSPost2010PropOp39
 70
     1
102
RTVSPost2010Prop40
 90
        0
102
RTVSPost2010PropOp40
 70
     1
102
RTVSPost2010Prop41ColorIndex
 90
       18
102
RTVSPost2010Prop41ColorRGB
 90
        0
102
RTVSPost2010PropOp41
 70
     1
102
RTVSPost2010Prop42
 90
       50
102
RTVSPost2010PropOp42
 70
     1
102
RTVSPost2010Prop43
 90
        3
102
RTVSPost2010PropOp43
 70
     1
102
RTVSPost2010Prop44ColorIndex
 90
        5
102
RTVSPost2010Prop44ColorRGB
 90
      255
102
RTVSPost2010PropOp44
 70
     1
102
RTVSPost2010Prop45
280
     0
102
RTVSPost2010PropOp45
 70
     1
102
RTVSPost2010Prop46
 90
       50
102
RTVSPost2010PropOp46
 70
     1
102
RTVSPost2010Prop47
 90
       50
102
RTVSPost2010PropOp47
 70
     1
102
RTVSPost2010Prop48
 90
       50
102
RTVSPost2010PropOp48
 70
     1
102
RTVSPost2010Prop49
280
     0
102
RTVSPost2010PropOp49
 70
     1
102
RTVSPost2010Prop50
 90
       50
102
RTVSPost2010PropOp50
 70
     1
102
RTVSPost2010Prop51ColorIndex
 90
      256
102
RTVSPost2010Prop51ColorRGB
 90
-16777216
102
RTVSPost2010PropOp51
 70
     0
102
RTVSPost2010Prop52
140
1.0
102
RTVSPost2010PropOp52
 70
     0
102
RTVSPost2010Prop53
 90
        2
102
RTVSPost2010PropOp53
 70
     1
102
RTVSPost2010Prop54
  1
strokes_ogs.tif
102
RTVSPost2010PropOp54
 70
     1
102
RTVSPost2010Prop55
280
     0
102
RTVSPost2010PropOp55
 70
     1
102
RTVSPost2010Prop56
140
1.0
102
RTVSPost2010PropOp56
 70
     1
102
RTVSPost2010Prop57
140
1.0
102
RTVSPost2010PropOp57
 70
     1
  0
XRECORD
  5
168
102
{ACAD_REACTORS
330
167
102
}
330
167
100
AcDbXrecord
280
     1
102
RTVSPropertyOp0
 70
     1
102
RTVSPropertyOp1
 70
     1
102
RTVSPropertyOp2
 70
     1
102
RTVSPropertyOp3
 70
     1
102
RTVSPropertyOp4
 70
     1
102
RTVSPropertyOp5
 70
     1
102
RTVSPropertyOp6
 70
     1
102
RTVSPropertyOp7
 70
     1
102
RTVSPropertyOp8
 70
     1
102
RTVSPropertyOp9
 70
     1
102
RTVSPropertyOp10
 70
     1
102
RTVSPropertyOp11
 70
     1
102
RTVSPropertyOp12
 70
     1
102
RTVSPropertyOp13
 70
     1
102
RTVSPropertyOp14
 70
     1
102
RTVSPropertyOp15
 70
     1
102
RTVSPropertyOp16
 70
     1
102
RTVSPropertyOp17
 70
     1
102
RTVSPropertyOp18
 70
     1
102
RTVSPropertyOp19
 70
     1
102
RTVSPropertyOp20
 70
     1
102
RTVSPropertyOp21
 70
     1
102
RTVSPropertyOp22
 70
     1
102
RTVSPropertyOp23
 70
     1
102
RTVSPropertyOp24
 70
     1
102
RTVSPropertyOp25
 70
     1
102
RTVSPropertyOp26
 70
     1
102
RTVSPropertyOp27
 70
     1
102
RTVSPropertyOp28
 70
     1
102
RTVSPropertyOp29
 70
     1
102
RTVSPropertyOp30
 70
     1
102
RTVSPropertyOp31
 70
     1
102
RTVSPropertyOp32
 70
     1
102
RTVSPropertyOp33
 70
     1
102
RTVSPropertyOp34
 70
     1
102
RTVSPropertyOp35
 70
     1
102
RTVSPropertyOp36
 70
     1
102
RTVSPropertyOp37
 70
     1
102
RTVSPropertyOp38
 70
     1
102
RTVSPropertyOp39
 70
     1
102
RTVSPropertyOp40
 70
     1
102
RTVSPropertyOp41
 70
     1
102
RTVSPropertyOp42
 70
     1
102
RTVSPropertyOp43
 70
     1
102
RTVSPropertyOp44
 70
     1
102
RTVSPropertyOp45
 70
     1
102
RTVSPropertyOp46
 70
     1
102
RTVSPropertyOp47
 70
     1
102
RTVSPropertyOp48
 70
     1
102
RTVSPropertyOp49
 70
     1
102
RTVSPropertyOp50
 70
     1
102
RTVSPropertyOp51
 70
     0
102
RTVSPropertyOp52
 70
     0
102
RTVSPropertyOp53
 70
     1
102
RTVSPropertyOp54
 70
     1
102
RTVSPropertyOp55
 70
     1
102
RTVSPropertyOp56
 70
     1
102
RTVSPropertyOp57
 70
     1
102
RTVSPost2010Prop28
280
     0
102
RTVSPost2010PropOp28
 70
     1
102
RTVSPost2010Prop29
280
     1
102
RTVSPost2010PropOp29
 70
     1
102
RTVSPost2010Prop30
280
     1
102
RTVSPost2010PropOp30
 70
     1
102
RTVSPost2010Prop31
280
     0
102
RTVSPost2010PropOp31
 70
     1
102
RTVSPost2010Prop32
280
     0
102
RTVSPost2010PropOp32
 70
     1
102
RTVSPost2010Prop33
280
     0
102
RTVSPost2010PropOp33
 70
     1
102
RTVSPost2010Prop34
280
     0
102
RTVSPost2010PropOp34
 70
     1
102
RTVSPost2010Prop35
280
     0
102
RTVSPost2010PropOp35
 70
     1
102
RTVSPost2010Prop36
280
     0
102
RTVSPost2010PropOp36
 70
     1
102
RTVSPost2010Prop37
 90
       50
102
RTVSPost2010PropOp37
 70
     1
102
RTVSPost2010Prop38
140
0.0
102
RTVSPost2010PropOp38
 70
     1
102
RTVSPost2010Prop39
140
1.0
102
RTVSPost2010PropOp39
 70
     1
102
RTVSPost2010Prop40
 90
        0
102
RTVSPost2010PropOp40
 70
     1
102
RTVSPost2010Prop41ColorIndex
 90
       18
102
RTVSPost2010Prop41ColorRGB
 90
        0
102
RTVSPost2010PropOp41
 70
     1
102
RTVSPost2010Prop42
 90
       50
102
RTVSPost2010PropOp42
 70
     1
102
RTVSPost2010Prop43
 90
        3
102
RTVSPost2010PropOp43
 70
     1
102
RTVSPost2010Prop44ColorIndex
 90
        5
102
RTVSPost2010Prop44ColorRGB
 90
      255
102
RTVSPost2010PropOp44
 70
     1
102
RTVSPost2010Prop45
280
     0
102
RTVSPost2010PropOp45
 70
     1
102
RTVSPost2010Prop46
 90
       50
102
RTVSPost2010PropOp46
 70
     1
102
RTVSPost2010Prop47
 90
       50
102
RTVSPost2010PropOp47
 70
     1
102
RTVSPost2010Prop48
 90
       50
102
RTVSPost2010PropOp48
 70
     1
102
RTVSPost2010Prop49
280
     0
102
RTVSPost2010PropOp49
 70
     1
102
RTVSPost2010Prop50
 90
       50
102
RTVSPost2010PropOp50
 70
     1
102
RTVSPost2010Prop51ColorIndex
 90
      256
102
RTVSPost2010Prop51ColorRGB
 90
-16777216
102
RTVSPost2010PropOp51
 70
     0
102
RTVSPost2010Prop52
140
1.0
102
RTVSPost2010PropOp52
 70
     0
102
RTVSPost2010Prop53
 90
        2
102
RTVSPost2010PropOp53
 70
     1
102
RTVSPost2010Prop54
  1
strokes_ogs.tif
102
RTVSPost2010PropOp54
 70
     1
102
RTVSPost2010Prop55
280
     0
102
RTVSPost2010PropOp55
 70
     1
102
RTVSPost2010Prop56
140
1.0
102
RTVSPost2010PropOp56
 70
     1
102
RTVSPost2010Prop57
140
1.0
102
RTVSPost2010PropOp57
 70
     1
  0
XRECORD
  5
15A
102
{ACAD_REACTORS
330
159
102
}
330
159
100
AcDbXrecord
280
     1
102
RTVSPropertyOp0
 70
     1
102
RTVSPropertyOp1
 70
     1
102
RTVSPropertyOp2
 70
     1
102
RTVSPropertyOp3
 70
     1
102
RTVSPropertyOp4
 70
     1
102
RTVSPropertyOp5
 70
     1
102
RTVSPropertyOp6
 70
     1
102
RTVSPropertyOp7
 70
     1
102
RTVSPropertyOp8
 70
     1
102
RTVSPropertyOp9
 70
     1
102
RTVSPropertyOp10
 70
     1
102
RTVSPropertyOp11
 70
     1
102
RTVSPropertyOp12
 70
     1
102
RTVSPropertyOp13
 70
     1
102
RTVSPropertyOp14
 70
     1
102
RTVSPropertyOp15
 70
     1
102
RTVSPropertyOp16
 70
     1
102
RTVSPropertyOp17
 70
     1
102
RTVSPropertyOp18
 70
     1
102
RTVSPropertyOp19
 70
     1
102
RTVSPropertyOp20
 70
     1
102
RTVSPropertyOp21
 70
     1
102
RTVSPropertyOp22
 70
     1
102
RTVSPropertyOp23
 70
     1
102
RTVSPropertyOp24
 70
     1
102
RTVSPropertyOp25
 70
     1
102
RTVSPropertyOp26
 70
     1
102
RTVSPropertyOp27
 70
     1
102
RTVSPropertyOp28
 70
     1
102
RTVSPropertyOp29
 70
     1
102
RTVSPropertyOp30
 70
     1
102
RTVSPropertyOp31
 70
     1
102
RTVSPropertyOp32
 70
     1
102
RTVSPropertyOp33
 70
     1
102
RTVSPropertyOp34
 70
     1
102
RTVSPropertyOp35
 70
     1
102
RTVSPropertyOp36
 70
     1
102
RTVSPropertyOp37
 70
     1
102
RTVSPropertyOp38
 70
     1
102
RTVSPropertyOp39
 70
     1
102
RTVSPropertyOp40
 70
     1
102
RTVSPropertyOp41
 70
     1
102
RTVSPropertyOp42
 70
     1
102
RTVSPropertyOp43
 70
     1
102
RTVSPropertyOp44
 70
     1
102
RTVSPropertyOp45
 70
     1
102
RTVSPropertyOp46
 70
     1
102
RTVSPropertyOp47
 70
     1
102
RTVSPropertyOp48
 70
     1
102
RTVSPropertyOp49
 70
     1
102
RTVSPropertyOp50
 70
     1
102
RTVSPropertyOp51
 70
     0
102
RTVSPropertyOp52
 70
     0
102
RTVSPropertyOp53
 70
     1
102
RTVSPropertyOp54
 70
     1
102
RTVSPropertyOp55
 70
     1
102
RTVSPropertyOp56
 70
     1
102
RTVSPropertyOp57
 70
     1
102
RTVSPost2010Prop28
280
     0
102
RTVSPost2010PropOp28
 70
     1
102
RTVSPost2010Prop29
280
     1
102
RTVSPost2010PropOp29
 70
     1
102
RTVSPost2010Prop30
280
     1
102
RTVSPost2010PropOp30
 70
     1
102
RTVSPost2010Prop31
280
     0
102
RTVSPost2010PropOp31
 70
     1
102
RTVSPost2010Prop32
280
     0
102
RTVSPost2010PropOp32
 70
     1
102
RTVSPost2010Prop33
280
     0
102
RTVSPost2010PropOp33
 70
     1
102
RTVSPost2010Prop34
280
     0
102
RTVSPost2010PropOp34
 70
     1
102
RTVSPost2010Prop35
280
     0
102
RTVSPost2010PropOp35
 70
     1
102
RTVSPost2010Prop36
280
     0
102
RTVSPost2010PropOp36
 70
     1
102
RTVSPost2010Prop37
 90
       50
102
RTVSPost2010PropOp37
 70
     1
102
RTVSPost2010Prop38
140
0.0
102
RTVSPost2010PropOp38
 70
     1
102
RTVSPost2010Prop39
140
1.0
102
RTVSPost2010PropOp39
 70
     1
102
RTVSPost2010Prop40
 90
        0
102
RTVSPost2010PropOp40
 70
     1
102
RTVSPost2010Prop41ColorIndex
 90
       18
102
RTVSPost2010Prop41ColorRGB
 90
        0
102
RTVSPost2010PropOp41
 70
     1
102
RTVSPost2010Prop42
 90
       50
102
RTVSPost2010PropOp42
 70
     1
102
RTVSPost2010Prop43
 90
        3
102
RTVSPost2010PropOp43
 70
     1
102
RTVSPost2010Prop44ColorIndex
 90
        5
102
RTVSPost2010Prop44ColorRGB
 90
      255
102
RTVSPost2010PropOp44
 70
     1
102
RTVSPost2010Prop45
280
     0
102
RTVSPost2010PropOp45
 70
     1
102
RTVSPost2010Prop46
 90
       50
102
RTVSPost2010PropOp46
 70
     1
102
RTVSPost2010Prop47
 90
       50
102
RTVSPost2010PropOp47
 70
     1
102
RTVSPost2010Prop48
 90
       50
102
RTVSPost2010PropOp48
 70
     1
102
RTVSPost2010Prop49
280
     0
102
RTVSPost2010PropOp49
 70
     1
102
RTVSPost2010Prop50
 90
       50
102
RTVSPost2010PropOp50
 70
     1
102
RTVSPost2010Prop51ColorIndex
 90
      256
102
RTVSPost2010Prop51ColorRGB
 90
-16777216
102
RTVSPost2010PropOp51
 70
     0
102
RTVSPost2010Prop52
140
1.0
102
RTVSPost2010PropOp52
 70
     0
102
RTVSPost2010Prop53
 90
        2
102
RTVSPost2010PropOp53
 70
     1
102
RTVSPost2010Prop54
  1
strokes_ogs.tif
102
RTVSPost2010PropOp54
 70
     1
102
RTVSPost2010Prop55
280
     0
102
RTVSPost2010PropOp55
 70
     1
102
RTVSPost2010Prop56
140
1.0
102
RTVSPost2010PropOp56
 70
     1
102
RTVSPost2010Prop57
140
1.0
102
RTVSPost2010PropOp57
 70
     1
  0
XRECORD
  5
17A
102
{ACAD_REACTORS
330
179
102
}
330
179
100
AcDbXrecord
280
     1
102
RTVSPropertyOp0
 70
     1
102
RTVSPropertyOp1
 70
     1
102
RTVSPropertyOp2
 70
     1
102
RTVSPropertyOp3
 70
     1
102
RTVSPropertyOp4
 70
     1
102
RTVSPropertyOp5
 70
     1
102
RTVSPropertyOp6
 70
     1
102
RTVSPropertyOp7
 70
     1
102
RTVSPropertyOp8
 70
     1
102
RTVSPropertyOp9
 70
     1
102
RTVSPropertyOp10
 70
     1
102
RTVSPropertyOp11
 70
     1
102
RTVSPropertyOp12
 70
     1
102
RTVSPropertyOp13
 70
     1
102
RTVSPropertyOp14
 70
     1
102
RTVSPropertyOp15
 70
     1
102
RTVSPropertyOp16
 70
     1
102
RTVSPropertyOp17
 70
     1
102
RTVSPropertyOp18
 70
     1
102
RTVSPropertyOp19
 70
     1
102
RTVSPropertyOp20
 70
     1
102
RTVSPropertyOp21
 70
     1
102
RTVSPropertyOp22
 70
     1
102
RTVSPropertyOp23
 70
     1
102
RTVSPropertyOp24
 70
     1
102
RTVSPropertyOp25
 70
     1
102
RTVSPropertyOp26
 70
     1
102
RTVSPropertyOp27
 70
     1
102
RTVSPropertyOp28
 70
     1
102
RTVSPropertyOp29
 70
     1
102
RTVSPropertyOp30
 70
     1
102
RTVSPropertyOp31
 70
     1
102
RTVSPropertyOp32
 70
     1
102
RTVSPropertyOp33
 70
     1
102
RTVSPropertyOp34
 70
     1
102
RTVSPropertyOp35
 70
     1
102
RTVSPropertyOp36
 70
     1
102
RTVSPropertyOp37
 70
     1
102
RTVSPropertyOp38
 70
     1
102
RTVSPropertyOp39
 70
     1
102
RTVSPropertyOp40
 70
     1
102
RTVSPropertyOp41
 70
     1
102
RTVSPropertyOp42
 70
     1
102
RTVSPropertyOp43
 70
     1
102
RTVSPropertyOp44
 70
     1
102
RTVSPropertyOp45
 70
     1
102
RTVSPropertyOp46
 70
     1
102
RTVSPropertyOp47
 70
     1
102
RTVSPropertyOp48
 70
     1
102
RTVSPropertyOp49
 70
     1
102
RTVSPropertyOp50
 70
     1
102
RTVSPropertyOp51
 70
     0
102
RTVSPropertyOp52
 70
     0
102
RTVSPropertyOp53
 70
     1
102
RTVSPropertyOp54
 70
     1
102
RTVSPropertyOp55
 70
     1
102
RTVSPropertyOp56
 70
     1
102
RTVSPropertyOp57
 70
     1
102
RTVSPost2010Prop28
280
     0
102
RTVSPost2010PropOp28
 70
     1
102
RTVSPost2010Prop29
280
     1
102
RTVSPost2010PropOp29
 70
     1
102
RTVSPost2010Prop30
280
     1
102
RTVSPost2010PropOp30
 70
     1
102
RTVSPost2010Prop31
280
     0
102
RTVSPost2010PropOp31
 70
     1
102
RTVSPost2010Prop32
280
     0
102
RTVSPost2010PropOp32
 70
     1
102
RTVSPost2010Prop33
280
     0
102
RTVSPost2010PropOp33
 70
     1
102
RTVSPost2010Prop34
280
     0
102
RTVSPost2010PropOp34
 70
     1
102
RTVSPost2010Prop35
280
     0
102
RTVSPost2010PropOp35
 70
     1
102
RTVSPost2010Prop36
280
     0
102
RTVSPost2010PropOp36
 70
     1
102
RTVSPost2010Prop37
 90
       50
102
RTVSPost2010PropOp37
 70
     1
102
RTVSPost2010Prop38
140
0.0
102
RTVSPost2010PropOp38
 70
     1
102
RTVSPost2010Prop39
140
1.0
102
RTVSPost2010PropOp39
 70
     1
102
RTVSPost2010Prop40
 90
        0
102
RTVSPost2010PropOp40
 70
     1
102
RTVSPost2010Prop41ColorIndex
 90
       18
102
RTVSPost2010Prop41ColorRGB
 90
        0
102
RTVSPost2010PropOp41
 70
     1
102
RTVSPost2010Prop42
 90
       50
102
RTVSPost2010PropOp42
 70
     1
102
RTVSPost2010Prop43
 90
        3
102
RTVSPost2010PropOp43
 70
     1
102
RTVSPost2010Prop44ColorIndex
 90
        5
102
RTVSPost2010Prop44ColorRGB
 90
      255
102
RTVSPost2010PropOp44
 70
     1
102
RTVSPost2010Prop45
280
     0
102
RTVSPost2010PropOp45
 70
     1
102
RTVSPost2010Prop46
 90
       50
102
RTVSPost2010PropOp46
 70
     1
102
RTVSPost2010Prop47
 90
       50
102
RTVSPost2010PropOp47
 70
     1
102
RTVSPost2010Prop48
 90
       50
102
RTVSPost2010PropOp48
 70
     1
102
RTVSPost2010Prop49
280
     0
102
RTVSPost2010PropOp49
 70
     1
102
RTVSPost2010Prop50
 90
       50
102
RTVSPost2010PropOp50
 70
     1
102
RTVSPost2010Prop51ColorIndex
 90
      256
102
RTVSPost2010Prop51ColorRGB
 90
-16777216
102
RTVSPost2010PropOp51
 70
     0
102
RTVSPost2010Prop52
140
1.0
102
RTVSPost2010PropOp52
 70
     0
102
RTVSPost2010Prop53
 90
        2
102
RTVSPost2010PropOp53
 70
     1
102
RTVSPost2010Prop54
  1
strokes_ogs.tif
102
RTVSPost2010PropOp54
 70
     1
102
RTVSPost2010Prop55
280
     0
102
RTVSPost2010PropOp55
 70
     1
102
RTVSPost2010Prop56
140
1.0
102
RTVSPost2010PropOp56
 70
     1
102
RTVSPost2010Prop57
140
1.0
102
RTVSPost2010PropOp57
 70
     1
  0
ENDSEC
  0
EOF
