  0
SECTION
  2
HEADER
  9
$ACADVER
  1
AC1021
  9
$ACADMAINTVER
 70
    25
  9
$DWGCODEPAGE
  3
ANSI_1252
  9
$LASTSAVEDBY
  1
colombo_c
  9
$INSBASE
 10
0.0
 20
0.0
 30
0.0
  9
$EXTMIN
 10
-1022.775596422587
 20
-558.0731730262152
 30
0.0
  9
$EXTMAX
 10
1062.989946625737
 20
528.7942558150822
 30
0.0
  9
$LIMMIN
 10
0.0
 20
0.0
  9
$LIMMAX
 10
12.0
 20
9.0
  9
$ORTHOMODE
 70
     0
  9
$REGENMODE
 70
     1
  9
$FILLMODE
 70
     1
  9
$QTEXTMODE
 70
     0
  9
$MIRRTEXT
 70
     1
  9
$LTSCALE
 40
1.0
  9
$ATTMODE
 70
     1
  9
$TEXTSIZE
 40
0.2
  9
$TRACEWID
 40
0.05
  9
$TEXTSTYLE
  7
Standard
  9
$CLAYER
  8
Make2D$Visibile$Curve
  9
$CELTYPE
  6
ByLayer
  9
$CECOLOR
 62
   256
  9
$CELTSCALE
 40
1.0
  9
$DISPSILH
 70
     0
  9
$DIMSCALE
 40
1.0
  9
$DIMASZ
 40
0.18
  9
$DIMEXO
 40
0.0625
  9
$DIMDLI
 40
0.38
  9
$DIMRND
 40
0.0
  9
$DIMDLE
 40
0.0
  9
$DIMEXE
 40
0.18
  9
$DIMTP
 40
0.0
  9
$DIMTM
 40
0.0
  9
$DIMTXT
 40
0.18
  9
$DIMCEN
 40
0.09
  9
$DIMTSZ
 40
0.0
  9
$DIMTOL
 70
     0
  9
$DIMLIM
 70
     0
  9
$DIMTIH
 70
     1
  9
$DIMTOH
 70
     1
  9
$DIMSE1
 70
     0
  9
$DIMSE2
 70
     0
  9
$DIMTAD
 70
     0
  9
$DIMZIN
 70
     0
  9
$DIMBLK
  1

  9
$DIMASO
 70
     1
  9
$DIMSHO
 70
     1
  9
$DIMPOST
  1

  9
$DIMAPOST
  1

  9
$DIMALT
 70
     0
  9
$DIMALTD
 70
     2
  9
$DIMALTF
 40
25.4
  9
$DIMLFAC
 40
1.0
  9
$DIMTOFL
 70
     0
  9
$DIMTVP
 40
0.0
  9
$DIMTIX
 70
     0
  9
$DIMSOXD
 70
     0
  9
$DIMSAH
 70
     0
  9
$DIMBLK1
  1

  9
$DIMBLK2
  1

  9
$DIMSTYLE
  2
STANDARD_ACAD
  9
$DIMCLRD
 70
     0
  9
$DIMCLRE
 70
     0
  9
$DIMCLRT
 70
     0
  9
$DIMTFAC
 40
1.0
  9
$DIMGAP
 40
0.09
  9
$DIMJUST
 70
     0
  9
$DIMSD1
 70
     0
  9
$DIMSD2
 70
     0
  9
$DIMTOLJ
 70
     1
  9
$DIMTZIN
 70
     0
  9
$DIMALTZ
 70
     0
  9
$DIMALTTZ
 70
     0
  9
$DIMUPT
 70
     0
  9
$DIMDEC
 70
     4
  9
$DIMTDEC
 70
     4
  9
$DIMALTU
 70
     2
  9
$DIMALTTD
 70
     2
  9
$DIMTXSTY
  7
Standard
  9
$DIMAUNIT
 70
     0
  9
$DIMADEC
 70
     0
  9
$DIMALTRND
 40
0.0
  9
$DIMAZIN
 70
     0
  9
$DIMDSEP
 70
    46
  9
$DIMATFIT
 70
     3
  9
$DIMFRAC
 70
     0
  9
$DIMLDRBLK
  1

  9
$DIMLUNIT
 70
     2
  9
$DIMLWD
 70
    -2
  9
$DIMLWE
 70
    -2
  9
$DIMTMOVE
 70
     2
  9
$DIMFXL
 40
1.0
  9
$DIMFXLON
 70
     0
  9
$DIMJOGANG
 40
0.7853981633974483
  9
$DIMTFILL
 70
     0
  9
$DIMTFILLCLR
 70
     0
  9
$DIMARCSYM
 70
     0
  9
$DIMLTYPE
  6

  9
$DIMLTEX1
  6

  9
$DIMLTEX2
  6

  9
$LUNITS
 70
     2
  9
$LUPREC
 70
     3
  9
$SKETCHINC
 40
0.1
  9
$FILLETRAD
 40
0.0
  9
$AUNITS
 70
     0
  9
$AUPREC
 70
     0
  9
$MENU
  1
.
  9
$ELEVATION
 40
0.0
  9
$PELEVATION
 40
0.0
  9
$THICKNESS
 40
0.0
  9
$LIMCHECK
 70
     0
  9
$CHAMFERA
 40
0.0
  9
$CHAMFERB
 40
0.0
  9
$CHAMFERC
 40
0.0
  9
$CHAMFERD
 40
0.0
  9
$SKPOLY
 70
     0
  9
$TDCREATE
 40
2460826.756080452
  9
$TDUCREATE
 40
2460826.672747118
  9
$TDUPDATE
 40
2460826.756090869
  9
$TDUUPDATE
 40
2460826.672757535
  9
$TDINDWG
 40
0.0000000116
  9
$TDUSRTIMER
 40
0.0000000116
  9
$USRTIMER
 70
     1
  9
$ANGBASE
 50
0.0
  9
$ANGDIR
 70
     0
  9
$PDMODE
 70
     0
  9
$PDSIZE
 40
0.0
  9
$PLINEWID
 40
0.0
  9
$SPLFRAME
 70
     0
  9
$SPLINETYPE
 70
     6
  9
$SPLINESEGS
 70
     8
  9
$HANDSEED
  5
1AD
  9
$SURFTAB1
 70
     6
  9
$SURFTAB2
 70
     6
  9
$SURFTYPE
 70
     6
  9
$SURFU
 70
     6
  9
$SURFV
 70
     6
  9
$UCSBASE
  2

  9
$UCSNAME
  2

  9
$UCSORG
 10
0.0
 20
0.0
 30
0.0
  9
$UCSXDIR
 10
1.0
 20
0.0
 30
0.0
  9
$UCSYDIR
 10
0.0
 20
1.0
 30
0.0
  9
$UCSORTHOREF
  2

  9
$UCSORTHOVIEW
 70
     0
  9
$UCSORGTOP
 10
0.0
 20
0.0
 30
0.0
  9
$UCSORGBOTTOM
 10
0.0
 20
0.0
 30
0.0
  9
$UCSORGLEFT
 10
0.0
 20
0.0
 30
0.0
  9
$UCSORGRIGHT
 10
0.0
 20
0.0
 30
0.0
  9
$UCSORGFRONT
 10
0.0
 20
0.0
 30
0.0
  9
$UCSORGBACK
 10
0.0
 20
0.0
 30
0.0
  9
$PUCSBASE
  2

  9
$PUCSNAME
  2

  9
$PUCSORG
 10
0.0
 20
0.0
 30
0.0
  9
$PUCSXDIR
 10
1.0
 20
0.0
 30
0.0
  9
$PUCSYDIR
 10
0.0
 20
1.0
 30
0.0
  9
$PUCSORTHOREF
  2

  9
$PUCSORTHOVIEW
 70
     0
  9
$PUCSORGTOP
 10
0.0
 20
0.0
 30
0.0
  9
$PUCSORGBOTTOM
 10
0.0
 20
0.0
 30
0.0
  9
$PUCSORGLEFT
 10
0.0
 20
0.0
 30
0.0
  9
$PUCSORGRIGHT
 10
0.0
 20
0.0
 30
0.0
  9
$PUCSORGFRONT
 10
0.0
 20
0.0
 30
0.0
  9
$PUCSORGBACK
 10
0.0
 20
0.0
 30
0.0
  9
$USERI1
 70
     0
  9
$USERI2
 70
     0
  9
$USERI3
 70
     0
  9
$USERI4
 70
     0
  9
$USERI5
 70
     0
  9
$USERR1
 40
0.0
  9
$USERR2
 40
0.0
  9
$USERR3
 40
0.0
  9
$USERR4
 40
0.0
  9
$USERR5
 40
0.0
  9
$WORLDVIEW
 70
     1
  9
$SHADEDGE
 70
     3
  9
$SHADEDIF
 70
    70
  9
$TILEMODE
 70
     1
  9
$MAXACTVP
 70
    64
  9
$PINSBASE
 10
0.0
 20
0.0
 30
0.0
  9
$PLIMCHECK
 70
     0
  9
$PEXTMIN
 10
1.000000000000000E+20
 20
1.000000000000000E+20
 30
1.000000000000000E+20
  9
$PEXTMAX
 10
-1.000000000000000E+20
 20
-1.000000000000000E+20
 30
-1.000000000000000E+20
  9
$PLIMMIN
 10
0.0
 20
0.0
  9
$PLIMMAX
 10
12.0
 20
9.0
  9
$UNITMODE
 70
     0
  9
$VISRETAIN
 70
     1
  9
$PLINEGEN
 70
     0
  9
$PSLTSCALE
 70
     1
  9
$TREEDEPTH
 70
  3020
  9
$CMLSTYLE
  2
Standard
  9
$CMLJUST
 70
     0
  9
$CMLSCALE
 40
1.0
  9
$PROXYGRAPHICS
 70
     1
  9
$MEASUREMENT
 70
     1
  9
$CELWEIGHT
370
    -1
  9
$ENDCAPS
280
     0
  9
$JOINSTYLE
280
     0
  9
$LWDISPLAY
290
     0
  9
$INSUNITS
 70
     4
  9
$HYPERLINKBASE
  1

  9
$STYLESHEET
  1

  9
$XEDIT
290
     1
  9
$CEPSNTYPE
380
     0
  9
$PSTYLEMODE
290
     1
  9
$FINGERPRINTGUID
  2
{f9dec935-d311-4aed-992a-7faf7778955d}
  9
$VERSIONGUID
  2
{FAEB1C32-E019-11D5-929B-00C0DF256EC4}
  9
$EXTNAMES
290
     1
  9
$PSVPSCALE
 40
0.0
  9
$OLESTARTUP
290
     0
  9
$SORTENTS
280
   127
  9
$INDEXCTL
280
     0
  9
$HIDETEXT
280
     1
  9
$XCLIPFRAME
290
     0
  9
$HALOGAP
280
     0
  9
$OBSCOLOR
 70
   257
  9
$OBSLTYPE
280
     0
  9
$INTERSECTIONDISPLAY
280
     0
  9
$INTERSECTIONCOLOR
 70
   257
  9
$DIMASSOC
280
     2
  9
$PROJECTNAME
  1

  9
$CAMERADISPLAY
290
     0
  9
$LENSLENGTH
 40
50.0
  9
$CAMERAHEIGHT
 40
0.0
  9
$STEPSPERSEC
 40
2.0
  9
$STEPSIZE
 40
6.0
  9
$3DDWFPREC
 40
2.0
  9
$PSOLWIDTH
 40
0.25
  9
$PSOLHEIGHT
 40
4.0
  9
$LOFTANG1
 40
1.570796326794897
  9
$LOFTANG2
 40
1.570796326794897
  9
$LOFTMAG1
 40
0.0
  9
$LOFTMAG2
 40
0.0
  9
$LOFTPARAM
 70
     7
  9
$LOFTNORMALS
280
     1
  9
$LATITUDE
 40
37.795
  9
$LONGITUDE
 40
-122.394
  9
$NORTHDIRECTION
 40
0.0
  9
$TIMEZONE
 70
 -8000
  9
$LIGHTGLYPHDISPLAY
280
     1
  9
$TILEMODELIGHTSYNCH
280
     1
  9
$CMATERIAL
347
44
  9
$SOLIDHIST
280
     0
  9
$SHOWHIST
280
     1
  9
$DWFFRAME
280
     2
  9
$DGNFRAME
280
     2
  9
$REALWORLDSCALE
290
     1
  9
$INTERFERECOLOR
 62
   256
  9
$CSHADOW
280
     0
  9
$SHADOWPLANELOCATION
 40
0.0
  0
ENDSEC
  0
SECTION
  2
CLASSES
  0
CLASS
  1
ACDBDICTIONARYWDFLT
  2
AcDbDictionaryWithDefault
  3
ObjectDBX Classes
 90
        0
 91
        3
280
     0
281
     0
  0
CLASS
  1
VISUALSTYLE
  2
AcDbVisualStyle
  3
ObjectDBX Classes
 90
     4095
 91
        3
280
     0
281
     0
  0
CLASS
  1
MATERIAL
  2
AcDbMaterial
  3
ObjectDBX Classes
 90
     1153
 91
        3
280
     0
281
     0
  0
CLASS
  1
SCALE
  2
AcDbScale
  3
ObjectDBX Classes
 90
     1153
 91
        3
280
     0
281
     0
  0
CLASS
  1
TABLESTYLE
  2
AcDbTableStyle
  3
ObjectDBX Classes
 90
     4095
 91
        3
280
     0
281
     0
  0
CLASS
  1
MLEADERSTYLE
  2
AcDbMLeaderStyle
  3
ACDB_MLEADERSTYLE_CLASS
 90
     4095
 91
        3
280
     0
281
     0
  0
CLASS
  1
SUN
  2
AcDbSun
  3
SCENEOE
 90
     1153
 91
        3
280
     0
281
     0
  0
CLASS
  1
DICTIONARYVAR
  2
AcDbDictionaryVar
  3
ObjectDBX Classes
 90
        0
 91
        3
280
     0
281
     0
  0
CLASS
  1
CELLSTYLEMAP
  2
AcDbCellStyleMap
  3
ObjectDBX Classes
 90
     1152
 91
        3
280
     0
281
     0
  0
ENDSEC
  0
SECTION
  2
TABLES
  0
TABLE
  2
VPORT
  5
8
330
0
100
AcDbSymbolTable
 70
     1
  0
VPORT
  5
29
330
8
100
AcDbSymbolTableRecord
100
AcDbViewportTableRecord
  2
*Active
 70
     0
 10
0.0
 20
0.0
 11
1.0
 21
1.0
 12
10.42990654205607
 22
4.5
 13
0.0
 23
0.0
 14
0.5
 24
0.5
 15
0.5
 25
0.5
 16
0.0
 26
0.0
 36
1.0
 17
0.0
 27
0.0
 37
0.0
 40
9.0
 41
1.972972972850329
 42
50.0
 43
0.0
 44
0.0
 50
0.0
 51
0.0
 71
     0
 72
   100
 73
     1
 74
     3
 75
     0
 76
     0
 77
     0
 78
     0
281
     0
 65
     1
110
0.0
120
0.0
130
0.0
111
1.0
121
0.0
131
0.0
112
0.0
122
1.0
132
0.0
 79
     0
146
0.0
348
2F
 60
     3
 61
     5
292
     1
282
     1
141
0.0
142
0.0
 63
   250
361
5D
  0
ENDTAB
  0
TABLE
  2
LTYPE
  5
5
330
0
100
AcDbSymbolTable
 70
     1
  0
LTYPE
  5
14
330
5
100
AcDbSymbolTableRecord
100
AcDbLinetypeTableRecord
  2
ByBlock
 70
     0
  3

 72
    65
 73
     0
 40
0.0
  0
LTYPE
  5
15
330
5
100
AcDbSymbolTableRecord
100
AcDbLinetypeTableRecord
  2
ByLayer
 70
     0
  3

 72
    65
 73
     0
 40
0.0
  0
LTYPE
  5
16
330
5
100
AcDbSymbolTableRecord
100
AcDbLinetypeTableRecord
  2
Continuous
 70
     0
  3
Solid line
 72
    65
 73
     0
 40
0.0
  0
ENDTAB
  0
TABLE
  2
LAYER
  5
2
330
0
100
AcDbSymbolTable
 70
     2
  0
LAYER
  5
10
330
2
100
AcDbSymbolTableRecord
100
AcDbLayerTableRecord
  2
0
 70
     0
 62
     7
  6
Continuous
370
    -3
390
F
347
46
  0
LAYER
  5
5F
330
2
100
AcDbSymbolTableRecord
100
AcDbLayerTableRecord
  2
Make2D$Visibile$Curve
 70
     0
 62
    18
420
        0
  6
Continuous
370
    -3
390
F
347
46
  0
ENDTAB
  0
TABLE
  2
STYLE
  5
3
330
0
100
AcDbSymbolTable
 70
     1
  0
STYLE
  5
11
330
3
100
AcDbSymbolTableRecord
100
AcDbTextStyleTableRecord
  2
Standard
 70
     0
 40
0.0
 41
1.0
 50
0.0
 71
     0
 42
0.2
  3
txt
  4

  0
ENDTAB
  0
TABLE
  2
VIEW
  5
6
330
0
100
AcDbSymbolTable
 70
     0
  0
ENDTAB
  0
TABLE
  2
UCS
  5
7
330
0
100
AcDbSymbolTable
 70
     0
  0
ENDTAB
  0
TABLE
  2
APPID
  5
9
330
0
100
AcDbSymbolTable
 70
     3
  0
APPID
  5
12
330
9
100
AcDbSymbolTableRecord
100
AcDbRegAppTableRecord
  2
ACAD
 70
     0
  0
APPID
  5
5E
330
9
100
AcDbSymbolTableRecord
100
AcDbRegAppTableRecord
  2
Rhino
 70
     0
  0
APPID
  5
1A5
330
9
100
AcDbSymbolTableRecord
100
AcDbRegAppTableRecord
  2
ACAD_MLEADERVER
 70
     0
  0
ENDTAB
  0
TABLE
  2
DIMSTYLE
  5
A
330
0
100
AcDbSymbolTable
 70
     1
100
AcDbDimStyleTable
  0
DIMSTYLE
105
27
330
A
100
AcDbSymbolTableRecord
100
AcDbDimStyleTableRecord
  2
STANDARD_ACAD
 70
     0
178
     0
340
11
  0
ENDTAB
  0
TABLE
  2
BLOCK_RECORD
  5
1
330
0
100
AcDbSymbolTable
 70
     1
  0
BLOCK_RECORD
  5
1F
330
1
100
AcDbSymbolTableRecord
100
AcDbBlockTableRecord
  2
*Model_Space
340
22
 70
     0
280
     1
281
     0
  0
BLOCK_RECORD
  5
1B
330
1
100
AcDbSymbolTableRecord
100
AcDbBlockTableRecord
  2
*Paper_Space
340
1E
 70
     0
280
     1
281
     0
  0
BLOCK_RECORD
  5
23
330
1
100
AcDbSymbolTableRecord
100
AcDbBlockTableRecord
  2
*Paper_Space0
340
26
 70
     0
280
     1
281
     0
  0
ENDTAB
  0
ENDSEC
  0
SECTION
  2
BLOCKS
  0
BLOCK
  5
20
330
1F
100
AcDbEntity
  8
0
100
AcDbBlockBegin
  2
*Model_Space
 70
     0
 10
0.0
 20
0.0
 30
0.0
  3
*Model_Space
  1

  0
ENDBLK
  5
21
330
1F
100
AcDbEntity
  8
0
100
AcDbBlockEnd
  0
BLOCK
  5
1C
330
1B
100
AcDbEntity
 67
     1
  8
0
100
AcDbBlockBegin
  2
*Paper_Space
 70
     0
 10
0.0
 20
0.0
 30
0.0
  3
*Paper_Space
  1

  0
ENDBLK
  5
1D
330
1B
100
AcDbEntity
 67
     1
  8
0
100
AcDbBlockEnd
  0
BLOCK
  5
24
330
23
100
AcDbEntity
  8
0
100
AcDbBlockBegin
  2
*Paper_Space0
 70
     0
 10
0.0
 20
0.0
 30
0.0
  3
*Paper_Space0
  1

  0
ENDBLK
  5
25
330
23
100
AcDbEntity
  8
0
100
AcDbBlockEnd
  0
ENDSEC
  0
SECTION
  2
ENTITIES
  0
POLYLINE
  5
60
330
1F
100
AcDbEntity
  8
Make2D$Visibile$Curve
100
AcDb2dPolyline
 66
     1
 10
0.0
 20
0.0
 30
0.0
  0
VERTEX
  5
61
330
60
100
AcDbEntity
  8
Make2D$Visibile$Curve
100
AcDbVertex
100
AcDb2dVertex
 10
37.64966321374641
 20
263.9255011124803
 30
0.0
  0
VERTEX
  5
62
330
60
100
AcDbEntity
  8
Make2D$Visibile$Curve
100
AcDbVertex
100
AcDb2dVertex
 10
37.64966321374641
 20
-558.0731730262071
 30
0.0
  0
SEQEND
  5
63
330
60
100
AcDbEntity
  8
Make2D$Visibile$Curve
  0
POLYLINE
  5
64
330
1F
100
AcDbEntity
  8
Make2D$Visibile$Curve
100
AcDb2dPolyline
 66
     1
 10
0.0
 20
0.0
 30
0.0
  0
VERTEX
  5
65
330
64
100
AcDbEntity
  8
Make2D$Visibile$Curve
100
AcDbVertex
100
AcDb2dVertex
 10
-34.26049210003157
 20
263.9255011124803
 30
0.0
  0
VERTEX
  5
66
330
64
100
AcDbEntity
  8
Make2D$Visibile$Curve
100
AcDbVertex
100
AcDb2dVertex
 10
-34.26049210003157
 20
-558.0731730262071
 30
0.0
  0
SEQEND
  5
67
330
64
100
AcDbEntity
  8
Make2D$Visibile$Curve
  0
POLYLINE
  5
68
330
1F
100
AcDbEntity
  8
Make2D$Visibile$Curve
100
AcDb2dPolyline
 66
     1
 10
0.0
 20
0.0
 30
0.0
  0
VERTEX
  5
69
330
68
100
AcDbEntity
  8
Make2D$Visibile$Curve
100
AcDbVertex
100
AcDb2dVertex
 10
240.9912724870401
 20
478.5239082944245
 30
0.0
  0
VERTEX
  5
6A
330
68
100
AcDbEntity
  8
Make2D$Visibile$Curve
100
AcDbVertex
100
AcDb2dVertex
 10
1062.989946625728
 20
478.5239082944245
 30
0.0
  0
SEQEND
  5
6B
330
68
100
AcDbEntity
  8
Make2D$Visibile$Curve
  0
POLYLINE
  5
6C
330
1F
100
AcDbEntity
  8
Make2D$Visibile$Curve
100
AcDb2dPolyline
 66
     1
 10
0.0
 20
0.0
 30
0.0
  0
VERTEX
  5
6D
330
6C
100
AcDbEntity
  8
Make2D$Visibile$Curve
100
AcDbVertex
100
AcDb2dVertex
 10
240.9912724870401
 20
480.2559591145473
 30
0.0
  0
VERTEX
  5
6E
330
6C
100
AcDbEntity
  8
Make2D$Visibile$Curve
100
AcDbVertex
100
AcDb2dVertex
 10
1062.989946625728
 20
480.2559591145473
 30
0.0
  0
SEQEND
  5
6F
330
6C
100
AcDbEntity
  8
Make2D$Visibile$Curve
  0
POLYLINE
  5
70
330
1F
100
AcDbEntity
  8
Make2D$Visibile$Curve
100
AcDb2dPolyline
 66
     1
 10
0.0
 20
0.0
 30
0.0
  0
VERTEX
  5
71
330
70
100
AcDbEntity
  8
Make2D$Visibile$Curve
100
AcDbVertex
100
AcDb2dVertex
 10
-200.7769222838917
 20
520.9232022602773
 30
0.0
  0
VERTEX
  5
72
330
70
100
AcDbEntity
  8
Make2D$Visibile$Curve
100
AcDbVertex
100
AcDb2dVertex
 10
-1022.775596422579
 20
520.9232022602773
 30
0.0
  0
SEQEND
  5
73
330
70
100
AcDbEntity
  8
Make2D$Visibile$Curve
  0
POLYLINE
  5
74
330
1F
100
AcDbEntity
  8
Make2D$Visibile$Curve
100
AcDb2dPolyline
 66
     1
 10
0.0
 20
0.0
 30
0.0
  0
VERTEX
  5
75
330
74
100
AcDbEntity
  8
Make2D$Visibile$Curve
100
AcDbVertex
100
AcDb2dVertex
 10
-200.7769222838917
 20
437.872082487859
 30
0.0
  0
VERTEX
  5
76
330
74
100
AcDbEntity
  8
Make2D$Visibile$Curve
100
AcDbVertex
100
AcDb2dVertex
 10
-1022.775596422579
 20
437.872082487859
 30
0.0
  0
SEQEND
  5
77
330
74
100
AcDbEntity
  8
Make2D$Visibile$Curve
  0
SPLINE
  5
78
330
1F
100
AcDbEntity
  8
Make2D$Visibile$Curve
 62
    18
420
        0
370
    -3
100
AcDbSpline
210
0.0
220
0.0
230
1.0
 70
    12
 71
     4
 72
    14
 73
     9
 74
     0
 42
0.0000000001
 43
0.0000000001
 40
259.917458118994
 40
259.917458118994
 40
259.917458118994
 40
259.917458118994
 40
259.917458118994
 40
278.4549419840992
 40
278.4549419840992
 40
278.4549419840992
 40
278.4549419840992
 40
293.0233462388551
 40
293.0233462388551
 40
293.0233462388551
 40
293.0233462388551
 40
293.0233462388551
 10
37.64966321374641
 20
263.9255011124803
 30
0.0
 41
1.0
 10
33.63641842792549
 20
263.9255011124803
 30
0.0
 41
1.0
 10
29.62301481069539
 20
263.9255011124803
 30
0.0
 41
1.0
 10
25.60953177635952
 20
263.9255011124803
 30
0.0
 41
1.0
 10
21.59604873922081
 20
263.9255011124804
 30
0.0
 41
0.9999999999999998
 10
18.44189665579234
 20
263.9255011124804
 30
0.0
 41
0.9999999999999998
 10
15.28774457063287
 20
263.9255011124806
 30
0.0
 41
0.9999999999999998
 10
12.13359248306211
 20
263.9255011124806
 30
0.0
 41
0.9999999999999998
 10
8.97944039239951
 20
263.9156554936078
 30
0.0
 41
1.0
  0
SPLINE
  5
79
330
1F
100
AcDbEntity
  8
Make2D$Visibile$Curve
 62
    18
420
        0
370
    -3
100
AcDbSpline
210
0.0
220
0.0
230
1.0
 70
     8
 71
     3
 72
    10
 73
     6
 74
     0
 42
0.0000000001
 43
0.0000000001
 40
0.0000000000002108
 40
0.0000000000002108
 40
0.0000000000002108
 40
0.0000000000002108
 40
0.2082893273128043
 40
0.2082893273128043
 40
0.8111940450005792
 40
0.8111940450005792
 40
0.8111940450005792
 40
0.8111940450005792
 10
8.97944039239951
 20
263.9156554936078
 30
0.0
 10
8.998244284884095
 20
263.9156554936073
 30
0.0
 10
9.300546208522064
 20
263.8016564586717
 30
0.0
 10
9.426915041361099
 20
263.6752876258327
 30
0.0
 10
9.47944039239951
 20
263.548047942774
 30
0.0
 10
9.487400759827674
 20
263.4074961509611
 30
0.0
  0
SPLINE
  5
7A
330
1F
100
AcDbEntity
  8
Make2D$Visibile$Curve
 62
    18
420
        0
370
    -3
100
AcDbSpline
210
0.0
220
0.0
230
1.0
 70
     8
 71
     4
 72
    10
 73
     5
 74
     0
 42
0.0000000001
 43
0.0000000001
 40
42.68820056895878
 40
42.68820056895878
 40
42.68820056895878
 40
42.68820056895878
 40
42.68820056895878
 40
58.92104890393487
 40
58.92104890393487
 40
58.92104890393487
 40
58.92104890393487
 40
58.92104890393487
 10
-20.21241299376697
 20
263.9156554936078
 30
0.0
 10
-23.71694775566812
 20
263.9255011124803
 30
0.0
 10
-27.23146253712252
 20
263.9255011124803
 30
0.0
 10
-30.74597731857693
 20
263.9255011124803
 30
0.0
 10
-34.26049210003157
 20
263.9255011124803
 30
0.0
  0
SPLINE
  5
7B
330
1F
100
AcDbEntity
  8
Make2D$Visibile$Curve
 62
    18
420
        0
370
    -3
100
AcDbSpline
210
0.0
220
0.0
230
1.0
 70
     8
 71
     3
 72
    10
 73
     6
 74
     0
 42
0.0000000001
 43
0.0000000001
 40
0.0
 40
0.0
 40
0.0
 40
0.0
 40
0.5569548386937289
 40
0.5569548386937289
 40
0.81528925234652
 40
0.81528925234652
 40
0.81528925234652
 40
0.81528925234652
 10
-20.7043098673355
 20
263.4067225899307
 30
0.0
 10
-20.71241299376697
 20
263.548047942774
 30
0.0
 10
-20.65988764272879
 20
263.6752876258324
 30
0.0
 10
-20.522402541254
 20
263.8127727273072
 30
0.0
 10
-20.25175707239214
 20
263.9156554936073
 30
0.0
 10
-20.21241299376697
 20
263.9156554936078
 30
0.0
  0
SPLINE
  5
7C
330
1F
100
AcDbEntity
  8
Make2D$Visibile$Curve
 62
    18
420
        0
370
    -3
100
AcDbSpline
210
0.0
220
0.0
230
1.0
 70
     8
 71
     3
 72
     8
 73
     4
 74
     0
 42
0.0000000001
 43
0.0000000001
 40
0.0
 40
0.0
 40
0.0
 40
0.0
 40
0.8907792943939885
 40
0.8907792943939885
 40
0.8907792943939885
 40
0.8907792943939885
 10
9.479369607019864
 20
-557.5650136835685
 30
0.0
 10
9.471409239591594
 20
-557.8493154011305
 30
0.0
 10
9.207847055965203
 20
-558.0731730262146
 30
0.0
 10
8.971409239592049
 20
-558.073173026215
 30
0.0
  0
SPLINE
  5
7D
330
1F
100
AcDbEntity
  8
Make2D$Visibile$Curve
 62
    18
420
        0
370
    -3
100
AcDbSpline
210
0.0
220
0.0
230
1.0
 70
     8
 71
     3
 72
     8
 73
     4
 74
     0
 42
0.0000000001
 43
0.0000000001
 40
0.0000000000003282
 40
0.0000000000003282
 40
0.0000000000003282
 40
0.0000000000003282
 40
0.884665802321132
 40
0.884665802321132
 40
0.884665802321132
 40
0.884665802321132
 10
-20.22044414657512
 20
-558.073173026215
 30
0.0
 10
-20.46929316303863
 20
-558.0731730262146
 30
0.0
 10
-20.72044414657466
 20
-557.8493154011303
 30
0.0
 10
-20.7123410201432
 20
-557.5642401225375
 30
0.0
  0
SPLINE
  5
7E
330
1F
100
AcDbEntity
  8
Make2D$Visibile$Curve
 62
    18
420
        0
370
    -3
100
AcDbSpline
210
0.0
220
0.0
230
1.0
 70
     8
 71
     3
 72
    10
 73
     6
 74
     0
 42
0.0000000001
 43
0.0000000001
 40
0.0000000000004938
 40
0.0000000000004938
 40
0.0000000000004938
 40
0.0000000000004938
 40
0.3346943572549445
 40
0.3346943572549445
 40
0.8156018844042082
 40
0.8156018844042082
 40
0.8156018844042082
 40
0.8156018844042082
 10
-1022.775596422587
 20
528.3069238527426
 30
0.0
 10
-1022.775596422587
 20
528.3865527331373
 30
0.0
 10
-1022.6945156339
 20
528.5951114226164
 30
0.0
 10
-1022.535228554812
 20
528.7543985017039
 30
0.0
 10
-1022.448528579323
 20
528.7798271343685
 30
0.0
 10
-1022.266511991441
 20
528.7929323091164
 30
0.0
  0
SPLINE
  5
7F
330
1F
100
AcDbEntity
  8
Make2D$Visibile$Curve
 62
    18
420
        0
370
    -3
100
AcDbSpline
210
0.0
220
0.0
230
1.0
 70
     8
 71
     3
 72
     8
 73
     4
 74
     0
 42
0.0000000001
 43
0.0000000001
 40
0.0
 40
0.0
 40
0.0
 40
0.0
 40
0.8834562287485791
 40
0.8834562287485791
 40
0.8834562287485791
 40
0.8834562287485791
 10
-1022.26651211432
 20
429.9698385606976
 30
0.0
 10
-1022.550236548066
 20
429.9784548070775
 30
0.0
 10
-1022.775596422587
 20
430.204690288456
 30
0.0
 10
-1022.775596422587
 20
430.455851786696
 30
0.0
  0
SPLINE
  5
80
330
1F
100
AcDbEntity
  8
Make2D$Visibile$Curve
 62
    18
420
        0
370
    -3
100
AcDbSpline
210
0.0
220
0.0
230
1.0
 70
     8
 71
     3
 72
    10
 73
     6
 74
     0
 42
0.0000000001
 43
0.0000000001
 40
0.0000000000002157
 40
0.0000000000002157
 40
0.0000000000002157
 40
0.0000000000002157
 40
0.172237847343086
 40
0.172237847343086
 40
0.8040352976173071
 40
0.8040352976173071
 40
0.8040352976173071
 40
0.8040352976173071
 10
-200.7867679027645
 20
430.4419312745965
 30
0.0
 10
-200.7867679027645
 20
430.4357719176526
 30
0.0
 10
-200.9076101110231
 20
430.1139822851515
 30
0.0
 10
-201.0271357705396
 20
429.9944566256347
 30
0.0
 10
-201.154375453598
 20
429.9419312745965
 30
0.0
 10
-201.2958522110316
 20
429.9559180485977
 30
0.0
  0
SPLINE
  5
81
330
1F
100
AcDbEntity
  8
Make2D$Visibile$Curve
 62
    18
420
        0
370
    -3
100
AcDbSpline
210
0.0
220
0.0
230
1.0
 70
     8
 71
     3
 72
     8
 73
     4
 74
     0
 42
0.0000000001
 43
0.0000000001
 40
0.0005049738234963
 40
0.0005049738234963
 40
0.0005049738234963
 40
0.0005049738234963
 40
0.8959009369124659
 40
0.8959009369124659
 40
0.8959009369124659
 40
0.8959009369124659
 10
-201.2958523339107
 20
528.7790117970162
 30
0.0
 10
-201.0103732446378
 20
528.7926932678499
 30
0.0
 10
-200.7867679027645
 20
528.5178041060024
 30
0.0
 10
-200.7867679027645
 20
528.293003340643
 30
0.0
  0
SPLINE
  5
82
330
1F
100
AcDbEntity
  8
Make2D$Visibile$Curve
 62
    18
420
        0
370
    -3
100
AcDbSpline
210
0.0
220
0.0
230
1.0
 70
     8
 71
     3
 72
    10
 73
     6
 74
     0
 42
0.0000000001
 43
0.0000000001
 40
0.00000000000007
 40
0.00000000000007
 40
0.00000000000007
 40
0.00000000000007
 40
0.327122008845615
 40
0.327122008845615
 40
0.781282128661908
 40
0.781282128661908
 40
0.781282128661908
 40
0.781282128661908
 10
241.0011181059135
 20
459.6336868962208
 30
0.0
 10
241.0377297582645
 20
459.7220752438689
 30
0.0
 10
241.1109530629683
 20
459.898851939166
 30
0.0
 10
241.2414859736882
 20
460.081161545183
 30
0.0
 10
241.3687256567464
 20
460.1336868962208
 30
0.0
 10
241.5089487907167
 20
460.1475332169645
 30
0.0
  0
SPLINE
  5
83
330
1F
100
AcDbEntity
  8
Make2D$Visibile$Curve
 62
    18
420
        0
370
    -3
100
AcDbSpline
210
0.0
220
0.0
230
1.0
 70
     8
 71
     4
 72
    10
 73
     5
 74
     0
 42
0.0000000001
 43
0.0000000001
 40
61.01544403143603
 40
61.01544403143603
 40
61.01544403143603
 40
61.01544403143603
 40
61.01544403143603
 40
98.09124803143607
 40
98.09124803143607
 40
98.09124803143607
 40
98.09124803143607
 40
98.09124803143607
 10
240.9912724870401
 20
478.5239082944245
 30
0.0
 10
240.9912724870401
 20
473.8894327944245
 30
0.0
 10
240.9912724870401
 20
469.2549572944245
 30
0.0
 10
240.9912724870401
 20
464.6204817805701
 30
0.0
 10
241.0011181059126
 20
459.719332215639
 30
0.0
  0
POLYLINE
  5
84
330
1F
100
AcDbEntity
  8
Make2D$Visibile$Curve
 62
    18
420
        0
370
    -3
100
AcDb2dPolyline
 66
     1
 10
0.0
 20
0.0
 30
0.0
  0
VERTEX
  5
85
330
84
100
AcDbEntity
  8
Make2D$Visibile$Curve
 62
    18
420
        0
370
    -3
100
AcDbVertex
100
AcDb2dVertex
 10
246.5014039461657
 20
502.3511307345943
 30
0.0
  0
VERTEX
  5
86
330
84
100
AcDbEntity
  8
Make2D$Visibile$Curve
 62
    18
420
        0
370
    -3
100
AcDbVertex
100
AcDb2dVertex
 10
246.9899466257365
 20
502.3511307345943
 30
0.0
  0
SEQEND
  5
87
330
84
100
AcDbEntity
  8
Make2D$Visibile$Curve
 62
    18
420
        0
370
    -3
  0
POLYLINE
  5
88
330
1F
100
AcDbEntity
  8
Make2D$Visibile$Curve
 62
    18
420
        0
370
    -3
100
AcDb2dPolyline
 66
     1
 10
0.0
 20
0.0
 30
0.0
  0
VERTEX
  5
89
330
88
100
AcDbEntity
  8
Make2D$Visibile$Curve
 62
    18
420
        0
370
    -3
100
AcDbVertex
100
AcDb2dVertex
 10
246.5026964954761
 20
521.9081508010776
 30
0.0
  0
VERTEX
  5
8A
330
88
100
AcDbEntity
  8
Make2D$Visibile$Curve
 62
    18
420
        0
370
    -3
100
AcDbVertex
100
AcDb2dVertex
 10
246.9899466257366
 20
521.9081508010776
 30
0.0
  0
SEQEND
  5
8B
330
88
100
AcDbEntity
  8
Make2D$Visibile$Curve
 62
    18
420
        0
370
    -3
  0
SPLINE
  5
8C
330
1F
100
AcDbEntity
  8
Make2D$Visibile$Curve
 62
    18
420
        0
370
    -3
100
AcDbSpline
210
0.0
220
0.0
230
1.0
 70
     8
 71
     4
 72
    10
 73
     5
 74
     0
 42
0.0000000001
 43
0.0000000001
 40
21.84602483231976
 40
21.84602483231976
 40
21.84602483231976
 40
21.84602483231976
 40
21.84602483231976
 40
40.38353686812732
 40
40.38353686812732
 40
40.38353686812732
 40
40.38353686812732
 40
40.38353686812732
 10
241.0011181059135
 20
499.1010521899343
 30
0.0
 10
240.9912724870401
 20
496.476324638088
 30
0.0
 10
240.9912724870401
 20
494.1590928733413
 30
0.0
 10
240.9912724870401
 20
491.8419039135424
 30
0.0
 10
240.9912724870401
 20
489.5247149537427
 30
0.0
  0
SPLINE
  5
8D
330
1F
100
AcDbEntity
  8
Make2D$Visibile$Curve
 62
    18
420
        0
370
    -3
100
AcDbSpline
210
0.0
220
0.0
230
1.0
 70
     8
 71
     3
 72
    10
 73
     6
 74
     0
 42
0.0000000001
 43
0.0000000001
 40
0.0
 40
0.0
 40
0.0
 40
0.0
 40
0.454160119816077
 40
0.454160119816077
 40
0.7812821286617226
 40
0.7812821286617226
 40
0.7812821286617226
 40
0.7812821286617226
 10
241.5089482970094
 20
498.5872010988036
 30
0.0
 10
241.3687256567464
 20
498.6010521899343
 30
0.0
 10
241.2414859736882
 20
498.653577540972
 30
0.0
 10
241.1109530629683
 20
498.8358871469891
 30
0.0
 10
241.0377297582645
 20
499.0126638422853
 30
0.0
 10
241.0011181059135
 20
499.1010521899343
 30
0.0
  0
POLYLINE
  5
8E
330
1F
100
AcDbEntity
  8
Make2D$Visibile$Curve
 62
    18
420
        0
370
    -3
100
AcDb2dPolyline
 66
     1
 10
0.0
 20
0.0
 30
0.0
  0
VERTEX
  5
8F
330
8E
100
AcDbEntity
  8
Make2D$Visibile$Curve
 62
    18
420
        0
370
    -3
100
AcDbVertex
100
AcDb2dVertex
 10
1056.989946625736
 20
521.9081508010776
 30
0.0
  0
VERTEX
  5
90
330
8E
100
AcDbEntity
  8
Make2D$Visibile$Curve
 62
    18
420
        0
370
    -3
100
AcDbVertex
100
AcDb2dVertex
 10
1057.489330533532
 20
521.9081508010776
 30
0.0
  0
SEQEND
  5
91
330
8E
100
AcDbEntity
  8
Make2D$Visibile$Curve
 62
    18
420
        0
370
    -3
  0
POLYLINE
  5
92
330
1F
100
AcDbEntity
  8
Make2D$Visibile$Curve
 62
    18
420
        0
370
    -3
100
AcDb2dPolyline
 66
     1
 10
0.0
 20
0.0
 30
0.0
  0
VERTEX
  5
93
330
92
100
AcDbEntity
  8
Make2D$Visibile$Curve
 62
    18
420
        0
370
    -3
100
AcDbVertex
100
AcDb2dVertex
 10
1056.989946625736
 20
502.3511307345943
 30
0.0
  0
VERTEX
  5
94
330
92
100
AcDbEntity
  8
Make2D$Visibile$Curve
 62
    18
420
        0
370
    -3
100
AcDbVertex
100
AcDb2dVertex
 10
1057.489661981429
 20
502.3511307345943
 30
0.0
  0
SEQEND
  5
95
330
92
100
AcDbEntity
  8
Make2D$Visibile$Curve
 62
    18
420
        0
370
    -3
  0
SPLINE
  5
96
330
1F
100
AcDbEntity
  8
Make2D$Visibile$Curve
 62
    18
420
        0
370
    -3
100
AcDbSpline
210
0.0
220
0.0
230
1.0
 70
    12
 71
     2
 72
     6
 73
     3
 74
     0
 42
0.0000000001
 43
0.0000000001
 40
0.000000000000087
 40
0.000000000000087
 40
0.000000000000087
 40
0.8688894626120858
 40
0.8688894626120858
 40
0.8688894626120858
 10
1062.989946625735
 20
499.1149727020335
 30
0.0
 41
0.8684154364028784
 10
1062.989946625735
 20
498.6149727020334
 30
0.0
 41
0.6140624439676117
 10
1062.482116434639
 20
498.6011216109042
 30
0.0
 41
0.8684154364029293
  0
SPLINE
  5
97
330
1F
100
AcDbEntity
  8
Make2D$Visibile$Curve
 62
    18
420
        0
370
    -3
100
AcDbSpline
210
0.0
220
0.0
230
1.0
 70
     8
 71
     3
 72
    10
 73
     6
 74
     0
 42
0.0000000001
 43
0.0000000001
 40
0.0
 40
0.0
 40
0.0
 40
0.0
 40
0.4809075271493092
 40
0.4809075271493092
 40
0.8156018844037409
 40
0.8156018844037409
 40
0.8156018844037409
 40
0.8156018844037409
 10
1062.48086219459
 20
528.7928345445741
 30
0.0
 10
1062.622339074902
 20
528.8068260882001
 30
0.0
 10
1062.766168353568
 20
528.7236379616241
 30
0.0
 10
1062.908865837048
 20
528.5950136580741
 30
0.0
 10
1062.989946625736
 20
528.386454968595
 30
0.0
 10
1062.989946625736
 20
528.3068260882001
 30
0.0
  0
SPLINE
  5
98
330
1F
100
AcDbEntity
  8
Make2D$Visibile$Curve
 62
    18
420
        0
370
    -3
100
AcDbSpline
210
0.0
220
0.0
230
1.0
 70
     8
 71
     3
 72
     8
 73
     4
 74
     0
 42
0.0000000001
 43
0.0000000001
 40
0.0
 40
0.0
 40
0.0
 40
0.0
 40
0.8757027588087641
 40
0.8757027588087641
 40
0.8757027588087641
 40
0.8757027588087641
 10
1062.482115940931
 20
460.1614537290646
 30
0.0
 10
1062.766089000651
 20
460.1476074083203
 30
0.0
 10
1062.989946625736
 20
459.9126546452408
 30
0.0
 10
1062.989946625736
 20
459.6476074083212
 30
0.0
  0
SPLINE
  5
99
330
1F
100
AcDbEntity
  8
Make2D$Visibile$Curve
 62
    18
420
        0
370
    -3
100
AcDbSpline
210
0.0
220
0.0
230
1.0
 70
    28
 71
     2
 72
     6
 73
     3
 74
     0
 42
0.0000000001
 43
0.0000000001
 40
1.600827991082023
 40
1.600827991082023
 40
1.600827991082023
 40
1.711738577977171
 40
1.711738577977171
 40
1.711738577977171
 10
1062.989946625735
 20
459.6476074083209
 30
0.0
 41
0.9880571510925644
 10
1062.989946625735
 20
459.874247370009
 30
0.0
 41
0.9827083055890932
 10
1062.989946625737
 20
459.9265985090765
 30
0.0
 41
0.9796495346712019
  0
SPLINE
  5
9A
330
1F
100
AcDbEntity
  8
Make2D$Visibile$Curve
 62
    18
420
        0
370
    -3
100
AcDbSpline
210
0.0
220
0.0
230
1.0
 70
     8
 71
     3
 72
     8
 73
     4
 74
     0
 42
0.0000000001
 43
0.0000000001
 40
0.0000000000005603
 40
0.0000000000005603
 40
0.0000000000005603
 40
0.0000000000005603
 40
0.8834562287491359
 40
0.8834562287491359
 40
0.8834562287491359
 40
0.8834562287491359
 10
1062.989946625736
 20
430.455754022154
 30
0.0
 10
1062.989946625736
 20
430.2045925239136
 30
0.0
 10
1062.760438143497
 20
429.9860986995137
 30
0.0
 10
1062.480862317469
 20
429.9697407961547
 30
0.0
  0
POLYLINE
  5
9B
330
1F
100
AcDbEntity
  8
Make2D$Visibile$Curve
 62
    18
420
        0
370
    -3
100
AcDb2dPolyline
 66
     1
 10
0.0
 20
0.0
 30
0.0
  0
VERTEX
  5
9C
330
9B
100
AcDbEntity
  8
Make2D$Visibile$Curve
 62
    18
420
        0
370
    -3
100
AcDbVertex
100
AcDb2dVertex
 10
1057.489330298237
 20
436.8719846982092
 30
0.0
  0
VERTEX
  5
9D
330
9B
100
AcDbEntity
  8
Make2D$Visibile$Curve
 62
    18
420
        0
370
    -3
100
AcDbVertex
100
AcDb2dVertex
 10
1056.989946625736
 20
436.8719846982092
 30
0.0
  0
SEQEND
  5
9E
330
9B
100
AcDbEntity
  8
Make2D$Visibile$Curve
 62
    18
420
        0
370
    -3
  0
POLYLINE
  5
9F
330
1F
100
AcDbEntity
  8
Make2D$Visibile$Curve
 62
    18
420
        0
370
    -3
100
AcDb2dPolyline
 66
     1
 10
0.0
 20
0.0
 30
0.0
  0
VERTEX
  5
A0
330
9F
100
AcDbEntity
  8
Make2D$Visibile$Curve
 62
    18
420
        0
370
    -3
100
AcDbVertex
100
AcDb2dVertex
 10
1056.989946625736
 20
456.4287365967175
 30
0.0
  0
VERTEX
  5
A1
330
9F
100
AcDbEntity
  8
Make2D$Visibile$Curve
 62
    18
420
        0
370
    -3
100
AcDbVertex
100
AcDb2dVertex
 10
1057.489662961934
 20
456.4287365967175
 30
0.0
  0
SEQEND
  5
A2
330
9F
100
AcDbEntity
  8
Make2D$Visibile$Curve
 62
    18
420
        0
370
    -3
  0
POLYLINE
  5
A3
330
1F
100
AcDbEntity
  8
Make2D$Visibile$Curve
 62
    18
420
        0
370
    -3
100
AcDb2dPolyline
 66
     1
 10
0.0
 20
0.0
 30
0.0
  0
VERTEX
  5
A4
330
A3
100
AcDbEntity
  8
Make2D$Visibile$Curve
 62
    18
420
        0
370
    -3
100
AcDbVertex
100
AcDb2dVertex
 10
246.5014005684631
 20
456.4287365967175
 30
0.0
  0
VERTEX
  5
A5
330
A3
100
AcDbEntity
  8
Make2D$Visibile$Curve
 62
    18
420
        0
370
    -3
100
AcDbVertex
100
AcDb2dVertex
 10
246.9899466257366
 20
456.4287365967175
 30
0.0
  0
SEQEND
  5
A6
330
A3
100
AcDbEntity
  8
Make2D$Visibile$Curve
 62
    18
420
        0
370
    -3
  0
POLYLINE
  5
A7
330
1F
100
AcDbEntity
  8
Make2D$Visibile$Curve
 62
    18
420
        0
370
    -3
100
AcDb2dPolyline
 66
     1
 10
0.0
 20
0.0
 30
0.0
  0
VERTEX
  5
A8
330
A7
100
AcDbEntity
  8
Make2D$Visibile$Curve
 62
    18
420
        0
370
    -3
100
AcDbVertex
100
AcDb2dVertex
 10
246.9899466257366
 20
436.8719846982086
 30
0.0
  0
VERTEX
  5
A9
330
A7
100
AcDbEntity
  8
Make2D$Visibile$Curve
 62
    18
420
        0
370
    -3
100
AcDbVertex
100
AcDb2dVertex
 10
246.5017347588015
 20
436.8719846982086
 30
0.0
  0
SEQEND
  5
AA
330
A7
100
AcDbEntity
  8
Make2D$Visibile$Curve
 62
    18
420
        0
370
    -3
  0
SPLINE
  5
AB
330
1F
100
AcDbEntity
  8
Make2D$Visibile$Curve
 62
    18
420
        0
370
    -3
100
AcDbSpline
210
0.0
220
0.0
230
1.0
 70
     8
 71
     3
 72
    10
 73
     6
 74
     0
 42
0.0000000001
 43
0.0000000001
 40
0.0
 40
0.0
 40
0.0
 40
0.0
 40
0.6317974502741699
 40
0.6317974502741699
 40
0.8040352976170979
 40
0.8040352976170979
 40
0.8040352976170979
 40
0.8040352976170979
 10
241.525142372452
 20
429.9558203686629
 30
0.0
 10
241.3687256567464
 20
429.9418335100545
 30
0.0
 10
241.1964643377973
 20
430.0435435457751
 30
0.0
 10
241.0887945494368
 20
430.1590154927124
 30
0.0
 10
241.0011181059135
 20
430.4356741531101
 30
0.0
 10
241.0011181059126
 20
430.4418335100545
 30
0.0
  0
SPLINE
  5
AC
330
1F
100
AcDbEntity
  8
Make2D$Visibile$Curve
 62
    18
420
        0
370
    -3
100
AcDbSpline
210
0.0
220
0.0
230
1.0
 70
     8
 71
     3
 72
     8
 73
     4
 74
     0
 42
0.0000000001
 43
0.0000000001
 40
0.0000000000005419
 40
0.0000000000005419
 40
0.0000000000005419
 40
0.0000000000005419
 40
0.8959009369130142
 40
0.8959009369130142
 40
0.8959009369130142
 40
0.8959009369130142
 10
241.0011181059126
 20
528.2929055761006
 30
0.0
 10
241.0011181059135
 20
528.5178331216857
 30
0.0
 10
241.2080631486999
 20
528.7457706476094
 30
0.0
 10
241.5102025370587
 20
528.778914032474
 30
0.0
  0
SPLINE
  5
AD
330
1F
100
AcDbEntity
  8
Make2D$Visibile$Curve
 62
    18
420
        0
370
    -3
100
AcDbSpline
210
0.0
220
0.0
230
1.0
 70
    28
 71
     2
 72
     8
 73
     5
 74
     0
 42
0.0000000001
 43
0.0000000001
 40
34.23387649059855
 40
34.23387649059855
 40
34.23387649059855
 40
57.1611045262626
 40
57.1611045262626
 40
80.08833256192666
 40
80.08833256192666
 40
80.08833256192666
 10
241.0011181059126
 20
528.2929055761015
 30
0.0
 41
1.0
 10
241.0011181059135
 20
528.2929055761022
 30
0.0
 41
0.707106781186538
 10
241.0011181059126
 20
513.6969788830174
 30
0.0
 41
1.0
 10
241.0011181059135
 20
499.1010521899339
 30
0.0
 41
0.707106781186538
 10
241.0011181059126
 20
499.1010521899343
 30
0.0
 41
1.0
  0
SPLINE
  5
AE
330
1F
100
AcDbEntity
  8
Make2D$Visibile$Curve
 62
    18
420
        0
370
    -3
100
AcDbSpline
210
0.0
220
0.0
230
1.0
 70
    12
 71
     2
 72
     6
 73
     3
 74
     0
 42
0.0000000001
 43
0.0000000001
 40
-114.3631206477064
 40
-114.3631206477064
 40
-114.3631206477064
 40
-110.5913042393352
 40
-110.5913042393352
 40
-110.5913042393352
 10
246.5007670308869
 20
498.5871726959658
 30
0.0
 41
1.0
 10
246.5006625836595
 20
498.5871726965596
 30
0.0
 41
0.9922065274311305
 10
246.5005722674978
 20
499.0559354439902
 30
0.0
 41
1.0
  0
SPLINE
  5
AF
330
1F
100
AcDbEntity
  8
Make2D$Visibile$Curve
 62
    18
420
        0
370
    -3
100
AcDbSpline
210
0.0
220
0.0
230
1.0
 70
    12
 71
     2
 72
     8
 73
     5
 74
     0
 42
0.0000000001
 43
0.0000000001
 40
-52.4563999432405
 40
-52.4563999432405
 40
-52.4563999432405
 40
-36.65254402278588
 40
-36.65254402278588
 40
-20.84868810233125
 40
-20.84868810233125
 40
-20.84868810233125
 10
246.5012035487207
 20
528.7788856342886
 30
0.0
 41
1.0
 10
246.5015954735642
 20
528.7788856320592
 30
0.0
 41
0.8660996166080557
 10
246.5017486120432
 20
521.2348389934841
 30
0.0
 41
1.0
 10
246.5019017505235
 20
513.6907923549095
 30
0.0
 41
0.8660996166080557
 10
246.5016630429009
 20
506.1428666938482
 30
0.0
 41
1.0
  0
SPLINE
  5
B0
330
1F
100
AcDbEntity
  8
Make2D$Visibile$Curve
 62
    18
420
        0
370
    -3
100
AcDbSpline
210
0.0
220
0.0
230
1.0
 70
    12
 71
     2
 72
     6
 73
     3
 74
     0
 42
0.0000000001
 43
0.0000000001
 40
-130.1804246249264
 40
-130.1804246249264
 40
-130.1804246249264
 40
-114.3631206477064
 40
-114.3631206477064
 40
-114.3631206477064
 10
246.5016630429009
 20
506.1428666938482
 30
0.0
 41
1.0
 10
246.5012475420561
 20
498.5871726932317
 30
0.0
 41
0.8658768768152957
 10
246.5007670308869
 20
498.5871726959658
 30
0.0
 41
1.0
  0
SPLINE
  5
B1
330
1F
100
AcDbEntity
  8
Make2D$Visibile$Curve
 62
    18
420
        0
370
    -3
100
AcDbSpline
210
0.0
220
0.0
230
1.0
 70
    28
 71
     2
 72
     6
 73
     3
 74
     0
 42
0.0000000001
 43
0.0000000001
 40
0.0
 40
0.0
 40
0.0
 40
4.991818739009182
 40
4.991818739009182
 40
4.991818739009182
 10
246.5007670308872
 20
498.587172695966
 30
0.0
 41
0.9351180323093575
 10
244.0048576639483
 20
498.5871868973848
 30
0.0
 41
0.9351180323093575
 10
241.5089482970094
 20
498.5872010988036
 30
0.0
 41
0.9351180323093575
  0
SPLINE
  5
B2
330
1F
100
AcDbEntity
  8
Make2D$Visibile$Curve
 62
    18
420
        0
370
    -3
100
AcDbSpline
210
0.0
220
0.0
230
1.0
 70
    28
 71
     2
 72
     6
 73
     3
 74
     0
 42
0.0000000001
 43
0.0000000001
 40
0.0008177222173505
 40
0.0008177222173505
 40
0.0008177222173505
 40
4.991818739009125
 40
4.991818739009125
 40
4.991818739009125
 10
241.5102025370587
 20
528.778914032474
 30
0.0
 41
0.9688918706028969
 10
244.0057030428892
 20
528.778899833381
 30
0.0
 41
0.9688918706028969
 10
246.5012035487197
 20
528.7788856342881
 30
0.0
 41
0.9688918706028969
  0
SPLINE
  5
B3
330
1F
100
AcDbEntity
  8
Make2D$Visibile$Curve
 62
    18
420
        0
370
    -3
100
AcDbSpline
210
0.0
220
0.0
230
1.0
 70
    12
 71
     2
 72
     6
 73
     3
 74
     0
 42
0.0000000001
 43
0.0000000001
 40
0.0
 40
0.0
 40
0.0
 40
0.0283417978324836
 40
0.0283417978324836
 40
0.0283417978324836
 10
4.814784917529551
 20
263.9156554936078
 30
0.0
 41
1.0
 10
4.824747596109733
 20
263.9157778976581
 30
0.0
 41
0.9944468065833798
 10
4.834698613634707
 20
263.9151252299354
 30
0.0
 41
0.9896863726082199
  0
SPLINE
  5
B4
330
1F
100
AcDbEntity
  8
Make2D$Visibile$Curve
 62
    18
420
        0
370
    -3
100
AcDbSpline
210
0.0
220
0.0
230
1.0
 70
    28
 71
     2
 72
     6
 73
     3
 74
     0
 42
0.0000000001
 43
0.0000000001
 40
0.0006575938067309
 40
0.0006575938067309
 40
0.0006575938067309
 40
4.991818739009182
 40
4.991818739009182
 40
4.991818739009182
 10
9.487400759827674
 20
263.4074961509611
 30
0.0
 41
0.9362313257063586
 10
9.48751302012526
 20
260.911915580925
 30
0.0
 41
0.9362313257063586
 10
9.487625280422844
 20
258.4163350108889
 30
0.0
 41
0.9362313257063586
  0
SPLINE
  5
B5
330
1F
100
AcDbEntity
  8
Make2D$Visibile$Curve
 62
    18
420
        0
370
    -3
100
AcDbSpline
210
0.0
220
0.0
230
1.0
 70
    28
 71
     2
 72
     6
 73
     3
 74
     0
 42
0.0000000001
 43
0.0000000001
 40
0.0
 40
0.0
 40
0.0
 40
4.991745717209351
 40
4.991745717209351
 40
4.991745717209351
 10
-20.704085320444
 20
258.4149768778524
 30
0.0
 41
0.9252105422317305
 10
-20.70419759388975
 20
260.9108497338916
 30
0.0
 41
0.9252105422317305
 10
-20.7043098673355
 20
263.4067225899307
 30
0.0
 41
0.9252105422317305
  0
SPLINE
  5
B6
330
1F
100
AcDbEntity
  8
Make2D$Visibile$Curve
 62
    18
420
        0
370
    -3
100
AcDbSpline
210
0.0
220
0.0
230
1.0
 70
    12
 71
     2
 72
     6
 73
     3
 74
     0
 42
0.0000000001
 43
0.0000000001
 40
-28.74389336798722
 40
-28.74389336798722
 40
-28.74389336798722
 40
-20.84868810233125
 40
-20.84868810233125
 40
-20.84868810233125
 10
-20.70408532044394
 20
258.4149768778525
 30
0.0
 41
1.0
 10
-20.70408532147831
 20
258.4149998656359
 30
0.0
 41
0.9660026243321332
 10
-18.68610369748103
 20
258.41511055662
 30
0.0
 41
1.0
  0
SPLINE
  5
B7
330
1F
100
AcDbEntity
  8
Make2D$Visibile$Curve
 62
    18
420
        0
370
    -3
100
AcDbSpline
210
0.0
220
0.0
230
1.0
 70
    28
 71
     2
 72
     6
 73
     3
 74
     0
 42
0.0000000001
 43
0.0000000001
 40
11.30664845493471
 40
11.30664845493471
 40
11.30664845493471
 40
18.94039453821609
 40
18.94039453821609
 40
18.94039453821609
 10
8.979440392399738
 20
263.9156554936078
 30
0.0
 41
1.0
 10
8.979440392399848
 20
263.9156554936076
 30
0.0
 41
0.9660025934413622
 10
7.028286411471072
 20
263.9156554936078
 30
0.0
 41
1.0
  0
SPLINE
  5
B8
330
1F
100
AcDbEntity
  8
Make2D$Visibile$Curve
 62
    18
420
        0
370
    -3
100
AcDbSpline
210
0.0
220
0.0
230
1.0
 70
    28
 71
     2
 72
     6
 73
     3
 74
     0
 42
0.0000000001
 43
0.0000000001
 40
58.92104890393487
 40
58.92104890393487
 40
58.92104890393487
 40
59.96824648083194
 40
59.96824648083194
 40
59.96824648083194
 10
-34.26049210003157
 20
263.9255011124803
 30
0.0
 41
1.0
 10
-34.76049212177557
 20
263.9255011124803
 30
0.0
 41
0.8660253989640382
 10
-34.76049212177548
 20
263.9255011124804
 30
0.0
 41
1.000000003363829
  0
SPLINE
  5
B9
330
1F
100
AcDbEntity
  8
Make2D$Visibile$Curve
 62
    18
420
        0
370
    -3
100
AcDbSpline
210
0.0
220
0.0
230
1.0
 70
    28
 71
     4
 72
    10
 73
     5
 74
     0
 42
0.0000000001
 43
0.0000000001
 40
58.92104890393487
 40
58.92104890393487
 40
58.92104890393487
 40
58.92104890393487
 40
58.92104890393487
 40
59.96824648083194
 40
59.96824648083194
 40
59.96824648083194
 40
59.96824648083194
 40
59.96824648083194
 10
-34.26049210003157
 20
-558.0731730262071
 30
0.0
 41
1.0
 10
-34.49254291699965
 20
-558.073173026207
 30
0.0
 41
0.933012699482017
 10
-34.66898576658384
 20
-558.073173026207
 30
0.0
 41
0.9106835998699941
 10
-34.76049212177558
 20
-558.0731730262069
 30
0.0
 41
0.9330127011639316
 10
-34.76049212177568
 20
-558.0731730262065
 30
0.0
 41
1.000000003363829
  0
SPLINE
  5
BA
330
1F
100
AcDbEntity
  8
Make2D$Visibile$Curve
 62
    18
420
        0
370
    -3
100
AcDbSpline
210
0.0
220
0.0
230
1.0
 70
    28
 71
     4
 72
    10
 73
     5
 74
     0
 42
0.0000000001
 43
0.0000000001
 40
257.3193824677205
 40
257.3193824677205
 40
257.3193824677205
 40
257.3193824677205
 40
257.3193824677205
 40
259.917458118994
 40
259.917458118994
 40
259.917458118994
 40
259.917458118994
 40
259.917458118994
 10
39.15006934888765
 20
263.9255011124803
 30
0.0
 41
1.0
 10
39.15000998866991
 20
263.9255011124805
 30
0.0
 41
0.7500000108718515
 10
38.77479939197474
 20
263.9255011124806
 30
0.0
 41
0.6666666811624687
 10
38.14963339179795
 20
263.9255011124804
 30
0.0
 41
0.7500000108718518
 10
37.64966321374641
 20
263.9255011124803
 30
0.0
 41
1.0
  0
SPLINE
  5
BB
330
1F
100
AcDbEntity
  8
Make2D$Visibile$Curve
 62
    18
420
        0
370
    -3
100
AcDbSpline
210
0.0
220
0.0
230
1.0
 70
    28
 71
     2
 72
     6
 73
     3
 74
     0
 42
0.0000000001
 43
0.0000000001
 40
310.0013258613046
 40
310.0013258613046
 40
310.0013258613046
 40
333.5000000000002
 40
333.5000000000002
 40
333.5000000000002
 10
39.15070491191432
 20
263.9255011124803
 30
0.0
 41
1.0
 10
39.15070491191432
 20
252.1761640431325
 30
0.0
 41
1.0
 10
39.15070491191432
 20
240.4268269737847
 30
0.0
 41
1.0
  0
SPLINE
  5
BC
330
1F
100
AcDbEntity
  8
Make2D$Visibile$Curve
 62
    18
420
        0
370
    -3
100
AcDbSpline
210
0.0
220
0.0
230
1.0
 70
    28
 71
     2
 72
     6
 73
     3
 74
     0
 42
0.0000000001
 43
0.0000000001
 40
0.0
 40
0.0
 40
0.0
 40
821.9986741386873
 40
821.9986741386873
 40
821.9986741386873
 10
-34.76049212177583
 20
-558.0731730262069
 30
0.0
 41
0.9999999966361712
 10
-34.76049212177583
 20
-147.0738359568633
 30
0.0
 41
0.9999999966361712
 10
-34.76049212177583
 20
263.9255011124802
 30
0.0
 41
0.9999999966361712
  0
SPLINE
  5
BD
330
1F
100
AcDbEntity
  8
Make2D$Visibile$Curve
 62
    18
420
        0
370
    -3
100
AcDbSpline
210
0.0
220
0.0
230
1.0
 70
    28
 71
     4
 72
    10
 73
     5
 74
     0
 42
0.0000000001
 43
0.0000000001
 40
257.3193824677205
 40
257.3193824677205
 40
257.3193824677205
 40
257.3193824677205
 40
257.3193824677205
 40
259.917458118994
 40
259.917458118994
 40
259.917458118994
 40
259.917458118994
 40
259.917458118994
 10
39.15006934888765
 20
-558.0731730262071
 30
0.0
 41
1.0
 10
39.15000998866991
 20
-558.0731730262071
 30
0.0
 41
0.7500000108718515
 10
38.77479939197474
 20
-558.073173026207
 30
0.0
 41
0.6666666811624687
 10
38.14963339179795
 20
-558.0731730262071
 30
0.0
 41
0.7500000108718518
 10
37.64966321374641
 20
-558.0731730262071
 30
0.0
 41
1.0
  0
SPLINE
  5
BE
330
1F
100
AcDbEntity
  8
Make2D$Visibile$Curve
 62
    18
420
        0
370
    -3
100
AcDbSpline
210
0.0
220
0.0
230
1.0
 70
    28
 71
     2
 72
     6
 73
     3
 74
     0
 42
0.0000000001
 43
0.0000000001
 40
0.0
 40
0.0
 40
0.0
 40
809.9999999999992
 40
809.9999999999992
 40
809.9999999999992
 10
-20.64469383687231
 20
-552.073173026215
 30
0.0
 41
0.9517032422160314
 10
-20.64469383687231
 20
-147.0731730262154
 30
0.0
 41
0.9517032422160314
 10
-20.64469383687231
 20
257.9268269737841
 30
0.0
 41
0.9517032422160314
  0
SPLINE
  5
BF
330
1F
100
AcDbEntity
  8
Make2D$Visibile$Curve
 62
    18
420
        0
370
    -3
100
AcDbSpline
210
0.0
220
0.0
230
1.0
 70
    28
 71
     2
 72
     6
 73
     3
 74
     0
 42
0.0000000001
 43
0.0000000001
 40
309.9999999998926
 40
309.9999999998926
 40
309.9999999998926
 40
1119.999999999892
 40
1119.999999999892
 40
1119.999999999892
 10
9.355306163128066
 20
257.9268269737838
 30
0.0
 41
0.9220847842766065
 10
9.355306163127944
 20
-147.0731730262156
 30
0.0
 41
0.9220847842766065
 10
9.355306163127818
 20
-552.0731730262149
 30
0.0
 41
0.9220847842766066
  0
SPLINE
  5
C0
330
1F
100
AcDbEntity
  8
Make2D$Visibile$Curve
 62
    18
420
        0
370
    -3
100
AcDbSpline
210
0.0
220
0.0
230
1.0
 70
    24
 71
     2
 72
     6
 73
     3
 74
     0
 42
0.0000000001
 43
0.0000000001
 40
0.0
 40
0.0
 40
0.0
 40
5.000197646903224
 40
5.000197646903224
 40
5.000197646903224
 10
44.15070480562827
 20
-534.573173026215
 30
0.0
 10
41.65060598217667
 20
-534.573173026215
 30
0.0
 10
39.15050715872508
 20
-534.573173026215
 30
0.0
  0
SPLINE
  5
C1
330
1F
100
AcDbEntity
  8
Make2D$Visibile$Curve
 62
    18
420
        0
370
    -3
100
AcDbSpline
210
0.0
220
0.0
230
1.0
 70
    24
 71
     2
 72
     6
 73
     3
 74
     0
 42
0.0000000001
 43
0.0000000001
 40
-1620.000000000008
 40
-1620.000000000008
 40
-1620.000000000008
 40
-845.0000000000083
 40
-845.0000000000083
 40
-845.0000000000083
 10
44.15070480562827
 20
-534.573173026215
 30
0.0
 10
44.15070480562827
 20
-147.073173026215
 30
0.0
 10
44.15070480562827
 20
240.426826973785
 30
0.0
  0
SPLINE
  5
C2
330
1F
100
AcDbEntity
  8
Make2D$Visibile$Curve
 62
    18
420
        0
370
    -3
100
AcDbSpline
210
0.0
220
0.0
230
1.0
 70
    24
 71
     2
 72
     6
 73
     3
 74
     0
 42
0.0000000001
 43
0.0000000001
 40
0.0
 40
0.0
 40
0.0
 40
5.000197646903224
 40
5.000197646903224
 40
5.000197646903224
 10
44.15070480562827
 20
240.426826973785
 30
0.0
 10
41.65060598217667
 20
240.426826973785
 30
0.0
 10
39.15050715872508
 20
240.426826973785
 30
0.0
  0
SPLINE
  5
C3
330
1F
100
AcDbEntity
  8
Make2D$Visibile$Curve
 62
    18
420
        0
370
    -3
100
AcDbSpline
210
0.0
220
0.0
230
1.0
 70
    24
 71
     2
 72
     6
 73
     3
 74
     0
 42
0.0000000001
 43
0.0000000001
 40
-1620.000000000008
 40
-1620.000000000008
 40
-1620.000000000008
 40
-845.0000000000083
 40
-845.0000000000083
 40
-845.0000000000083
 10
39.15050715872508
 20
-534.573173026215
 30
0.0
 10
39.15050715872508
 20
-147.073173026215
 30
0.0
 10
39.15050715872508
 20
240.426826973785
 30
0.0
  0
SPLINE
  5
C4
330
1F
100
AcDbEntity
  8
Make2D$Visibile$Curve
 62
    18
420
        0
370
    -3
100
AcDbSpline
210
0.0
220
0.0
230
1.0
 70
    28
 71
     2
 72
     6
 73
     3
 74
     0
 42
0.0000000001
 43
0.0000000001
 40
1126.0
 40
1126.0
 40
1126.0
 40
1126.481146020117
 40
1126.481146020117
 40
1126.481146020117
 10
-1.403551538545344
 20
-552.073173026215
 30
0.0
 41
1.0
 10
-1.403551538545344
 20
-552.3137460362733
 30
0.0
 41
1.0
 10
-1.403551538545344
 20
-552.5543190463316
 30
0.0
 41
1.0
  0
SPLINE
  5
C5
330
1F
100
AcDbEntity
  8
Make2D$Visibile$Curve
 62
    18
420
        0
370
    -3
100
AcDbSpline
210
0.0
220
0.0
230
1.0
 70
    28
 71
     2
 72
     6
 73
     3
 74
     0
 42
0.0000000001
 43
0.0000000001
 40
1108.497653213809
 40
1108.497653213809
 40
1108.497653213809
 40
1131.999999999992
 40
1131.999999999992
 40
1131.999999999992
 10
39.15070491191432
 20
-534.5708262400235
 30
0.0
 41
1.0
 10
39.15070491191432
 20
-546.3219996331153
 30
0.0
 41
1.0
 10
39.15070491191432
 20
-558.0731730262071
 30
0.0
 41
1.0
  0
SPLINE
  5
C6
330
1F
100
AcDbEntity
  8
Make2D$Visibile$Curve
 62
    18
420
        0
370
    -3
100
AcDbSpline
210
0.0
220
0.0
230
1.0
 70
    28
 71
     2
 72
     6
 73
     3
 74
     0
 42
0.0000000001
 43
0.0000000001
 40
1126.0
 40
1126.0
 40
1126.0
 40
1126.500446386215
 40
1126.500446386215
 40
1126.500446386215
 10
5.578059913357947
 20
-552.073173026215
 30
0.0
 41
1.0
 10
5.578059913357947
 20
-552.3233962193225
 30
0.0
 41
1.0
 10
5.578059913357947
 20
-552.5736194124299
 30
0.0
 41
1.0
  0
SPLINE
  5
C7
330
1F
100
AcDbEntity
  8
Make2D$Visibile$Curve
 62
    18
420
        0
370
    -3
100
AcDbSpline
210
0.0
220
0.0
230
1.0
 70
    28
 71
     2
 72
     6
 73
     3
 74
     0
 42
0.0000000001
 43
0.0000000001
 40
815.999999999991
 40
815.999999999991
 40
815.999999999991
 40
816.489259885428
 40
816.489259885428
 40
816.489259885428
 10
5.292116301890849
 20
257.9268269737846
 30
0.0
 41
0.999882939166418
 10
5.292116301890735
 20
258.171456916503
 30
0.0
 41
0.9998829391664181
 10
5.292116301890621
 20
258.4160868592214
 30
0.0
 41
0.9998829391664181
  0
SPLINE
  5
C8
330
1F
100
AcDbEntity
  8
Make2D$Visibile$Curve
 62
    18
420
        0
370
    -3
100
AcDbSpline
210
0.0
220
0.0
230
1.0
 70
    28
 71
     2
 72
     6
 73
     3
 74
     0
 42
0.0000000001
 43
0.0000000001
 40
310.0013258613046
 40
310.0013258613046
 40
310.0013258613046
 40
310.0063534054036
 40
310.0063534054036
 40
310.0063534054036
 10
5.578059913357947
 20
263.9255011124803
 30
0.0
 41
1.0
 10
5.578059913357947
 20
263.9229873404308
 30
0.0
 41
1.0
 10
5.578059913357947
 20
263.9204735683813
 30
0.0
 41
1.0
  0
SPLINE
  5
C9
330
1F
100
AcDbEntity
  8
Make2D$Visibile$Curve
 62
    18
420
        0
370
    -3
100
AcDbSpline
210
0.0
220
0.0
230
1.0
 70
    28
 71
     2
 72
     6
 73
     3
 74
     0
 42
0.0000000001
 43
0.0000000001
 40
315.5110643821724
 40
315.5110643821724
 40
315.5110643821724
 40
315.9965777632868
 40
315.9965777632868
 40
315.9965777632868
 10
-1.403551538545344
 20
258.4157625916125
 30
0.0
 41
1.0
 10
-1.403551538545344
 20
258.1730059010554
 30
0.0
 41
1.0
 10
-1.403551538545344
 20
257.9302492104982
 30
0.0
 41
1.0
  0
SPLINE
  5
CA
330
1F
100
AcDbEntity
  8
Make2D$Visibile$Curve
 62
    18
420
        0
370
    -3
100
AcDbSpline
210
0.0
220
0.0
230
1.0
 70
    28
 71
     2
 72
     6
 73
     3
 74
     0
 42
0.0000000001
 43
0.0000000001
 40
315.510725505701
 40
315.510725505701
 40
315.510725505701
 40
316.0000000000009
 40
316.0000000000009
 40
316.0000000000009
 10
5.578059913357947
 20
258.416101468084
 30
0.0
 41
1.0
 10
5.578059913357947
 20
258.171464220934
 30
0.0
 41
1.0
 10
5.578059913357947
 20
257.926826973784
 30
0.0
 41
1.0
  0
SPLINE
  5
CB
330
1F
100
AcDbEntity
  8
Make2D$Visibile$Curve
 62
    18
420
        0
370
    -3
100
AcDbSpline
210
0.0
220
0.0
230
1.0
 70
    28
 71
     2
 72
     6
 73
     3
 74
     0
 42
0.0000000001
 43
0.0000000001
 40
0.0000730218002283
 40
0.0000730218002283
 40
0.0000730218002283
 40
4.991818739009182
 40
4.991818739009182
 40
4.991818739009182
 10
-20.7123410201432
 20
-557.5642401225375
 30
0.0
 41
0.9252105422317305
 10
-20.71222874669744
 20
-555.0683672664986
 30
0.0
 41
0.9252105422317305
 10
-20.71211647325169
 20
-552.5724944104597
 30
0.0
 41
0.9252105422317305
  0
SPLINE
  5
CC
330
1F
100
AcDbEntity
  8
Make2D$Visibile$Curve
 62
    18
420
        0
370
    -3
100
AcDbSpline
210
0.0
220
0.0
230
1.0
 70
    28
 71
     2
 72
     6
 73
     3
 74
     0
 42
0.0000000001
 43
0.0000000001
 40
0.0
 40
0.0
 40
0.0
 40
4.991161145202394
 40
4.991161145202394
 40
4.991161145202394
 10
9.479594127615034
 20
-552.5738525434967
 30
0.0
 41
0.9362313257063586
 10
9.47948186731745
 20
-555.0694331135326
 30
0.0
 41
0.9362313257063586
 10
9.479369607019864
 20
-557.5650136835685
 30
0.0
 41
0.9362313257063586
  0
SPLINE
  5
CD
330
1F
100
AcDbEntity
  8
Make2D$Visibile$Curve
 62
    18
420
        0
370
    -3
100
AcDbSpline
210
0.0
220
0.0
230
1.0
 70
    28
 71
     2
 72
     6
 73
     3
 74
     0
 42
0.0000000001
 43
0.0000000001
 40
11.30664845493478
 40
11.30664845493478
 40
11.30664845493478
 40
18.94039453821609
 40
18.94039453821609
 40
18.94039453821609
 10
8.971409239592049
 20
-558.073173026215
 30
0.0
 41
1.0
 10
8.971409239592157
 20
-558.0731730262152
 30
0.0
 41
0.9660025934413629
 10
7.020255258663155
 20
-558.073173026215
 30
0.0
 41
1.0
  0
SPLINE
  5
CE
330
1F
100
AcDbEntity
  8
Make2D$Visibile$Curve
 62
    18
420
        0
370
    -3
100
AcDbSpline
210
0.0
220
0.0
230
1.0
 70
    28
 71
     4
 72
    10
 73
     5
 74
     0
 42
0.0000000001
 43
0.0000000001
 40
42.70706753481353
 40
42.70706753481353
 40
42.70706753481353
 40
42.70706753481353
 40
42.70706753481353
 40
58.92104890393487
 40
58.92104890393487
 40
58.92104890393487
 40
58.92104890393487
 40
58.92104890393487
 10
-20.21877224604305
 20
-558.0731730262071
 30
0.0
 41
1.0
 10
-23.72920220954006
 20
-558.0731730262071
 30
0.0
 41
1.0
 10
-27.23963217303708
 20
-558.0731730262071
 30
0.0
 41
1.0
 10
-30.75006213653432
 20
-558.0731730262071
 30
0.0
 41
1.0
 10
-34.26049210003157
 20
-558.0731730262071
 30
0.0
 41
1.0
  0
SPLINE
  5
CF
330
1F
100
AcDbEntity
  8
Make2D$Visibile$Curve
 62
    18
420
        0
370
    -3
100
AcDbSpline
210
0.0
220
0.0
230
1.0
 70
    28
 71
     2
 72
     6
 73
     3
 74
     0
 42
0.0000000001
 43
0.0000000001
 40
5.499568225375775
 40
5.499568225375775
 40
5.499568225375775
 40
5.999999999991864
 40
5.999999999991864
 40
5.999999999991864
 10
5.292116301890621
 20
-552.573604800831
 30
0.0
 41
0.9998829391664181
 10
5.292116301890621
 20
-552.323388913523
 30
0.0
 41
0.9998829391664181
 10
5.292116301890621
 20
-552.073173026215
 30
0.0
 41
0.9998829391664181
  0
SPLINE
  5
D0
330
1F
100
AcDbEntity
  8
Make2D$Visibile$Curve
 62
    18
420
        0
370
    -3
100
AcDbSpline
210
0.0
220
0.0
230
1.0
 70
    12
 71
     2
 72
     6
 73
     3
 74
     0
 42
0.0000000001
 43
0.0000000001
 40
0.5618359241610139
 40
0.5618359241610139
 40
0.5618359241610139
 40
0.794124809657776
 40
0.794124809657776
 40
0.794124809657776
 10
-1.950859732284848
 20
263.8640970860121
 30
0.0
 41
0.9622251734037399
 10
-1.977662614497201
 20
263.9167007042194
 30
0.0
 41
0.954486122675839
 10
-2.007401048621432
 20
263.9156554936078
 30
0.0
 41
1.0
  0
SPLINE
  5
D1
330
1F
100
AcDbEntity
  8
Make2D$Visibile$Curve
 62
    18
420
        0
370
    -3
100
AcDbSpline
210
0.0
220
0.0
230
1.0
 70
    28
 71
     2
 72
     8
 73
     5
 74
     0
 42
0.0000000001
 43
0.0000000001
 40
18.94039453821609
 40
18.94039453821609
 40
18.94039453821609
 40
38.05074953223959
 40
38.05074953223959
 40
57.1611045262631
 40
57.1611045262631
 40
57.1611045262631
 10
7.028286411471072
 20
263.9156554936078
 30
0.0
 41
1.0
 10
1.432401175255486
 20
263.9156554936078
 30
0.0
 41
0.7932630005386209
 10
-9.390005909256388
 20
263.9156554936078
 30
0.0
 41
1.0
 10
-20.21241299376825
 20
263.9156554936078
 30
0.0
 41
0.7932630005386209
 10
-20.21241299376788
 20
263.9156554936078
 30
0.0
 41
1.0
  0
SPLINE
  5
D2
330
1F
100
AcDbEntity
  8
Make2D$Visibile$Curve
 62
    18
420
        0
370
    -3
100
AcDbSpline
210
0.0
220
0.0
230
1.0
 70
    12
 71
     2
 72
     8
 73
     5
 74
     0
 42
0.0000000001
 43
0.0000000001
 40
-76.16890652622138
 40
-76.16890652622138
 40
-76.16890652622138
 40
-52.4563999471043
 40
-52.4563999471043
 40
-28.74389336798722
 40
-28.74389336798722
 40
-28.74389336798722
 10
9.48762528042289
 20
258.4163350108893
 30
0.0
 41
1.0
 10
9.487625284286935
 20
258.4162491173186
 30
0.0
 41
0.7071067811865478
 10
-5.608230016146763
 20
258.4155700508002
 30
0.0
 41
1.0
 10
-20.70408531657991
 20
258.4148909842818
 30
0.0
 41
0.7071067811865478
 10
-20.70408532044394
 20
258.4149768778525
 30
0.0
 41
1.0
  0
SPLINE
  5
D3
330
1F
100
AcDbEntity
  8
Make2D$Visibile$Curve
 62
    18
420
        0
370
    -3
100
AcDbSpline
210
0.0
220
0.0
230
1.0
 70
    28
 71
     4
 72
    14
 73
     9
 74
     0
 42
0.0000000001
 43
0.0000000001
 40
259.917458118994
 40
259.917458118994
 40
259.917458118994
 40
259.917458118994
 40
259.917458118994
 40
278.4549419840992
 40
278.4549419840992
 40
278.4549419840992
 40
278.4549419840992
 40
293.0326198151899
 40
293.0326198151899
 40
293.0326198151899
 40
293.0326198151899
 40
293.0326198151899
 10
37.64966321374641
 20
-558.0731730262071
 30
0.0
 41
1.0
 10
33.63641842792549
 20
-558.0731730262071
 30
0.0
 41
1.0
 10
29.62301481069539
 20
-558.0731730262071
 30
0.0
 41
1.0
 10
25.60953177635952
 20
-558.0731730262071
 30
0.0
 41
1.0
 10
21.59604873922081
 20
-558.0731730262071
 30
0.0
 41
0.9999999999999998
 10
18.43988886759485
 20
-558.0731730262071
 30
0.0
 41
0.9999999999999998
 10
15.28372899423585
 20
-558.0731730262071
 30
0.0
 41
0.9999999999999998
 10
12.12756911846214
 20
-558.0731730262071
 30
0.0
 41
0.9999999999999998
 10
8.971409239592049
 20
-558.0731730262071
 30
0.0
 41
1.0
  0
SPLINE
  5
D4
330
1F
100
AcDbEntity
  8
Make2D$Visibile$Curve
 62
    18
420
        0
370
    -3
100
AcDbSpline
210
0.0
220
0.0
230
1.0
 70
    28
 71
     3
 72
    14
 73
    10
 74
     0
 42
0.0000000001
 43
0.0000000001
 40
-67.8276542119523
 40
-67.8276542119523
 40
-67.8276542119523
 40
-67.8276542119523
 40
-52.22656616557479
 40
-52.22656616557479
 40
-52.22656616557479
 40
-33.7495515493011
 40
-33.7495515493011
 40
-33.7495515493011
 40
-20.91007906246328
 40
-20.91007906246328
 40
-20.91007906246328
 40
-20.91007906246328
 10
-20.64469383687231
 20
-552.073173026215
 30
0.0
 41
0.9517032422160314
 10
-20.64469383687214
 20
-552.073173026215
 30
0.0
 41
0.8804700788447688
 10
-17.85628602299404
 20
-552.073173026215
 30
0.0
 41
0.8965689981060917
 10
-13.14469383687219
 20
-552.073173026215
 30
0.0
 41
1.0
 10
-7.443313399516937
 20
-552.0731730262152
 30
0.0
 41
0.8775023813667072
 10
-0.887950366219832
 20
-552.0731730262152
 30
0.0
 41
0.8775023813667072
 10
4.11234618045205
 20
-552.073173026215
 30
0.0
 41
1.0
 10
7.445047331962918
 20
-552.0731730262148
 30
0.0
 41
0.9148777637075601
 10
9.355306163127885
 20
-552.0731730262149
 30
0.0
 41
0.8889060251330954
 10
9.355306163128073
 20
-552.0731730262149
 30
0.0
 41
0.9220847842766058
  0
SPLINE
  5
D5
330
1F
100
AcDbEntity
  8
Make2D$Visibile$Curve
 62
    18
420
        0
370
    -3
100
AcDbSpline
210
0.0
220
0.0
230
1.0
 70
    28
 71
     2
 72
    10
 73
     7
 74
     0
 42
0.0000000001
 43
0.0000000001
 40
20.91007906246328
 40
20.91007906246328
 40
20.91007906246328
 40
33.7495515493011
 40
33.7495515493011
 40
52.22656616557479
 40
52.22656616557479
 40
67.8276542119524
 40
67.8276542119524
 40
67.8276542119524
 10
9.355306163128075
 20
257.926826973784
 30
0.0
 41
0.9220847842766056
 10
9.355306163127786
 20
257.9268269737841
 30
0.0
 41
0.87231664556134
 10
4.11234618045205
 20
257.9268269737843
 30
0.0
 41
1.0
 10
-3.950905750361776
 20
257.9268269737844
 30
0.0
 41
0.8162535720500607
 10
-13.14469383687219
 20
257.9268269737843
 30
0.0
 41
1.0
 10
-20.64469383687234
 20
257.9268269737844
 30
0.0
 41
0.8448534971591364
 10
-20.64469383687227
 20
257.9268269737844
 30
0.0
 41
0.951703242216033
  0
SPLINE
  5
D6
330
1F
100
AcDbEntity
  8
Make2D$Visibile$Curve
 62
    18
420
        0
370
    -3
100
AcDbSpline
210
0.0
220
0.0
230
1.0
 70
    28
 71
     2
 72
    10
 73
     7
 74
     0
 42
0.0000000001
 43
0.0000000001
 40
18.94039453821609
 40
18.94039453821609
 40
18.94039453821609
 40
35.13910719060226
 40
35.13910719060226
 40
51.33781984298842
 40
51.33781984298842
 40
57.21530619198202
 40
57.21530619198202
 40
57.21530619198202
 10
7.020255258663155
 20
-558.073173026215
 30
0.0
 41
1.0
 10
2.501083541075712
 20
-558.073173026215
 30
0.0
 41
0.8499503652137053
 10
-6.529167950854571
 20
-558.073173026215
 30
0.0
 41
1.0
 10
-15.55941944278436
 20
-558.073173026215
 30
0.0
 41
0.8499503652137053
 10
-19.07412378270237
 20
-558.073173026215
 30
0.0
 41
1.0
 10
-20.22044414657578
 20
-558.0731730262152
 30
0.0
 41
0.9455564958121527
 10
-20.22044414657576
 20
-558.073173026215
 30
0.0
 41
0.9306211870620844
  0
SPLINE
  5
D7
330
1F
100
AcDbEntity
  8
Make2D$Visibile$Curve
 62
    18
420
        0
370
    -3
100
AcDbSpline
210
0.0
220
0.0
230
1.0
 70
    12
 71
     2
 72
     8
 73
     5
 74
     0
 42
0.0000000001
 43
0.0000000001
 40
-76.16890652622138
 40
-76.16890652622138
 40
-76.16890652622138
 40
-52.45639994710427
 40
-52.45639994710427
 40
-28.74389336798718
 40
-28.74389336798718
 40
-28.74389336798718
 10
9.479594127614973
 20
-552.5738525434965
 30
0.0
 41
1.0
 10
9.479594131478624
 20
-552.5737666499258
 30
0.0
 41
0.7071067811865475
 10
-5.616261168954679
 20
-552.5730875834076
 30
0.0
 41
1.0
 10
-20.71211646938823
 20
-552.5724085168893
 30
0.0
 41
0.7071067811865475
 10
-20.71211647325185
 20
-552.5724944104597
 30
0.0
 41
1.0
  0
SPLINE
  5
D8
330
1F
100
AcDbEntity
  8
Make2D$Visibile$Curve
 62
    18
420
        0
370
    -3
100
AcDbSpline
210
0.0
220
0.0
230
1.0
 70
    28
 71
     2
 72
     6
 73
     3
 74
     0
 42
0.0000000001
 43
0.0000000001
 40
0.0008177222174066
 40
0.0008177222174066
 40
0.0008177222174066
 40
4.991818739009296
 40
4.991818739009296
 40
4.991818739009296
 10
-1022.266511991441
 20
528.7929323091164
 30
0.0
 41
0.9688918706028972
 10
-1019.77101148561
 20
528.7929181100237
 30
0.0
 41
0.9688918706028972
 10
-1017.27551097978
 20
528.792903910931
 30
0.0
 41
0.9688918706028972
  0
SPLINE
  5
D9
330
1F
100
AcDbEntity
  8
Make2D$Visibile$Curve
 62
    18
420
        0
370
    -3
100
AcDbSpline
210
0.0
220
0.0
230
1.0
 70
    28
 71
     2
 72
     6
 73
     3
 74
     0
 42
0.0000000001
 43
0.0000000001
 40
0.0
 40
0.0
 40
0.0
 40
4.991000736602935
 40
4.991000736602935
 40
4.991000736602935
 10
-1017.275511382847
 20
429.9698668256188
 30
0.0
 41
0.9690172749619871
 10
-1019.771011748583
 20
429.9698526931581
 30
0.0
 41
0.9690172749619871
 10
-1022.26651211432
 20
429.9698385606976
 30
0.0
 41
0.9690172749619871
  0
SPLINE
  5
DA
330
1F
100
AcDbEntity
  8
Make2D$Visibile$Curve
 62
    18
420
        0
370
    -3
100
AcDbSpline
210
0.0
220
0.0
230
1.0
 70
    28
 71
     2
 72
     6
 73
     3
 74
     0
 42
0.0000000001
 43
0.0000000001
 40
0.0008180024064497
 40
0.0008180024064497
 40
0.0008180024064497
 40
4.991818739009296
 40
4.991818739009296
 40
4.991818739009296
 10
-201.2958522110316
 20
429.9559180485977
 30
0.0
 41
0.9690172749619869
 10
-203.7913525767678
 20
429.9559321810583
 30
0.0
 41
0.9690172749619869
 10
-206.286852942504
 20
429.955946313519
 30
0.0
 41
0.9690172749619869
  0
SPLINE
  5
DB
330
1F
100
AcDbEntity
  8
Make2D$Visibile$Curve
 62
    18
420
        0
370
    -3
100
AcDbSpline
210
0.0
220
0.0
230
1.0
 70
    28
 71
     2
 72
     6
 73
     3
 74
     0
 42
0.0000000001
 43
0.0000000001
 40
15.43938187823957
 40
15.43938187823957
 40
15.43938187823957
 40
15.47776922825918
 40
15.47776922825918
 40
15.47776922825918
 10
-200.7867679027645
 20
499.9325573588305
 30
0.0
 41
1.0
 10
-200.7867679027645
 20
499.9489254308218
 30
0.0
 41
0.9992704822966105
 10
-200.7867679027642
 20
499.9652057443642
 30
0.0
 41
0.9985627438134983
  0
SPLINE
  5
DC
330
1F
100
AcDbEntity
  8
Make2D$Visibile$Curve
 62
    18
420
        0
370
    -3
100
AcDbSpline
210
0.0
220
0.0
230
1.0
 70
    28
 71
     2
 72
     6
 73
     3
 74
     0
 42
0.0000000001
 43
0.0000000001
 40
6.849462010106975
 40
6.849462010106975
 40
6.849462010106975
 40
7.099616647800113
 40
7.099616647800113
 40
7.099616647800113
 10
-200.7867679027645
 20
493.7907730699333
 30
0.0
 41
0.9619429711151598
 10
-200.7867679027644
 20
493.7907730699333
 30
0.0
 41
0.9658206766839159
 10
-200.7867679027643
 20
493.7983668578336
 30
0.0
 41
0.9706137655703375
  0
SPLINE
  5
DD
330
1F
100
AcDbEntity
  8
Make2D$Visibile$Curve
 62
    18
420
        0
370
    -3
100
AcDbSpline
210
0.0
220
0.0
230
1.0
 70
    28
 71
     4
 72
    10
 73
     5
 74
     0
 42
0.0000000001
 43
0.0000000001
 40
160.2340835917005
 40
160.2340835917005
 40
160.2340835917005
 40
160.2340835917005
 40
160.2340835917005
 40
178.7723752752941
 40
178.7723752752941
 40
178.7723752752941
 40
178.7723752752941
 40
178.7723752752941
 10
-1022.775596422579
 20
437.872082487859
 30
0.0
 41
1.0
 10
-1022.775596422579
 20
442.5066554091513
 30
0.0
 41
1.0
 10
-1022.775596422579
 20
447.1412283304437
 30
0.0
 41
1.0
 10
-1022.775596422579
 20
451.7758012517363
 30
0.0
 41
1.0
 10
-1022.775596422579
 20
456.4103741730289
 30
0.0
 41
1.0
  0
SPLINE
  5
DE
330
1F
100
AcDbEntity
  8
Make2D$Visibile$Curve
 62
    18
420
        0
370
    -3
100
AcDbSpline
210
0.0
220
0.0
230
1.0
 70
    28
 71
     2
 72
     6
 73
     3
 74
     0
 42
0.0000000001
 43
0.0000000001
 40
310.0013258613046
 40
310.0013258613046
 40
310.0013258613046
 40
333.5000000000001
 40
333.5000000000001
 40
333.5000000000001
 10
-200.7769222838917
 20
475.3591961056338
 30
0.0
 41
1.0
 10
-212.5262593532394
 20
475.3591961056338
 30
0.0
 41
1.0
 10
-224.2755964225871
 20
475.3591961056338
 30
0.0
 41
1.0
  0
SPLINE
  5
DF
330
1F
100
AcDbEntity
  8
Make2D$Visibile$Curve
 62
    18
420
        0
370
    -3
100
AcDbSpline
210
0.0
220
0.0
230
1.0
 70
    28
 71
     2
 72
     6
 73
     3
 74
     0
 42
0.0000000001
 43
0.0000000001
 40
310.0013258613047
 40
310.0013258613047
 40
310.0013258613047
 40
333.5000000000002
 40
333.5000000000002
 40
333.5000000000002
 10
-200.7769222838917
 20
483.3321763037404
 30
0.0
 41
0.9287098916616934
 10
-212.5262593532394
 20
483.3321763037404
 30
0.0
 41
0.9287098916616934
 10
-224.2755964225871
 20
483.3321763037404
 30
0.0
 41
0.9287098916616934
  0
SPLINE
  5
E0
330
1F
100
AcDbEntity
  8
Make2D$Visibile$Curve
 62
    18
420
        0
370
    -3
100
AcDbSpline
210
0.0
220
0.0
230
1.0
 70
    28
 71
     2
 72
    12
 73
     9
 74
     0
 42
0.0000000001
 43
0.0000000001
 40
204.1427539881971
 40
204.1427539881971
 40
204.1427539881971
 40
204.2328648675052
 40
204.2328648675052
 40
208.7961127999168
 40
208.7961127999168
 40
213.3593607323284
 40
213.3593607323284
 40
213.4778136428289
 40
213.4778136428289
 40
213.4778136428289
 10
-200.7769222838915
 20
475.4478864577187
 30
0.0
 41
0.9956189746054052
 10
-200.7769222838918
 20
475.4721204160484
 30
0.0
 41
0.9977653596529243
 10
-200.7769222838917
 20
475.4970096689681
 30
0.0
 41
1.0
 10
-200.7769222838917
 20
476.9150654663595
 30
0.0
 41
0.8868369943588685
 10
-200.7769222838917
 20
479.390031462751
 30
0.0
 41
1.0
 10
-200.7769222838917
 20
481.8649974591424
 30
0.0
 41
0.8868369943588685
 10
-200.7769222838917
 20
483.2830532565338
 30
0.0
 41
1.0
 10
-200.7769222838916
 20
483.3157938391964
 30
0.0
 41
0.9970625117070726
 10
-200.7769222838918
 20
483.3473982904176
 30
0.0
 41
0.9942775262117194
  0
SPLINE
  5
E1
330
1F
100
AcDbEntity
  8
Make2D$Visibile$Curve
 62
    18
420
        0
370
    -3
100
AcDbSpline
210
0.0
220
0.0
230
1.0
 70
    28
 71
     4
 72
    22
 73
    17
 74
     0
 42
0.0000000001
 43
0.0000000001
 40
204.1427539881988
 40
204.1427539881988
 40
204.1427539881988
 40
204.1427539881988
 40
204.1427539881988
 40
204.2328648675052
 40
204.2328648675052
 40
204.2328648675052
 40
204.2328648675052
 40
208.7961127999168
 40
208.7961127999168
 40
208.7961127999168
 40
208.7961127999168
 40
213.3593607323284
 40
213.3593607323284
 40
213.3593607323284
 40
213.3593607323284
 40
213.4635395532086
 40
213.4635395532086
 40
213.4635395532086
 40
213.4635395532086
 40
213.4635395532086
 10
-1022.775596422579
 20
475.4478864577196
 30
0.0
 41
0.9956189746054863
 10
-1022.775596422579
 20
475.460016483893
 30
0.0
 41
0.9966921671292265
 10
-1022.775596422579
 20
475.4722476091047
 30
0.0
 41
0.9977800688695588
 10
-1022.775596422579
 20
475.4845789626938
 30
0.0
 41
0.9988826798264834
 10
-1022.775596422579
 20
475.4970096689681
 30
0.0
 41
1.0
 10
-1022.775596422579
 20
476.1635136356334
 30
0.0
 41
0.9434184971794343
 10
-1022.775596422579
 20
477.105590777427
 30
0.0
 41
0.9245579962392457
 10
-1022.775596422579
 20
478.2267664791078
 30
0.0
 41
0.9434184971794344
 10
-1022.775596422579
 20
479.390031462751
 30
0.0
 41
1.0
 10
-1022.775596422579
 20
480.5532964463938
 30
0.0
 41
0.9434184971794343
 10
-1022.775596422579
 20
481.6744721480752
 30
0.0
 41
0.9245579962392457
 10
-1022.775596422579
 20
482.6165492898682
 30
0.0
 41
0.9434184971794344
 10
-1022.775596422579
 20
483.2830532565338
 30
0.0
 41
1.0
 10
-1022.775596422579
 20
483.2974271314676
 30
0.0
 41
0.9987082458952948
 10
-1022.775596422579
 20
483.3116680948064
 30
0.0
 41
0.99743615226364
 10
-1022.775596422579
 20
483.3257747942087
 30
0.0
 41
0.9961837191050354
 10
-1022.775596422579
 20
483.3397458863899
 30
0.0
 41
0.9949509464194811
  0
SPLINE
  5
E2
330
1F
100
AcDbEntity
  8
Make2D$Visibile$Curve
 62
    18
420
        0
370
    -3
100
AcDbSpline
210
0.0
220
0.0
230
1.0
 70
    28
 71
     2
 72
     8
 73
     5
 74
     0
 42
0.0000000001
 43
0.0000000001
 40
219.4565987939007
 40
219.4565987939007
 40
219.4565987939007
 40
219.6988446433767
 40
219.6988446433767
 40
220.2427421340764
 40
220.2427421340764
 40
220.2427421340764
 10
-200.7769222838916
 20
483.3321763037405
 30
0.0
 41
0.9287098916616896
 10
-200.7769222838916
 20
483.3321763037405
 30
0.0
 41
0.9357296534512141
 10
-200.7769222838917
 20
483.3893738288132
 30
0.0
 41
1.0
 10
-200.7769222838916
 20
483.5298063377817
 30
0.0
 41
0.8556983317158934
 10
-200.7769222838917
 20
483.8321763265083
 30
0.0
 41
1.0
  0
SPLINE
  5
E3
330
1F
100
AcDbEntity
  8
Make2D$Visibile$Curve
 62
    18
420
        0
370
    -3
100
AcDbSpline
210
0.0
220
0.0
230
1.0
 70
    28
 71
     4
 72
    14
 73
     9
 74
     0
 42
0.0000000001
 43
0.0000000001
 40
219.4565987939007
 40
219.4565987939007
 40
219.4565987939007
 40
219.4565987939007
 40
219.4565987939007
 40
219.6988446433767
 40
219.6988446433767
 40
219.6988446433767
 40
219.6988446433767
 40
220.2427421340764
 40
220.2427421340764
 40
220.2427421340764
 40
220.2427421340764
 40
220.2427421340764
 10
-1022.775596422579
 20
483.3321763037404
 30
0.0
 41
0.9287098916616933
 10
-1022.775596422579
 20
483.3321763037405
 30
0.0
 41
0.9322197725564554
 10
-1022.775596422579
 20
483.3422611541532
 30
0.0
 41
0.9452714175777606
 10
-1022.775596422579
 20
483.3617246060929
 30
0.0
 41
0.9678648267256087
 10
-1022.775596422579
 20
483.3893738288132
 30
0.0
 41
1.0
 10
-1022.775596422579
 20
483.4541299702556
 30
0.0
 41
0.9278491658579504
 10
-1022.775596422579
 20
483.559668711285
 30
0.0
 41
0.9037988878106006
 10
-1022.775596422579
 20
483.6927476863611
 30
0.0
 41
0.9278491658579505
 10
-1022.775596422579
 20
483.8321763265083
 30
0.0
 41
1.0
  0
SPLINE
  5
E4
330
1F
100
AcDbEntity
  8
Make2D$Visibile$Curve
 62
    18
420
        0
370
    -3
100
AcDbSpline
210
0.0
220
0.0
230
1.0
 70
    28
 71
     2
 72
     6
 73
     3
 74
     0
 42
0.0000000001
 43
0.0000000001
 40
0.0
 40
0.0
 40
0.0
 40
809.9999999999991
 40
809.9999999999991
 40
809.9999999999991
 10
-1016.775596422587
 20
528.7279387228045
 30
0.0
 41
0.9100637564058569
 10
-611.7755964225877
 20
528.7279387228045
 30
0.0
 41
0.9100637564058569
 10
-206.7755964225884
 20
528.7279387228045
 30
0.0
 41
0.9100637564058569
  0
SPLINE
  5
E5
330
1F
100
AcDbEntity
  8
Make2D$Visibile$Curve
 62
    18
420
        0
370
    -3
100
AcDbSpline
210
0.0
220
0.0
230
1.0
 70
    28
 71
     3
 72
    11
 73
     7
 74
     0
 42
0.0000000001
 43
0.0000000001
 40
-44.32949141213125
 40
-44.32949141213125
 40
-44.32949141213125
 40
-44.32949141213125
 40
-33.7495515493011
 40
-33.7495515493011
 40
-33.7495515493011
 40
-29.34929926116656
 40
-29.34929926116656
 40
-29.34929926116656
 40
-29.34929926116656
 10
-1016.775596422587
 20
528.7279387228045
 30
0.0
 41
0.9100637564058569
 10
-1016.775596422587
 20
528.7279387228047
 30
0.0
 41
0.8998791071299628
 10
-1016.775596422587
 20
527.434905161962
 30
0.0
 41
0.9298578549946771
 10
-1016.775596422587
 20
525.120926482841
 30
0.0
 41
1.0
 10
-1016.775596422587
 20
524.1991444921297
 30
0.0
 41
0.9708275152736289
 10
-1016.775596422587
 20
523.123902441593
 30
0.0
 41
0.9486023808272497
 10
-1016.775596422587
 20
521.9082485656196
 30
0.0
 41
0.9333245966608625
  0
SPLINE
  5
E6
330
1F
100
AcDbEntity
  8
Make2D$Visibile$Curve
 62
    18
420
        0
370
    -3
100
AcDbSpline
210
0.0
220
0.0
230
1.0
 70
    28
 71
     2
 72
     6
 73
     3
 74
     0
 42
0.0000000001
 43
0.0000000001
 40
309.9999999998924
 40
309.9999999998924
 40
309.9999999998924
 40
1119.999999999891
 40
1119.999999999891
 40
1119.999999999891
 10
-206.7755964225879
 20
430.0359431418894
 30
0.0
 41
0.9100404613269945
 10
-611.7755964225875
 20
430.0359431418894
 30
0.0
 41
0.9100404613269945
 10
-1016.775596422587
 20
430.0359431418894
 30
0.0
 41
0.9100404613269945
  0
SPLINE
  5
E7
330
1F
100
AcDbEntity
  8
Make2D$Visibile$Curve
 62
    18
420
        0
370
    -3
100
AcDbSpline
210
0.0
220
0.0
230
1.0
 70
    28
 71
     2
 72
     8
 73
     5
 74
     0
 42
0.0000000001
 43
0.0000000001
 40
94.88535769862492
 40
94.88535769862492
 40
94.88535769862492
 40
105.4572067562236
 40
105.4572067562236
 40
109.8852712893877
 40
109.8852712893877
 40
109.8852712893877
 10
-206.7755964225879
 20
430.0359431418894
 30
0.0
 41
0.9100404613269935
 10
-206.7755964225877
 20
430.0359431418896
 30
0.0
 41
0.8948672422736084
 10
-206.775596422588
 20
433.6375328956017
 30
0.0
 41
1.0
 10
-206.7755964225878
 20
435.0496606487644
 30
0.0
 41
0.9559646913964072
 10
-206.7755964225879
 20
436.8720824627511
 30
0.0
 41
0.9330357349047798
  0
SPLINE
  5
E8
330
1F
100
AcDbEntity
  8
Make2D$Visibile$Curve
 62
    18
420
        0
370
    -3
100
AcDbSpline
210
0.0
220
0.0
230
1.0
 70
    24
 71
     2
 72
     6
 73
     3
 74
     0
 42
0.0000000001
 43
0.0000000001
 40
-1620.000000000008
 40
-1620.000000000008
 40
-1620.000000000008
 40
-845.0000000000083
 40
-845.0000000000083
 40
-845.0000000000083
 10
-999.2755964225871
 20
514.3680968598674
 30
0.0
 10
-611.7755964225871
 20
514.3680968598674
 30
0.0
 10
-224.2755964225871
 20
514.3680968598674
 30
0.0
  0
SPLINE
  5
E9
330
1F
100
AcDbEntity
  8
Make2D$Visibile$Curve
 62
    18
420
        0
370
    -3
100
AcDbSpline
210
0.0
220
0.0
230
1.0
 70
    24
 71
     2
 72
     6
 73
     3
 74
     0
 42
0.0000000001
 43
0.0000000001
 40
-774.9999999999999
 40
-774.9999999999999
 40
-774.9999999999999
 40
0.0
 40
0.0
 40
0.0
 10
-224.2755964225871
 20
444.368096859859
 30
0.0
 10
-611.7755964225871
 20
444.368096859859
 30
0.0
 10
-999.2755964225871
 20
444.368096859859
 30
0.0
  0
SPLINE
  5
EA
330
1F
100
AcDbEntity
  8
Make2D$Visibile$Curve
 62
    18
420
        0
370
    -3
100
AcDbSpline
210
0.0
220
0.0
230
1.0
 70
    28
 71
     2
 72
     6
 73
     3
 74
     0
 42
0.0000000001
 43
0.0000000001
 40
1108.5
 40
1108.5
 40
1108.5
 40
1131.999999999992
 40
1131.999999999992
 40
1131.999999999992
 10
-999.2755964225871
 20
475.3591961056338
 30
0.0
 41
1.0
 10
-1011.025596422583
 20
475.3591961056338
 30
0.0
 41
1.0
 10
-1022.775596422579
 20
475.3591961056338
 30
0.0
 41
1.0
  0
SPLINE
  5
EB
330
1F
100
AcDbEntity
  8
Make2D$Visibile$Curve
 62
    18
420
        0
370
    -3
100
AcDbSpline
210
0.0
220
0.0
230
1.0
 70
    28
 71
     2
 72
     6
 73
     3
 74
     0
 42
0.0000000001
 43
0.0000000001
 40
1108.5
 40
1108.5
 40
1108.5
 40
1131.999999999992
 40
1131.999999999992
 40
1131.999999999992
 10
-999.2755964225871
 20
483.3321763037404
 30
0.0
 41
0.9287098916616934
 10
-1011.025596422583
 20
483.3321763037404
 30
0.0
 41
0.9287098916616934
 10
-1022.775596422579
 20
483.3321763037404
 30
0.0
 41
0.9287098916616934
  0
SPLINE
  5
EC
330
1F
100
AcDbEntity
  8
Make2D$Visibile$Curve
 62
    18
420
        0
370
    -3
100
AcDbSpline
210
0.0
220
0.0
230
1.0
 70
    28
 71
     2
 72
     8
 73
     5
 74
     0
 42
0.0000000001
 43
0.0000000001
 40
29.34929926116659
 40
29.34929926116659
 40
29.34929926116659
 40
33.7495515493011
 40
33.7495515493011
 40
44.32949141213172
 40
44.32949141213172
 40
44.32949141213172
 10
-206.7755964225878
 20
521.9082485656197
 30
0.0
 41
0.933324596660863
 10
-206.7755964225879
 20
523.7171625819019
 30
0.0
 41
0.9562412729104437
 10
-206.7755964225878
 20
525.1209264828408
 30
0.0
 41
1.0
 10
-206.7755964225877
 20
528.7279387228047
 30
0.0
 41
0.8947867824920109
 10
-206.7755964225877
 20
528.7279387228049
 30
0.0
 41
0.910063756405858
  0
SPLINE
  5
ED
330
1F
100
AcDbEntity
  8
Make2D$Visibile$Curve
 62
    18
420
        0
370
    -3
100
AcDbSpline
210
0.0
220
0.0
230
1.0
 70
    28
 71
     3
 72
    11
 73
     7
 74
     0
 42
0.0000000001
 43
0.0000000001
 40
-109.8852712893877
 40
-109.8852712893877
 40
-109.8852712893877
 40
-109.8852712893877
 40
-105.4572067562236
 40
-105.4572067562236
 40
-105.4572067562236
 40
-94.88535769862463
 40
-94.88535769862463
 40
-94.88535769862463
 40
-94.88535769862463
 10
-1016.775596422587
 20
436.8720824627507
 30
0.0
 41
0.9330357349047795
 10
-1016.775596422587
 20
435.6473427313818
 30
0.0
 41
0.9483217058991978
 10
-1016.775596422587
 20
434.5647149074605
 30
0.0
 41
0.9706431275976046
 10
-1016.775596422587
 20
433.6375328956017
 30
0.0
 41
1.0
 10
-1016.775596422587
 20
431.3269583885595
 30
0.0
 41
0.9299114948490704
 10
-1016.775596422587
 20
430.0359431418896
 30
0.0
 41
0.8999249819580686
 10
-1016.775596422587
 20
430.0359431418894
 30
0.0
 41
0.9100404613269945
  0
SPLINE
  5
EE
330
1F
100
AcDbEntity
  8
Make2D$Visibile$Curve
 62
    18
420
        0
370
    -3
100
AcDbSpline
210
0.0
220
0.0
230
1.0
 70
    28
 71
     2
 72
     6
 73
     3
 74
     0
 42
0.0000000001
 43
0.0000000001
 40
20.06814451184889
 40
20.06814451184889
 40
20.06814451184889
 40
34.23387649059855
 40
34.23387649059855
 40
34.23387649059855
 10
-200.7867679027641
 20
521.9082485656195
 30
0.0
 41
0.9816780196373986
 10
-200.7867679027644
 20
528.2930033406436
 30
0.0
 41
0.8757672877150577
 10
-200.7867679027645
 20
528.2930033406437
 30
0.0
 41
1.0
  0
SPLINE
  5
EF
330
1F
100
AcDbEntity
  8
Make2D$Visibile$Curve
 62
    18
420
        0
370
    -3
100
AcDbSpline
210
0.0
220
0.0
230
1.0
 70
    12
 71
     2
 72
     6
 73
     3
 74
     0
 42
0.0000000001
 43
0.0000000001
 40
-67.3772877561049
 40
-67.3772877561049
 40
-67.3772877561049
 40
-52.4563999432405
 40
-52.4563999432405
 40
-52.4563999432405
 10
-206.2862448360881
 20
521.9082485656195
 30
0.0
 41
0.9557464611244257
 10
-206.2864847581145
 20
528.7789834009284
 30
0.0
 41
0.8592130175449944
 10
-206.2868533455721
 20
528.7789833988311
 30
0.0
 41
1.0
  0
SPLINE
  5
F0
330
1F
100
AcDbEntity
  8
Make2D$Visibile$Curve
 62
    18
420
        0
370
    -3
100
AcDbSpline
210
0.0
220
0.0
230
1.0
 70
    28
 71
     2
 72
     6
 73
     3
 74
     0
 42
0.0000000001
 43
0.0000000001
 40
0.0
 40
0.0
 40
0.0
 40
4.991001016791816
 40
4.991001016791816
 40
4.991001016791816
 10
-206.2868533455719
 20
528.7789833988309
 30
0.0
 41
0.9688918706028969
 10
-203.7913528397413
 20
528.7789975979235
 30
0.0
 41
0.9688918706028969
 10
-201.2958523339107
 20
528.7790117970162
 30
0.0
 41
0.9688918706028969
  0
SPLINE
  5
F1
330
1F
100
AcDbEntity
  8
Make2D$Visibile$Curve
 62
    18
420
        0
370
    -3
100
AcDbSpline
210
0.0
220
0.0
230
1.0
 70
    28
 71
     4
 72
    14
 73
     9
 74
     0
 42
0.0000000001
 43
0.0000000001
 40
238.7810623008984
 40
238.7810623008984
 40
238.7810623008984
 40
238.7810623008984
 40
238.7810623008984
 40
257.3193824677205
 40
257.3193824677205
 40
257.3193824677205
 40
257.3193824677205
 40
259.2208262572911
 40
259.2208262572911
 40
259.2208262572911
 40
259.2208262572911
 40
259.2208262572911
 10
-200.7769222838917
 20
502.370496524976
 30
0.0
 41
1.0
 10
-200.7769222838917
 20
507.0050765669325
 30
0.0
 41
1.0
 10
-200.7769222838917
 20
511.639656608889
 30
0.0
 41
1.0
 10
-200.7769222838917
 20
516.2742366345178
 30
0.0
 41
1.0
 10
-200.7769222838917
 20
520.9088166274912
 30
0.0
 41
1.0
 10
-200.7769222838916
 20
521.2966921462875
 30
0.0
 41
0.8170334545541741
 10
-200.7769222838917
 20
521.6780159697716
 30
0.0
 41
0.7233382643302064
 10
-200.7769222838916
 20
521.9082485656195
 30
0.0
 41
0.7189144293280971
 10
-200.7769222838916
 20
521.9082485656195
 30
0.0
 41
0.8037619495478462
  0
SPLINE
  5
F2
330
1F
100
AcDbEntity
  8
Make2D$Visibile$Curve
 62
    18
420
        0
370
    -3
100
AcDbSpline
210
0.0
220
0.0
230
1.0
 70
    28
 71
     2
 72
     6
 73
     3
 74
     0
 42
0.0000000001
 43
0.0000000001
 40
20.05083888267825
 40
20.05083888267825
 40
20.05083888267825
 40
34.23387649059853
 40
34.23387649059853
 40
34.23387649059853
 10
-1022.775596422587
 20
521.9082485656197
 30
0.0
 41
0.9819371357414206
 10
-1022.775596422587
 20
528.3069238527432
 30
0.0
 41
0.8756155182722298
 10
-1022.775596422587
 20
528.3069238527435
 30
0.0
 41
1.0
  0
SPLINE
  5
F3
330
1F
100
AcDbEntity
  8
Make2D$Visibile$Curve
 62
    18
420
        0
370
    -3
100
AcDbSpline
210
0.0
220
0.0
230
1.0
 70
    12
 71
     2
 72
     6
 73
     3
 74
     0
 42
0.0000000001
 43
0.0000000001
 40
-67.39409718678837
 40
-67.39409718678837
 40
-67.39409718678837
 40
-52.4563999432405
 40
-52.4563999432405
 40
-52.4563999432405
 10
-1017.27611997487
 20
521.9082485656194
 30
0.0
 41
0.9559642657642264
 10
-1017.275880050606
 20
528.792903913031
 30
0.0
 41
0.8590544110966118
 10
-1017.27551097978
 20
528.7929039109308
 30
0.0
 41
1.0
  0
SPLINE
  5
F4
330
1F
100
AcDbEntity
  8
Make2D$Visibile$Curve
 62
    18
420
        0
370
    -3
100
AcDbSpline
210
0.0
220
0.0
230
1.0
 70
    12
 71
     2
 72
     6
 73
     3
 74
     0
 42
0.0000000001
 43
0.0000000001
 40
-67.42437227729998
 40
-67.42437227729998
 40
-67.42437227729998
 40
-52.46535992983922
 40
-52.46535992983922
 40
-52.46535992983922
 10
-1017.276120847547
 20
436.8720824627507
 30
0.0
 41
0.9563121183223389
 10
-1017.275881091037
 20
429.9698668235249
 30
0.0
 41
0.8588869519703268
 10
-1017.275511382848
 20
429.9698668256185
 30
0.0
 41
1.0
  0
SPLINE
  5
F5
330
1F
100
AcDbEntity
  8
Make2D$Visibile$Curve
 62
    18
420
        0
370
    -3
100
AcDbSpline
210
0.0
220
0.0
230
1.0
 70
    28
 71
     2
 72
     6
 73
     3
 74
     0
 42
0.0000000001
 43
0.0000000001
 40
19.98782712545117
 40
19.98782712545117
 40
19.98782712545117
 40
34.22521322865905
 40
34.22521322865905
 40
34.22521322865905
 10
-200.7867679027644
 20
436.8841265946926
 30
0.0
 41
0.9828963731208443
 10
-200.7867679027643
 20
430.4419312745954
 30
0.0
 41
0.8752063669858836
 10
-200.7867679027645
 20
430.4419312745954
 30
0.0
 41
1.0
  0
SPLINE
  5
F6
330
1F
100
AcDbEntity
  8
Make2D$Visibile$Curve
 62
    18
420
        0
370
    -3
100
AcDbSpline
210
0.0
220
0.0
230
1.0
 70
    12
 71
     2
 72
     6
 73
     3
 74
     0
 42
0.0000000001
 43
0.0000000001
 40
-67.45098914562024
 40
-67.45098914562024
 40
-67.45098914562024
 40
-52.46535992983922
 40
-52.46535992983922
 40
-52.46535992983922
 10
-206.2862427124515
 20
436.8802305063477
 30
0.0
 41
0.9566595746034476
 10
-206.2864824681812
 20
429.9559463114209
 30
0.0
 41
0.858635866716138
 10
-206.2868529425039
 20
429.955946313519
 30
0.0
 41
1.0
  0
SPLINE
  5
F7
330
1F
100
AcDbEntity
  8
Make2D$Visibile$Curve
 62
    18
420
        0
370
    -3
100
AcDbSpline
210
0.0
220
0.0
230
1.0
 70
    28
 71
     2
 72
     6
 73
     3
 74
     0
 42
0.0000000001
 43
0.0000000001
 40
19.99653555616488
 40
19.99653555616488
 40
19.99653555616488
 40
34.22521322865916
 40
34.22521322865916
 40
34.22521322865916
 10
-1022.775596422587
 20
436.8910306066933
 30
0.0
 41
0.9827647208951766
 10
-1022.775596422587
 20
430.4558517866954
 30
0.0
 41
0.8752826981817023
 10
-1022.775596422587
 20
430.4558517866951
 30
0.0
 41
1.0
  0
SPLINE
  5
F8
330
1F
100
AcDbEntity
  8
Make2D$Visibile$Curve
 62
    18
420
        0
370
    -3
100
AcDbSpline
210
0.0
220
0.0
230
1.0
 70
    28
 71
     4
 72
    10
 73
     5
 74
     0
 42
0.0000000001
 43
0.0000000001
 40
160.2340835917005
 40
160.2340835917005
 40
160.2340835917005
 40
160.2340835917005
 40
160.2340835917005
 40
178.7723752752941
 40
178.7723752752941
 40
178.7723752752941
 40
178.7723752752941
 40
178.7723752752941
 10
-200.7769222838917
 20
437.872082487859
 30
0.0
 41
1.0
 10
-200.7769222838917
 20
442.5066554091513
 30
0.0
 41
1.0
 10
-200.7769222838917
 20
447.1412283304437
 30
0.0
 41
1.0
 10
-200.7769222838917
 20
451.7758012517363
 30
0.0
 41
1.0
 10
-200.7769222838917
 20
456.4103741730289
 30
0.0
 41
1.0
  0
SPLINE
  5
F9
330
1F
100
AcDbEntity
  8
Make2D$Visibile$Curve
 62
    18
420
        0
370
    -3
100
AcDbSpline
210
0.0
220
0.0
230
1.0
 70
    28
 71
     4
 72
    18
 73
    13
 74
     0
 42
0.0000000001
 43
0.0000000001
 40
178.7723752752941
 40
178.7723752752941
 40
178.7723752752941
 40
178.7723752752941
 40
178.7723752752941
 40
197.3106669588877
 40
197.3106669588877
 40
197.3106669588877
 40
197.3106669588877
 40
197.873972867637
 40
197.873972867637
 40
197.873972867637
 40
197.873972867637
 40
198.1246425486494
 40
198.1246425486494
 40
198.1246425486494
 40
198.1246425486494
 40
198.1246425486494
 10
-200.7769222838917
 20
456.4103741730289
 30
0.0
 41
1.0
 10
-200.7769222838917
 20
461.0449470943215
 30
0.0
 41
1.0
 10
-200.7769222838917
 20
465.6795200156139
 30
0.0
 41
1.0
 10
-200.7769222838917
 20
470.3140929353294
 30
0.0
 41
1.0
 10
-200.7769222838917
 20
474.9486658518908
 30
0.0
 41
1.0
 10
-200.7769222838917
 20
475.0779510904817
 30
0.0
 41
1.0
 10
-200.7769222838916
 20
475.223389922522
 30
0.0
 41
0.9861567708385836
 10
-200.7769222838917
 20
475.3309139041198
 30
0.0
 41
1.0
 10
-200.7769222838917
 20
475.3908698399341
 30
0.0
 41
1.0
 10
-200.7769222838917
 20
475.4175500772117
 30
0.0
 41
1.0
 10
-200.7769222838915
 20
475.4376793181507
 30
0.0
 41
0.9972587262238167
 10
-200.7769222838917
 20
475.4478864577189
 30
0.0
 41
0.9954357580174351
 10
-200.7769222838918
 20
475.4478864577185
 30
0.0
 41
0.9949336679280504
  0
SPLINE
  5
FA
330
1F
100
AcDbEntity
  8
Make2D$Visibile$Curve
 62
    18
420
        0
370
    -3
100
AcDbSpline
210
0.0
220
0.0
230
1.0
 70
    28
 71
     4
 72
    18
 73
    13
 74
     0
 42
0.0000000001
 43
0.0000000001
 40
178.7723752752941
 40
178.7723752752941
 40
178.7723752752941
 40
178.7723752752941
 40
178.7723752752941
 40
197.3106669588877
 40
197.3106669588877
 40
197.3106669588877
 40
197.3106669588877
 40
197.873972867637
 40
197.873972867637
 40
197.873972867637
 40
197.873972867637
 40
198.1246425486494
 40
198.1246425486494
 40
198.1246425486494
 40
198.1246425486494
 40
198.1246425486494
 10
-1022.775596422579
 20
456.4103741730289
 30
0.0
 41
1.0
 10
-1022.775596422579
 20
461.0449470943215
 30
0.0
 41
1.0
 10
-1022.775596422579
 20
465.6795200156139
 30
0.0
 41
1.0
 10
-1022.775596422579
 20
470.3140929353294
 30
0.0
 41
1.0
 10
-1022.775596422579
 20
474.9486658518908
 30
0.0
 41
1.0
 10
-1022.775596422579
 20
475.0779510904817
 30
0.0
 41
1.0
 10
-1022.775596422579
 20
475.223389922522
 30
0.0
 41
0.9861567708385836
 10
-1022.775596422579
 20
475.3309139041198
 30
0.0
 41
1.0
 10
-1022.775596422579
 20
475.3908698399341
 30
0.0
 41
1.0
 10
-1022.775596422579
 20
475.4175500772117
 30
0.0
 41
1.0
 10
-1022.775596422579
 20
475.4376793181507
 30
0.0
 41
0.9972587262238167
 10
-1022.775596422579
 20
475.4478864577189
 30
0.0
 41
0.9954357580174351
 10
-1022.775596422579
 20
475.4478864577185
 30
0.0
 41
0.9949336679280504
  0
SPLINE
  5
FB
330
1F
100
AcDbEntity
  8
Make2D$Visibile$Curve
 62
    18
420
        0
370
    -3
100
AcDbSpline
210
0.0
220
0.0
230
1.0
 70
    28
 71
     4
 72
    10
 73
     5
 74
     0
 42
0.0000000001
 43
0.0000000001
 40
220.2427421340764
 40
220.2427421340764
 40
220.2427421340764
 40
220.2427421340764
 40
220.2427421340764
 40
238.7810623008984
 40
238.7810623008984
 40
238.7810623008984
 40
238.7810623008984
 40
238.7810623008984
 10
-200.7769222838917
 20
483.8321763265083
 30
0.0
 41
1.0
 10
-200.7769222838917
 20
488.4667563914463
 30
0.0
 41
1.0
 10
-200.7769222838917
 20
493.1013364410633
 30
0.0
 41
1.0
 10
-200.7769222838917
 20
497.7359164830198
 30
0.0
 41
1.0
 10
-200.7769222838917
 20
502.370496524976
 30
0.0
 41
1.0
  0
SPLINE
  5
FC
330
1F
100
AcDbEntity
  8
Make2D$Visibile$Curve
 62
    18
420
        0
370
    -3
100
AcDbSpline
210
0.0
220
0.0
230
1.0
 70
    28
 71
     4
 72
    10
 73
     5
 74
     0
 42
0.0000000001
 43
0.0000000001
 40
220.2427421340764
 40
220.2427421340764
 40
220.2427421340764
 40
220.2427421340764
 40
220.2427421340764
 40
238.7810623008984
 40
238.7810623008984
 40
238.7810623008984
 40
238.7810623008984
 40
238.7810623008984
 10
-1022.775596422579
 20
483.8321763265083
 30
0.0
 41
1.0
 10
-1022.775596422579
 20
488.4667563914463
 30
0.0
 41
1.0
 10
-1022.775596422579
 20
493.1013364410633
 30
0.0
 41
1.0
 10
-1022.775596422579
 20
497.7359164830198
 30
0.0
 41
1.0
 10
-1022.775596422579
 20
502.370496524976
 30
0.0
 41
1.0
  0
SPLINE
  5
FD
330
1F
100
AcDbEntity
  8
Make2D$Visibile$Curve
 62
    18
420
        0
370
    -3
100
AcDbSpline
210
0.0
220
0.0
230
1.0
 70
    28
 71
     4
 72
    14
 73
     9
 74
     0
 42
0.0000000001
 43
0.0000000001
 40
238.7810623008984
 40
238.7810623008984
 40
238.7810623008984
 40
238.7810623008984
 40
238.7810623008984
 40
257.3193824677205
 40
257.3193824677205
 40
257.3193824677205
 40
257.3193824677205
 40
259.220826257291
 40
259.220826257291
 40
259.220826257291
 40
259.220826257291
 40
259.220826257291
 10
-1022.775596422579
 20
502.370496524976
 30
0.0
 41
1.0
 10
-1022.775596422579
 20
507.0050765669325
 30
0.0
 41
1.0
 10
-1022.775596422579
 20
511.639656608889
 30
0.0
 41
1.0
 10
-1022.775596422579
 20
516.2742366345178
 30
0.0
 41
1.0
 10
-1022.775596422579
 20
520.9088166274912
 30
0.0
 41
1.0
 10
-1022.775596422579
 20
521.2966921462879
 30
0.0
 41
0.8170334545541795
 10
-1022.775596422579
 20
521.6780159697713
 30
0.0
 41
0.7233382643302121
 10
-1022.775596422579
 20
521.9082485656195
 30
0.0
 41
0.7189144293280977
 10
-1022.775596422579
 20
521.9082485656195
 30
0.0
 41
0.8037619495478361
  0
SPLINE
  5
FE
330
1F
100
AcDbEntity
  8
Make2D$Visibile$Curve
 62
    18
420
        0
370
    -3
100
AcDbSpline
210
0.0
220
0.0
230
1.0
 70
    28
 71
     2
 72
     6
 73
     3
 74
     0
 42
0.0000000001
 43
0.0000000001
 40
310.0013258613046
 40
310.0013258613046
 40
310.0013258613046
 40
1131.999999999992
 40
1131.999999999992
 40
1131.999999999992
 10
-200.7769222838916
 20
436.872082462751
 30
0.0
 41
0.9330127003229861
 10
-611.7762593532353
 20
436.872082462751
 30
0.0
 41
0.9330127003229861
 10
-1022.775596422579
 20
436.872082462751
 30
0.0
 41
0.9330127003229861
  0
SPLINE
  5
FF
330
1F
100
AcDbEntity
  8
Make2D$Visibile$Curve
 62
    18
420
        0
370
    -3
100
AcDbSpline
210
0.0
220
0.0
230
1.0
 70
    28
 71
     2
 72
     8
 73
     5
 74
     0
 42
0.0000000001
 43
0.0000000001
 40
158.6632872460748
 40
158.6632872460748
 40
158.6632872460748
 40
159.18688602795
 40
159.18688602795
 40
160.2340835917005
 40
160.2340835917005
 40
160.2340835917005
 10
-200.7769222838916
 20
436.8720824627512
 30
0.0
 41
0.9330127003229856
 10
-200.7769222838917
 20
436.8720824644332
 30
0.0
 41
0.9330127003229873
 10
-200.7769222838917
 20
437.0060570652436
 30
0.0
 41
1.0
 10
-200.7769222838917
 20
437.2947322103
 30
0.0
 41
0.866025400645971
 10
-200.7769222838917
 20
437.872082487859
 30
0.0
 41
1.0
  0
SPLINE
  5
100
330
1F
100
AcDbEntity
  8
Make2D$Visibile$Curve
 62
    18
420
        0
370
    -3
100
AcDbSpline
210
0.0
220
0.0
230
1.0
 70
    28
 71
     4
 72
    14
 73
     9
 74
     0
 42
0.0000000001
 43
0.0000000001
 40
158.6632872460748
 40
158.6632872460748
 40
158.6632872460748
 40
158.6632872460748
 40
158.6632872460748
 40
159.18688602795
 40
159.18688602795
 40
159.18688602795
 40
159.18688602795
 40
160.2340835917005
 40
160.2340835917005
 40
160.2340835917005
 40
160.2340835917005
 40
160.2340835917005
 10
-1022.775596422579
 20
436.872082462751
 30
0.0
 41
0.9330127003229861
 10
-1022.775596422579
 20
436.8720824635919
 30
0.0
 41
0.9330127003229852
 10
-1022.775596422579
 20
436.8957317314187
 30
0.0
 41
0.9441772502691539
 10
-1022.775596422579
 20
436.9413911662271
 30
0.0
 41
0.9665063501614921
 10
-1022.775596422579
 20
437.0060570652436
 30
0.0
 41
1.0
 10
-1022.775596422579
 20
437.1400316660543
 30
0.0
 41
0.9330127003229861
 10
-1022.775596422579
 20
437.3475634263898
 30
0.0
 41
0.9106836004306481
 10
-1022.775596422579
 20
437.6041332920638
 30
0.0
 41
0.933012700322986
 10
-1022.775596422579
 20
437.872082487859
 30
0.0
 41
1.0
  0
SPLINE
  5
101
330
1F
100
AcDbEntity
  8
Make2D$Visibile$Curve
 62
    18
420
        0
370
    -3
100
AcDbSpline
210
0.0
220
0.0
230
1.0
 70
    28
 71
     2
 72
     6
 73
     3
 74
     0
 42
0.0000000001
 43
0.0000000001
 40
0.0
 40
0.0
 40
0.0
 40
821.9986741386873
 40
821.9986741386873
 40
821.9986741386873
 10
-1022.775596422579
 20
521.9082485656195
 30
0.0
 41
0.8037619495478361
 10
-611.7762593532356
 20
521.9082485656195
 30
0.0
 41
0.8037619495478361
 10
-200.776922283892
 20
521.9082485656195
 30
0.0
 41
0.8037619495478361
  0
SPLINE
  5
102
330
1F
100
AcDbEntity
  8
Make2D$Visibile$Curve
 62
    18
420
        0
370
    -3
100
AcDbSpline
210
0.0
220
0.0
230
1.0
 70
    24
 71
     2
 72
     6
 73
     3
 74
     0
 42
0.0000000001
 43
0.0000000001
 40
-1690.000000000017
 40
-1690.000000000017
 40
-1690.000000000017
 40
-1620.000000000008
 40
-1620.000000000008
 40
-1620.000000000008
 10
-999.2755964225871
 20
444.368096859859
 30
0.0
 10
-999.2755964225871
 20
479.3680968598632
 30
0.0
 10
-999.2755964225871
 20
514.3680968598674
 30
0.0
  0
SPLINE
  5
103
330
1F
100
AcDbEntity
  8
Make2D$Visibile$Curve
 62
    18
420
        0
370
    -3
100
AcDbSpline
210
0.0
220
0.0
230
1.0
 70
    24
 71
     2
 72
     6
 73
     3
 74
     0
 42
0.0000000001
 43
0.0000000001
 40
-845.0000000000083
 40
-845.0000000000083
 40
-845.0000000000083
 40
-774.9999999999999
 40
-774.9999999999999
 40
-774.9999999999999
 10
-224.2755964225871
 20
514.3680968598674
 30
0.0
 10
-224.2755964225871
 20
479.3680968598632
 30
0.0
 10
-224.2755964225871
 20
444.368096859859
 30
0.0
  0
SPLINE
  5
104
330
1F
100
AcDbEntity
  8
Make2D$Visibile$Curve
 62
    18
420
        0
370
    -3
100
AcDbSpline
210
0.0
220
0.0
230
1.0
 70
    12
 71
     2
 72
     6
 73
     3
 74
     0
 42
0.0000000001
 43
0.0000000001
 40
88.7197115928042
 40
88.7197115928042
 40
88.7197115928042
 40
89.12238936289822
 40
89.12238936289822
 40
89.12238936289822
 10
5.059262519213007
 20
456.3885958373251
 30
0.0
 41
1.0
 10
5.165442898959865
 20
456.5673894975198
 30
0.0
 41
0.953006246268355
 10
5.355373598765709
 20
456.652052225327
 30
0.0
 41
1.0
  0
SPLINE
  5
105
330
1F
100
AcDbEntity
  8
Make2D$Visibile$Curve
 62
    18
420
        0
370
    -3
100
AcDbSpline
210
0.0
220
0.0
230
1.0
 70
    12
 71
     4
 72
    22
 73
    17
 74
     0
 42
0.0000000001
 43
0.0000000001
 40
1.232338728503803
 40
1.232338728503803
 40
1.232338728503803
 40
1.232338728503803
 40
1.232338728503803
 40
5.795586660915397
 40
5.795586660915397
 40
5.795586660915397
 40
5.795586660915397
 40
10.35883459332699
 40
10.35883459332699
 40
10.35883459332699
 40
10.35883459332699
 40
14.92208252573859
 40
14.92208252573859
 40
14.92208252573859
 40
14.92208252573859
 40
19.48533045815018
 40
19.48533045815018
 40
19.48533045815018
 40
19.48533045815018
 40
19.48533045815018
 10
6.52806623313154
 20
501.5522915822044
 30
0.0
 41
1.0
 10
7.420303515868261
 20
500.8059015678924
 30
0.0
 41
0.9434184971794337
 10
8.04563828658395
 20
499.8060523960878
 30
0.0
 41
0.924557996239245
 10
8.313054196033088
 20
498.6574747220942
 30
0.0
 41
0.9434184971794337
 10
8.212541243206033
 20
497.4985603298787
 30
0.0
 41
1.0
 10
8.112028290378156
 20
496.3396459376631
 30
0.0
 41
0.9434184971794337
 10
7.650859999487048
 20
495.2542585647404
 30
0.0
 41
0.924557996239245
 10
6.862723190294695
 20
494.3770001582148
 30
0.0
 41
0.9434184971794337
 10
5.855306163126897
 20
493.7953676663933
 30
0.0
 41
1.0
 10
4.847889135958913
 20
493.2137351745717
 30
0.0
 41
0.9434184971794337
 10
3.694092665628276
 20
492.9698178794166
 30
0.0
 41
0.924557996239245
 10
2.523535482284418
 20
493.1131281105459
 30
0.0
 41
0.9434184971794337
 10
1.469629701400891
 20
493.6055385360958
 30
0.0
 41
1.0
 10
0.4157239205168883
 20
494.0979489616454
 30
0.0
 41
0.9434184971794337
 10
-0.445265568656241
 20
494.9038267696019
 30
0.0
 41
0.924557996239245
 10
-0.9984929660341791
 20
495.9453071528131
 30
0.0
 41
0.9434184971794337
 10
-1.198767038190908
 20
497.0912023130229
 30
0.0
 41
1.0
  0
SPLINE
  5
106
330
1F
100
AcDbEntity
  8
Make2D$Visibile$Curve
 62
    18
420
        0
370
    -3
100
AcDbSpline
210
0.0
220
0.0
230
1.0
 70
    28
 71
     4
 72
    10
 73
     5
 74
     0
 42
0.0000000001
 43
0.0000000001
 40
19.48533045815018
 40
19.48533045815018
 40
19.48533045815018
 40
19.48533045815018
 40
19.48533045815018
 40
20.71766891354071
 40
20.71766891354071
 40
20.71766891354071
 40
20.71766891354071
 40
20.71766891354071
 10
-1.198767038190908
 20
497.0912023130229
 30
0.0
 41
1.0
 10
-1.249963163279517
 20
497.3950033763285
 30
0.0
 41
1.0
 10
-1.301159288368126
 20
497.6988044396339
 30
0.0
 41
1.0
 10
-1.352355413456735
 20
498.0026055029396
 30
0.0
 41
1.0
 10
-1.403551538545344
 20
498.306406566245
 30
0.0
 41
1.0
  0
SPLINE
  5
107
330
1F
100
AcDbEntity
  8
Make2D$Visibile$Curve
 62
    18
420
        0
370
    -3
100
AcDbSpline
210
0.0
220
0.0
230
1.0
 70
    12
 71
     4
 72
    14
 73
     9
 74
     0
 42
0.0000000001
 43
0.0000000001
 40
20.71766891354071
 40
20.71766891354071
 40
20.71766891354071
 40
20.71766891354071
 40
20.71766891354071
 40
21.28184687293022
 40
21.28184687293022
 40
21.28184687293022
 40
21.28184687293022
 40
21.84602483231976
 40
21.84602483231976
 40
21.84602483231976
 40
21.84602483231976
 40
21.84602483231976
 10
-1.403551538545344
 20
498.306406566245
 30
0.0
 41
1.0
 10
-1.393052253894443
 20
498.4354322210638
 30
0.0
 41
0.9999999999999969
 10
-1.426399944377157
 20
498.5843817098787
 30
0.0
 41
0.9860791663355176
 10
-1.525422000916933
 20
498.7005395808872
 30
0.0
 41
1.0
 10
-1.634865406216477
 20
498.7696770932521
 30
0.0
 41
1.0
 10
-1.744308811516021
 20
498.838814605617
 30
0.0
 41
1.0
 10
-1.891738061361302
 20
498.8783447835675
 30
0.0
 41
0.9860791663355156
 10
-2.040571425046664
 20
498.8444825843956
 30
0.0
 41
1.0
 10
-2.152678059181653
 20
498.779753007904
 30
0.0
 41
1.0
  0
SPLINE
  5
108
330
1F
100
AcDbEntity
  8
Make2D$Visibile$Curve
 62
    18
420
        0
370
    -3
100
AcDbSpline
210
0.0
220
0.0
230
1.0
 70
    12
 71
     4
 72
    10
 73
     5
 74
     0
 42
0.0000000001
 43
0.0000000001
 40
21.84602483231976
 40
21.84602483231976
 40
21.84602483231976
 40
21.84602483231976
 40
21.84602483231976
 40
40.38353686812732
 40
40.38353686812732
 40
40.38353686812732
 40
40.38353686812732
 40
40.38353686812732
 10
-2.152678059181653
 20
498.779753007904
 30
0.0
 41
1.0
 10
-6.166093026103681
 20
496.4624356332615
 30
0.0
 41
1.0
 10
-10.17955742357299
 20
494.1452038685147
 30
0.0
 41
1.0
 10
-14.19304653631616
 20
491.8280149087157
 30
0.0
 41
1.0
 10
-18.20653564905933
 20
489.5108259489168
 30
0.0
 41
1.0
  0
SPLINE
  5
109
330
1F
100
AcDbEntity
  8
Make2D$Visibile$Curve
 62
    18
420
        0
370
    -3
100
AcDbSpline
210
0.0
220
0.0
230
1.0
 70
    28
 71
     4
 72
    10
 73
     5
 74
     0
 42
0.0000000001
 43
0.0000000001
 40
40.38353686812732
 40
40.38353686812732
 40
40.38353686812732
 40
40.38353686812732
 40
40.38353686812732
 40
58.92104890393487
 40
58.92104890393487
 40
58.92104890393487
 40
58.92104890393487
 40
58.92104890393487
 10
-18.20653564905933
 20
489.5108259489168
 30
0.0
 41
1.0
 10
-22.22002476180228
 20
487.1936369891177
 30
0.0
 41
1.0
 10
-26.23351387454522
 20
484.8764480293187
 30
0.0
 41
1.0
 10
-30.2470029872884
 20
482.5592590695198
 30
0.0
 41
1.0
 10
-34.26049210003157
 20
480.2420701097208
 30
0.0
 41
1.0
  0
SPLINE
  5
10A
330
1F
100
AcDbEntity
  8
Make2D$Visibile$Curve
 62
    18
420
        0
370
    -3
100
AcDbSpline
210
0.0
220
0.0
230
1.0
 70
    12
 71
     4
 72
    14
 73
     9
 74
     0
 42
0.0000000001
 43
0.0000000001
 40
58.92104890393487
 40
58.92104890393487
 40
58.92104890393487
 40
58.92104890393487
 40
58.92104890393487
 40
59.96824646768545
 40
59.96824646768545
 40
59.96824646768545
 40
59.96824646768545
 40
61.01544403143603
 40
61.01544403143603
 40
61.01544403143603
 40
61.01544403143603
 40
61.01544403143603
 10
-34.26049210003157
 20
480.2420701097208
 30
0.0
 41
1.0
 10
-34.49254291387738
 20
480.1080955176499
 30
0.0
 41
0.9330127003229742
 10
-34.66898576204483
 20
479.9005637639593
 30
0.0
 41
0.9106836004306323
 10
-34.76049211841184
 20
479.6439939017311
 30
0.0
 41
0.9330127003229743
 10
-34.76049212177554
 20
479.3760447059362
 30
0.0
 41
1.0
 10
-34.76049212513939
 20
479.1080955101415
 30
0.0
 41
0.9330127003229742
 10
-34.66898577521412
 20
478.8515256456158
 30
0.0
 41
0.9106836004306323
 10
-34.49254293225783
 20
478.6439938874953
 30
0.0
 41
0.9330127003229743
 10
-34.26049212177554
 20
478.5100192895979
 30
0.0
 41
1.0
  0
SPLINE
  5
10B
330
1F
100
AcDbEntity
  8
Make2D$Visibile$Curve
 62
    18
420
        0
370
    -3
100
AcDbSpline
210
0.0
220
0.0
230
1.0
 70
    12
 71
     4
 72
    10
 73
     5
 74
     0
 42
0.0000000001
 43
0.0000000001
 40
61.01544403143603
 40
61.01544403143603
 40
61.01544403143603
 40
61.01544403143603
 40
61.01544403143603
 40
98.09124803143607
 40
98.09124803143607
 40
98.09124803143607
 40
98.09124803143607
 40
98.09124803143607
 10
-34.26049212177554
 20
478.5100192895979
 30
0.0
 41
1.0
 10
-26.23334508934249
 20
473.8755437895979
 30
0.0
 41
1.0
 10
-18.20619805690922
 20
469.2410682895979
 30
0.0
 41
1.0
 10
-10.17905103247472
 20
464.6065927757438
 30
0.0
 41
1.0
 10
-2.151904024037776
 20
459.9721172341813
 30
0.0
 41
1.0
  0
SPLINE
  5
10C
330
1F
100
AcDbEntity
  8
Make2D$Visibile$Curve
 62
    18
420
        0
370
    -3
100
AcDbSpline
210
0.0
220
0.0
230
1.0
 70
    12
 71
     4
 72
    14
 73
     9
 74
     0
 42
0.0000000001
 43
0.0000000001
 40
98.09124803143607
 40
98.09124803143607
 40
98.09124803143607
 40
98.09124803143607
 40
98.09124803143607
 40
98.65499011702876
 40
98.65499011702876
 40
98.65499011702876
 40
98.65499011702876
 40
99.21873220262145
 40
99.21873220262145
 40
99.21873220262145
 40
99.21873220262145
 40
99.21873220262145
 10
-2.151904024037776
 20
459.9721172341813
 30
0.0
 41
1.0
 10
-2.039867363129815
 20
459.9074328370737
 30
0.0
 41
1.0
 10
-1.891117371761008
 20
459.8738117686208
 30
0.0
 41
0.9861179977984282
 10
-1.743854476160777
 20
459.9134422588465
 30
0.0
 41
1.0
 10
-1.634535422825593
 20
459.9826205010504
 30
0.0
 41
1.0
 10
-1.525216369490408
 20
460.0517987432545
 30
0.0
 41
1.0
 10
-1.426356096265001
 20
460.1679175727094
 30
0.0
 41
0.9861179977984287
 10
-1.393058447153181
 20
460.3167402952341
 30
0.0
 41
0.9999999999999993
 10
-1.403551012379921
 20
460.4456828820375
 30
0.0
 41
1.0
  0
SPLINE
  5
10D
330
1F
100
AcDbEntity
  8
Make2D$Visibile$Curve
 62
    18
420
        0
370
    -3
100
AcDbSpline
210
0.0
220
0.0
230
1.0
 70
    28
 71
     4
 72
    10
 73
     5
 74
     0
 42
0.0000000001
 43
0.0000000001
 40
99.21873220262145
 40
99.21873220262145
 40
99.21873220262145
 40
99.21873220262145
 40
99.21873220262145
 40
100.4510705099138
 40
100.4510705099138
 40
100.4510705099138
 40
100.4510705099138
 40
100.4510705099138
 10
-1.403551012379921
 20
460.4456828820375
 30
0.0
 41
1.0
 10
-1.352355018832668
 20
460.7494839299636
 30
0.0
 41
1.0
 10
-1.301159025285415
 20
461.0532849778895
 30
0.0
 41
1.0
 10
-1.249963031738162
 20
461.3570860258158
 30
0.0
 41
1.0
 10
-1.198767038190908
 20
461.6608870737416
 30
0.0
 41
1.0
  0
SPLINE
  5
10E
330
1F
100
AcDbEntity
  8
Make2D$Visibile$Curve
 62
    18
420
        0
370
    -3
100
AcDbSpline
210
0.0
220
0.0
230
1.0
 70
    12
 71
     4
 72
    22
 73
    17
 74
     0
 42
0.0000000001
 43
0.0000000001
 40
100.4510705099138
 40
100.4510705099138
 40
100.4510705099138
 40
100.4510705099138
 40
100.4510705099138
 40
105.0143184423253
 40
105.0143184423253
 40
105.0143184423253
 40
105.0143184423253
 40
109.5775663747369
 40
109.5775663747369
 40
109.5775663747369
 40
109.5775663747369
 40
114.1408143071485
 40
114.1408143071485
 40
114.1408143071485
 40
114.1408143071485
 40
118.70406223956
 40
118.70406223956
 40
118.70406223956
 40
118.70406223956
 40
118.70406223956
 10
-1.198767038190908
 20
461.6608870737416
 30
0.0
 41
1.0
 10
-0.9984929660341794
 20
462.8067822339512
 30
0.0
 41
0.9434184971794335
 10
-0.4452655686562411
 20
463.8482626171629
 30
0.0
 41
0.9245579962392446
 10
0.4157239205168885
 20
464.6541404251191
 30
0.0
 41
0.9434184971794334
 10
1.469629701400891
 20
465.146550850669
 30
0.0
 41
1.0
 10
2.523535482284419
 20
465.638961276219
 30
0.0
 41
0.9434184971794335
 10
3.694092665628278
 20
465.7822715073482
 30
0.0
 41
0.9245579962392446
 10
4.847889135958915
 20
465.5383542121932
 30
0.0
 41
0.9434184971794334
 10
5.855306163126897
 20
464.9567217203714
 30
0.0
 41
1.0
 10
6.862723190294457
 20
464.3750892285501
 30
0.0
 41
0.9434184971794335
 10
7.650859999487051
 20
463.4978308220244
 30
0.0
 41
0.9245579962392446
 10
8.112028290378401
 20
462.4124434491018
 30
0.0
 41
0.9434184971794334
 10
8.212541243205806
 20
461.253529056886
 30
0.0
 41
1.0
 10
8.31305419603309
 20
460.0946146646706
 30
0.0
 41
0.9434184971794335
 10
8.045638286583953
 20
458.946036990677
 30
0.0
 41
0.9245579962392446
 10
7.420303515868263
 20
457.9461878188726
 30
0.0
 41
0.9434184971794334
 10
6.52806623313154
 20
457.1997978045604
 30
0.0
 41
1.0
  0
SPLINE
  5
10F
330
1F
100
AcDbEntity
  8
Make2D$Visibile$Curve
 62
    18
420
        0
370
    -3
100
AcDbSpline
210
0.0
220
0.0
230
1.0
 70
    28
 71
     4
 72
    10
 73
     5
 74
     0
 42
0.0000000001
 43
0.0000000001
 40
118.70406223956
 40
118.70406223956
 40
118.70406223956
 40
118.70406223956
 40
118.70406223956
 40
119.9364007315843
 40
119.9364007315843
 40
119.9364007315843
 40
119.9364007315843
 40
119.9364007315843
 10
6.52806623313154
 20
457.1997978045604
 30
0.0
 41
1.0
 10
6.290564743326513
 20
457.0035602513929
 30
0.0
 41
1.0
 10
6.053063253521259
 20
456.8073226982256
 30
0.0
 41
1.0
 10
5.815561763716232
 20
456.6110851450583
 30
0.0
 41
1.0
 10
5.578060273910978
 20
456.4148475918907
 30
0.0
 41
1.0
  0
SPLINE
  5
110
330
1F
100
AcDbEntity
  8
Make2D$Visibile$Curve
 62
    18
420
        0
370
    -3
100
AcDbSpline
210
0.0
220
0.0
230
1.0
 70
    12
 71
     4
 72
    14
 73
     9
 74
     0
 42
0.0000000001
 43
0.0000000001
 40
119.9364007315843
 40
119.9364007315843
 40
119.9364007315843
 40
119.9364007315843
 40
119.9364007315843
 40
120.5001425978919
 40
120.5001425978919
 40
120.5001425978919
 40
120.5001425978919
 40
121.0638844641995
 40
121.0638844641995
 40
121.0638844641995
 40
121.0638844641995
 40
121.0638844641995
 10
5.578060273910978
 20
456.4148475918907
 30
0.0
 41
1.0
 10
5.461146489351904
 20
456.3594631107792
 30
0.0
 41
1.0
 10
5.348911127529828
 20
456.2562151612602
 30
0.0
 41
0.9861180173127863
 10
5.29777942519172
 20
456.1125403042417
 30
0.0
 41
1.0
 10
5.292528824487363
 20
455.9832781482944
 30
0.0
 41
1.0
 10
5.287278223783005
 20
455.8540159923471
 30
0.0
 41
1.0
 10
5.326588616686323
 20
455.7066673970603
 30
0.0
 41
0.9861180173127863
 10
5.430080217614204
 20
455.5946566651608
 30
0.0
 41
1.0
 10
5.542116842545056
 20
455.5299722895979
 30
0.0
 41
1.0
  0
SPLINE
  5
111
330
1F
100
AcDbEntity
  8
Make2D$Visibile$Curve
 62
    18
420
        0
370
    -3
100
AcDbSpline
210
0.0
220
0.0
230
1.0
 70
    28
 71
     4
 72
    10
 73
     5
 74
     0
 42
0.0000000001
 43
0.0000000001
 40
121.0638844641995
 40
121.0638844641995
 40
121.0638844641995
 40
121.0638844641995
 40
121.0638844641995
 40
158.1396884641995
 40
158.1396884641995
 40
158.1396884641995
 40
158.1396884641995
 40
158.1396884641995
 10
5.542116842545056
 20
455.5299722895979
 30
0.0
 41
1.0
 10
13.56926387497833
 20
450.8954967895979
 30
0.0
 41
1.0
 10
21.59641090741161
 20
446.2610212895979
 30
0.0
 41
1.0
 10
29.62355793984466
 20
441.6265457895979
 30
0.0
 41
1.0
 10
37.65070497227794
 20
436.9920702895981
 30
0.0
 41
1.0
  0
SPLINE
  5
112
330
1F
100
AcDbEntity
  8
Make2D$Visibile$Curve
 62
    18
420
        0
370
    -3
100
AcDbSpline
210
0.0
220
0.0
230
1.0
 70
    12
 71
     4
 72
    14
 73
     9
 74
     0
 42
0.0000000001
 43
0.0000000001
 40
158.1396884641995
 40
158.1396884641995
 40
158.1396884641995
 40
158.1396884641995
 40
158.1396884641995
 40
159.18688602795
 40
159.18688602795
 40
159.18688602795
 40
159.18688602795
 40
160.2340835917005
 40
160.2340835917005
 40
160.2340835917005
 40
160.2340835917005
 40
160.2340835917005
 10
37.65070497227794
 20
436.9920702895981
 30
0.0
 41
1.0
 10
37.88275578276014
 20
436.8580956917008
 30
0.0
 41
0.9330127003229861
 10
38.15070497886271
 20
436.8090575864443
 30
0.0
 41
0.9106836004306481
 10
38.41865417434981
 20
436.8580956950644
 30
0.0
 41
0.933012700322986
 10
38.65070498315004
 20
436.992070295875
 30
0.0
 41
1.0
 10
38.88275579195019
 20
437.1260448966856
 30
0.0
 41
0.9330127003229861
 10
39.05919863230128
 20
437.3335766570212
 30
0.0
 41
0.9106836004306481
 10
39.15070497900564
 20
437.5901465226954
 30
0.0
 41
0.933012700322986
 10
39.15070497227794
 20
437.8580957184902
 30
0.0
 41
1.0
  0
SPLINE
  5
113
330
1F
100
AcDbEntity
  8
Make2D$Visibile$Curve
 62
    18
420
        0
370
    -3
100
AcDbSpline
210
0.0
220
0.0
230
1.0
 70
    28
 71
     4
 72
    10
 73
     5
 74
     0
 42
0.0000000001
 43
0.0000000001
 40
198.4372787763863
 40
198.4372787763863
 40
198.4372787763863
 40
198.4372787763863
 40
198.4372787763863
 40
199.6696169350936
 40
199.6696169350936
 40
199.6696169350936
 40
199.6696169350936
 40
199.6696169350936
 10
38.36640884607255
 20
475.3452093362653
 30
0.0
 41
1.0
 10
38.07771145816446
 20
475.2376458582494
 30
0.0
 41
1.0
 10
37.78901407025637
 20
475.1300823802333
 30
0.0
 41
1.0
 10
37.50031668234828
 20
475.0225189022171
 30
0.0
 41
1.0
 10
37.2116192944402
 20
474.914955424201
 30
0.0
 41
1.0
  0
SPLINE
  5
114
330
1F
100
AcDbEntity
  8
Make2D$Visibile$Curve
 62
    18
420
        0
370
    -3
100
AcDbSpline
210
0.0
220
0.0
230
1.0
 70
    12
 71
     4
 72
    22
 73
    17
 74
     0
 42
0.0000000001
 43
0.0000000001
 40
199.6696169350936
 40
199.6696169350936
 40
199.6696169350936
 40
199.6696169350936
 40
199.6696169350936
 40
204.2328648675052
 40
204.2328648675052
 40
204.2328648675052
 40
204.2328648675052
 40
208.7961127999168
 40
208.7961127999168
 40
208.7961127999168
 40
208.7961127999168
 40
213.3593607323284
 40
213.3593607323284
 40
213.3593607323284
 40
213.3593607323284
 40
217.9226086647399
 40
217.9226086647399
 40
217.9226086647399
 40
217.9226086647399
 40
217.9226086647399
 10
37.2116192944402
 20
474.914955424201
 30
0.0
 41
1.0
 10
36.11910793954645
 20
474.5154502783033
 30
0.0
 41
0.9434184971794343
 10
34.94054577145354
 20
474.4738190668965
 30
0.0
 41
0.9245579962392457
 10
33.81214037283032
 20
474.8165189329339
 30
0.0
 41
0.9434184971794344
 10
32.85874754477413
 20
475.4830228995995
 30
0.0
 41
1.0
 10
31.90535471671772
 20
476.1495268662651
 30
0.0
 41
0.9434184971794343
 10
31.19596582426593
 20
477.0916040080585
 30
0.0
 41
0.9245579962392457
 10
30.83030616312693
 20
478.2127797097393
 30
0.0
 41
0.9434184971794344
 10
30.83030616312703
 20
479.3760446933825
 30
0.0
 41
1.0
 10
30.83030616312693
 20
480.5393096770255
 30
0.0
 41
0.9434184971794343
 10
31.19596582426593
 20
481.6604853787065
 30
0.0
 41
0.9245579962392457
 10
31.90535471671772
 20
482.6025625204997
 30
0.0
 41
0.9434184971794344
 10
32.85874754477413
 20
483.2690664871652
 30
0.0
 41
1.0
 10
33.81214037283032
 20
483.9355704538307
 30
0.0
 41
0.9434184971794343
 10
34.94054577145354
 20
484.2782703198686
 30
0.0
 41
0.9245579962392457
 10
36.11910793954645
 20
484.2366391084614
 30
0.0
 41
0.9434184971794344
 10
37.2116192944402
 20
483.8371339625637
 30
0.0
 41
1.0
  0
SPLINE
  5
115
330
1F
100
AcDbEntity
  8
Make2D$Visibile$Curve
 62
    18
420
        0
370
    -3
100
AcDbSpline
210
0.0
220
0.0
230
1.0
 70
    28
 71
     4
 72
    10
 73
     5
 74
     0
 42
0.0000000001
 43
0.0000000001
 40
217.9226086647399
 40
217.9226086647399
 40
217.9226086647399
 40
217.9226086647399
 40
217.9226086647399
 40
219.154947152677
 40
219.154947152677
 40
219.154947152677
 40
219.154947152677
 40
219.154947152677
 10
37.2116192944402
 20
483.8371339625637
 30
0.0
 41
1.0
 10
37.50031674641787
 20
483.7295704207629
 30
0.0
 41
1.0
 10
37.78901419839553
 20
483.6220068789619
 30
0.0
 41
1.0
 10
38.0777116503732
 20
483.5144433371609
 30
0.0
 41
1.0
 10
38.36640910235087
 20
483.4068797953598
 30
0.0
 41
1.0
  0
SPLINE
  5
116
330
1F
100
AcDbEntity
  8
Make2D$Visibile$Curve
 62
    18
420
        0
370
    -3
100
AcDbSpline
210
0.0
220
0.0
230
1.0
 70
    12
 71
     4
 72
    14
 73
     9
 74
     0
 42
0.0000000001
 43
0.0000000001
 40
219.154947152677
 40
219.154947152677
 40
219.154947152677
 40
219.154947152677
 40
219.154947152677
 40
219.6988446433767
 40
219.6988446433767
 40
219.6988446433767
 40
219.6988446433767
 40
220.2427421340764
 40
220.2427421340764
 40
220.2427421340764
 40
220.2427421340764
 40
220.2427421340764
 10
38.36640910235087
 20
483.4068797953598
 30
0.0
 41
1.0
 10
38.48110581753026
 20
483.3276017453059
 30
0.0
 41
0.9278491658579504
 10
38.61865655686317
 20
483.2925554463661
 30
0.0
 41
0.9037988878106006
 10
38.7594462094857
 20
483.3106309180025
 30
0.0
 41
0.9278491658579505
 10
38.8829249033513
 20
483.3753870594448
 30
0.0
 41
1.0
 10
39.00640359721692
 20
483.440143200887
 30
0.0
 41
0.9278491658579504
 10
39.10132473871004
 20
483.5456819419163
 30
0.0
 41
0.9037988878106006
 10
39.15070525463551
 20
483.6787609169925
 30
0.0
 41
0.9278491658579505
 10
39.15070524828639
 20
483.8181895571397
 30
0.0
 41
1.0
  0
SPLINE
  5
117
330
1F
100
AcDbEntity
  8
Make2D$Visibile$Curve
 62
    18
420
        0
370
    -3
100
AcDbSpline
210
0.0
220
0.0
230
1.0
 70
    28
 71
     4
 72
    10
 73
     5
 74
     0
 42
0.0000000001
 43
0.0000000001
 40
220.2427421340764
 40
220.2427421340764
 40
220.2427421340764
 40
220.2427421340764
 40
220.2427421340764
 40
238.7810623008984
 40
238.7810623008984
 40
238.7810623008984
 40
238.7810623008984
 40
238.7810623008984
 10
39.15070524828639
 20
483.8181895571397
 30
0.0
 41
1.0
 10
39.15070516419314
 20
488.4527696220778
 30
0.0
 41
1.0
 10
39.15070508010012
 20
493.0873496716947
 30
0.0
 41
1.0
 10
39.15070499600711
 20
497.7219297136512
 30
0.0
 41
1.0
 10
39.15070491191432
 20
502.3565097556075
 30
0.0
 41
1.0
  0
SPLINE
  5
118
330
1F
100
AcDbEntity
  8
Make2D$Visibile$Curve
 62
    18
420
        0
370
    -3
100
AcDbSpline
210
0.0
220
0.0
230
1.0
 70
    12
 71
     4
 72
    14
 73
     9
 74
     0
 42
0.0000000001
 43
0.0000000001
 40
259.917458118994
 40
259.917458118994
 40
259.917458118994
 40
259.917458118994
 40
259.917458118994
 40
278.4549419840992
 40
278.4549419840992
 40
278.4549419840992
 40
278.4549419840992
 40
296.9924258492043
 40
296.9924258492043
 40
296.9924258492043
 40
296.9924258492043
 40
296.9924258492043
 10
37.64966321374641
 20
521.7601506598155
 30
0.0
 41
1.0
 10
33.63641842792549
 20
519.4425526892849
 30
0.0
 41
1.0
 10
29.62301481069539
 20
517.1252297575368
 30
0.0
 41
1.0
 10
25.60953177635952
 20
514.8080443476074
 30
0.0
 41
1.0
 10
21.59604873922081
 20
512.4908589425323
 30
0.0
 41
0.9999999999999998
 10
17.5825657020821
 20
510.1736735374576
 30
0.0
 41
0.9999999999999998
 10
13.56908266214055
 20
507.8564881372373
 30
0.0
 41
0.9999999999999999
 10
9.55559961799486
 20
505.5393027442989
 30
0.0
 41
0.9999999999999999
 10
5.542116568243728
 20
503.2221173610694
 30
0.0
 41
1.0
  0
SPLINE
  5
119
330
1F
100
AcDbEntity
  8
Make2D$Visibile$Curve
 62
    18
420
        0
370
    -3
100
AcDbSpline
210
0.0
220
0.0
230
1.0
 70
    12
 71
     4
 72
    14
 73
     9
 74
     0
 42
0.0000000001
 43
0.0000000001
 40
296.9924258492043
 40
296.9924258492043
 40
296.9924258492043
 40
296.9924258492043
 40
296.9924258492043
 40
297.5561680247401
 40
297.5561680247401
 40
297.5561680247401
 40
297.5561680247401
 40
298.119910200276
 40
298.119910200276
 40
298.119910200276
 40
298.119910200276
 40
298.119910200276
 10
5.542116568243728
 20
503.2221173610694
 30
0.0
 41
1.0
 10
5.430079890464185
 20
503.1574329587888
 30
0.0
 41
1.0
 10
5.326588155231551
 20
503.045422220974
 30
0.0
 41
0.9861179897943066
 10
5.28727769880652
 20
502.898073543807
 30
0.0
 41
1.0
 10
5.292528280466514
 20
502.7688113279102
 30
0.0
 41
0.9999999999999999
 10
5.297778862126507
 20
502.6395491120139
 30
0.0
 41
0.9999999999999999
 10
5.348910586748119
 20
502.4958741615717
 30
0.0
 41
0.9861179897943064
 10
5.461146048655338
 20
502.3926261798107
 30
0.0
 41
0.9999999999999999
 10
5.578059913357947
 20
502.3372417297683
 30
0.0
 41
1.0
  0
SPLINE
  5
11A
330
1F
100
AcDbEntity
  8
Make2D$Visibile$Curve
 62
    18
420
        0
370
    -3
100
AcDbSpline
210
0.0
220
0.0
230
1.0
 70
    28
 71
     4
 72
    10
 73
     5
 74
     0
 42
0.0000000001
 43
0.0000000001
 40
298.119910200276
 40
298.119910200276
 40
298.119910200276
 40
298.119910200276
 40
298.119910200276
 40
299.3522489287798
 40
299.3522489287798
 40
299.3522489287798
 40
299.3522489287798
 40
299.3522489287798
 10
5.578059913357947
 20
502.3372417297683
 30
0.0
 41
1.0
 10
5.815561493301402
 20
502.1410041928773
 30
0.0
 41
1.0
 10
6.053063073244857
 20
501.9447666559863
 30
0.0
 41
1.0
 10
6.290564653188312
 20
501.7485291190953
 30
0.0
 41
1.0
 10
6.52806623313154
 20
501.5522915822044
 30
0.0
 41
1.0
  0
SPLINE
  5
11B
330
1F
100
AcDbEntity
  8
Make2D$Visibile$Curve
 62
    18
420
        0
370
    -3
100
AcDbSpline
210
0.0
220
0.0
230
1.0
 70
    12
 71
     2
 72
     6
 73
     3
 74
     0
 42
0.0000000001
 43
0.0000000001
 40
-89.12238936289822
 40
-89.12238936289822
 40
-89.12238936289822
 40
-89.08799529269017
 40
-89.08799529269017
 40
-89.08799529269017
 10
5.367646350324321
 20
456.6451173102762
 30
0.0
 41
1.0
 10
5.352132493228806
 20
456.6382019171258
 30
0.0
 41
0.9959073324812188
 10
5.336998428997261
 20
456.6304907262454
 30
0.0
 41
0.9925001272815037
  0
SPLINE
  5
11C
330
1F
100
AcDbEntity
  8
Make2D$Visibile$Curve
 62
    18
420
        0
370
    -3
100
AcDbSpline
210
0.0
220
0.0
230
1.0
 70
    12
 71
     2
 72
     6
 73
     3
 74
     0
 42
0.0000000001
 43
0.0000000001
 40
-83.16012534160629
 40
-83.16012534160629
 40
-83.16012534160629
 40
-83.15361658670359
 40
-83.15361658670359
 40
-83.15361658670359
 10
7.816566020411633
 20
451.8884650548608
 30
0.0
 41
0.9257807903314602
 10
7.818052908536238
 20
451.8855499987009
 30
0.0
 41
0.9257456367173625
 10
7.819538532268814
 20
451.8826342979555
 30
0.0
 41
0.9257105279681059
  0
SPLINE
  5
11D
330
1F
100
AcDbEntity
  8
Make2D$Visibile$Curve
 62
    18
420
        0
370
    -3
100
AcDbSpline
210
0.0
220
0.0
230
1.0
 70
    24
 71
     2
 72
     6
 73
     3
 74
     0
 42
0.0000000001
 43
0.0000000001
 40
-1690.000000000017
 40
-1690.000000000017
 40
-1690.000000000017
 40
-1620.000000000008
 40
-1620.000000000008
 40
-1620.000000000008
 10
44.15070480562827
 20
444.3541100904904
 30
0.0
 10
44.15070480562827
 20
479.3541100904946
 30
0.0
 10
44.15070480562827
 20
514.3541100904988
 30
0.0
  0
SPLINE
  5
11E
330
1F
100
AcDbEntity
  8
Make2D$Visibile$Curve
 62
    18
420
        0
370
    -3
100
AcDbSpline
210
0.0
220
0.0
230
1.0
 70
    24
 71
     2
 72
     6
 73
     3
 74
     0
 42
0.0000000001
 43
0.0000000001
 40
0.0
 40
0.0
 40
0.0
 40
5.000197646903224
 40
5.000197646903224
 40
5.000197646903224
 10
44.15070480562827
 20
514.3541100904988
 30
0.0
 10
41.65060598217667
 20
514.3541100904988
 30
0.0
 10
39.15050715872508
 20
514.3541100904988
 30
0.0
  0
SPLINE
  5
11F
330
1F
100
AcDbEntity
  8
Make2D$Visibile$Curve
 62
    18
420
        0
370
    -3
100
AcDbSpline
210
0.0
220
0.0
230
1.0
 70
    24
 71
     2
 72
     6
 73
     3
 74
     0
 42
0.0000000001
 43
0.0000000001
 40
0.0
 40
0.0
 40
0.0
 40
5.000197646903224
 40
5.000197646903224
 40
5.000197646903224
 10
44.15070480562827
 20
444.3541100904904
 30
0.0
 10
41.65060598217667
 20
444.3541100904904
 30
0.0
 10
39.15050715872508
 20
444.3541100904904
 30
0.0
  0
SPLINE
  5
120
330
1F
100
AcDbEntity
  8
Make2D$Visibile$Curve
 62
    18
420
        0
370
    -3
100
AcDbSpline
210
0.0
220
0.0
230
1.0
 70
    12
 71
     2
 72
     6
 73
     3
 74
     0
 42
0.0000000001
 43
0.0000000001
 40
-92.24704826487448
 40
-92.24704826487448
 40
-92.24704826487448
 40
-91.9918534771675
 40
-91.9918534771675
 40
-91.9918534771675
 10
7.600095113627704
 20
499.9487565959459
 30
0.0
 41
0.9899859246340427
 10
7.543341941266851
 20
500.0601409682421
 30
0.0
 41
0.9946124917797132
 10
7.480617748118675
 20
500.1682754981518
 30
0.0
 41
1.0
  0
SPLINE
  5
121
330
1F
100
AcDbEntity
  8
Make2D$Visibile$Curve
 62
    18
420
        0
370
    -3
100
AcDbSpline
210
0.0
220
0.0
230
1.0
 70
    12
 71
     2
 72
     6
 73
     3
 74
     0
 42
0.0000000001
 43
0.0000000001
 40
-110.5913042393352
 40
-110.5913042393352
 40
-110.5913042393352
 40
-110.5641035501811
 40
-110.5641035501811
 40
-110.5641035501811
 10
-1.87553386854961
 20
499.0420464391639
 30
0.0
 41
1.0
 10
-1.862796593264139
 20
499.0452968762421
 30
0.0
 41
0.995091770241998
 10
-1.849939013884796
 20
499.0480329638502
 30
0.0
 41
0.990607518425539
  0
SPLINE
  5
122
330
1F
100
AcDbEntity
  8
Make2D$Visibile$Curve
 62
    18
420
        0
370
    -3
100
AcDbSpline
210
0.0
220
0.0
230
1.0
 70
    24
 71
     2
 72
     6
 73
     3
 74
     0
 42
0.0000000001
 43
0.0000000001
 40
-1659.419431007985
 40
-1659.419431007985
 40
-1659.419431007985
 40
-1650.536083599526
 40
-1650.536083599526
 40
-1650.536083599526
 10
39.15050715872508
 20
474.9346790825223
 30
0.0
 10
39.15050715872508
 20
479.3763527867517
 30
0.0
 10
39.15050715872508
 20
483.8180264909811
 30
0.0
  0
SPLINE
  5
123
330
1F
100
AcDbEntity
  8
Make2D$Visibile$Curve
 62
    18
420
        0
370
    -3
100
AcDbSpline
210
0.0
220
0.0
230
1.0
 70
    12
 71
     2
 72
     6
 73
     3
 74
     0
 42
0.0000000001
 43
0.0000000001
 40
-88.72897229833983
 40
-88.72897229833983
 40
-88.72897229833983
 40
-88.71167825577007
 40
-88.71167825577007
 40
-88.71167825577007
 10
5.076190219771662
 20
456.3893776622002
 30
0.0
 41
0.9960575503429557
 10
5.071737608984488
 20
456.3821100138557
 30
0.0
 41
0.9979421229919714
 10
5.067475865404276
 20
456.3747288212185
 30
0.0
 41
1.0
  0
SPLINE
  5
124
330
1F
100
AcDbEntity
  8
Make2D$Visibile$Curve
 62
    18
420
        0
370
    -3
100
AcDbSpline
210
0.0
220
0.0
230
1.0
 70
    12
 71
     2
 72
     6
 73
     3
 74
     0
 42
0.0000000001
 43
0.0000000001
 40
87.8628216461583
 40
87.8628216461583
 40
87.8628216461583
 40
88.71167825577007
 40
88.71167825577007
 40
88.71167825577007
 10
5.15394747017217
 20
455.5973206853507
 30
0.0
 41
1.0
 10
4.807171151165357
 20
455.9520507106654
 30
0.0
 41
0.7967945443744605
 10
5.055203113845664
 20
456.3816637362693
 30
0.0
 41
1.0
  0
SPLINE
  5
125
330
1F
100
AcDbEntity
  8
Make2D$Visibile$Curve
 62
    18
420
        0
370
    -3
100
AcDbSpline
210
0.0
220
0.0
230
1.0
 70
    12
 71
     2
 72
     6
 73
     3
 74
     0
 42
0.0000000001
 43
0.0000000001
 40
109.7585118853458
 40
109.7585118853458
 40
109.7585118853458
 40
110.5913042393352
 40
110.5913042393352
 40
110.5913042393352
 10
-1.174877071864557
 20
459.9693256467012
 30
0.0
 41
1.0
 10
-1.426417949119953
 20
459.5516617915293
 30
0.0
 41
0.8041537229578711
 10
-1.899493225649167
 20
459.669626569796
 30
0.0
 41
1.0
  0
SPLINE
  5
126
330
1F
100
AcDbEntity
  8
Make2D$Visibile$Curve
 62
    18
420
        0
370
    -3
100
AcDbSpline
210
0.0
220
0.0
230
1.0
 70
    12
 71
     2
 72
     6
 73
     3
 74
     0
 42
0.0000000001
 43
0.0000000001
 40
110.5913042393352
 40
110.5913042393352
 40
110.5913042393352
 40
130.1804246249264
 40
130.1804246249264
 40
130.1804246249264
 10
-1.895476193893046
 20
459.6765838972913
 30
0.0
 41
1.0
 10
-12.98627143969165
 20
462.5138618864138
 30
0.0
 41
0.7967945443744938
 10
-18.71024943652765
 20
452.5996316357327
 30
0.0
 41
1.0
  0
SPLINE
  5
127
330
1F
100
AcDbEntity
  8
Make2D$Visibile$Curve
 62
    18
420
        0
370
    -3
100
AcDbSpline
210
0.0
220
0.0
230
1.0
 70
    12
 71
     2
 72
     6
 73
     3
 74
     0
 42
0.0000000001
 43
0.0000000001
 40
89.12238936289822
 40
89.12238936289822
 40
89.12238936289822
 40
91.9918534771675
 40
91.9918534771675
 40
91.9918534771675
 10
5.359390630521602
 20
456.6590095528222
 30
0.0
 41
1.0
 10
6.714111900296026
 20
457.262922125216
 30
0.0
 41
0.9516663173855471
 10
7.460214188747386
 20
458.5448392399751
 30
0.0
 41
1.0
  0
SPLINE
  5
128
330
1F
100
AcDbEntity
  8
Make2D$Visibile$Curve
 62
    18
420
        0
370
    -3
100
AcDbSpline
210
0.0
220
0.0
230
1.0
 70
    12
 71
     2
 72
    14
 73
    11
 74
     0
 42
0.0000000001
 43
0.0000000001
 40
91.9918534771675
 40
91.9918534771675
 40
91.9918534771675
 40
95.60544213050464
 40
95.60544213050464
 40
99.21903078384179
 40
99.21903078384179
 40
102.8326194371789
 40
102.8326194371789
 40
106.4462080905161
 40
106.4462080905161
 40
109.3317365225952
 40
109.3317365225952
 40
109.3317365225952
 10
7.460214188747386
 20
458.5448392399751
 30
0.0
 41
1.0
 10
8.418987926460435
 20
460.1921582236847
 30
0.0
 41
0.9237122405613439
 10
7.930502787686464
 20
462.0345178910482
 30
0.0
 41
1.0
 10
7.442017648912433
 20
463.8768775584113
 30
0.0
 41
0.9237122405613439
 10
5.793025541001953
 20
464.8327708036677
 30
0.0
 41
1.0
 10
4.144033433091476
 20
465.7886640489239
 30
0.0
 41
0.9237122405613439
 10
2.302530298226884
 20
465.2969597556005
 30
0.0
 41
1.0
 10
0.4610271633621597
 20
464.8052554622764
 30
0.0
 41
0.9237122405613439
 10
-0.491982696790501
 20
463.1545952547974
 30
0.0
 41
1.0
 10
-1.238040235227158
 20
461.8623952766292
 30
0.0
 41
0.9511280869761036
 10
-1.082764950397632
 20
460.3783898116274
 30
0.0
 41
1.0
  0
SPLINE
  5
129
330
1F
100
AcDbEntity
  8
Make2D$Visibile$Curve
 62
    18
420
        0
370
    -3
100
AcDbSpline
210
0.0
220
0.0
230
1.0
 70
    12
 71
     2
 72
     6
 73
     3
 74
     0
 42
0.0000000001
 43
0.0000000001
 40
89.12238936289822
 40
89.12238936289822
 40
89.12238936289822
 40
91.9918534771675
 40
91.9918534771675
 40
91.9918534771675
 10
5.372867025038431
 20
502.0692631158208
 30
0.0
 41
1.0
 10
6.727229610120288
 20
501.4645465689953
 30
0.0
 41
0.9516663173855471
 10
7.47257089849586
 20
500.1821868387374
 30
0.0
 41
1.0
  0
SPLINE
  5
12A
330
1F
100
AcDbEntity
  8
Make2D$Visibile$Curve
 62
    18
420
        0
370
    -3
100
AcDbSpline
210
0.0
220
0.0
230
1.0
 70
    12
 71
     2
 72
     6
 73
     3
 74
     0
 42
0.0000000001
 43
0.0000000001
 40
-21.66589306032954
 40
-21.66589306032954
 40
-21.66589306032954
 40
-20.84868810233125
 40
-20.84868810233125
 40
-20.84868810233125
 10
-19.06676673130993
 20
506.8296869192868
 30
0.0
 41
0.9860757641187484
 10
-18.88934086920154
 20
506.4814690583653
 30
0.0
 41
0.9926808690042676
 10
-18.69413485028872
 20
506.1428982011221
 30
0.0
 41
1.0
  0
SPLINE
  5
12B
330
1F
100
AcDbEntity
  8
Make2D$Visibile$Curve
 62
    18
420
        0
370
    -3
100
AcDbSpline
210
0.0
220
0.0
230
1.0
 70
    12
 71
     2
 72
     6
 73
     3
 74
     0
 42
0.0000000001
 43
0.0000000001
 40
-92.23145942038875
 40
-92.23145942038875
 40
-92.23145942038875
 40
-91.97999908378684
 40
-91.97999908378684
 40
-91.97999908378684
 10
7.594290851031711
 20
499.9591640156847
 30
0.0
 41
0.955861340355815
 10
7.536593504453112
 20
500.0724014342194
 30
0.0
 41
0.953104494364996
 10
7.472726401531685
 20
500.1822772274218
 30
0.0
 41
0.9510823270217128
  0
SPLINE
  5
12C
330
1F
100
AcDbEntity
  8
Make2D$Visibile$Curve
 62
    18
420
        0
370
    -3
100
AcDbSpline
210
0.0
220
0.0
230
1.0
 70
    12
 71
     2
 72
     6
 73
     3
 74
     0
 42
0.0000000001
 43
0.0000000001
 40
-109.7232299200935
 40
-109.7232299200935
 40
-109.7232299200935
 40
-109.7074291288083
 40
-109.7074291288083
 40
-109.7074291288083
 10
-1.138413116025369
 20
498.7194169786495
 30
0.0
 41
0.946541773531933
 10
-1.134591185767012
 20
498.7123506093544
 30
0.0
 41
0.9458481890337485
 10
-1.130943951262922
 20
498.705192508601
 30
0.0
 41
0.9452976720789908
  0
SPLINE
  5
12D
330
1F
100
AcDbEntity
  8
Make2D$Visibile$Curve
 62
    18
420
        0
370
    -3
100
AcDbSpline
210
0.0
220
0.0
230
1.0
 70
    12
 71
     2
 72
     6
 73
     3
 74
     0
 42
0.0000000001
 43
0.0000000001
 40
-92.23145942038875
 40
-92.23145942038875
 40
-92.23145942038875
 40
-91.96413541425304
 40
-91.96413541425304
 40
-91.96413541425304
 10
7.602322003839463
 20
499.9452435035849
 30
0.0
 41
0.955861340355815
 10
7.540973558018956
 20
500.0656466078487
 30
0.0
 41
0.9529305755102577
 10
7.472656806394364
 20
500.1822371768446
 30
0.0
 41
0.9508301093580077
  0
SPLINE
  5
12E
330
1F
100
AcDbEntity
  8
Make2D$Visibile$Curve
 62
    18
420
        0
370
    -3
100
AcDbSpline
210
0.0
220
0.0
230
1.0
 70
    12
 71
     2
 72
     6
 73
     3
 74
     0
 42
0.0000000001
 43
0.0000000001
 40
109.3317365225952
 40
109.3317365225952
 40
109.3317365225952
 40
109.7585118853458
 40
109.7585118853458
 40
109.7585118853458
 10
-1.086781982153525
 20
460.3714324841324
 30
0.0
 41
1.0
 10
-1.06281461188147
 20
460.1554780985011
 30
0.0
 41
0.9472648515964248
 10
-1.174877071864557
 20
459.9693256467012
 30
0.0
 41
1.0
  0
SPLINE
  5
12F
330
1F
100
AcDbEntity
  8
Make2D$Visibile$Curve
 62
    18
420
        0
370
    -3
100
AcDbSpline
210
0.0
220
0.0
230
1.0
 70
    12
 71
     2
 72
     8
 73
     5
 74
     0
 42
0.0000000001
 43
0.0000000001
 40
20.84868810233125
 40
20.84868810233125
 40
20.84868810233125
 40
44.55315732664006
 40
44.55315732664006
 40
68.25762655094887
 40
68.25762655094887
 40
68.25762655094887
 10
-18.71024943652765
 20
452.5996316357327
 30
0.0
 41
1.0
 10
-26.25415635168073
 20
439.5331943412394
 30
0.0
 41
0.707294995541606
 10
-13.19173745802209
 20
431.9823316331765
 30
0.0
 41
1.0
 10
-0.1293185643633772
 20
424.4314689251142
 30
0.0
 41
0.707294995541606
 10
7.428497774450307
 20
437.4898657372694
 30
0.0
 41
1.0
  0
SPLINE
  5
130
330
1F
100
AcDbEntity
  8
Make2D$Visibile$Curve
 62
    18
420
        0
370
    -3
100
AcDbSpline
210
0.0
220
0.0
230
1.0
 70
    12
 71
     2
 72
     6
 73
     3
 74
     0
 42
0.0000000001
 43
0.0000000001
 40
68.25762655094887
 40
68.25762655094887
 40
68.25762655094887
 40
87.8628216461583
 40
87.8628216461583
 40
87.8628216461583
 10
7.428497774450307
 20
437.4898657372694
 30
0.0
 41
1.0
 10
13.16937541489683
 20
447.4089554476118
 30
0.0
 41
0.7964727156142996
 10
5.157964501928063
 20
455.6042780128457
 30
0.0
 41
1.0
  0
SPLINE
  5
131
330
1F
100
AcDbEntity
  8
Make2D$Visibile$Curve
 62
    18
420
        0
370
    -3
100
AcDbSpline
210
0.0
220
0.0
230
1.0
 70
    28
 71
     4
 72
    10
 73
     5
 74
     0
 42
0.0000000001
 43
0.0000000001
 40
160.2340835917005
 40
160.2340835917005
 40
160.2340835917005
 40
160.2340835917005
 40
160.2340835917005
 40
178.7723752752941
 40
178.7723752752941
 40
178.7723752752941
 40
178.7723752752941
 40
178.7723752752941
 10
39.15070497227794
 20
437.8580957184902
 30
0.0
 41
1.0
 10
39.15070492045766
 20
442.4926686397828
 30
0.0
 41
1.0
 10
39.15070486863738
 20
447.1272415610754
 30
0.0
 41
1.0
 10
39.15070481681687
 20
451.7618144823678
 30
0.0
 41
1.0
 10
39.15070476499659
 20
456.3963874036601
 30
0.0
 41
1.0
  0
SPLINE
  5
132
330
1F
100
AcDbEntity
  8
Make2D$Visibile$Curve
 62
    18
420
        0
370
    -3
100
AcDbSpline
210
0.0
220
0.0
230
1.0
 70
    12
 71
     4
 72
    18
 73
    13
 74
     0
 42
0.0000000001
 43
0.0000000001
 40
178.7723752752941
 40
178.7723752752941
 40
178.7723752752941
 40
178.7723752752941
 40
178.7723752752941
 40
197.3106669588877
 40
197.3106669588877
 40
197.3106669588877
 40
197.3106669588877
 40
197.873972867637
 40
197.873972867637
 40
197.873972867637
 40
197.873972867637
 40
198.4372787763863
 40
198.4372787763863
 40
198.4372787763863
 40
198.4372787763863
 40
198.4372787763863
 10
39.15070476499659
 20
456.3963874036601
 30
0.0
 41
1.0
 10
39.15070471317631
 20
461.0309603249527
 30
0.0
 41
1.0
 10
39.15070466135603
 20
465.6655332462453
 30
0.0
 41
1.0
 10
39.15065525978821
 20
470.3001061659609
 30
0.0
 41
1.0
 10
39.15050715872508
 20
474.9346790825223
 30
0.0
 41
1.0
 10
39.15050302732357
 20
475.0639643211132
 30
0.0
 41
1.0
 10
39.10507800684704
 20
475.2094031531534
 30
0.0
 41
0.9861567708385836
 10
38.99712209116001
 20
475.3169271347513
 30
0.0
 41
1.0
 10
38.8825795328612
 20
475.3768830705656
 30
0.0
 41
1.0
 10
38.76803697456262
 20
475.4368390063798
 30
0.0
 41
1.0
 10
38.61815979180364
 20
475.4642746845876
 30
0.0
 41
0.9861567708385902
 10
38.47276151083081
 20
475.4187200334445
 30
0.0
 41
0.9999999999999901
 10
38.36640884607255
 20
475.3452093362653
 30
0.0
 41
1.0
  0
SPLINE
  5
133
330
1F
100
AcDbEntity
  8
Make2D$Visibile$Curve
 62
    18
420
        0
370
    -3
100
AcDbSpline
210
0.0
220
0.0
230
1.0
 70
    12
 71
     4
 72
    14
 73
     9
 74
     0
 42
0.0000000001
 43
0.0000000001
 40
238.7810623008984
 40
238.7810623008984
 40
238.7810623008984
 40
238.7810623008984
 40
238.7810623008984
 40
257.3193824677205
 40
257.3193824677205
 40
257.3193824677205
 40
257.3193824677205
 40
259.917458118994
 40
259.917458118994
 40
259.917458118994
 40
259.917458118994
 40
259.917458118994
 10
39.15070491191432
 20
502.3565097556075
 30
0.0
 41
1.0
 10
39.15070482782153
 20
506.991089797564
 30
0.0
 41
1.0
 10
39.15070474372851
 20
511.6256698395205
 30
0.0
 41
1.0
 10
39.15054585297185
 20
516.2602498651493
 30
0.0
 41
1.0
 10
39.15006934888765
 20
520.8948298581226
 30
0.0
 41
1.0
 10
39.15000998866991
 20
521.47217995221
 30
0.0
 41
0.7500000108718515
 10
38.77479939197474
 20
521.9770476529802
 30
0.0
 41
0.6666666811624687
 10
38.14963339179795
 20
522.0488770973536
 30
0.0
 41
0.7500000108718518
 10
37.64966321374641
 20
521.7601506598155
 30
0.0
 41
1.0
  0
SPLINE
  5
134
330
1F
100
AcDbEntity
  8
Make2D$Visibile$Curve
 62
    18
420
        0
370
    -3
100
AcDbSpline
210
0.0
220
0.0
230
1.0
 70
    12
 71
     2
 72
     6
 73
     3
 74
     0
 42
0.0000000001
 43
0.0000000001
 40
-21.66589306032955
 40
-21.66589306032955
 40
-21.66589306032955
 40
-20.84868810233125
 40
-20.84868810233125
 40
-20.84868810233125
 10
-19.05873557850185
 20
506.8157664071873
 30
0.0
 41
0.9860757641187484
 10
-18.88130971639376
 20
506.4675485462657
 30
0.0
 41
0.9926808690042676
 10
-18.68610369748103
 20
506.1289776890223
 30
0.0
 41
1.0
  0
SPLINE
  5
135
330
1F
100
AcDbEntity
  8
Make2D$Visibile$Curve
 62
    18
420
        0
370
    -3
100
AcDbSpline
210
0.0
220
0.0
230
1.0
 70
    12
 71
     2
 72
     6
 73
     3
 74
     0
 42
0.0000000001
 43
0.0000000001
 40
20.84868810233125
 40
20.84868810233125
 40
20.84868810233125
 40
21.70758825825756
 40
21.70758825825756
 40
21.70758825825756
 10
-18.686328247657
 20
506.1290060918604
 30
0.0
 41
1.0
 10
-18.88153426656988
 20
506.4675769491038
 30
0.0
 41
0.9893942204910493
 10
-19.05896012867834
 20
506.8157948100256
 30
0.0
 41
0.9795570138269709
  0
SPLINE
  5
136
330
1F
100
AcDbEntity
  8
Make2D$Visibile$Curve
 62
    18
420
        0
370
    -3
100
AcDbSpline
210
0.0
220
0.0
230
1.0
 70
    12
 71
     2
 72
     6
 73
     3
 74
     0
 42
0.0000000001
 43
0.0000000001
 40
87.8628216461583
 40
87.8628216461583
 40
87.8628216461583
 40
88.71167825577007
 40
88.71167825577007
 40
88.71167825577007
 10
5.168054055330913
 20
503.1310737349461
 30
0.0
 41
1.0
 10
4.821067251066672
 20
502.7765495976146
 30
0.0
 41
0.7967945443744605
 10
5.068844177686515
 20
502.3467894308774
 30
0.0
 41
1.0
  0
SPLINE
  5
137
330
1F
100
AcDbEntity
  8
Make2D$Visibile$Curve
 62
    18
420
        0
370
    -3
100
AcDbSpline
210
0.0
220
0.0
230
1.0
 70
    12
 71
     2
 72
     6
 73
     3
 74
     0
 42
0.0000000001
 43
0.0000000001
 40
109.3317365225952
 40
109.3317365225952
 40
109.3317365225952
 40
109.7585118853458
 40
109.7585118853458
 40
109.7585118853458
 10
-1.075507922438192
 20
498.3606668975635
 30
0.0
 41
1.0
 10
-1.051412378894429
 20
498.5766070195708
 30
0.0
 41
0.9472648515964248
 10
-1.163364330274362
 20
498.7628259520957
 30
0.0
 41
1.0
  0
SPLINE
  5
138
330
1F
100
AcDbEntity
  8
Make2D$Visibile$Curve
 62
    18
420
        0
370
    -3
100
AcDbSpline
210
0.0
220
0.0
230
1.0
 70
    12
 71
     2
 72
     6
 73
     3
 74
     0
 42
0.0000000001
 43
0.0000000001
 40
109.7585118853458
 40
109.7585118853458
 40
109.7585118853458
 40
110.5913042393352
 40
110.5913042393352
 40
110.5913042393352
 10
-1.163364330274362
 20
498.7628259520957
 30
0.0
 41
1.0
 10
-1.414657263157998
 20
499.180639033186
 30
0.0
 41
0.8041537229578711
 10
-1.887802473132297
 20
499.062955064639
 30
0.0
 41
1.0
  0
SPLINE
  5
139
330
1F
100
AcDbEntity
  8
Make2D$Visibile$Curve
 62
    18
420
        0
370
    -3
100
AcDbSpline
210
0.0
220
0.0
230
1.0
 70
    12
 71
     2
 72
     8
 73
     5
 74
     0
 42
0.0000000001
 43
0.0000000001
 40
20.84868810233125
 40
20.84868810233125
 40
20.84868810233125
 40
44.55315732664006
 40
44.55315732664006
 40
68.25762655094888
 40
68.25762655094888
 40
68.25762655094888
 10
-18.69435940046492
 20
506.1429266039602
 30
0.0
 41
1.0
 10
-26.23050953799237
 20
519.2138392048494
 30
0.0
 41
0.7072949955416059
 10
-13.16361120869169
 20
526.756947519141
 30
0.0
 41
1.0
 10
-0.0967128793908277
 20
534.3000558334328
 30
0.0
 41
0.7072949955416059
 10
7.453351451692242
 20
521.2371754576711
 30
0.0
 41
1.0
  0
SPLINE
  5
13A
330
1F
100
AcDbEntity
  8
Make2D$Visibile$Curve
 62
    18
420
        0
370
    -3
100
AcDbSpline
210
0.0
220
0.0
230
1.0
 70
    12
 71
     2
 72
     6
 73
     3
 74
     0
 42
0.0000000001
 43
0.0000000001
 40
68.25762655094888
 40
68.25762655094888
 40
68.25762655094888
 40
87.8628216461583
 40
87.8628216461583
 40
87.8628216461583
 10
7.453351451692242
 20
521.2371754576711
 30
0.0
 41
1.0
 10
13.18834070773599
 20
511.3146800559356
 30
0.0
 41
0.7964727156142997
 10
5.172066956929484
 20
503.1241140244088
 30
0.0
 41
1.0
  0
SPLINE
  5
13B
330
1F
100
AcDbEntity
  8
Make2D$Visibile$Curve
 62
    18
420
        0
370
    -3
100
AcDbSpline
210
0.0
220
0.0
230
1.0
 70
    12
 71
     2
 72
     6
 73
     3
 74
     0
 42
0.0000000001
 43
0.0000000001
 40
110.5913042393352
 40
110.5913042393352
 40
110.5913042393352
 40
130.1804246249264
 40
130.1804246249264
 40
130.1804246249264
 10
-1.883789571533725
 20
499.0559953541017
 30
0.0
 41
1.0
 10
-12.97626690077308
 20
496.2253006916381
 30
0.0
 41
0.7967945443744938
 10
-18.69435940046492
 20
506.1429266039602
 30
0.0
 41
1.0
  0
SPLINE
  5
13C
330
1F
100
AcDbEntity
  8
Make2D$Visibile$Curve
 62
    18
420
        0
370
    -3
100
AcDbSpline
210
0.0
220
0.0
230
1.0
 70
    12
 71
     2
 72
     6
 73
     3
 74
     0
 42
0.0000000001
 43
0.0000000001
 40
88.71971159280422
 40
88.71971159280422
 40
88.71971159280422
 40
89.12238936289822
 40
89.12238936289822
 40
89.12238936289822
 10
5.072899467861816
 20
502.3398549216245
 30
0.0
 41
1.0
 10
5.178973707776842
 20
502.1609982706565
 30
0.0
 41
0.9530062462683582
 10
5.36885412343986
 20
502.0762228263582
 30
0.0
 41
1.0
  0
SPLINE
  5
13D
330
1F
100
AcDbEntity
  8
Make2D$Visibile$Curve
 62
    18
420
        0
370
    -3
100
AcDbSpline
210
0.0
220
0.0
230
1.0
 70
    12
 71
     2
 72
    14
 73
    11
 74
     0
 42
0.0000000001
 43
0.0000000001
 40
91.9918534771675
 40
91.9918534771675
 40
91.9918534771675
 40
95.60544213050464
 40
95.60544213050464
 40
99.21903078384179
 40
99.21903078384179
 40
102.8326194371789
 40
102.8326194371789
 40
106.4462080905161
 40
106.4462080905161
 40
109.3317365225952
 40
109.3317365225952
 40
109.3317365225952
 10
7.47257089849586
 20
500.1821868387374
 30
0.0
 41
1.0
 10
8.430366718169285
 20
498.5342990749514
 30
0.0
 41
0.9237122405613439
 10
7.940788151900733
 20
496.6922296674154
 30
0.0
 41
1.0
 10
7.45120958563191
 20
494.8501602598792
 30
0.0
 41
0.9237122405613439
 10
5.801650407626767
 20
493.8952459252207
 30
0.0
 41
1.0
 10
4.152091229621456
 20
492.9403315905621
 30
0.0
 41
0.9237122405613439
 10
2.310880265129072
 20
493.4331288024275
 30
0.0
 41
1.0
 10
0.4696693006365618
 20
493.9259260142928
 30
0.0
 41
0.9237122405613439
 10
-0.4823606593429304
 20
495.5771515801696
 30
0.0
 41
1.0
 10
-1.227651094424111
 20
496.8697941454644
 30
0.0
 41
0.9511280869761036
 10
-1.071495020839848
 20
498.3537071870262
 30
0.0
 41
1.0
  0
SPLINE
  5
13E
330
1F
100
AcDbEntity
  8
Make2D$Visibile$Curve
 62
    18
420
        0
370
    -3
100
AcDbSpline
210
0.0
220
0.0
230
1.0
 70
    12
 71
     2
 72
     6
 73
     3
 74
     0
 42
0.0000000001
 43
0.0000000001
 40
2.356194490193013
 40
2.356194490193013
 40
2.356194490193013
 40
2.484126282085534
 40
2.484126282085534
 40
2.484126282085534
 10
241.0011181059126
 20
437.7397968565956
 30
0.0
 41
1.0
 10
241.001650425835
 20
437.7092979459722
 30
0.0
 41
0.9522912631296967
 10
241.016709958902
 20
437.6797419481673
 30
0.0
 41
0.9201248702097529
  0
SPLINE
  5
13F
330
1F
100
AcDbEntity
  8
Make2D$Visibile$Curve
 62
    18
420
        0
370
    -3
100
AcDbSpline
210
0.0
220
0.0
230
1.0
 70
    28
 71
     2
 72
     6
 73
     3
 74
     0
 42
0.0000000001
 43
0.0000000001
 40
0.0
 40
0.0
 40
0.0
 40
4.976060778315551
 40
4.976060778315551
 40
4.976060778315551
 10
246.5012031456521
 20
429.9558485489768
 30
0.0
 41
0.9690172749619869
 10
244.0131727590521
 20
429.9558344588199
 30
0.0
 41
0.9690172749619869
 10
241.525142372452
 20
429.9558203686629
 30
0.0
 41
0.9690172749619869
  0
SPLINE
  5
140
330
1F
100
AcDbEntity
  8
Make2D$Visibile$Curve
 62
    18
420
        0
370
    -3
100
AcDbSpline
210
0.0
220
0.0
230
1.0
 70
    28
 71
     2
 72
     6
 73
     3
 74
     0
 42
0.0000000001
 43
0.0000000001
 40
0.0
 40
0.0
 40
0.0
 40
4.991818739009182
 40
4.991818739009182
 40
4.991818739009182
 10
241.5089487907167
 20
460.1475332169645
 30
0.0
 41
0.9350059131345058
 10
244.004858157656
 20
460.1475473517413
 30
0.0
 41
0.9350059131345058
 10
246.5007675245952
 20
460.147561486518
 30
0.0
 41
0.9350059131345058
  0
SPLINE
  5
141
330
1F
100
AcDbEntity
  8
Make2D$Visibile$Curve
 62
    18
420
        0
370
    -3
100
AcDbSpline
210
0.0
220
0.0
230
1.0
 70
    28
 71
     2
 72
     6
 73
     3
 74
     0
 42
0.0000000001
 43
0.0000000001
 40
1.390003608081644
 40
1.390003608081644
 40
1.390003608081644
 40
1.497582456986769
 40
1.497582456986769
 40
1.497582456986769
 10
241.0011181059129
 20
459.6336868962212
 30
0.0
 41
0.9729026580494581
 10
241.0011181059128
 20
459.6753068161188
 30
0.0
 41
0.9854027343166005
 10
241.0011181059126
 20
459.719332215639
 30
0.0
 41
1.0
  0
SPLINE
  5
142
330
1F
100
AcDbEntity
  8
Make2D$Visibile$Curve
 62
    18
420
        0
370
    -3
100
AcDbSpline
210
0.0
220
0.0
230
1.0
 70
    28
 71
     2
 72
     8
 73
     5
 74
     0
 42
0.0000000001
 43
0.0000000001
 40
58.92104890393487
 40
58.92104890393487
 40
58.92104890393487
 40
59.96824646768545
 40
59.96824646768545
 40
61.01544403143603
 40
61.01544403143603
 40
61.01544403143603
 10
240.9912724870401
 20
480.2559591145473
 30
0.0
 41
1.0
 10
240.9912724870391
 20
479.9672839883215
 30
0.0
 41
0.8660254006459526
 10
240.9912724870401
 20
479.3899337107623
 30
0.0
 41
1.0
 10
240.9912724870391
 20
478.8125834332036
 30
0.0
 41
0.8660254006459526
 10
240.9912724870401
 20
478.5239082944245
 30
0.0
 41
1.0
  0
SPLINE
  5
143
330
1F
100
AcDbEntity
  8
Make2D$Visibile$Curve
 62
    18
420
        0
370
    -3
100
AcDbSpline
210
0.0
220
0.0
230
1.0
 70
    28
 71
     4
 72
    10
 73
     5
 74
     0
 42
0.0000000001
 43
0.0000000001
 40
40.38353686812732
 40
40.38353686812732
 40
40.38353686812732
 40
40.38353686812732
 40
40.38353686812732
 40
58.92104890393487
 40
58.92104890393487
 40
58.92104890393487
 40
58.92104890393487
 40
58.92104890393487
 10
1062.989946625728
 20
489.5247149537436
 30
0.0
 41
1.0
 10
1062.989946625728
 20
487.2075259939438
 30
0.0
 41
1.0
 10
1062.989946625728
 20
484.890337034145
 30
0.0
 41
1.0
 10
1062.989946625728
 20
482.5731480743461
 30
0.0
 41
1.0
 10
1062.989946625728
 20
480.2559591145473
 30
0.0
 41
1.0
  0
SPLINE
  5
144
330
1F
100
AcDbEntity
  8
Make2D$Visibile$Curve
 62
    18
420
        0
370
    -3
100
AcDbSpline
210
0.0
220
0.0
230
1.0
 70
    28
 71
     4
 72
    14
 73
     9
 74
     0
 42
0.0000000001
 43
0.0000000001
 40
58.92104890393487
 40
58.92104890393487
 40
58.92104890393487
 40
58.92104890393487
 40
58.92104890393487
 40
59.96824646768545
 40
59.96824646768545
 40
59.96824646768545
 40
59.96824646768545
 40
61.01544403143603
 40
61.01544403143603
 40
61.01544403143603
 40
61.01544403143603
 40
61.01544403143603
 10
1062.989946625728
 20
480.2559591145473
 30
0.0
 41
1.0
 10
1062.989946625728
 20
480.1219845224757
 30
0.0
 41
0.9330127003229742
 10
1062.989946625727
 20
479.9144527687855
 30
0.0
 41
0.9106836004306323
 10
1062.989946625728
 20
479.6578829065576
 30
0.0
 41
0.9330127003229743
 10
1062.989946625728
 20
479.3899337107623
 30
0.0
 41
1.0
 10
1062.989946625728
 20
479.1219845149676
 30
0.0
 41
0.9330127003229742
 10
1062.989946625727
 20
478.8654146504425
 30
0.0
 41
0.9106836004306323
 10
1062.989946625728
 20
478.6578828923215
 30
0.0
 41
0.9330127003229743
 10
1062.989946625728
 20
478.5239082944245
 30
0.0
 41
1.0
  0
SPLINE
  5
145
330
1F
100
AcDbEntity
  8
Make2D$Visibile$Curve
 62
    18
420
        0
370
    -3
100
AcDbSpline
210
0.0
220
0.0
230
1.0
 70
    28
 71
     4
 72
    10
 73
     5
 74
     0
 42
0.0000000001
 43
0.0000000001
 40
40.38353686812732
 40
40.38353686812732
 40
40.38353686812732
 40
40.38353686812732
 40
40.38353686812732
 40
58.92104890393487
 40
58.92104890393487
 40
58.92104890393487
 40
58.92104890393487
 40
58.92104890393487
 10
240.9912724870401
 20
489.5247149537427
 30
0.0
 41
1.0
 10
240.9912724870401
 20
487.2075259939438
 30
0.0
 41
1.0
 10
240.9912724870401
 20
484.890337034145
 30
0.0
 41
1.0
 10
240.9912724870401
 20
482.5731480743461
 30
0.0
 41
1.0
 10
240.9912724870401
 20
480.2559591145473
 30
0.0
 41
1.0
  0
SPLINE
  5
146
330
1F
100
AcDbEntity
  8
Make2D$Visibile$Curve
 62
    18
420
        0
370
    -3
100
AcDbSpline
210
0.0
220
0.0
230
1.0
 70
    28
 71
     4
 72
    10
 73
     5
 74
     0
 42
0.0000000001
 43
0.0000000001
 40
98.09124803143607
 40
98.09124803143607
 40
98.09124803143607
 40
98.09124803143607
 40
98.09124803143607
 40
98.36285979579439
 40
98.36285979579439
 40
98.36285979579439
 40
98.36285979579439
 40
98.36285979579439
 10
1062.989946625728
 20
459.986006239008
 30
0.0
 41
1.0
 10
1062.989946625728
 20
459.9548412015301
 30
0.0
 41
1.0
 10
1062.989946625729
 20
459.931026592973
 30
0.0
 41
0.9967775339795171
 10
1062.989946625728
 20
459.9190188673469
 30
0.0
 41
0.9949903685153781
 10
1062.989946625728
 20
459.9190188673475
 30
0.0
 41
0.9948080326366631
  0
SPLINE
  5
147
330
1F
100
AcDbEntity
  8
Make2D$Visibile$Curve
 62
    18
420
        0
370
    -3
100
AcDbSpline
210
0.0
220
0.0
230
1.0
 70
    28
 71
     4
 72
    10
 73
     5
 74
     0
 42
0.0000000001
 43
0.0000000001
 40
21.57369063996708
 40
21.57369063996708
 40
21.57369063996708
 40
21.57369063996708
 40
21.57369063996708
 40
21.84602483231976
 40
21.84602483231976
 40
21.84602483231976
 40
21.84602483231976
 40
21.84602483231976
 10
1062.989946625727
 20
498.8608607537188
 30
0.0
 41
0.9947921649492537
 10
1062.989946625729
 20
498.8608607537196
 30
0.0
 41
0.9949662352196196
 10
1062.989946625728
 20
498.8487999536484
 30
0.0
 41
0.9967563248301465
 10
1062.989946625728
 20
498.8248876093403
 30
0.0
 41
1.0
 10
1062.989946625728
 20
498.7936420127307
 30
0.0
 41
1.0
  0
SPLINE
  5
148
330
1F
100
AcDbEntity
  8
Make2D$Visibile$Curve
 62
    18
420
        0
370
    -3
100
AcDbSpline
210
0.0
220
0.0
230
1.0
 70
    28
 71
     3
 72
     8
 73
     4
 74
     0
 42
0.0000000001
 43
0.0000000001
 40
89.95803854540512
 40
89.95803854540512
 40
89.95803854540512
 40
89.95803854540512
 40
91.51111378641286
 40
91.51111378641286
 40
91.51111378641286
 40
91.51111378641286
 10
246.9899466257366
 20
498.801083846316
 30
0.0
 41
1.0
 10
246.9899466257365
 20
498.7483315509373
 30
0.0
 41
0.9969724305050658
 10
246.9899466257365
 20
498.7218350747552
 30
0.0
 41
0.9948266077839502
 10
246.9899466257359
 20
498.7218350747551
 30
0.0
 41
0.993562531836653
  0
SPLINE
  5
149
330
1F
100
AcDbEntity
  8
Make2D$Visibile$Curve
 62
    18
420
        0
370
    -3
100
AcDbSpline
210
0.0
220
0.0
230
1.0
 70
    28
 71
     2
 72
     6
 73
     3
 74
     0
 42
0.0000000001
 43
0.0000000001
 40
0.0
 40
0.0
 40
0.0
 40
809.9999999999989
 40
809.9999999999989
 40
809.9999999999989
 10
1056.989946625736
 20
498.7218350747551
 30
0.0
 41
0.993562531836653
 10
651.9899466257363
 20
498.7218350747551
 30
0.0
 41
0.993562531836653
 10
246.9899466257368
 20
498.7218350747551
 30
0.0
 41
0.993562531836653
  0
SPLINE
  5
14A
330
1F
100
AcDbEntity
  8
Make2D$Visibile$Curve
 62
    18
420
        0
370
    -3
100
AcDbSpline
210
0.0
220
0.0
230
1.0
 70
    28
 71
     3
 72
     8
 73
     4
 74
     0
 42
0.0000000001
 43
0.0000000001
 40
-91.51111378641286
 40
-91.51111378641286
 40
-91.51111378641286
 40
-91.51111378641286
 40
-89.95803854540512
 40
-89.95803854540512
 40
-89.95803854540512
 40
-89.95803854540512
 10
1056.989946625736
 20
498.7218350747551
 30
0.0
 41
0.993562531836653
 10
1056.989946625736
 20
498.7218350747552
 30
0.0
 41
0.9948266077839502
 10
1056.989946625736
 20
498.7483315509373
 30
0.0
 41
0.9969724305050658
 10
1056.989946625736
 20
498.801083846316
 30
0.0
 41
1.0
  0
SPLINE
  5
14B
330
1F
100
AcDbEntity
  8
Make2D$Visibile$Curve
 62
    18
420
        0
370
    -3
100
AcDbSpline
210
0.0
220
0.0
230
1.0
 70
    28
 71
     2
 72
     6
 73
     3
 74
     0
 42
0.0000000001
 43
0.0000000001
 40
309.9999999998925
 40
309.9999999998925
 40
309.9999999998925
 40
1119.999999999892
 40
1119.999999999892
 40
1119.999999999892
 10
246.9899466257355
 20
528.7278409582628
 30
0.0
 41
0.9100637564058569
 10
651.9899466257352
 20
528.7278409582628
 30
0.0
 41
0.9100637564058569
 10
1056.989946625735
 20
528.7278409582628
 30
0.0
 41
0.9100637564058569
  0
SPLINE
  5
14C
330
1F
100
AcDbEntity
  8
Make2D$Visibile$Curve
 62
    18
420
        0
370
    -3
100
AcDbSpline
210
0.0
220
0.0
230
1.0
 70
    28
 71
     3
 72
     8
 73
     4
 74
     0
 42
0.0000000001
 43
0.0000000001
 40
-49.24871976011963
 40
-49.24871976011963
 40
-49.24871976011963
 40
-49.24871976011963
 40
-47.70401691957083
 40
-47.70401691957083
 40
-47.70401691957083
 40
-47.70401691957083
 10
1056.989946625736
 20
459.9634543125012
 30
0.0
 41
1.0
 10
1056.989946625736
 20
460.0156387325122
 30
0.0
 41
0.9969887516874267
 10
1056.989946625736
 20
460.041849331078
 30
0.0
 41
0.9948497690387399
 10
1056.989946625735
 20
460.0418493310789
 30
0.0
 41
0.9935830520539395
  0
SPLINE
  5
14D
330
1F
100
AcDbEntity
  8
Make2D$Visibile$Curve
 62
    18
420
        0
370
    -3
100
AcDbSpline
210
0.0
220
0.0
230
1.0
 70
    28
 71
     2
 72
     6
 73
     3
 74
     0
 42
0.0000000001
 43
0.0000000001
 40
0.0
 40
0.0
 40
0.0
 40
809.9999999999989
 40
809.9999999999989
 40
809.9999999999989
 10
1056.989946625736
 20
430.0358453773474
 30
0.0
 41
0.9100404613269945
 10
651.9899466257359
 20
430.0358453773474
 30
0.0
 41
0.9100404613269945
 10
246.9899466257361
 20
430.0358453773474
 30
0.0
 41
0.9100404613269945
  0
SPLINE
  5
14E
330
1F
100
AcDbEntity
  8
Make2D$Visibile$Curve
 62
    18
420
        0
370
    -3
100
AcDbSpline
210
0.0
220
0.0
230
1.0
 70
    28
 71
     2
 72
     6
 73
     3
 74
     0
 42
0.0000000001
 43
0.0000000001
 40
309.9999999998925
 40
309.9999999998925
 40
309.9999999998925
 40
1119.999999999892
 40
1119.999999999892
 40
1119.999999999892
 10
246.9899466257363
 20
460.0418493310789
 30
0.0
 41
0.9935830520539395
 10
651.9899466257358
 20
460.0418493310789
 30
0.0
 41
0.9935830520539395
 10
1056.989946625735
 20
460.0418493310789
 30
0.0
 41
0.9935830520539395
  0
SPLINE
  5
14F
330
1F
100
AcDbEntity
  8
Make2D$Visibile$Curve
 62
    18
420
        0
370
    -3
100
AcDbSpline
210
0.0
220
0.0
230
1.0
 70
    28
 71
     3
 72
     8
 73
     4
 74
     0
 42
0.0000000001
 43
0.0000000001
 40
47.70401691957203
 40
47.70401691957203
 40
47.70401691957203
 40
47.70401691957203
 40
49.24871976011963
 40
49.24871976011963
 40
49.24871976011963
 40
49.24871976011963
 10
246.9899466257367
 20
460.0418493310791
 30
0.0
 41
0.9935830520539426
 10
246.989946625737
 20
460.0418493310778
 30
0.0
 41
0.9948497690387434
 10
246.989946625737
 20
460.0156387325125
 30
0.0
 41
0.9969887516874292
 10
246.9899466257366
 20
459.9634543125012
 30
0.0
 41
1.0
  0
SPLINE
  5
150
330
1F
100
AcDbEntity
  8
Make2D$Visibile$Curve
 62
    18
420
        0
370
    -3
100
AcDbSpline
210
0.0
220
0.0
230
1.0
 70
    28
 71
     2
 72
     6
 73
     3
 74
     0
 42
0.0000000001
 43
0.0000000001
 40
1126.0
 40
1126.0
 40
1126.0
 40
1126.519387109812
 40
1126.519387109812
 40
1126.519387109812
 10
1056.989946625735
 20
498.8608607537188
 30
0.0
 41
0.9947921649492537
 10
1057.249640180641
 20
498.8608607537188
 30
0.0
 41
0.9947921649492537
 10
1057.509333735547
 20
498.8608607537188
 30
0.0
 41
0.9947921649492537
  0
SPLINE
  5
151
330
1F
100
AcDbEntity
  8
Make2D$Visibile$Curve
 62
    18
420
        0
370
    -3
100
AcDbSpline
210
0.0
220
0.0
230
1.0
 70
    28
 71
     2
 72
     6
 73
     3
 74
     0
 42
0.0000000001
 43
0.0000000001
 40
815.9999999999911
 40
815.9999999999911
 40
815.9999999999911
 40
816.4882084872477
 40
816.4882084872477
 40
816.4882084872477
 10
246.9899466257372
 20
459.9190188673478
 30
0.0
 41
0.9948080326366628
 10
246.7458423821087
 20
459.9190188673478
 30
0.0
 41
0.9948080326366628
 10
246.5017381384802
 20
459.9190188673478
 30
0.0
 41
0.9948080326366628
  0
SPLINE
  5
152
330
1F
100
AcDbEntity
  8
Make2D$Visibile$Curve
 62
    18
420
        0
370
    -3
100
AcDbSpline
210
0.0
220
0.0
230
1.0
 70
    28
 71
     2
 72
     6
 73
     3
 74
     0
 42
0.0000000001
 43
0.0000000001
 40
315.5113214062104
 40
315.5113214062104
 40
315.5113214062104
 40
316.000000000001
 40
316.000000000001
 40
316.000000000001
 10
246.5012680319462
 20
498.8608607537191
 30
0.0
 41
0.9947921649492538
 10
246.7456073288419
 20
498.8608607537191
 30
0.0
 41
0.9947921649492538
 10
246.9899466257375
 20
498.8608607537191
 30
0.0
 41
0.9947921649492538
  0
SPLINE
  5
153
330
1F
100
AcDbEntity
  8
Make2D$Visibile$Curve
 62
    18
420
        0
370
    -3
100
AcDbSpline
210
0.0
220
0.0
230
1.0
 70
    28
 71
     2
 72
     6
 73
     3
 74
     0
 42
0.0000000001
 43
0.0000000001
 40
0.0
 40
0.0
 40
0.0
 40
4.991001016791738
 40
4.991001016791738
 40
4.991001016791738
 10
1057.489861182929
 20
528.7928061463883
 30
0.0
 41
0.9688918706028972
 10
1059.985361688759
 20
528.7928203454812
 30
0.0
 41
0.9688918706028972
 10
1062.48086219459
 20
528.7928345445741
 30
0.0
 41
0.9688918706028972
  0
SPLINE
  5
154
330
1F
100
AcDbEntity
  8
Make2D$Visibile$Curve
 62
    18
420
        0
370
    -3
100
AcDbSpline
210
0.0
220
0.0
230
1.0
 70
    28
 71
     2
 72
     6
 73
     3
 74
     0
 42
0.0000000001
 43
0.0000000001
 40
0.0008180024063601
 40
0.0008180024063601
 40
0.0008180024063601
 40
4.991818739009182
 40
4.991818739009182
 40
4.991818739009182
 10
1062.480862317469
 20
429.9697407961547
 30
0.0
 41
0.9690172749619871
 10
1059.985361951733
 20
429.9697549286156
 30
0.0
 41
0.9690172749619871
 10
1057.489861585996
 20
429.9697690610764
 30
0.0
 41
0.9690172749619871
  0
SPLINE
  5
155
330
1F
100
AcDbEntity
  8
Make2D$Visibile$Curve
 62
    18
420
        0
370
    -3
100
AcDbSpline
210
0.0
220
0.0
230
1.0
 70
    28
 71
     2
 72
     6
 73
     3
 74
     0
 42
0.0000000001
 43
0.0000000001
 40
0.0
 40
0.0
 40
0.0
 40
4.991818739009182
 40
4.991818739009182
 40
4.991818739009182
 10
1057.490297207053
 20
460.1614819986182
 30
0.0
 41
0.9350059131345058
 10
1059.986206573992
 20
460.1614678638414
 30
0.0
 41
0.9350059131345058
 10
1062.482115940931
 20
460.1614537290646
 30
0.0
 41
0.9350059131345058
  0
SPLINE
  5
156
330
1F
100
AcDbEntity
  8
Make2D$Visibile$Curve
 62
    18
420
        0
370
    -3
100
AcDbSpline
210
0.0
220
0.0
230
1.0
 70
    28
 71
     2
 72
     6
 73
     3
 74
     0
 42
0.0000000001
 43
0.0000000001
 40
0.0
 40
0.0
 40
0.0
 40
4.991818739009068
 40
4.991818739009068
 40
4.991818739009068
 10
1062.482116434639
 20
498.6011216109043
 30
0.0
 41
0.9351180323093579
 10
1059.9862070677
 20
498.601107409485
 30
0.0
 41
0.9351180323093579
 10
1057.490297700761
 20
498.6010932080657
 30
0.0
 41
0.9351180323093579
  0
SPLINE
  5
157
330
1F
100
AcDbEntity
  8
Make2D$Visibile$Curve
 62
    18
420
        0
370
    -3
100
AcDbSpline
210
0.0
220
0.0
230
1.0
 70
    28
 71
     4
 72
    10
 73
     5
 74
     0
 42
0.0000000001
 43
0.0000000001
 40
4.162424266185784
 40
4.162424266185784
 40
4.162424266185784
 40
4.162424266185784
 40
4.162424266185784
 40
4.257891645087861
 40
4.257891645087861
 40
4.257891645087861
 40
4.257891645087861
 40
4.257891645087861
 10
1062.989946625728
 20
499.1203403746293
 30
0.0
 41
0.9479889036620794
 10
1062.989946625729
 20
499.0969116746152
 30
0.0
 41
0.948325334336315
 10
1062.989946625728
 20
499.0734478470111
 30
0.0
 41
0.9486782749349957
 10
1062.989946625727
 20
499.0499501555585
 30
0.0
 41
0.9490477254581212
 10
1062.989946625728
 20
499.0264198656121
 30
0.0
 41
0.9494336859056917
  0
SPLINE
  5
158
330
1F
100
AcDbEntity
  8
Make2D$Visibile$Curve
 62
    18
420
        0
370
    -3
100
AcDbSpline
210
0.0
220
0.0
230
1.0
 70
    28
 71
     2
 72
     6
 73
     3
 74
     0
 42
0.0000000001
 43
0.0000000001
 40
5.480146703608884
 40
5.480146703608884
 40
5.480146703608884
 40
5.99999999999213
 40
5.99999999999213
 40
5.99999999999213
 10
1057.509799922119
 20
459.9190188673478
 30
0.0
 41
0.9948080326366628
 10
1057.249873273927
 20
459.9190188673478
 30
0.0
 41
0.9948080326366628
 10
1056.989946625736
 20
459.9190188673478
 30
0.0
 41
0.9948080326366628
  0
SPLINE
  5
159
330
1F
100
AcDbEntity
  8
Make2D$Visibile$Curve
 62
    18
420
        0
370
    -3
100
AcDbSpline
210
0.0
220
0.0
230
1.0
 70
    12
 71
     2
 72
     6
 73
     3
 74
     0
 42
0.0000000001
 43
0.0000000001
 40
-130.1804246249264
 40
-130.1804246249264
 40
-130.1804246249264
 40
-114.372080634306
 40
-114.372080634306
 40
-114.372080634306
 10
246.5016630429009
 20
452.599628398013
 30
0.0
 41
1.0
 10
246.5012478266779
 20
460.1475614892383
 30
0.0
 41
0.8660252999279153
 10
246.5007675245952
 20
460.1475614865176
 30
0.0
 41
1.0
  0
SPLINE
  5
15A
330
1F
100
AcDbEntity
  8
Make2D$Visibile$Curve
 62
    18
420
        0
370
    -3
100
AcDbSpline
210
0.0
220
0.0
230
1.0
 70
    12
 71
     2
 72
     8
 73
     5
 74
     0
 42
0.0000000001
 43
0.0000000001
 40
-52.46535992983922
 40
-52.46535992983922
 40
-52.46535992983922
 40
-36.65702401608523
 40
-36.65702401608523
 40
-20.84868810233125
 40
-20.84868810233125
 40
-20.84868810233125
 10
246.5012031456527
 20
429.955848548977
 30
0.0
 41
1.0
 10
246.5015952341998
 20
429.9558485511976
 30
0.0
 41
0.8660254336876447
 10
246.5017485332728
 20
437.503774646294
 30
0.0
 41
1.0
 10
246.5019018323446
 20
445.0517007413915
 30
0.0
 41
0.8660254336876447
 10
246.5016630429009
 20
452.599628398013
 30
0.0
 41
1.0
  0
SPLINE
  5
15B
330
1F
100
AcDbEntity
  8
Make2D$Visibile$Curve
 62
    18
420
        0
370
    -3
100
AcDbSpline
210
0.0
220
0.0
230
1.0
 70
    12
 71
     2
 72
     6
 73
     3
 74
     0
 42
0.0000000001
 43
0.0000000001
 40
-114.372080634306
 40
-114.372080634306
 40
-114.372080634306
 40
-110.5913042393352
 40
-110.5913042393352
 40
-110.5913042393352
 10
246.5007675245952
 20
460.1475614865176
 30
0.0
 41
1.0
 10
246.5006628004633
 20
460.1475614859255
 30
0.0
 41
0.9921695049686432
 10
246.5005722674978
 20
459.6765806595713
 30
0.0
 41
1.0
  0
SPLINE
  5
15C
330
1F
100
AcDbEntity
  8
Make2D$Visibile$Curve
 62
    18
420
        0
370
    -3
100
AcDbSpline
210
0.0
220
0.0
230
1.0
 70
    28
 71
     2
 72
     8
 73
     5
 74
     0
 42
0.0000000001
 43
0.0000000001
 40
34.22521322865905
 40
34.22521322865905
 40
34.22521322865905
 40
57.152441264323
 40
57.152441264323
 40
80.07966929998695
 40
80.07966929998695
 40
80.07966929998695
 10
241.0011181059126
 20
430.4418335100536
 30
0.0
 41
1.0
 10
241.0011181059121
 20
430.4418335100532
 30
0.0
 41
0.7071067811865407
 10
241.0011181059126
 20
445.0377602031376
 30
0.0
 41
1.0
 10
241.0011181059121
 20
459.6336868962214
 30
0.0
 41
0.7071067811865407
 10
241.0011181059126
 20
459.6336868962208
 30
0.0
 41
1.0
  0
SPLINE
  5
15D
330
1F
100
AcDbEntity
  8
Make2D$Visibile$Curve
 62
    18
420
        0
370
    -3
100
AcDbSpline
210
0.0
220
0.0
230
1.0
 70
    28
 71
     4
 72
    10
 73
     5
 74
     0
 42
0.0000000001
 43
0.0000000001
 40
21.84602483231976
 40
21.84602483231976
 40
21.84602483231976
 40
21.84602483231976
 40
21.84602483231976
 40
40.38353686812732
 40
40.38353686812732
 40
40.38353686812732
 40
40.38353686812732
 40
40.38353686812732
 10
1062.989946625728
 20
498.7936420127307
 30
0.0
 41
1.0
 10
1062.989946625728
 20
496.476324638088
 30
0.0
 41
1.0
 10
1062.989946625728
 20
494.1590928733413
 30
0.0
 41
1.0
 10
1062.989946625728
 20
491.8419039135424
 30
0.0
 41
1.0
 10
1062.989946625728
 20
489.5247149537436
 30
0.0
 41
1.0
  0
SPLINE
  5
15E
330
1F
100
AcDbEntity
  8
Make2D$Visibile$Curve
 62
    18
420
        0
370
    -3
100
AcDbSpline
210
0.0
220
0.0
230
1.0
 70
    28
 71
     4
 72
    10
 73
     5
 74
     0
 42
0.0000000001
 43
0.0000000001
 40
61.01544403143603
 40
61.01544403143603
 40
61.01544403143603
 40
61.01544403143603
 40
61.01544403143603
 40
98.09124803143607
 40
98.09124803143607
 40
98.09124803143607
 40
98.09124803143607
 40
98.09124803143607
 10
1062.989946625728
 20
478.5239082944245
 30
0.0
 41
1.0
 10
1062.989946625728
 20
473.8894327944245
 30
0.0
 41
1.0
 10
1062.989946625728
 20
469.2549572944245
 30
0.0
 41
1.0
 10
1062.989946625728
 20
464.6204817805701
 30
0.0
 41
1.0
 10
1062.989946625728
 20
459.986006239008
 30
0.0
 41
1.0
  0
SPLINE
  5
15F
330
1F
100
AcDbEntity
  8
Make2D$Visibile$Curve
 62
    18
420
        0
370
    -3
100
AcDbSpline
210
0.0
220
0.0
230
1.0
 70
    28
 71
     3
 72
     8
 73
     4
 74
     0
 42
0.0000000001
 43
0.0000000001
 40
89.18059539812216
 40
89.18059539812216
 40
89.18059539812216
 40
89.18059539812216
 40
89.95803854540512
 40
89.95803854540512
 40
89.95803854540512
 40
89.95803854540512
 10
246.9899466257366
 20
498.9062626260547
 30
0.0
 41
1.0
 10
246.9899466257366
 20
498.8712030328088
 30
0.0
 41
1.0
 10
246.9899466257366
 20
498.8361434395629
 30
0.0
 41
1.0
 10
246.9899466257366
 20
498.801083846316
 30
0.0
 41
1.0
  0
SPLINE
  5
160
330
1F
100
AcDbEntity
  8
Make2D$Visibile$Curve
 62
    18
420
        0
370
    -3
100
AcDbSpline
210
0.0
220
0.0
230
1.0
 70
    28
 71
     3
 72
     8
 73
     4
 74
     0
 42
0.0000000001
 43
0.0000000001
 40
-89.95803854540512
 40
-89.95803854540512
 40
-89.95803854540512
 40
-89.95803854540512
 40
-89.18059539812216
 40
-89.18059539812216
 40
-89.18059539812216
 40
-89.18059539812216
 10
1056.989946625736
 20
498.801083846316
 30
0.0
 41
1.0
 10
1056.989946625736
 20
498.8361434395629
 30
0.0
 41
1.0
 10
1056.989946625736
 20
498.8712030328088
 30
0.0
 41
1.0
 10
1056.989946625736
 20
498.9062626260547
 30
0.0
 41
1.0
  0
SPLINE
  5
161
330
1F
100
AcDbEntity
  8
Make2D$Visibile$Curve
 62
    18
420
        0
370
    -3
100
AcDbSpline
210
0.0
220
0.0
230
1.0
 70
    28
 71
     3
 72
    14
 73
    10
 74
     0
 42
0.0000000001
 43
0.0000000001
 40
-89.18059539812216
 40
-89.18059539812216
 40
-89.18059539812216
 40
-89.18059539812216
 40
-70.70358078184847
 40
-70.70358078184847
 40
-70.70358078184847
 40
-52.22656616557479
 40
-52.22656616557479
 40
-52.22656616557479
 40
-44.32949141213125
 40
-44.32949141213125
 40
-44.32949141213125
 40
-44.32949141213125
 10
1056.989946625736
 20
498.9062626260547
 30
0.0
 41
1.0
 10
1056.989946625736
 20
499.918651212573
 30
0.0
 41
0.8775023813667072
 10
1056.989946625736
 20
504.5029607816962
 30
0.0
 41
0.8775023813667072
 10
1056.989946625736
 20
510.974490317536
 30
0.0
 41
1.0
 10
1056.989946625736
 20
517.4460198533774
 30
0.0
 41
0.8775023813667072
 10
1056.989946625736
 20
523.426528484769
 30
0.0
 41
0.8775023813667072
 10
1056.989946625736
 20
526.7182220150289
 30
0.0
 41
1.0
 10
1056.989946625735
 20
528.0209588284807
 30
0.0
 41
0.9476445263720301
 10
1056.989946625736
 20
528.7278409582627
 30
0.0
 41
0.9176657785073159
 10
1056.989946625736
 20
528.7278409582624
 30
0.0
 41
0.9100637564058571
  0
SPLINE
  5
162
330
1F
100
AcDbEntity
  8
Make2D$Visibile$Curve
 62
    18
420
        0
370
    -3
100
AcDbSpline
210
0.0
220
0.0
230
1.0
 70
    28
 71
     2
 72
    10
 73
     7
 74
     0
 42
0.0000000001
 43
0.0000000001
 40
44.32949141213093
 40
44.32949141213093
 40
44.32949141213093
 40
52.22656616557479
 40
52.22656616557479
 40
70.70358078184847
 40
70.70358078184847
 40
89.18059539812216
 40
89.18059539812216
 40
89.18059539812216
 10
246.989946625736
 20
528.7278409582624
 30
0.0
 41
0.9100637564058558
 10
246.9899466257368
 20
528.7278409582628
 30
0.0
 41
0.921466789558042
 10
246.9899466257366
 20
526.7182220150289
 30
0.0
 41
1.0
 10
246.9899466257365
 20
521.4101859884099
 30
0.0
 41
0.8162535720500607
 10
246.9899466257366
 20
510.974490317536
 30
0.0
 41
1.0
 10
246.9899466257365
 20
500.5387946466628
 30
0.0
 41
0.8162535720500607
 10
246.9899466257366
 20
498.9062626260547
 30
0.0
 41
1.0
  0
SPLINE
  5
163
330
1F
100
AcDbEntity
  8
Make2D$Visibile$Curve
 62
    18
420
        0
370
    -3
100
AcDbSpline
210
0.0
220
0.0
230
1.0
 70
    28
 71
     3
 72
     8
 73
     4
 74
     0
 42
0.0000000001
 43
0.0000000001
 40
49.24871976011963
 40
49.24871976011963
 40
49.24871976011963
 40
49.24871976011963
 40
50.02616290740258
 40
50.02616290740258
 40
50.02616290740258
 40
50.02616290740258
 10
246.9899466257366
 20
459.9634543125012
 30
0.0
 41
1.0
 10
246.9899466257366
 20
459.9285374685551
 30
0.0
 41
1.0
 10
246.9899466257366
 20
459.893620624609
 30
0.0
 41
1.0
 10
246.9899466257366
 20
459.8587037806628
 30
0.0
 41
1.0
  0
SPLINE
  5
164
330
1F
100
AcDbEntity
  8
Make2D$Visibile$Curve
 62
    18
420
        0
370
    -3
100
AcDbSpline
210
0.0
220
0.0
230
1.0
 70
    28
 71
     3
 72
     8
 73
     4
 74
     0
 42
0.0000000001
 43
0.0000000001
 40
-50.02616290740258
 40
-50.02616290740258
 40
-50.02616290740258
 40
-50.02616290740258
 40
-49.24871976011963
 40
-49.24871976011963
 40
-49.24871976011963
 40
-49.24871976011963
 10
1056.989946625736
 20
459.8587037806628
 30
0.0
 41
1.0
 10
1056.989946625736
 20
459.893620624609
 30
0.0
 41
1.0
 10
1056.989946625736
 20
459.9285374685551
 30
0.0
 41
1.0
 10
1056.989946625736
 20
459.9634543125012
 30
0.0
 41
1.0
  0
SPLINE
  5
165
330
1F
100
AcDbEntity
  8
Make2D$Visibile$Curve
 62
    18
420
        0
370
    -3
100
AcDbSpline
210
0.0
220
0.0
230
1.0
 70
    28
 71
     2
 72
    10
 73
     7
 74
     0
 42
0.0000000001
 43
0.0000000001
 40
50.02616290740258
 40
50.02616290740258
 40
50.02616290740258
 40
68.50317752367627
 40
68.50317752367627
 40
86.98019213994996
 40
86.98019213994996
 40
94.88535769862463
 40
94.88535769862463
 40
94.88535769862463
 10
246.9899466257366
 20
459.8587037806628
 30
0.0
 41
1.0
 10
246.9899466257354
 20
458.2320036214711
 30
0.0
 41
0.8162535720500608
 10
246.9899466257366
 20
447.797392880022
 30
0.0
 41
1.0
 10
246.9899466257354
 20
437.3627821385741
 30
0.0
 41
0.8162535720500608
 10
246.9899466257366
 20
432.0496358149394
 30
0.0
 41
1.0
 10
246.9899466257365
 20
430.0358453773471
 30
0.0
 41
0.9213863297764553
 10
246.9899466257366
 20
430.0358453773472
 30
0.0
 41
0.9100404613269943
  0
SPLINE
  5
166
330
1F
100
AcDbEntity
  8
Make2D$Visibile$Curve
 62
    18
420
        0
370
    -3
100
AcDbSpline
210
0.0
220
0.0
230
1.0
 70
    28
 71
     3
 72
    14
 73
    10
 74
     0
 42
0.0000000001
 43
0.0000000001
 40
-94.88535769862463
 40
-94.88535769862463
 40
-94.88535769862463
 40
-94.88535769862463
 40
-86.98019213994996
 40
-86.98019213994996
 40
-86.98019213994996
 40
-68.50317752367627
 40
-68.50317752367627
 40
-68.50317752367627
 40
-50.02616290740258
 40
-50.02616290740258
 40
-50.02616290740258
 40
-50.02616290740258
 10
1056.989946625736
 20
430.0358453773474
 30
0.0
 41
0.9100404613269945
 10
1056.989946625736
 20
430.0358453773479
 30
0.0
 41
0.917604373626635
 10
1056.989946625736
 20
430.7442349247233
 30
0.0
 41
0.9475908865176368
 10
1056.989946625736
 20
432.0496358149394
 30
0.0
 41
1.0
 10
1056.989946625736
 20
435.3444984140486
 30
0.0
 41
0.8775023813667072
 10
1056.989946625736
 20
441.3265361457885
 30
0.0
 41
0.8775023813667072
 10
1056.989946625736
 20
447.797392880022
 30
0.0
 41
1.0
 10
1056.989946625736
 20
454.2682496142555
 30
0.0
 41
0.8775023813667072
 10
1056.989946625736
 20
458.8499317296009
 30
0.0
 41
0.8775023813667072
 10
1056.989946625736
 20
459.8587037806628
 30
0.0
 41
1.0
  0
SPLINE
  5
167
330
1F
100
AcDbEntity
  8
Make2D$Visibile$Curve
 62
    18
420
        0
370
    -3
100
AcDbSpline
210
0.0
220
0.0
230
1.0
 70
    12
 71
     2
 72
     6
 73
     3
 74
     0
 42
0.0000000001
 43
0.0000000001
 40
-130.1804246249264
 40
-130.1804246249264
 40
-130.1804246249264
 40
-114.3631206477063
 40
-114.3631206477063
 40
-114.3631206477063
 10
1057.489401688748
 20
506.1567872059486
 30
0.0
 41
1.0
 10
1057.489817189592
 20
498.6010932053321
 30
0.0
 41
0.865876876815295
 10
1057.490297700761
 20
498.6010932080662
 30
0.0
 41
1.0
  0
SPLINE
  5
168
330
1F
100
AcDbEntity
  8
Make2D$Visibile$Curve
 62
    18
420
        0
370
    -3
100
AcDbSpline
210
0.0
220
0.0
230
1.0
 70
    28
 71
     2
 72
     6
 73
     3
 74
     0
 42
0.0000000001
 43
0.0000000001
 40
1.497582456986769
 40
1.497582456986769
 40
1.497582456986769
 40
1.67671313094792
 40
1.67671313094792
 40
1.67671313094792
 10
1062.989946625736
 20
499.0264198656114
 30
0.0
 41
1.0
 10
1062.989946625736
 20
498.9491622171739
 30
0.0
 41
0.9879180664772004
 10
1062.989946625736
 20
498.8659785357239
 30
0.0
 41
0.9818098347645994
  0
SPLINE
  5
169
330
1F
100
AcDbEntity
  8
Make2D$Visibile$Curve
 62
    18
420
        0
370
    -3
100
AcDbSpline
210
0.0
220
0.0
230
1.0
 70
    12
 71
     2
 72
     8
 73
     5
 74
     0
 42
0.0000000001
 43
0.0000000001
 40
-52.4563999432405
 40
-52.4563999432405
 40
-52.4563999432405
 40
-36.65254402278588
 40
-36.65254402278588
 40
-20.84868810233125
 40
-20.84868810233125
 40
-20.84868810233125
 10
1057.489861182929
 20
528.792806146389
 30
0.0
 41
1.0
 10
1057.489469258085
 20
528.7928061441582
 30
0.0
 41
0.8660996166080557
 10
1057.489316119605
 20
521.2487595055836
 30
0.0
 41
1.0
 10
1057.489162981126
 20
513.7047128670087
 30
0.0
 41
0.8660996166080557
 10
1057.489401688748
 20
506.1567872059486
 30
0.0
 41
1.0
  0
SPLINE
  5
16A
330
1F
100
AcDbEntity
  8
Make2D$Visibile$Curve
 62
    18
420
        0
370
    -3
100
AcDbSpline
210
0.0
220
0.0
230
1.0
 70
    12
 71
     2
 72
     6
 73
     3
 74
     0
 42
0.0000000001
 43
0.0000000001
 40
-114.3631206477063
 40
-114.3631206477063
 40
-114.3631206477063
 40
-110.5913042393352
 40
-110.5913042393352
 40
-110.5913042393352
 10
1057.490297700761
 20
498.6010932080662
 30
0.0
 41
1.0
 10
1057.490402147989
 20
498.6010932086606
 30
0.0
 41
0.9922065274311306
 10
1057.490492464151
 20
499.0698559560897
 30
0.0
 41
1.0
  0
SPLINE
  5
16B
330
1F
100
AcDbEntity
  8
Make2D$Visibile$Curve
 62
    18
420
        0
370
    -3
100
AcDbSpline
210
0.0
220
0.0
230
1.0
 70
    28
 71
     2
 72
     8
 73
     5
 74
     0
 42
0.0000000001
 43
0.0000000001
 40
34.23387649059853
 40
34.23387649059853
 40
34.23387649059853
 40
57.16110452626248
 40
57.16110452626248
 40
80.08833256192644
 40
80.08833256192644
 40
80.08833256192644
 10
1062.989946625736
 20
528.306826088201
 30
0.0
 41
1.0
 10
1062.989946625735
 20
528.3068260882017
 30
0.0
 41
0.7071067811865407
 10
1062.989946625736
 20
513.7108993951178
 30
0.0
 41
1.0
 10
1062.989946625735
 20
499.1149727020334
 30
0.0
 41
0.7071067811865407
 10
1062.989946625736
 20
499.1149727020338
 30
0.0
 41
1.0
  0
SPLINE
  5
16C
330
1F
100
AcDbEntity
  8
Make2D$Visibile$Curve
 62
    18
420
        0
370
    -3
100
AcDbSpline
210
0.0
220
0.0
230
1.0
 70
    12
 71
     2
 72
     6
 73
     3
 74
     0
 42
0.0000000001
 43
0.0000000001
 40
-130.1804246249264
 40
-130.1804246249264
 40
-130.1804246249264
 40
-114.372080634306
 40
-114.372080634306
 40
-114.372080634306
 10
1057.489401688748
 20
452.6135489101125
 30
0.0
 41
1.0
 10
1057.489816904971
 20
460.1614820013381
 30
0.0
 41
0.8660252999279153
 10
1057.490297207053
 20
460.161481998618
 30
0.0
 41
1.0
  0
SPLINE
  5
16D
330
1F
100
AcDbEntity
  8
Make2D$Visibile$Curve
 62
    18
420
        0
370
    -3
100
AcDbSpline
210
0.0
220
0.0
230
1.0
 70
    12
 71
     2
 72
     8
 73
     5
 74
     0
 42
0.0000000001
 43
0.0000000001
 40
-52.46535992983922
 40
-52.46535992983922
 40
-52.46535992983922
 40
-36.65702401608523
 40
-36.65702401608523
 40
-20.84868810233125
 40
-20.84868810233125
 40
-20.84868810233125
 10
1057.489861585997
 20
429.9697690610765
 30
0.0
 41
1.0
 10
1057.489469497448
 20
429.9697690632971
 30
0.0
 41
0.8660254336876447
 10
1057.489316198376
 20
437.5176951583944
 30
0.0
 41
1.0
 10
1057.489162899303
 20
445.0656212534914
 30
0.0
 41
0.8660254336876447
 10
1057.489401688748
 20
452.6135489101125
 30
0.0
 41
1.0
  0
SPLINE
  5
16E
330
1F
100
AcDbEntity
  8
Make2D$Visibile$Curve
 62
    18
420
        0
370
    -3
100
AcDbSpline
210
0.0
220
0.0
230
1.0
 70
    12
 71
     2
 72
     6
 73
     3
 74
     0
 42
0.0000000001
 43
0.0000000001
 40
-114.372080634306
 40
-114.372080634306
 40
-114.372080634306
 40
-110.5913042393352
 40
-110.5913042393352
 40
-110.5913042393352
 10
1057.490297207053
 20
460.161481998618
 30
0.0
 41
1.0
 10
1057.490401931184
 20
460.1614819980251
 30
0.0
 41
0.9921695049686432
 10
1057.490492464151
 20
459.6905011716717
 30
0.0
 41
1.0
  0
SPLINE
  5
16F
330
1F
100
AcDbEntity
  8
Make2D$Visibile$Curve
 62
    18
420
        0
370
    -3
100
AcDbSpline
210
0.0
220
0.0
230
1.0
 70
    28
 71
     2
 72
    12
 73
     9
 74
     0
 42
0.0000000001
 43
0.0000000001
 40
34.22521322865916
 40
34.22521322865916
 40
34.22521322865916
 40
46.60272120843455
 40
46.60272120843455
 40
58.98022918820995
 40
58.98022918820995
 40
71.35773716798535
 40
71.35773716798535
 40
80.0478855594541
 40
80.0478855594541
 40
80.0478855594541
 10
1062.989946625736
 20
430.4557540221531
 30
0.0
 41
1.0
 10
1062.989946625736
 20
430.4557540221529
 30
0.0
 41
0.9114483129891227
 10
1062.989946625736
 20
435.396824714504
 30
0.0
 41
1.0
 10
1062.989946625736
 20
440.3378954068536
 30
0.0
 41
0.9114483129891227
 10
1062.989946625736
 20
446.8746953000318
 30
0.0
 41
1.0
 10
1062.989946625736
 20
453.4114951932088
 30
0.0
 41
0.9114483129891227
 10
1062.989946625736
 20
457.1182977056669
 30
0.0
 41
1.0
 10
1062.989946625736
 20
459.6476074083206
 30
0.0
 41
0.9378285756957853
 10
1062.989946625736
 20
459.6476074083209
 30
0.0
 41
0.9629572612029151
  0
ENDSEC
  0
SECTION
  2
OBJECTS
  0
DICTIONARY
  5
C
330
0
100
AcDbDictionary
281
     1
  3
ACAD_DETAILVIEWSTYLE
350
1AB
  3
ACAD_GROUP
350
D
  3
ACAD_LAYOUT
350
1A
  3
ACAD_MATERIAL
350
43
  3
ACAD_MLEADERSTYLE
350
5B
  3
ACAD_MLINESTYLE
350
17
  3
ACAD_PLOTSETTINGS
350
19
  3
ACAD_PLOTSTYLENAME
350
E
  3
ACAD_SCALELIST
350
47
  3
ACAD_SECTIONVIEWSTYLE
350
1AC
  3
ACAD_TABLESTYLE
350
59
  3
ACAD_VISUALSTYLE
350
2A
  3
ACDB_RECOMPOSE_DATA
350
1A8
  3
AcDbVariableDictionary
350
170
  0
SUN
  5
5D
330
29
100
AcDbSun
 90
        1
290
     0
 63
     7
421
 16777215
 40
1.0
291
     1
 91
  2455826
 92
 54000000
292
     0
 70
     2
 71
   256
280
     1
  0
DICTIONARY
  5
1AB
102
{ACAD_REACTORS
330
C
102
}
330
C
100
AcDbDictionary
281
     1
  0
DICTIONARY
  5
D
102
{ACAD_REACTORS
330
C
102
}
330
C
100
AcDbDictionary
281
     1
  0
DICTIONARY
  5
1A
102
{ACAD_REACTORS
330
C
102
}
330
C
100
AcDbDictionary
281
     1
  3
Layout1
350
1E
  3
Layout2
350
26
  3
Model
350
22
  0
DICTIONARY
  5
43
102
{ACAD_REACTORS
330
C
102
}
330
C
100
AcDbDictionary
281
     1
  3
ByBlock
350
45
  3
ByLayer
350
44
  3
Global
350
46
  0
DICTIONARY
  5
5B
102
{ACAD_REACTORS
330
C
102
}
330
C
100
AcDbDictionary
281
     1
  3
Standard
350
5C
  0
DICTIONARY
  5
17
102
{ACAD_REACTORS
330
C
102
}
330
C
100
AcDbDictionary
281
     1
  3
Standard
350
18
  0
DICTIONARY
  5
19
102
{ACAD_REACTORS
330
C
102
}
330
C
100
AcDbDictionary
281
     1
  0
ACDBDICTIONARYWDFLT
  5
E
102
{ACAD_REACTORS
330
C
102
}
330
C
100
AcDbDictionary
281
     1
  3
Normal
350
F
100
AcDbDictionaryWithDefault
340
F
  0
DICTIONARY
  5
47
102
{ACAD_REACTORS
330
C
102
}
330
C
100
AcDbDictionary
281
     1
  3
A0
350
48
  3
A1
350
49
  3
A2
350
4A
  3
A3
350
4B
  3
A4
350
4C
  3
A5
350
4D
  3
A6
350
4E
  3
A7
350
4F
  3
A8
350
50
  3
A9
350
51
  3
B1
350
52
  3
B2
350
53
  3
B3
350
54
  3
B4
350
55
  3
B5
350
56
  3
B6
350
57
  3
B7
350
58
  0
DICTIONARY
  5
1AC
102
{ACAD_REACTORS
330
C
102
}
330
C
100
AcDbDictionary
281
     1
  0
DICTIONARY
  5
59
102
{ACAD_REACTORS
330
C
102
}
330
C
100
AcDbDictionary
281
     1
  3
Standard
350
5A
  0
DICTIONARY
  5
2A
102
{ACAD_REACTORS
330
C
102
}
330
C
100
AcDbDictionary
281
     1
  3
2dWireframe
350
2F
  3
Basic
350
32
  3
Brighten
350
36
  3
ColorChange
350
3A
  3
Conceptual
350
34
  3
Dim
350
35
  3
EdgeColorOff
350
3D
  3
Facepattern
350
39
  3
Flat
350
2B
  3
FlatWithEdges
350
2C
  3
Gouraud
350
2D
  3
GouraudWithEdges
350
2E
  3
Hidden
350
31
  3
JitterOff
350
3B
  3
Linepattern
350
38
  3
OverhangOff
350
3C
  3
Realistic
350
33
  3
Shaded
350
42
  3
Shaded with edges
350
41
  3
Shades of Gray
350
3E
  3
Sketchy
350
3F
  3
Thicken
350
37
  3
Wireframe
350
30
  3
X-Ray
350
40
  0
XRECORD
  5
1A8
102
{ACAD_REACTORS
330
C
102
}
330
C
100
AcDbXrecord
280
     1
 90
        1
330
5A
  0
DICTIONARY
  5
170
102
{ACAD_REACTORS
330
C
102
}
330
C
100
AcDbDictionary
281
     1
  3
CANNOSCALE
350
171
  3
CMLEADERSTYLE
350
1AA
  3
CTABLESTYLE
350
1A9
  3
XCLIPFRAME
350
172
  0
LAYOUT
  5
1E
102
{ACAD_REACTORS
330
1A
102
}
330
1A
100
AcDbPlotSettings
  1

  2
none_device
  4

  6

 40
0.0
 41
0.0
 42
0.0
 43
0.0
 44
0.0
 45
0.0
 46
0.0
 47
0.0
 48
0.0
 49
0.0
140
0.0
141
0.0
142
1.0
143
1.0
 70
   688
 72
     0
 73
     0
 74
     5
  7

 75
    16
 76
     0
 77
     2
 78
   300
147
1.0
148
0.0
149
0.0
100
AcDbLayout
  1
Layout1
 70
     1
 71
     1
 10
0.0
 20
0.0
 11
12.0
 21
9.0
 12
0.0
 22
0.0
 32
0.0
 14
1.000000000000000E+20
 24
1.000000000000000E+20
 34
1.000000000000000E+20
 15
-1.000000000000000E+20
 25
-1.000000000000000E+20
 35
-1.000000000000000E+20
146
0.0
 13
0.0
 23
0.0
 33
0.0
 16
1.0
 26
0.0
 36
0.0
 17
0.0
 27
1.0
 37
0.0
 76
     0
330
1B
  0
LAYOUT
  5
26
102
{ACAD_REACTORS
330
1A
102
}
330
1A
100
AcDbPlotSettings
  1

  2
none_device
  4

  6

 40
0.0
 41
0.0
 42
0.0
 43
0.0
 44
0.0
 45
0.0
 46
0.0
 47
0.0
 48
0.0
 49
0.0
140
0.0
141
0.0
142
1.0
143
1.0
 70
   688
 72
     0
 73
     0
 74
     5
  7

 75
    16
 76
     0
 77
     2
 78
   300
147
1.0
148
0.0
149
0.0
100
AcDbLayout
  1
Layout2
 70
     1
 71
     2
 10
0.0
 20
0.0
 11
0.0
 21
0.0
 12
0.0
 22
0.0
 32
0.0
 14
0.0
 24
0.0
 34
0.0
 15
0.0
 25
0.0
 35
0.0
146
0.0
 13
0.0
 23
0.0
 33
0.0
 16
1.0
 26
0.0
 36
0.0
 17
0.0
 27
1.0
 37
0.0
 76
     0
330
23
  0
LAYOUT
  5
22
102
{ACAD_REACTORS
330
1A
102
}
330
1A
100
AcDbPlotSettings
  1

  2
none_device
  4
Letter_(8.50_x_11.00_Inches)
  6

 40
6.35
 41
6.35
 42
6.35000508
 43
6.35000508
 44
215.9
 45
279.4
 46
0.0
 47
0.0
 48
0.0
 49
0.0
140
0.0
141
0.0
142
1.0
143
1.0
 70
  1712
 72
     0
 73
     0
 74
     0
  7

 75
     0
 76
     0
 77
     2
 78
   300
147
1.0
148
0.0
149
0.0
100
AcDbLayout
  1
Model
 70
     1
 71
     0
 10
0.0
 20
0.0
 11
12.0
 21
9.0
 12
0.0
 22
0.0
 32
0.0
 14
-1022.775596422587
 24
-558.0731730262152
 34
0.0
 15
1062.989946625737
 25
528.7942558150822
 35
0.0
146
0.0
 13
0.0
 23
0.0
 33
0.0
 16
1.0
 26
0.0
 36
0.0
 17
0.0
 27
1.0
 37
0.0
 76
     0
330
1F
331
29
  0
MATERIAL
  5
45
102
{ACAD_REACTORS
330
43
102
}
330
43
100
AcDbMaterial
  1
ByBlock
 72
     1
 94
      127
  0
MATERIAL
  5
44
102
{ACAD_REACTORS
330
43
102
}
330
43
100
AcDbMaterial
  1
ByLayer
 72
     1
 94
      127
  0
MATERIAL
  5
46
102
{ACAD_REACTORS
330
43
102
}
330
43
100
AcDbMaterial
  1
Global
 72
     1
 94
      127
  0
MLEADERSTYLE
  5
5C
102
{ACAD_REACTORS
330
5B
102
}
102
{ACAD_XDICTIONARY
360
1A6
102
}
330
5B
100
AcDbMLeaderStyle
170
     2
171
     1
172
     0
 90
        2
 40
0.0
 41
0.0
173
     1
 91
-1056964608
340
14
 92
       -2
290
     1
 42
0.09
291
     1
 43
0.36
  3
Standard
341
0
 44
0.18
300

342
11
174
     1
178
     6
175
     1
176
     0
 93
-1056964608
 45
0.18
292
     0
297
     0
 46
0.18
343
0
 94
-1056964608
 47
1.0
 49
1.0
140
1.0
293
     1
141
0.0
294
     1
177
     0
142
1.0
295
     0
296
     0
143
0.125
1001
ACAD_MLEADERVER
1070
     2
  0
MLINESTYLE
  5
18
102
{ACAD_REACTORS
330
17
102
}
330
17
100
AcDbMlineStyle
  2
Standard
 70
     0
  3

 62
   256
 51
90.0
 52
90.0
 71
     2
 49
0.5
 62
   256
  6
BYLAYER
 49
-0.5
 62
   256
  6
BYLAYER
  0
ACDBPLACEHOLDER
  5
F
102
{ACAD_REACTORS
330
E
102
}
330
E
  0
SCALE
  5
48
102
{ACAD_REACTORS
330
47
102
}
330
47
100
AcDbScale
 70
     0
300
1:1
140
1.0
141
1.0
290
     1
  0
SCALE
  5
49
102
{ACAD_REACTORS
330
47
102
}
330
47
100
AcDbScale
 70
     0
300
1/128" = 1'-0"
140
0.0078125
141
12.0
290
     0
  0
SCALE
  5
4A
102
{ACAD_REACTORS
330
47
102
}
330
47
100
AcDbScale
 70
     0
300
1/64" = 1'-0"
140
0.015625
141
12.0
290
     0
  0
SCALE
  5
4B
102
{ACAD_REACTORS
330
47
102
}
330
47
100
AcDbScale
 70
     0
300
1/32" = 1'-0"
140
0.03125
141
12.0
290
     0
  0
SCALE
  5
4C
102
{ACAD_REACTORS
330
47
102
}
330
47
100
AcDbScale
 70
     0
300
1/16" = 1'-0"
140
0.0625
141
12.0
290
     0
  0
SCALE
  5
4D
102
{ACAD_REACTORS
330
47
102
}
330
47
100
AcDbScale
 70
     0
300
3/32" = 1'-0"
140
0.09375
141
12.0
290
     0
  0
SCALE
  5
4E
102
{ACAD_REACTORS
330
47
102
}
330
47
100
AcDbScale
 70
     0
300
1/8" = 1'-0"
140
0.125
141
12.0
290
     0
  0
SCALE
  5
4F
102
{ACAD_REACTORS
330
47
102
}
330
47
100
AcDbScale
 70
     0
300
3/16" = 1'-0"
140
0.1875
141
12.0
290
     0
  0
SCALE
  5
50
102
{ACAD_REACTORS
330
47
102
}
330
47
100
AcDbScale
 70
     0
300
1/4" = 1'-0"
140
0.25
141
12.0
290
     0
  0
SCALE
  5
51
102
{ACAD_REACTORS
330
47
102
}
330
47
100
AcDbScale
 70
     0
300
3/8" = 1'-0"
140
0.375
141
12.0
290
     0
  0
SCALE
  5
52
102
{ACAD_REACTORS
330
47
102
}
330
47
100
AcDbScale
 70
     0
300
1/2" = 1'-0"
140
0.5
141
12.0
290
     0
  0
SCALE
  5
53
102
{ACAD_REACTORS
330
47
102
}
330
47
100
AcDbScale
 70
     0
300
3/4" = 1'-0"
140
0.75
141
12.0
290
     0
  0
SCALE
  5
54
102
{ACAD_REACTORS
330
47
102
}
330
47
100
AcDbScale
 70
     0
300
1" = 1'-0"
140
1.0
141
12.0
290
     0
  0
SCALE
  5
55
102
{ACAD_REACTORS
330
47
102
}
330
47
100
AcDbScale
 70
     0
300
1-1/2" = 1'-0"
140
1.5
141
12.0
290
     0
  0
SCALE
  5
56
102
{ACAD_REACTORS
330
47
102
}
330
47
100
AcDbScale
 70
     0
300
3" = 1'-0"
140
3.0
141
12.0
290
     0
  0
SCALE
  5
57
102
{ACAD_REACTORS
330
47
102
}
330
47
100
AcDbScale
 70
     0
300
6" = 1'-0"
140
6.0
141
12.0
290
     0
  0
SCALE
  5
58
102
{ACAD_REACTORS
330
47
102
}
330
47
100
AcDbScale
 70
     0
300
1'-0" = 1'-0"
140
12.0
141
12.0
290
     0
  0
TABLESTYLE
  5
5A
102
{ACAD_REACTORS
330
59
102
}
102
{ACAD_XDICTIONARY
360
1A3
102
}
330
59
100
AcDbTableStyle
  3
Standard
 70
     0
 71
     0
 40
0.06
 41
0.06
280
     0
281
     0
  7
Standard
140
0.18
170
     2
 62
     0
 63
   257
283
     0
 90
        4
 91
        0
  1

274
    -2
284
     1
 64
     0
275
    -2
285
     1
 65
     0
276
    -2
286
     1
 66
     0
277
    -2
287
     1
 67
     0
278
    -2
288
     1
 68
     0
279
    -2
289
     1
 69
     0
  7
Standard
140
0.25
170
     5
 62
     0
 63
   257
283
     0
 90
        4
 91
        0
  1

274
    -2
284
     1
 64
     0
275
    -2
285
     1
 65
     0
276
    -2
286
     1
 66
     0
277
    -2
287
     1
 67
     0
278
    -2
288
     1
 68
     0
279
    -2
289
     1
 69
     0
  7
Standard
140
0.18
170
     5
 62
     0
 63
   257
283
     0
 90
        4
 91
        0
  1

274
    -2
284
     1
 64
     0
275
    -2
285
     1
 65
     0
276
    -2
286
     1
 66
     0
277
    -2
287
     1
 67
     0
278
    -2
288
     1
 68
     0
279
    -2
289
     1
 69
     0
  0
VISUALSTYLE
  5
2F
102
{ACAD_REACTORS
330
2A
102
}
102
{ACAD_XDICTIONARY
360
17B
102
}
330
2A
100
AcDbVisualStyle
  2
2dWireframe
 70
     4
 71
     0
 72
     2
 73
     0
 90
        0
 40
0.6
 41
30.0
 62
     5
 63
     7
421
 16777215
 74
     1
 91
        4
 64
     7
 65
   257
 75
     1
175
     1
 42
1.0
 92
        0
 66
   257
 43
1.0
 76
     1
 77
     6
 78
     2
 67
     7
 79
     5
170
     0
171
     0
290
     0
174
     0
 93
        1
 44
0.0
173
     0
291
     0
 45
0.0
  0
VISUALSTYLE
  5
32
102
{ACAD_REACTORS
330
2A
102
}
102
{ACAD_XDICTIONARY
360
181
102
}
330
2A
100
AcDbVisualStyle
  2
Basic
 70
     7
 71
     1
 72
     0
 73
     1
 90
        0
 40
0.6
 41
30.0
 62
     5
 63
     7
421
 16777215
 74
     0
 91
        4
 64
     7
 65
   257
 75
     1
175
     1
 42
1.0
 92
        8
 66
     7
 43
1.0
 76
     1
 77
     6
 78
     2
 67
     7
 79
     5
170
     0
171
     0
290
     0
174
     0
 93
        1
 44
0.0
173
     0
291
     1
 45
0.0
  0
VISUALSTYLE
  5
36
102
{ACAD_REACTORS
330
2A
102
}
102
{ACAD_XDICTIONARY
360
189
102
}
330
2A
100
AcDbVisualStyle
  2
Brighten
 70
    12
 71
     2
 72
     2
 73
     0
 90
        0
 40
0.6
 41
30.0
 62
     5
 63
     7
421
 16777215
 74
     1
 91
        4
 64
     7
 65
   257
 75
     1
175
     1
 42
1.0
 92
        8
 66
     7
 43
1.0
 76
     1
 77
     6
 78
     2
 67
     7
 79
     5
170
     0
171
     0
290
     0
174
     0
 93
        1
 44
50.0
173
     0
291
     1
 45
0.0
  0
VISUALSTYLE
  5
3A
102
{ACAD_REACTORS
330
2A
102
}
102
{ACAD_XDICTIONARY
360
191
102
}
330
2A
100
AcDbVisualStyle
  2
ColorChange
 70
    16
 71
     2
 72
     2
 73
     3
 90
        0
 40
0.6
 41
30.0
 62
     5
 63
     8
421
  8421504
 74
     1
 91
        4
 64
     7
 65
   257
 75
     1
175
     1
 42
1.0
 92
        8
 66
     8
424
  8421504
 43
1.0
 76
     1
 77
     6
 78
     2
 67
     7
 79
     5
170
     0
171
     0
290
     0
174
     0
 93
        1
 44
0.0
173
     0
291
     1
 45
0.0
  0
VISUALSTYLE
  5
34
102
{ACAD_REACTORS
330
2A
102
}
102
{ACAD_XDICTIONARY
360
185
102
}
330
2A
100
AcDbVisualStyle
  2
Conceptual
 70
     9
 71
     3
 72
     2
 73
     0
 90
        0
 40
0.6
 41
30.0
 62
     5
 63
     7
421
 16777215
 74
     2
 91
        2
 64
     7
 65
   257
 75
     1
175
     1
 42
179.0
 92
        8
 66
     7
 43
1.0
 76
     1
 77
     6
 78
     2
 67
     7
 79
     3
170
     0
171
     0
290
     0
174
     0
 93
        1
 44
0.0
173
     0
291
     0
 45
0.0
  0
VISUALSTYLE
  5
35
102
{ACAD_REACTORS
330
2A
102
}
102
{ACAD_XDICTIONARY
360
187
102
}
330
2A
100
AcDbVisualStyle
  2
Dim
 70
    11
 71
     2
 72
     2
 73
     0
 90
        0
 40
0.6
 41
30.0
 62
     5
 63
     7
421
 16777215
 74
     1
 91
        4
 64
     7
 65
   257
 75
     1
175
     1
 42
1.0
 92
        8
 66
     7
 43
1.0
 76
     1
 77
     6
 78
     2
 67
     7
 79
     5
170
     0
171
     0
290
     0
174
     0
 93
        1
 44
-50.0
173
     0
291
     1
 45
0.0
  0
VISUALSTYLE
  5
3D
102
{ACAD_REACTORS
330
2A
102
}
102
{ACAD_XDICTIONARY
360
197
102
}
330
2A
100
AcDbVisualStyle
  2
EdgeColorOff
 70
    22
 71
     2
 72
     2
 73
     0
 90
        0
 40
0.6
 41
30.0
 62
     5
 63
     7
421
 16777215
 74
     1
 91
        4
 64
     7
 65
   257
 75
     1
175
     1
 42
1.0
 92
        8
 66
     7
 43
1.0
 76
     1
 77
     6
 78
     2
 67
     7
 79
     5
170
     0
171
     0
290
     0
174
     0
 93
        1
 44
0.0
173
     0
291
     1
 45
0.0
  0
VISUALSTYLE
  5
39
102
{ACAD_REACTORS
330
2A
102
}
102
{ACAD_XDICTIONARY
360
18F
102
}
330
2A
100
AcDbVisualStyle
  2
Facepattern
 70
    15
 71
     2
 72
     2
 73
     0
 90
        0
 40
0.6
 41
30.0
 62
     5
 63
     7
421
 16777215
 74
     1
 91
        4
 64
     7
 65
   257
 75
     1
175
     1
 42
1.0
 92
        8
 66
     7
 43
1.0
 76
     1
 77
     6
 78
     2
 67
     7
 79
     5
170
     0
171
     0
290
     0
174
     0
 93
        1
 44
0.0
173
     0
291
     1
 45
0.0
  0
VISUALSTYLE
  5
2B
102
{ACAD_REACTORS
330
2A
102
}
102
{ACAD_XDICTIONARY
360
173
102
}
330
2A
100
AcDbVisualStyle
  2
Flat
 70
     0
 71
     2
 72
     1
 73
     1
 90
        2
 40
0.6
 41
30.0
 62
     5
 63
     7
421
 16777215
 74
     0
 91
        0
 64
     7
 65
   257
 75
     1
175
     1
 42
1.0
 92
        8
 66
     7
 43
1.0
 76
     1
 77
     6
 78
     2
 67
     7
 79
     5
170
     0
171
     0
290
     0
174
     0
 93
       13
 44
0.0
173
     0
291
     1
 45
0.0
  0
VISUALSTYLE
  5
2C
102
{ACAD_REACTORS
330
2A
102
}
102
{ACAD_XDICTIONARY
360
175
102
}
330
2A
100
AcDbVisualStyle
  2
FlatWithEdges
 70
     1
 71
     2
 72
     1
 73
     1
 90
        2
 40
0.6
 41
30.0
 62
     5
 63
     7
421
 16777215
 74
     1
 91
        0
 64
     7
 65
   257
 75
     1
175
     1
 42
1.0
 92
        0
 66
   257
 43
1.0
 76
     1
 77
     6
 78
     2
 67
     7
 79
     5
170
     0
171
     0
290
     0
174
     0
 93
       13
 44
0.0
173
     0
291
     1
 45
0.0
  0
VISUALSTYLE
  5
2D
102
{ACAD_REACTORS
330
2A
102
}
102
{ACAD_XDICTIONARY
360
177
102
}
330
2A
100
AcDbVisualStyle
  2
Gouraud
 70
     2
 71
     2
 72
     2
 73
     1
 90
        2
 40
0.6
 41
30.0
 62
     5
 63
     7
421
 16777215
 74
     0
 91
        0
 64
     7
 65
   257
 75
     1
175
     1
 42
1.0
 92
        0
 66
     7
 43
1.0
 76
     1
 77
     6
 78
     2
 67
     7
 79
     5
170
     0
171
     0
290
     0
174
     0
 93
       13
 44
0.0
173
     0
291
     1
 45
0.0
  0
VISUALSTYLE
  5
2E
102
{ACAD_REACTORS
330
2A
102
}
102
{ACAD_XDICTIONARY
360
179
102
}
330
2A
100
AcDbVisualStyle
  2
GouraudWithEdges
 70
     3
 71
     2
 72
     2
 73
     1
 90
        2
 40
0.6
 41
30.0
 62
     5
 63
     7
421
 16777215
 74
     1
 91
        0
 64
     7
 65
   257
 75
     1
175
     1
 42
1.0
 92
        0
 66
   257
 43
1.0
 76
     1
 77
     6
 78
     2
 67
     7
 79
     5
170
     0
171
     0
290
     0
174
     0
 93
       13
 44
0.0
173
     0
291
     1
 45
0.0
  0
VISUALSTYLE
  5
31
102
{ACAD_REACTORS
330
2A
102
}
102
{ACAD_XDICTIONARY
360
17F
102
}
330
2A
100
AcDbVisualStyle
  2
Hidden
 70
     6
 71
     1
 72
     2
 73
     2
 90
        0
 40
0.6
 41
30.0
 62
     5
 63
     7
421
 16777215
 74
     2
 91
        2
 64
     7
 65
   257
 75
     2
175
     1
 42
40.0
 92
        0
 66
   257
 43
1.0
 76
     1
 77
     6
 78
     2
 67
     7
 79
     3
170
     0
171
     0
290
     0
174
     0
 93
        1
 44
0.0
173
     0
291
     0
 45
0.0
  0
VISUALSTYLE
  5
3B
102
{ACAD_REACTORS
330
2A
102
}
102
{ACAD_XDICTIONARY
360
193
102
}
330
2A
100
AcDbVisualStyle
  2
JitterOff
 70
    20
 71
     2
 72
     2
 73
     0
 90
        0
 40
0.6
 41
30.0
 62
     5
 63
     7
421
 16777215
 74
     1
 91
        4
 64
     7
 65
   257
 75
     1
175
     1
 42
1.0
 92
       10
 66
     7
 43
1.0
 76
     1
 77
     6
 78
     2
 67
     7
 79
     5
170
     0
171
     0
290
     0
174
     0
 93
        1
 44
0.0
173
     0
291
     1
 45
0.0
  0
VISUALSTYLE
  5
38
102
{ACAD_REACTORS
330
2A
102
}
102
{ACAD_XDICTIONARY
360
18D
102
}
330
2A
100
AcDbVisualStyle
  2
Linepattern
 70
    14
 71
     2
 72
     2
 73
     0
 90
        0
 40
0.6
 41
30.0
 62
     5
 63
     7
421
 16777215
 74
     1
 91
        4
 64
     7
 65
   257
 75
     7
175
     7
 42
1.0
 92
        8
 66
     7
 43
1.0
 76
     1
 77
     6
 78
     2
 67
     7
 79
     5
170
     0
171
     0
290
     0
174
     0
 93
        1
 44
0.0
173
     0
291
     1
 45
0.0
  0
VISUALSTYLE
  5
3C
102
{ACAD_REACTORS
330
2A
102
}
102
{ACAD_XDICTIONARY
360
195
102
}
330
2A
100
AcDbVisualStyle
  2
OverhangOff
 70
    21
 71
     2
 72
     2
 73
     0
 90
        0
 40
0.6
 41
30.0
 62
     5
 63
     7
421
 16777215
 74
     1
 91
        4
 64
     7
 65
   257
 75
     1
175
     1
 42
1.0
 92
        9
 66
     7
 43
1.0
 76
     1
 77
     6
 78
     2
 67
     7
 79
     5
170
     0
171
     0
290
     0
174
     0
 93
        1
 44
0.0
173
     0
291
     1
 45
0.0
  0
VISUALSTYLE
  5
33
102
{ACAD_REACTORS
330
2A
102
}
102
{ACAD_XDICTIONARY
360
183
102
}
330
2A
100
AcDbVisualStyle
  2
Realistic
 70
     8
 71
     2
 72
     3
 73
     0
 90
        2
 40
0.6
 41
30.0
 62
     5
 63
     7
421
 16777215
 74
     0
 91
        0
 64
     7
 65
   257
 75
     1
175
     1
 42
1.0
 92
        8
 66
   257
 43
1.0
 76
     1
 77
     6
 78
     2
 67
     7
 79
     3
170
     0
171
     0
290
     0
174
     0
 93
       13
 44
0.0
173
     0
291
     0
 45
0.0
  0
VISUALSTYLE
  5
42
102
{ACAD_REACTORS
330
2A
102
}
102
{ACAD_XDICTIONARY
360
1A1
102
}
330
2A
100
AcDbVisualStyle
  2
Shaded
 70
    27
 71
     2
 72
     2
 73
     1
 90
        2
 40
0.6
 41
30.0
 62
     5
 63
     7
421
 16777215
 74
     0
 91
        4
 64
     7
 65
   257
 75
     1
175
     1
 42
1.0
 92
        8
 66
   257
 43
1.0
 76
     1
 77
     6
 78
     2
 67
     8
425
  7895160
 79
     3
170
     0
171
     0
290
     0
174
     0
 93
        5
 44
0.0
173
     0
291
     0
 45
0.0
  0
VISUALSTYLE
  5
41
102
{ACAD_REACTORS
330
2A
102
}
102
{ACAD_XDICTIONARY
360
19F
102
}
330
2A
100
AcDbVisualStyle
  2
Shaded with edges
 70
    26
 71
     2
 72
     2
 73
     1
 90
        2
 40
0.6
 41
30.0
 62
     5
 63
     7
421
 16777215
 74
     1
 91
       10
 64
     7
 65
   257
 75
     2
175
     1
 42
1.0
 92
        8
 66
   257
 43
1.0
 76
     1
 77
     6
 78
     2
 67
     7
 79
     3
170
     0
171
     0
290
     0
174
     0
 93
        5
 44
0.0
173
     0
291
     0
 45
0.0
  0
VISUALSTYLE
  5
3E
102
{ACAD_REACTORS
330
2A
102
}
102
{ACAD_XDICTIONARY
360
199
102
}
330
2A
100
AcDbVisualStyle
  2
Shades of Gray
 70
    23
 71
     2
 72
     2
 73
     3
 90
        0
 40
0.6
 41
30.0
 62
     5
 63
     7
421
 16777215
 74
     2
 91
        2
 64
     7
 65
     7
 75
     1
175
     1
 42
40.0
 92
        8
 66
     7
 43
1.0
 76
     1
 77
     6
 78
     2
 67
     7
 79
     3
170
     0
171
     0
290
     0
174
     0
 93
        1
 44
0.0
173
     0
291
     0
 45
0.0
  0
VISUALSTYLE
  5
3F
102
{ACAD_REACTORS
330
2A
102
}
102
{ACAD_XDICTIONARY
360
19B
102
}
330
2A
100
AcDbVisualStyle
  2
Sketchy
 70
    24
 71
     1
 72
     2
 73
     2
 90
        0
 40
0.6
 41
30.0
 62
     5
 63
     7
421
 16777215
 74
     2
 91
        2
 64
     7
 65
     7
 75
     1
175
     1
 42
40.0
 92
       11
 66
     7
 43
1.0
 76
     1
 77
     6
 78
     2
 67
     7
 79
     6
170
     0
171
     0
290
     0
174
     0
 93
        1
 44
0.0
173
     0
291
     0
 45
0.0
  0
VISUALSTYLE
  5
37
102
{ACAD_REACTORS
330
2A
102
}
102
{ACAD_XDICTIONARY
360
18B
102
}
330
2A
100
AcDbVisualStyle
  2
Thicken
 70
    13
 71
     2
 72
     2
 73
     0
 90
        0
 40
0.6
 41
30.0
 62
     5
 63
     7
421
 16777215
 74
     1
 91
        4
 64
     7
 65
   257
 75
     1
175
     1
 42
1.0
 92
       12
 66
     7
 43
1.0
 76
     1
 77
     6
 78
     2
 67
     7
 79
     5
170
     0
171
     0
290
     0
174
     0
 93
        1
 44
0.0
173
     0
291
     1
 45
0.0
  0
VISUALSTYLE
  5
30
102
{ACAD_REACTORS
330
2A
102
}
102
{ACAD_XDICTIONARY
360
17D
102
}
330
2A
100
AcDbVisualStyle
  2
Wireframe
 70
     5
 71
     0
 72
     2
 73
     0
 90
        0
 40
0.6
 41
30.0
 62
     5
 63
     7
421
 16777215
 74
     1
 91
        4
 64
     7
 65
   257
 75
     1
175
     1
 42
1.0
 92
        0
 66
   257
 43
1.0
 76
     1
 77
     6
 78
     2
 67
     7
 79
     3
170
     0
171
     0
290
     0
174
     0
 93
        1
 44
0.0
173
     0
291
     0
 45
0.0
  0
VISUALSTYLE
  5
40
102
{ACAD_REACTORS
330
2A
102
}
102
{ACAD_XDICTIONARY
360
19D
102
}
330
2A
100
AcDbVisualStyle
  2
X-Ray
 70
    25
 71
     2
 72
     2
 73
     1
 90
        1
 40
0.5
 41
30.0
 62
     5
 63
     7
421
 16777215
 74
     1
 91
        0
 64
     7
 65
   257
 75
     1
175
     1
 42
1.0
 92
        8
 66
     7
 43
1.0
 76
     1
 77
     6
 78
     2
 67
     7
 79
     3
170
     0
171
     0
290
     0
174
     0
 93
       13
 44
0.0
173
     0
291
     0
 45
0.0
  0
DICTIONARYVAR
  5
171
102
{ACAD_REACTORS
330
170
102
}
330
170
100
DictionaryVariables
280
     0
  1
1:1
  0
DICTIONARYVAR
  5
1AA
102
{ACAD_REACTORS
330
170
102
}
330
170
100
DictionaryVariables
280
     0
  1
Standard
  0
DICTIONARYVAR
  5
1A9
102
{ACAD_REACTORS
330
170
102
}
330
170
100
DictionaryVariables
280
     0
  1
Standard
  0
DICTIONARYVAR
  5
172
102
{ACAD_REACTORS
330
170
102
}
330
170
100
DictionaryVariables
280
     0
  1
2
  0
DICTIONARY
  5
1A6
330
5C
100
AcDbDictionary
280
     1
281
     1
  3
ACAD_XREC_ROUNDTRIP
360
1A7
  0
DICTIONARY
  5
1A3
330
5A
100
AcDbDictionary
280
     1
281
     1
  3
ACAD_ROUNDTRIP_2008_TABLESTYLE_CELLSTYLEMAP
360
1A4
  0
DICTIONARY
  5
17B
330
2F
100
AcDbDictionary
280
     1
281
     1
  3
ACAD_XREC_ROUNDTRIP
360
17C
  0
DICTIONARY
  5
181
330
32
100
AcDbDictionary
280
     1
281
     1
  3
ACAD_XREC_ROUNDTRIP
360
182
  0
DICTIONARY
  5
189
330
36
100
AcDbDictionary
280
     1
281
     1
  3
ACAD_XREC_ROUNDTRIP
360
18A
  0
DICTIONARY
  5
191
330
3A
100
AcDbDictionary
280
     1
281
     1
  3
ACAD_XREC_ROUNDTRIP
360
192
  0
DICTIONARY
  5
185
330
34
100
AcDbDictionary
280
     1
281
     1
  3
ACAD_XREC_ROUNDTRIP
360
186
  0
DICTIONARY
  5
187
330
35
100
AcDbDictionary
280
     1
281
     1
  3
ACAD_XREC_ROUNDTRIP
360
188
  0
DICTIONARY
  5
197
330
3D
100
AcDbDictionary
280
     1
281
     1
  3
ACAD_XREC_ROUNDTRIP
360
198
  0
DICTIONARY
  5
18F
330
39
100
AcDbDictionary
280
     1
281
     1
  3
ACAD_XREC_ROUNDTRIP
360
190
  0
DICTIONARY
  5
173
330
2B
100
AcDbDictionary
280
     1
281
     1
  3
ACAD_XREC_ROUNDTRIP
360
174
  0
DICTIONARY
  5
175
330
2C
100
AcDbDictionary
280
     1
281
     1
  3
ACAD_XREC_ROUNDTRIP
360
176
  0
DICTIONARY
  5
177
330
2D
100
AcDbDictionary
280
     1
281
     1
  3
ACAD_XREC_ROUNDTRIP
360
178
  0
DICTIONARY
  5
179
330
2E
100
AcDbDictionary
280
     1
281
     1
  3
ACAD_XREC_ROUNDTRIP
360
17A
  0
DICTIONARY
  5
17F
330
31
100
AcDbDictionary
280
     1
281
     1
  3
ACAD_XREC_ROUNDTRIP
360
180
  0
DICTIONARY
  5
193
330
3B
100
AcDbDictionary
280
     1
281
     1
  3
ACAD_XREC_ROUNDTRIP
360
194
  0
DICTIONARY
  5
18D
330
38
100
AcDbDictionary
280
     1
281
     1
  3
ACAD_XREC_ROUNDTRIP
360
18E
  0
DICTIONARY
  5
195
330
3C
100
AcDbDictionary
280
     1
281
     1
  3
ACAD_XREC_ROUNDTRIP
360
196
  0
DICTIONARY
  5
183
330
33
100
AcDbDictionary
280
     1
281
     1
  3
ACAD_XREC_ROUNDTRIP
360
184
  0
DICTIONARY
  5
1A1
330
42
100
AcDbDictionary
280
     1
281
     1
  3
ACAD_XREC_ROUNDTRIP
360
1A2
  0
DICTIONARY
  5
19F
330
41
100
AcDbDictionary
280
     1
281
     1
  3
ACAD_XREC_ROUNDTRIP
360
1A0
  0
DICTIONARY
  5
199
330
3E
100
AcDbDictionary
280
     1
281
     1
  3
ACAD_XREC_ROUNDTRIP
360
19A
  0
DICTIONARY
  5
19B
330
3F
100
AcDbDictionary
280
     1
281
     1
  3
ACAD_XREC_ROUNDTRIP
360
19C
  0
DICTIONARY
  5
18B
330
37
100
AcDbDictionary
280
     1
281
     1
  3
ACAD_XREC_ROUNDTRIP
360
18C
  0
DICTIONARY
  5
17D
330
30
100
AcDbDictionary
280
     1
281
     1
  3
ACAD_XREC_ROUNDTRIP
360
17E
  0
DICTIONARY
  5
19D
330
40
100
AcDbDictionary
280
     1
281
     1
  3
ACAD_XREC_ROUNDTRIP
360
19E
  0
XRECORD
  5
1A7
102
{ACAD_REACTORS
330
1A6
102
}
330
1A6
100
AcDbXrecord
280
     1
102
ACAD_ROUNDTRIP_2010_MLEADER_STYLE
  0
CELLSTYLEMAP
  5
1A4
102
{ACAD_REACTORS
330
1A3
102
}
330
1A3
100
AcDbCellStyleMap
 90
        3
300
CELLSTYLE
  1
TABLEFORMAT_BEGIN
 90
        5
170
     1
 91
        0
 92
    32768
 62
   257
 93
        1
300
CONTENTFORMAT
  1
CONTENTFORMAT_BEGIN
 90
        0
 91
        0
 92
        4
 93
        0
300

 40
0.0
140
1.0
 94
        5
 62
     0
340
11
144
0.25
309
CONTENTFORMAT_END
171
     1
301
MARGIN
  1
CELLMARGIN_BEGIN
 40
0.06
 40
0.06
 40
0.06
 40
0.06
 40
0.06
 40
0.06
309
CELLMARGIN_END
 94
        6
 95
        1
302
GRIDFORMAT
  1
GRIDFORMAT_BEGIN
 90
        0
 91
        1
 62
     0
 92
       -2
340
14
 93
        0
 40
0.045
309
GRIDFORMAT_END
 95
        2
302
GRIDFORMAT
  1
GRIDFORMAT_BEGIN
 90
        0
 91
        1
 62
     0
 92
       -2
340
14
 93
        0
 40
0.045
309
GRIDFORMAT_END
 95
        4
302
GRIDFORMAT
  1
GRIDFORMAT_BEGIN
 90
        0
 91
        1
 62
     0
 92
       -2
340
14
 93
        0
 40
0.045
309
GRIDFORMAT_END
 95
        8
302
GRIDFORMAT
  1
GRIDFORMAT_BEGIN
 90
        0
 91
        1
 62
     0
 92
       -2
340
14
 93
        0
 40
0.045
309
GRIDFORMAT_END
 95
       16
302
GRIDFORMAT
  1
GRIDFORMAT_BEGIN
 90
        0
 91
        1
 62
     0
 92
       -2
340
14
 93
        0
 40
0.045
309
GRIDFORMAT_END
 95
       32
302
GRIDFORMAT
  1
GRIDFORMAT_BEGIN
 90
        0
 91
        1
 62
     0
 92
       -2
340
14
 93
        0
 40
0.045
309
GRIDFORMAT_END
309
TABLEFORMAT_END
  1
CELLSTYLE_BEGIN
 90
        1
 91
        1
300
_TITLE
309
CELLSTYLE_END
300
CELLSTYLE
  1
TABLEFORMAT_BEGIN
 90
        5
170
     1
 91
        0
 92
        0
 62
   257
 93
        1
300
CONTENTFORMAT
  1
CONTENTFORMAT_BEGIN
 90
        0
 91
        0
 92
        4
 93
        0
300

 40
0.0
140
1.0
 94
        5
 62
     0
340
11
144
0.18
309
CONTENTFORMAT_END
171
     1
301
MARGIN
  1
CELLMARGIN_BEGIN
 40
0.06
 40
0.06
 40
0.06
 40
0.06
 40
0.06
 40
0.06
309
CELLMARGIN_END
 94
        6
 95
        1
302
GRIDFORMAT
  1
GRIDFORMAT_BEGIN
 90
        0
 91
        1
 62
     0
 92
       -2
340
14
 93
        0
 40
0.045
309
GRIDFORMAT_END
 95
        2
302
GRIDFORMAT
  1
GRIDFORMAT_BEGIN
 90
        0
 91
        1
 62
     0
 92
       -2
340
14
 93
        0
 40
0.045
309
GRIDFORMAT_END
 95
        4
302
GRIDFORMAT
  1
GRIDFORMAT_BEGIN
 90
        0
 91
        1
 62
     0
 92
       -2
340
14
 93
        0
 40
0.045
309
GRIDFORMAT_END
 95
        8
302
GRIDFORMAT
  1
GRIDFORMAT_BEGIN
 90
        0
 91
        1
 62
     0
 92
       -2
340
14
 93
        0
 40
0.045
309
GRIDFORMAT_END
 95
       16
302
GRIDFORMAT
  1
GRIDFORMAT_BEGIN
 90
        0
 91
        1
 62
     0
 92
       -2
340
14
 93
        0
 40
0.045
309
GRIDFORMAT_END
 95
       32
302
GRIDFORMAT
  1
GRIDFORMAT_BEGIN
 90
        0
 91
        1
 62
     0
 92
       -2
340
14
 93
        0
 40
0.045
309
GRIDFORMAT_END
309
TABLEFORMAT_END
  1
CELLSTYLE_BEGIN
 90
        2
 91
        1
300
_HEADER
309
CELLSTYLE_END
300
CELLSTYLE
  1
TABLEFORMAT_BEGIN
 90
        5
170
     1
 91
        0
 92
        0
 62
   257
 93
        1
300
CONTENTFORMAT
  1
CONTENTFORMAT_BEGIN
 90
        0
 91
        0
 92
        4
 93
        0
300

 40
0.0
140
1.0
 94
        2
 62
     0
340
11
144
0.18
309
CONTENTFORMAT_END
171
     1
301
MARGIN
  1
CELLMARGIN_BEGIN
 40
0.06
 40
0.06
 40
0.06
 40
0.06
 40
0.06
 40
0.06
309
CELLMARGIN_END
 94
        6
 95
        1
302
GRIDFORMAT
  1
GRIDFORMAT_BEGIN
 90
        0
 91
        1
 62
     0
 92
       -2
340
14
 93
        0
 40
0.045
309
GRIDFORMAT_END
 95
        2
302
GRIDFORMAT
  1
GRIDFORMAT_BEGIN
 90
        0
 91
        1
 62
     0
 92
       -2
340
14
 93
        0
 40
0.045
309
GRIDFORMAT_END
 95
        4
302
GRIDFORMAT
  1
GRIDFORMAT_BEGIN
 90
        0
 91
        1
 62
     0
 92
       -2
340
14
 93
        0
 40
0.045
309
GRIDFORMAT_END
 95
        8
302
GRIDFORMAT
  1
GRIDFORMAT_BEGIN
 90
        0
 91
        1
 62
     0
 92
       -2
340
14
 93
        0
 40
0.045
309
GRIDFORMAT_END
 95
       16
302
GRIDFORMAT
  1
GRIDFORMAT_BEGIN
 90
        0
 91
        1
 62
     0
 92
       -2
340
14
 93
        0
 40
0.045
309
GRIDFORMAT_END
 95
       32
302
GRIDFORMAT
  1
GRIDFORMAT_BEGIN
 90
        0
 91
        1
 62
     0
 92
       -2
340
14
 93
        0
 40
0.045
309
GRIDFORMAT_END
309
TABLEFORMAT_END
  1
CELLSTYLE_BEGIN
 90
        3
 91
        2
300
_DATA
309
CELLSTYLE_END
  0
XRECORD
  5
17C
102
{ACAD_REACTORS
330
17B
102
}
330
17B
100
AcDbXrecord
280
     1
102
RTVSPropertyOp0
 70
     1
102
RTVSPropertyOp1
 70
     1
102
RTVSPropertyOp2
 70
     1
102
RTVSPropertyOp3
 70
     1
102
RTVSPropertyOp4
 70
     1
102
RTVSPropertyOp5
 70
     1
102
RTVSPropertyOp6
 70
     1
102
RTVSPropertyOp7
 70
     1
102
RTVSPropertyOp8
 70
     1
102
RTVSPropertyOp9
 70
     1
102
RTVSPropertyOp10
 70
     1
102
RTVSPropertyOp11
 70
     1
102
RTVSPropertyOp12
 70
     1
102
RTVSPropertyOp13
 70
     1
102
RTVSPropertyOp14
 70
     1
102
RTVSPropertyOp15
 70
     1
102
RTVSPropertyOp16
 70
     1
102
RTVSPropertyOp17
 70
     1
102
RTVSPropertyOp18
 70
     1
102
RTVSPropertyOp19
 70
     1
102
RTVSPropertyOp20
 70
     1
102
RTVSPropertyOp21
 70
     1
102
RTVSPropertyOp22
 70
     1
102
RTVSPropertyOp23
 70
     1
102
RTVSPropertyOp24
 70
     1
102
RTVSPropertyOp25
 70
     1
102
RTVSPropertyOp26
 70
     1
102
RTVSPropertyOp27
 70
     1
102
RTVSPropertyOp28
 70
     1
102
RTVSPropertyOp29
 70
     1
102
RTVSPropertyOp30
 70
     1
102
RTVSPropertyOp31
 70
     1
102
RTVSPropertyOp32
 70
     1
102
RTVSPropertyOp33
 70
     1
102
RTVSPropertyOp34
 70
     1
102
RTVSPropertyOp35
 70
     1
102
RTVSPropertyOp36
 70
     1
102
RTVSPropertyOp37
 70
     1
102
RTVSPropertyOp38
 70
     1
102
RTVSPropertyOp39
 70
     1
102
RTVSPropertyOp40
 70
     1
102
RTVSPropertyOp41
 70
     1
102
RTVSPropertyOp42
 70
     1
102
RTVSPropertyOp43
 70
     1
102
RTVSPropertyOp44
 70
     1
102
RTVSPropertyOp45
 70
     1
102
RTVSPropertyOp46
 70
     1
102
RTVSPropertyOp47
 70
     1
102
RTVSPropertyOp48
 70
     1
102
RTVSPropertyOp49
 70
     1
102
RTVSPropertyOp50
 70
     1
102
RTVSPropertyOp51
 70
     0
102
RTVSPropertyOp52
 70
     0
102
RTVSPropertyOp53
 70
     1
102
RTVSPropertyOp54
 70
     1
102
RTVSPropertyOp55
 70
     1
102
RTVSPropertyOp56
 70
     1
102
RTVSPropertyOp57
 70
     1
102
RTVSPost2010Prop28
280
     1
102
RTVSPost2010PropOp28
 70
     1
102
RTVSPost2010Prop29
280
     1
102
RTVSPost2010PropOp29
 70
     1
102
RTVSPost2010Prop30
280
     0
102
RTVSPost2010PropOp30
 70
     1
102
RTVSPost2010Prop31
280
     0
102
RTVSPost2010PropOp31
 70
     1
102
RTVSPost2010Prop32
280
     0
102
RTVSPost2010PropOp32
 70
     1
102
RTVSPost2010Prop33
280
     0
102
RTVSPost2010PropOp33
 70
     1
102
RTVSPost2010Prop34
280
     0
102
RTVSPost2010PropOp34
 70
     1
102
RTVSPost2010Prop35
280
     0
102
RTVSPost2010PropOp35
 70
     1
102
RTVSPost2010Prop36
280
     0
102
RTVSPost2010PropOp36
 70
     1
102
RTVSPost2010Prop37
 90
       50
102
RTVSPost2010PropOp37
 70
     1
102
RTVSPost2010Prop38
140
0.0
102
RTVSPost2010PropOp38
 70
     1
102
RTVSPost2010Prop39
140
1.0
102
RTVSPost2010PropOp39
 70
     1
102
RTVSPost2010Prop40
 90
        0
102
RTVSPost2010PropOp40
 70
     1
102
RTVSPost2010Prop41ColorIndex
 90
       18
102
RTVSPost2010Prop41ColorRGB
 90
        0
102
RTVSPost2010PropOp41
 70
     1
102
RTVSPost2010Prop42
 90
       50
102
RTVSPost2010PropOp42
 70
     1
102
RTVSPost2010Prop43
 90
        3
102
RTVSPost2010PropOp43
 70
     1
102
RTVSPost2010Prop44ColorIndex
 90
        5
102
RTVSPost2010Prop44ColorRGB
 90
      255
102
RTVSPost2010PropOp44
 70
     1
102
RTVSPost2010Prop45
280
     0
102
RTVSPost2010PropOp45
 70
     1
102
RTVSPost2010Prop46
 90
       50
102
RTVSPost2010PropOp46
 70
     1
102
RTVSPost2010Prop47
 90
       50
102
RTVSPost2010PropOp47
 70
     1
102
RTVSPost2010Prop48
 90
       50
102
RTVSPost2010PropOp48
 70
     1
102
RTVSPost2010Prop49
280
     0
102
RTVSPost2010PropOp49
 70
     1
102
RTVSPost2010Prop50
 90
       50
102
RTVSPost2010PropOp50
 70
     1
102
RTVSPost2010Prop51ColorIndex
 90
      256
102
RTVSPost2010Prop51ColorRGB
 90
-16777216
102
RTVSPost2010PropOp51
 70
     0
102
RTVSPost2010Prop52
140
1.0
102
RTVSPost2010PropOp52
 70
     0
102
RTVSPost2010Prop53
 90
        2
102
RTVSPost2010PropOp53
 70
     1
102
RTVSPost2010Prop54
  1
strokes_ogs.tif
102
RTVSPost2010PropOp54
 70
     1
102
RTVSPost2010Prop55
280
     0
102
RTVSPost2010PropOp55
 70
     1
102
RTVSPost2010Prop56
140
1.0
102
RTVSPost2010PropOp56
 70
     1
102
RTVSPost2010Prop57
140
1.0
102
RTVSPost2010PropOp57
 70
     1
  0
XRECORD
  5
182
102
{ACAD_REACTORS
330
181
102
}
330
181
100
AcDbXrecord
280
     1
102
RTVSPropertyOp0
 70
     1
102
RTVSPropertyOp1
 70
     1
102
RTVSPropertyOp2
 70
     1
102
RTVSPropertyOp3
 70
     1
102
RTVSPropertyOp4
 70
     1
102
RTVSPropertyOp5
 70
     1
102
RTVSPropertyOp6
 70
     1
102
RTVSPropertyOp7
 70
     1
102
RTVSPropertyOp8
 70
     1
102
RTVSPropertyOp9
 70
     1
102
RTVSPropertyOp10
 70
     1
102
RTVSPropertyOp11
 70
     1
102
RTVSPropertyOp12
 70
     1
102
RTVSPropertyOp13
 70
     1
102
RTVSPropertyOp14
 70
     1
102
RTVSPropertyOp15
 70
     1
102
RTVSPropertyOp16
 70
     1
102
RTVSPropertyOp17
 70
     1
102
RTVSPropertyOp18
 70
     1
102
RTVSPropertyOp19
 70
     1
102
RTVSPropertyOp20
 70
     1
102
RTVSPropertyOp21
 70
     1
102
RTVSPropertyOp22
 70
     1
102
RTVSPropertyOp23
 70
     1
102
RTVSPropertyOp24
 70
     1
102
RTVSPropertyOp25
 70
     1
102
RTVSPropertyOp26
 70
     1
102
RTVSPropertyOp27
 70
     1
102
RTVSPropertyOp28
 70
     1
102
RTVSPropertyOp29
 70
     1
102
RTVSPropertyOp30
 70
     1
102
RTVSPropertyOp31
 70
     1
102
RTVSPropertyOp32
 70
     1
102
RTVSPropertyOp33
 70
     1
102
RTVSPropertyOp34
 70
     1
102
RTVSPropertyOp35
 70
     1
102
RTVSPropertyOp36
 70
     1
102
RTVSPropertyOp37
 70
     1
102
RTVSPropertyOp38
 70
     1
102
RTVSPropertyOp39
 70
     1
102
RTVSPropertyOp40
 70
     1
102
RTVSPropertyOp41
 70
     1
102
RTVSPropertyOp42
 70
     1
102
RTVSPropertyOp43
 70
     1
102
RTVSPropertyOp44
 70
     1
102
RTVSPropertyOp45
 70
     1
102
RTVSPropertyOp46
 70
     1
102
RTVSPropertyOp47
 70
     1
102
RTVSPropertyOp48
 70
     1
102
RTVSPropertyOp49
 70
     1
102
RTVSPropertyOp50
 70
     1
102
RTVSPropertyOp51
 70
     0
102
RTVSPropertyOp52
 70
     0
102
RTVSPropertyOp53
 70
     1
102
RTVSPropertyOp54
 70
     1
102
RTVSPropertyOp55
 70
     1
102
RTVSPropertyOp56
 70
     1
102
RTVSPropertyOp57
 70
     1
102
RTVSPost2010Prop28
280
     0
102
RTVSPost2010PropOp28
 70
     1
102
RTVSPost2010Prop29
280
     1
102
RTVSPost2010PropOp29
 70
     1
102
RTVSPost2010Prop30
280
     1
102
RTVSPost2010PropOp30
 70
     1
102
RTVSPost2010Prop31
280
     0
102
RTVSPost2010PropOp31
 70
     1
102
RTVSPost2010Prop32
280
     0
102
RTVSPost2010PropOp32
 70
     1
102
RTVSPost2010Prop33
280
     0
102
RTVSPost2010PropOp33
 70
     1
102
RTVSPost2010Prop34
280
     0
102
RTVSPost2010PropOp34
 70
     1
102
RTVSPost2010Prop35
280
     0
102
RTVSPost2010PropOp35
 70
     1
102
RTVSPost2010Prop36
280
     0
102
RTVSPost2010PropOp36
 70
     1
102
RTVSPost2010Prop37
 90
       50
102
RTVSPost2010PropOp37
 70
     1
102
RTVSPost2010Prop38
140
0.0
102
RTVSPost2010PropOp38
 70
     1
102
RTVSPost2010Prop39
140
1.0
102
RTVSPost2010PropOp39
 70
     1
102
RTVSPost2010Prop40
 90
        0
102
RTVSPost2010PropOp40
 70
     1
102
RTVSPost2010Prop41ColorIndex
 90
       18
102
RTVSPost2010Prop41ColorRGB
 90
        0
102
RTVSPost2010PropOp41
 70
     1
102
RTVSPost2010Prop42
 90
       50
102
RTVSPost2010PropOp42
 70
     1
102
RTVSPost2010Prop43
 90
        3
102
RTVSPost2010PropOp43
 70
     1
102
RTVSPost2010Prop44ColorIndex
 90
        5
102
RTVSPost2010Prop44ColorRGB
 90
      255
102
RTVSPost2010PropOp44
 70
     1
102
RTVSPost2010Prop45
280
     0
102
RTVSPost2010PropOp45
 70
     1
102
RTVSPost2010Prop46
 90
       50
102
RTVSPost2010PropOp46
 70
     1
102
RTVSPost2010Prop47
 90
       50
102
RTVSPost2010PropOp47
 70
     1
102
RTVSPost2010Prop48
 90
       50
102
RTVSPost2010PropOp48
 70
     1
102
RTVSPost2010Prop49
280
     0
102
RTVSPost2010PropOp49
 70
     1
102
RTVSPost2010Prop50
 90
       50
102
RTVSPost2010PropOp50
 70
     1
102
RTVSPost2010Prop51ColorIndex
 90
      256
102
RTVSPost2010Prop51ColorRGB
 90
-16777216
102
RTVSPost2010PropOp51
 70
     0
102
RTVSPost2010Prop52
140
1.0
102
RTVSPost2010PropOp52
 70
     0
102
RTVSPost2010Prop53
 90
        2
102
RTVSPost2010PropOp53
 70
     1
102
RTVSPost2010Prop54
  1
strokes_ogs.tif
102
RTVSPost2010PropOp54
 70
     1
102
RTVSPost2010Prop55
280
     0
102
RTVSPost2010PropOp55
 70
     1
102
RTVSPost2010Prop56
140
1.0
102
RTVSPost2010PropOp56
 70
     1
102
RTVSPost2010Prop57
140
1.0
102
RTVSPost2010PropOp57
 70
     1
  0
XRECORD
  5
18A
102
{ACAD_REACTORS
330
189
102
}
330
189
100
AcDbXrecord
280
     1
102
RTVSPropertyOp0
 70
     1
102
RTVSPropertyOp1
 70
     1
102
RTVSPropertyOp2
 70
     1
102
RTVSPropertyOp3
 70
     1
102
RTVSPropertyOp4
 70
     1
102
RTVSPropertyOp5
 70
     1
102
RTVSPropertyOp6
 70
     1
102
RTVSPropertyOp7
 70
     1
102
RTVSPropertyOp8
 70
     1
102
RTVSPropertyOp9
 70
     1
102
RTVSPropertyOp10
 70
     1
102
RTVSPropertyOp11
 70
     1
102
RTVSPropertyOp12
 70
     1
102
RTVSPropertyOp13
 70
     1
102
RTVSPropertyOp14
 70
     1
102
RTVSPropertyOp15
 70
     1
102
RTVSPropertyOp16
 70
     1
102
RTVSPropertyOp17
 70
     1
102
RTVSPropertyOp18
 70
     1
102
RTVSPropertyOp19
 70
     1
102
RTVSPropertyOp20
 70
     1
102
RTVSPropertyOp21
 70
     1
102
RTVSPropertyOp22
 70
     1
102
RTVSPropertyOp23
 70
     1
102
RTVSPropertyOp24
 70
     1
102
RTVSPropertyOp25
 70
     1
102
RTVSPropertyOp26
 70
     1
102
RTVSPropertyOp27
 70
     1
102
RTVSPropertyOp28
 70
     1
102
RTVSPropertyOp29
 70
     1
102
RTVSPropertyOp30
 70
     1
102
RTVSPropertyOp31
 70
     1
102
RTVSPropertyOp32
 70
     1
102
RTVSPropertyOp33
 70
     1
102
RTVSPropertyOp34
 70
     1
102
RTVSPropertyOp35
 70
     1
102
RTVSPropertyOp36
 70
     1
102
RTVSPropertyOp37
 70
     1
102
RTVSPropertyOp38
 70
     1
102
RTVSPropertyOp39
 70
     1
102
RTVSPropertyOp40
 70
     1
102
RTVSPropertyOp41
 70
     1
102
RTVSPropertyOp42
 70
     1
102
RTVSPropertyOp43
 70
     1
102
RTVSPropertyOp44
 70
     1
102
RTVSPropertyOp45
 70
     1
102
RTVSPropertyOp46
 70
     1
102
RTVSPropertyOp47
 70
     1
102
RTVSPropertyOp48
 70
     1
102
RTVSPropertyOp49
 70
     1
102
RTVSPropertyOp50
 70
     1
102
RTVSPropertyOp51
 70
     0
102
RTVSPropertyOp52
 70
     0
102
RTVSPropertyOp53
 70
     1
102
RTVSPropertyOp54
 70
     1
102
RTVSPropertyOp55
 70
     1
102
RTVSPropertyOp56
 70
     1
102
RTVSPropertyOp57
 70
     1
102
RTVSPost2010Prop28
280
     0
102
RTVSPost2010PropOp28
 70
     1
102
RTVSPost2010Prop29
280
     1
102
RTVSPost2010PropOp29
 70
     1
102
RTVSPost2010Prop30
280
     1
102
RTVSPost2010PropOp30
 70
     1
102
RTVSPost2010Prop31
280
     0
102
RTVSPost2010PropOp31
 70
     1
102
RTVSPost2010Prop32
280
     0
102
RTVSPost2010PropOp32
 70
     1
102
RTVSPost2010Prop33
280
     0
102
RTVSPost2010PropOp33
 70
     1
102
RTVSPost2010Prop34
280
     0
102
RTVSPost2010PropOp34
 70
     1
102
RTVSPost2010Prop35
280
     0
102
RTVSPost2010PropOp35
 70
     1
102
RTVSPost2010Prop36
280
     0
102
RTVSPost2010PropOp36
 70
     1
102
RTVSPost2010Prop37
 90
       50
102
RTVSPost2010PropOp37
 70
     1
102
RTVSPost2010Prop38
140
0.0
102
RTVSPost2010PropOp38
 70
     1
102
RTVSPost2010Prop39
140
1.0
102
RTVSPost2010PropOp39
 70
     1
102
RTVSPost2010Prop40
 90
        0
102
RTVSPost2010PropOp40
 70
     1
102
RTVSPost2010Prop41ColorIndex
 90
       18
102
RTVSPost2010Prop41ColorRGB
 90
        0
102
RTVSPost2010PropOp41
 70
     1
102
RTVSPost2010Prop42
 90
       50
102
RTVSPost2010PropOp42
 70
     1
102
RTVSPost2010Prop43
 90
        3
102
RTVSPost2010PropOp43
 70
     1
102
RTVSPost2010Prop44ColorIndex
 90
        5
102
RTVSPost2010Prop44ColorRGB
 90
      255
102
RTVSPost2010PropOp44
 70
     1
102
RTVSPost2010Prop45
280
     0
102
RTVSPost2010PropOp45
 70
     1
102
RTVSPost2010Prop46
 90
       50
102
RTVSPost2010PropOp46
 70
     1
102
RTVSPost2010Prop47
 90
       50
102
RTVSPost2010PropOp47
 70
     1
102
RTVSPost2010Prop48
 90
       50
102
RTVSPost2010PropOp48
 70
     1
102
RTVSPost2010Prop49
280
     0
102
RTVSPost2010PropOp49
 70
     1
102
RTVSPost2010Prop50
 90
       50
102
RTVSPost2010PropOp50
 70
     1
102
RTVSPost2010Prop51ColorIndex
 90
      256
102
RTVSPost2010Prop51ColorRGB
 90
-16777216
102
RTVSPost2010PropOp51
 70
     0
102
RTVSPost2010Prop52
140
1.0
102
RTVSPost2010PropOp52
 70
     0
102
RTVSPost2010Prop53
 90
        2
102
RTVSPost2010PropOp53
 70
     1
102
RTVSPost2010Prop54
  1
strokes_ogs.tif
102
RTVSPost2010PropOp54
 70
     1
102
RTVSPost2010Prop55
280
     0
102
RTVSPost2010PropOp55
 70
     1
102
RTVSPost2010Prop56
140
1.0
102
RTVSPost2010PropOp56
 70
     1
102
RTVSPost2010Prop57
140
1.0
102
RTVSPost2010PropOp57
 70
     1
  0
XRECORD
  5
192
102
{ACAD_REACTORS
330
191
102
}
330
191
100
AcDbXrecord
280
     1
102
RTVSPropertyOp0
 70
     1
102
RTVSPropertyOp1
 70
     1
102
RTVSPropertyOp2
 70
     1
102
RTVSPropertyOp3
 70
     1
102
RTVSPropertyOp4
 70
     1
102
RTVSPropertyOp5
 70
     1
102
RTVSPropertyOp6
 70
     1
102
RTVSPropertyOp7
 70
     1
102
RTVSPropertyOp8
 70
     1
102
RTVSPropertyOp9
 70
     1
102
RTVSPropertyOp10
 70
     1
102
RTVSPropertyOp11
 70
     1
102
RTVSPropertyOp12
 70
     1
102
RTVSPropertyOp13
 70
     1
102
RTVSPropertyOp14
 70
     1
102
RTVSPropertyOp15
 70
     1
102
RTVSPropertyOp16
 70
     1
102
RTVSPropertyOp17
 70
     1
102
RTVSPropertyOp18
 70
     1
102
RTVSPropertyOp19
 70
     1
102
RTVSPropertyOp20
 70
     1
102
RTVSPropertyOp21
 70
     1
102
RTVSPropertyOp22
 70
     1
102
RTVSPropertyOp23
 70
     1
102
RTVSPropertyOp24
 70
     1
102
RTVSPropertyOp25
 70
     1
102
RTVSPropertyOp26
 70
     1
102
RTVSPropertyOp27
 70
     1
102
RTVSPropertyOp28
 70
     1
102
RTVSPropertyOp29
 70
     1
102
RTVSPropertyOp30
 70
     1
102
RTVSPropertyOp31
 70
     1
102
RTVSPropertyOp32
 70
     1
102
RTVSPropertyOp33
 70
     1
102
RTVSPropertyOp34
 70
     1
102
RTVSPropertyOp35
 70
     1
102
RTVSPropertyOp36
 70
     1
102
RTVSPropertyOp37
 70
     1
102
RTVSPropertyOp38
 70
     1
102
RTVSPropertyOp39
 70
     1
102
RTVSPropertyOp40
 70
     1
102
RTVSPropertyOp41
 70
     1
102
RTVSPropertyOp42
 70
     1
102
RTVSPropertyOp43
 70
     1
102
RTVSPropertyOp44
 70
     1
102
RTVSPropertyOp45
 70
     1
102
RTVSPropertyOp46
 70
     1
102
RTVSPropertyOp47
 70
     1
102
RTVSPropertyOp48
 70
     1
102
RTVSPropertyOp49
 70
     1
102
RTVSPropertyOp50
 70
     1
102
RTVSPropertyOp51
 70
     0
102
RTVSPropertyOp52
 70
     0
102
RTVSPropertyOp53
 70
     1
102
RTVSPropertyOp54
 70
     1
102
RTVSPropertyOp55
 70
     1
102
RTVSPropertyOp56
 70
     1
102
RTVSPropertyOp57
 70
     1
102
RTVSPost2010Prop28
280
     0
102
RTVSPost2010PropOp28
 70
     1
102
RTVSPost2010Prop29
280
     1
102
RTVSPost2010PropOp29
 70
     1
102
RTVSPost2010Prop30
280
     1
102
RTVSPost2010PropOp30
 70
     1
102
RTVSPost2010Prop31
280
     0
102
RTVSPost2010PropOp31
 70
     1
102
RTVSPost2010Prop32
280
     0
102
RTVSPost2010PropOp32
 70
     1
102
RTVSPost2010Prop33
280
     0
102
RTVSPost2010PropOp33
 70
     1
102
RTVSPost2010Prop34
280
     0
102
RTVSPost2010PropOp34
 70
     1
102
RTVSPost2010Prop35
280
     0
102
RTVSPost2010PropOp35
 70
     1
102
RTVSPost2010Prop36
280
     0
102
RTVSPost2010PropOp36
 70
     1
102
RTVSPost2010Prop37
 90
       50
102
RTVSPost2010PropOp37
 70
     1
102
RTVSPost2010Prop38
140
0.0
102
RTVSPost2010PropOp38
 70
     1
102
RTVSPost2010Prop39
140
1.0
102
RTVSPost2010PropOp39
 70
     1
102
RTVSPost2010Prop40
 90
        0
102
RTVSPost2010PropOp40
 70
     1
102
RTVSPost2010Prop41ColorIndex
 90
       18
102
RTVSPost2010Prop41ColorRGB
 90
        0
102
RTVSPost2010PropOp41
 70
     1
102
RTVSPost2010Prop42
 90
       50
102
RTVSPost2010PropOp42
 70
     1
102
RTVSPost2010Prop43
 90
        3
102
RTVSPost2010PropOp43
 70
     1
102
RTVSPost2010Prop44ColorIndex
 90
        5
102
RTVSPost2010Prop44ColorRGB
 90
      255
102
RTVSPost2010PropOp44
 70
     1
102
RTVSPost2010Prop45
280
     0
102
RTVSPost2010PropOp45
 70
     1
102
RTVSPost2010Prop46
 90
       50
102
RTVSPost2010PropOp46
 70
     1
102
RTVSPost2010Prop47
 90
       50
102
RTVSPost2010PropOp47
 70
     1
102
RTVSPost2010Prop48
 90
       50
102
RTVSPost2010PropOp48
 70
     1
102
RTVSPost2010Prop49
280
     0
102
RTVSPost2010PropOp49
 70
     1
102
RTVSPost2010Prop50
 90
       50
102
RTVSPost2010PropOp50
 70
     1
102
RTVSPost2010Prop51ColorIndex
 90
      256
102
RTVSPost2010Prop51ColorRGB
 90
-16777216
102
RTVSPost2010PropOp51
 70
     0
102
RTVSPost2010Prop52
140
1.0
102
RTVSPost2010PropOp52
 70
     0
102
RTVSPost2010Prop53
 90
        2
102
RTVSPost2010PropOp53
 70
     1
102
RTVSPost2010Prop54
  1
strokes_ogs.tif
102
RTVSPost2010PropOp54
 70
     1
102
RTVSPost2010Prop55
280
     0
102
RTVSPost2010PropOp55
 70
     1
102
RTVSPost2010Prop56
140
1.0
102
RTVSPost2010PropOp56
 70
     1
102
RTVSPost2010Prop57
140
1.0
102
RTVSPost2010PropOp57
 70
     1
  0
XRECORD
  5
186
102
{ACAD_REACTORS
330
185
102
}
330
185
100
AcDbXrecord
280
     1
102
RTVSPropertyOp0
 70
     1
102
RTVSPropertyOp1
 70
     1
102
RTVSPropertyOp2
 70
     1
102
RTVSPropertyOp3
 70
     1
102
RTVSPropertyOp4
 70
     1
102
RTVSPropertyOp5
 70
     1
102
RTVSPropertyOp6
 70
     1
102
RTVSPropertyOp7
 70
     1
102
RTVSPropertyOp8
 70
     1
102
RTVSPropertyOp9
 70
     1
102
RTVSPropertyOp10
 70
     1
102
RTVSPropertyOp11
 70
     1
102
RTVSPropertyOp12
 70
     1
102
RTVSPropertyOp13
 70
     1
102
RTVSPropertyOp14
 70
     1
102
RTVSPropertyOp15
 70
     1
102
RTVSPropertyOp16
 70
     1
102
RTVSPropertyOp17
 70
     1
102
RTVSPropertyOp18
 70
     1
102
RTVSPropertyOp19
 70
     1
102
RTVSPropertyOp20
 70
     1
102
RTVSPropertyOp21
 70
     1
102
RTVSPropertyOp22
 70
     1
102
RTVSPropertyOp23
 70
     1
102
RTVSPropertyOp24
 70
     1
102
RTVSPropertyOp25
 70
     1
102
RTVSPropertyOp26
 70
     1
102
RTVSPropertyOp27
 70
     1
102
RTVSPropertyOp28
 70
     1
102
RTVSPropertyOp29
 70
     1
102
RTVSPropertyOp30
 70
     1
102
RTVSPropertyOp31
 70
     1
102
RTVSPropertyOp32
 70
     1
102
RTVSPropertyOp33
 70
     1
102
RTVSPropertyOp34
 70
     1
102
RTVSPropertyOp35
 70
     1
102
RTVSPropertyOp36
 70
     1
102
RTVSPropertyOp37
 70
     1
102
RTVSPropertyOp38
 70
     1
102
RTVSPropertyOp39
 70
     1
102
RTVSPropertyOp40
 70
     1
102
RTVSPropertyOp41
 70
     1
102
RTVSPropertyOp42
 70
     1
102
RTVSPropertyOp43
 70
     1
102
RTVSPropertyOp44
 70
     1
102
RTVSPropertyOp45
 70
     1
102
RTVSPropertyOp46
 70
     1
102
RTVSPropertyOp47
 70
     1
102
RTVSPropertyOp48
 70
     1
102
RTVSPropertyOp49
 70
     1
102
RTVSPropertyOp50
 70
     1
102
RTVSPropertyOp51
 70
     0
102
RTVSPropertyOp52
 70
     0
102
RTVSPropertyOp53
 70
     1
102
RTVSPropertyOp54
 70
     1
102
RTVSPropertyOp55
 70
     1
102
RTVSPropertyOp56
 70
     1
102
RTVSPropertyOp57
 70
     1
102
RTVSPost2010Prop28
280
     0
102
RTVSPost2010PropOp28
 70
     1
102
RTVSPost2010Prop29
280
     1
102
RTVSPost2010PropOp29
 70
     1
102
RTVSPost2010Prop30
280
     1
102
RTVSPost2010PropOp30
 70
     1
102
RTVSPost2010Prop31
280
     0
102
RTVSPost2010PropOp31
 70
     1
102
RTVSPost2010Prop32
280
     0
102
RTVSPost2010PropOp32
 70
     1
102
RTVSPost2010Prop33
280
     0
102
RTVSPost2010PropOp33
 70
     1
102
RTVSPost2010Prop34
280
     0
102
RTVSPost2010PropOp34
 70
     1
102
RTVSPost2010Prop35
280
     0
102
RTVSPost2010PropOp35
 70
     1
102
RTVSPost2010Prop36
280
     0
102
RTVSPost2010PropOp36
 70
     1
102
RTVSPost2010Prop37
 90
       50
102
RTVSPost2010PropOp37
 70
     1
102
RTVSPost2010Prop38
140
0.0
102
RTVSPost2010PropOp38
 70
     1
102
RTVSPost2010Prop39
140
1.0
102
RTVSPost2010PropOp39
 70
     1
102
RTVSPost2010Prop40
 90
        0
102
RTVSPost2010PropOp40
 70
     1
102
RTVSPost2010Prop41ColorIndex
 90
       18
102
RTVSPost2010Prop41ColorRGB
 90
        0
102
RTVSPost2010PropOp41
 70
     1
102
RTVSPost2010Prop42
 90
       50
102
RTVSPost2010PropOp42
 70
     1
102
RTVSPost2010Prop43
 90
        3
102
RTVSPost2010PropOp43
 70
     1
102
RTVSPost2010Prop44ColorIndex
 90
        5
102
RTVSPost2010Prop44ColorRGB
 90
      255
102
RTVSPost2010PropOp44
 70
     1
102
RTVSPost2010Prop45
280
     0
102
RTVSPost2010PropOp45
 70
     1
102
RTVSPost2010Prop46
 90
       50
102
RTVSPost2010PropOp46
 70
     1
102
RTVSPost2010Prop47
 90
       50
102
RTVSPost2010PropOp47
 70
     1
102
RTVSPost2010Prop48
 90
       50
102
RTVSPost2010PropOp48
 70
     1
102
RTVSPost2010Prop49
280
     0
102
RTVSPost2010PropOp49
 70
     1
102
RTVSPost2010Prop50
 90
       50
102
RTVSPost2010PropOp50
 70
     1
102
RTVSPost2010Prop51ColorIndex
 90
      256
102
RTVSPost2010Prop51ColorRGB
 90
-16777216
102
RTVSPost2010PropOp51
 70
     0
102
RTVSPost2010Prop52
140
1.0
102
RTVSPost2010PropOp52
 70
     0
102
RTVSPost2010Prop53
 90
        2
102
RTVSPost2010PropOp53
 70
     1
102
RTVSPost2010Prop54
  1
strokes_ogs.tif
102
RTVSPost2010PropOp54
 70
     1
102
RTVSPost2010Prop55
280
     0
102
RTVSPost2010PropOp55
 70
     1
102
RTVSPost2010Prop56
140
1.0
102
RTVSPost2010PropOp56
 70
     1
102
RTVSPost2010Prop57
140
1.0
102
RTVSPost2010PropOp57
 70
     1
  0
XRECORD
  5
188
102
{ACAD_REACTORS
330
187
102
}
330
187
100
AcDbXrecord
280
     1
102
RTVSPropertyOp0
 70
     1
102
RTVSPropertyOp1
 70
     1
102
RTVSPropertyOp2
 70
     1
102
RTVSPropertyOp3
 70
     1
102
RTVSPropertyOp4
 70
     1
102
RTVSPropertyOp5
 70
     1
102
RTVSPropertyOp6
 70
     1
102
RTVSPropertyOp7
 70
     1
102
RTVSPropertyOp8
 70
     1
102
RTVSPropertyOp9
 70
     1
102
RTVSPropertyOp10
 70
     1
102
RTVSPropertyOp11
 70
     1
102
RTVSPropertyOp12
 70
     1
102
RTVSPropertyOp13
 70
     1
102
RTVSPropertyOp14
 70
     1
102
RTVSPropertyOp15
 70
     1
102
RTVSPropertyOp16
 70
     1
102
RTVSPropertyOp17
 70
     1
102
RTVSPropertyOp18
 70
     1
102
RTVSPropertyOp19
 70
     1
102
RTVSPropertyOp20
 70
     1
102
RTVSPropertyOp21
 70
     1
102
RTVSPropertyOp22
 70
     1
102
RTVSPropertyOp23
 70
     1
102
RTVSPropertyOp24
 70
     1
102
RTVSPropertyOp25
 70
     1
102
RTVSPropertyOp26
 70
     1
102
RTVSPropertyOp27
 70
     1
102
RTVSPropertyOp28
 70
     1
102
RTVSPropertyOp29
 70
     1
102
RTVSPropertyOp30
 70
     1
102
RTVSPropertyOp31
 70
     1
102
RTVSPropertyOp32
 70
     1
102
RTVSPropertyOp33
 70
     1
102
RTVSPropertyOp34
 70
     1
102
RTVSPropertyOp35
 70
     1
102
RTVSPropertyOp36
 70
     1
102
RTVSPropertyOp37
 70
     1
102
RTVSPropertyOp38
 70
     1
102
RTVSPropertyOp39
 70
     1
102
RTVSPropertyOp40
 70
     1
102
RTVSPropertyOp41
 70
     1
102
RTVSPropertyOp42
 70
     1
102
RTVSPropertyOp43
 70
     1
102
RTVSPropertyOp44
 70
     1
102
RTVSPropertyOp45
 70
     1
102
RTVSPropertyOp46
 70
     1
102
RTVSPropertyOp47
 70
     1
102
RTVSPropertyOp48
 70
     1
102
RTVSPropertyOp49
 70
     1
102
RTVSPropertyOp50
 70
     1
102
RTVSPropertyOp51
 70
     0
102
RTVSPropertyOp52
 70
     0
102
RTVSPropertyOp53
 70
     1
102
RTVSPropertyOp54
 70
     1
102
RTVSPropertyOp55
 70
     1
102
RTVSPropertyOp56
 70
     1
102
RTVSPropertyOp57
 70
     1
102
RTVSPost2010Prop28
280
     0
102
RTVSPost2010PropOp28
 70
     1
102
RTVSPost2010Prop29
280
     1
102
RTVSPost2010PropOp29
 70
     1
102
RTVSPost2010Prop30
280
     1
102
RTVSPost2010PropOp30
 70
     1
102
RTVSPost2010Prop31
280
     0
102
RTVSPost2010PropOp31
 70
     1
102
RTVSPost2010Prop32
280
     0
102
RTVSPost2010PropOp32
 70
     1
102
RTVSPost2010Prop33
280
     0
102
RTVSPost2010PropOp33
 70
     1
102
RTVSPost2010Prop34
280
     0
102
RTVSPost2010PropOp34
 70
     1
102
RTVSPost2010Prop35
280
     0
102
RTVSPost2010PropOp35
 70
     1
102
RTVSPost2010Prop36
280
     0
102
RTVSPost2010PropOp36
 70
     1
102
RTVSPost2010Prop37
 90
       50
102
RTVSPost2010PropOp37
 70
     1
102
RTVSPost2010Prop38
140
0.0
102
RTVSPost2010PropOp38
 70
     1
102
RTVSPost2010Prop39
140
1.0
102
RTVSPost2010PropOp39
 70
     1
102
RTVSPost2010Prop40
 90
        0
102
RTVSPost2010PropOp40
 70
     1
102
RTVSPost2010Prop41ColorIndex
 90
       18
102
RTVSPost2010Prop41ColorRGB
 90
        0
102
RTVSPost2010PropOp41
 70
     1
102
RTVSPost2010Prop42
 90
       50
102
RTVSPost2010PropOp42
 70
     1
102
RTVSPost2010Prop43
 90
        3
102
RTVSPost2010PropOp43
 70
     1
102
RTVSPost2010Prop44ColorIndex
 90
        5
102
RTVSPost2010Prop44ColorRGB
 90
      255
102
RTVSPost2010PropOp44
 70
     1
102
RTVSPost2010Prop45
280
     0
102
RTVSPost2010PropOp45
 70
     1
102
RTVSPost2010Prop46
 90
       50
102
RTVSPost2010PropOp46
 70
     1
102
RTVSPost2010Prop47
 90
       50
102
RTVSPost2010PropOp47
 70
     1
102
RTVSPost2010Prop48
 90
       50
102
RTVSPost2010PropOp48
 70
     1
102
RTVSPost2010Prop49
280
     0
102
RTVSPost2010PropOp49
 70
     1
102
RTVSPost2010Prop50
 90
       50
102
RTVSPost2010PropOp50
 70
     1
102
RTVSPost2010Prop51ColorIndex
 90
      256
102
RTVSPost2010Prop51ColorRGB
 90
-16777216
102
RTVSPost2010PropOp51
 70
     0
102
RTVSPost2010Prop52
140
1.0
102
RTVSPost2010PropOp52
 70
     0
102
RTVSPost2010Prop53
 90
        2
102
RTVSPost2010PropOp53
 70
     1
102
RTVSPost2010Prop54
  1
strokes_ogs.tif
102
RTVSPost2010PropOp54
 70
     1
102
RTVSPost2010Prop55
280
     0
102
RTVSPost2010PropOp55
 70
     1
102
RTVSPost2010Prop56
140
1.0
102
RTVSPost2010PropOp56
 70
     1
102
RTVSPost2010Prop57
140
1.0
102
RTVSPost2010PropOp57
 70
     1
  0
XRECORD
  5
198
102
{ACAD_REACTORS
330
197
102
}
330
197
100
AcDbXrecord
280
     1
102
RTVSPropertyOp0
 70
     0
102
RTVSPropertyOp1
 70
     0
102
RTVSPropertyOp2
 70
     0
102
RTVSPropertyOp3
 70
     0
102
RTVSPropertyOp4
 70
     0
102
RTVSPropertyOp5
 70
     0
102
RTVSPropertyOp6
 70
     0
102
RTVSPropertyOp7
 70
     0
102
RTVSPropertyOp8
 70
     0
102
RTVSPropertyOp9
 70
     0
102
RTVSPropertyOp10
 70
     0
102
RTVSPropertyOp11
 70
     0
102
RTVSPropertyOp12
 70
     0
102
RTVSPropertyOp13
 70
     0
102
RTVSPropertyOp14
 70
     2
102
RTVSPropertyOp15
 70
     0
102
RTVSPropertyOp16
 70
     0
102
RTVSPropertyOp17
 70
     0
102
RTVSPropertyOp18
 70
     0
102
RTVSPropertyOp19
 70
     0
102
RTVSPropertyOp20
 70
     0
102
RTVSPropertyOp21
 70
     0
102
RTVSPropertyOp22
 70
     0
102
RTVSPropertyOp23
 70
     0
102
RTVSPropertyOp24
 70
     0
102
RTVSPropertyOp25
 70
     0
102
RTVSPropertyOp26
 70
     0
102
RTVSPropertyOp27
 70
     0
102
RTVSPropertyOp28
 70
     0
102
RTVSPropertyOp29
 70
     0
102
RTVSPropertyOp30
 70
     0
102
RTVSPropertyOp31
 70
     0
102
RTVSPropertyOp32
 70
     0
102
RTVSPropertyOp33
 70
     0
102
RTVSPropertyOp34
 70
     0
102
RTVSPropertyOp35
 70
     0
102
RTVSPropertyOp36
 70
     0
102
RTVSPropertyOp37
 70
     0
102
RTVSPropertyOp38
 70
     0
102
RTVSPropertyOp39
 70
     0
102
RTVSPropertyOp40
 70
     0
102
RTVSPropertyOp41
 70
     0
102
RTVSPropertyOp42
 70
     0
102
RTVSPropertyOp43
 70
     0
102
RTVSPropertyOp44
 70
     0
102
RTVSPropertyOp45
 70
     0
102
RTVSPropertyOp46
 70
     0
102
RTVSPropertyOp47
 70
     0
102
RTVSPropertyOp48
 70
     0
102
RTVSPropertyOp49
 70
     0
102
RTVSPropertyOp50
 70
     0
102
RTVSPropertyOp51
 70
     0
102
RTVSPropertyOp52
 70
     0
102
RTVSPropertyOp53
 70
     0
102
RTVSPropertyOp54
 70
     0
102
RTVSPropertyOp55
 70
     0
102
RTVSPropertyOp56
 70
     0
102
RTVSPropertyOp57
 70
     0
102
RTVSPost2010Prop28
280
     0
102
RTVSPost2010PropOp28
 70
     0
102
RTVSPost2010Prop29
280
     1
102
RTVSPost2010PropOp29
 70
     0
102
RTVSPost2010Prop30
280
     1
102
RTVSPost2010PropOp30
 70
     0
102
RTVSPost2010Prop31
280
     0
102
RTVSPost2010PropOp31
 70
     0
102
RTVSPost2010Prop32
280
     0
102
RTVSPost2010PropOp32
 70
     0
102
RTVSPost2010Prop33
280
     0
102
RTVSPost2010PropOp33
 70
     0
102
RTVSPost2010Prop34
280
     0
102
RTVSPost2010PropOp34
 70
     0
102
RTVSPost2010Prop35
280
     0
102
RTVSPost2010PropOp35
 70
     0
102
RTVSPost2010Prop36
280
     0
102
RTVSPost2010PropOp36
 70
     0
102
RTVSPost2010Prop37
 90
       50
102
RTVSPost2010PropOp37
 70
     0
102
RTVSPost2010Prop38
140
0.0
102
RTVSPost2010PropOp38
 70
     0
102
RTVSPost2010Prop39
140
1.0
102
RTVSPost2010PropOp39
 70
     0
102
RTVSPost2010Prop40
 90
        0
102
RTVSPost2010PropOp40
 70
     0
102
RTVSPost2010Prop41ColorIndex
 90
       18
102
RTVSPost2010Prop41ColorRGB
 90
        0
102
RTVSPost2010PropOp41
 70
     0
102
RTVSPost2010Prop42
 90
       50
102
RTVSPost2010PropOp42
 70
     0
102
RTVSPost2010Prop43
 90
        3
102
RTVSPost2010PropOp43
 70
     0
102
RTVSPost2010Prop44ColorIndex
 90
        5
102
RTVSPost2010Prop44ColorRGB
 90
      255
102
RTVSPost2010PropOp44
 70
     0
102
RTVSPost2010Prop45
280
     0
102
RTVSPost2010PropOp45
 70
     0
102
RTVSPost2010Prop46
 90
       50
102
RTVSPost2010PropOp46
 70
     0
102
RTVSPost2010Prop47
 90
       50
102
RTVSPost2010PropOp47
 70
     0
102
RTVSPost2010Prop48
 90
       50
102
RTVSPost2010PropOp48
 70
     0
102
RTVSPost2010Prop49
280
     0
102
RTVSPost2010PropOp49
 70
     0
102
RTVSPost2010Prop50
 90
       50
102
RTVSPost2010PropOp50
 70
     0
102
RTVSPost2010Prop51ColorIndex
 90
      256
102
RTVSPost2010Prop51ColorRGB
 90
-16777216
102
RTVSPost2010PropOp51
 70
     0
102
RTVSPost2010Prop52
140
1.0
102
RTVSPost2010PropOp52
 70
     0
102
RTVSPost2010Prop53
 90
        2
102
RTVSPost2010PropOp53
 70
     0
102
RTVSPost2010Prop54
  1
strokes_ogs.tif
102
RTVSPost2010PropOp54
 70
     0
102
RTVSPost2010Prop55
280
     0
102
RTVSPost2010PropOp55
 70
     0
102
RTVSPost2010Prop56
140
1.0
102
RTVSPost2010PropOp56
 70
     0
102
RTVSPost2010Prop57
140
1.0
102
RTVSPost2010PropOp57
 70
     0
  0
XRECORD
  5
190
102
{ACAD_REACTORS
330
18F
102
}
330
18F
100
AcDbXrecord
280
     1
102
RTVSPropertyOp0
 70
     1
102
RTVSPropertyOp1
 70
     1
102
RTVSPropertyOp2
 70
     1
102
RTVSPropertyOp3
 70
     1
102
RTVSPropertyOp4
 70
     1
102
RTVSPropertyOp5
 70
     1
102
RTVSPropertyOp6
 70
     1
102
RTVSPropertyOp7
 70
     1
102
RTVSPropertyOp8
 70
     1
102
RTVSPropertyOp9
 70
     1
102
RTVSPropertyOp10
 70
     1
102
RTVSPropertyOp11
 70
     1
102
RTVSPropertyOp12
 70
     1
102
RTVSPropertyOp13
 70
     1
102
RTVSPropertyOp14
 70
     1
102
RTVSPropertyOp15
 70
     1
102
RTVSPropertyOp16
 70
     1
102
RTVSPropertyOp17
 70
     1
102
RTVSPropertyOp18
 70
     1
102
RTVSPropertyOp19
 70
     1
102
RTVSPropertyOp20
 70
     1
102
RTVSPropertyOp21
 70
     1
102
RTVSPropertyOp22
 70
     1
102
RTVSPropertyOp23
 70
     1
102
RTVSPropertyOp24
 70
     1
102
RTVSPropertyOp25
 70
     1
102
RTVSPropertyOp26
 70
     1
102
RTVSPropertyOp27
 70
     1
102
RTVSPropertyOp28
 70
     1
102
RTVSPropertyOp29
 70
     1
102
RTVSPropertyOp30
 70
     1
102
RTVSPropertyOp31
 70
     1
102
RTVSPropertyOp32
 70
     1
102
RTVSPropertyOp33
 70
     1
102
RTVSPropertyOp34
 70
     1
102
RTVSPropertyOp35
 70
     1
102
RTVSPropertyOp36
 70
     1
102
RTVSPropertyOp37
 70
     1
102
RTVSPropertyOp38
 70
     1
102
RTVSPropertyOp39
 70
     1
102
RTVSPropertyOp40
 70
     1
102
RTVSPropertyOp41
 70
     1
102
RTVSPropertyOp42
 70
     1
102
RTVSPropertyOp43
 70
     1
102
RTVSPropertyOp44
 70
     1
102
RTVSPropertyOp45
 70
     1
102
RTVSPropertyOp46
 70
     1
102
RTVSPropertyOp47
 70
     1
102
RTVSPropertyOp48
 70
     1
102
RTVSPropertyOp49
 70
     1
102
RTVSPropertyOp50
 70
     1
102
RTVSPropertyOp51
 70
     0
102
RTVSPropertyOp52
 70
     0
102
RTVSPropertyOp53
 70
     1
102
RTVSPropertyOp54
 70
     1
102
RTVSPropertyOp55
 70
     1
102
RTVSPropertyOp56
 70
     1
102
RTVSPropertyOp57
 70
     1
102
RTVSPost2010Prop28
280
     0
102
RTVSPost2010PropOp28
 70
     1
102
RTVSPost2010Prop29
280
     1
102
RTVSPost2010PropOp29
 70
     1
102
RTVSPost2010Prop30
280
     1
102
RTVSPost2010PropOp30
 70
     1
102
RTVSPost2010Prop31
280
     0
102
RTVSPost2010PropOp31
 70
     1
102
RTVSPost2010Prop32
280
     0
102
RTVSPost2010PropOp32
 70
     1
102
RTVSPost2010Prop33
280
     0
102
RTVSPost2010PropOp33
 70
     1
102
RTVSPost2010Prop34
280
     0
102
RTVSPost2010PropOp34
 70
     1
102
RTVSPost2010Prop35
280
     0
102
RTVSPost2010PropOp35
 70
     1
102
RTVSPost2010Prop36
280
     0
102
RTVSPost2010PropOp36
 70
     1
102
RTVSPost2010Prop37
 90
       50
102
RTVSPost2010PropOp37
 70
     1
102
RTVSPost2010Prop38
140
0.0
102
RTVSPost2010PropOp38
 70
     1
102
RTVSPost2010Prop39
140
1.0
102
RTVSPost2010PropOp39
 70
     1
102
RTVSPost2010Prop40
 90
        0
102
RTVSPost2010PropOp40
 70
     1
102
RTVSPost2010Prop41ColorIndex
 90
       18
102
RTVSPost2010Prop41ColorRGB
 90
        0
102
RTVSPost2010PropOp41
 70
     1
102
RTVSPost2010Prop42
 90
       50
102
RTVSPost2010PropOp42
 70
     1
102
RTVSPost2010Prop43
 90
        3
102
RTVSPost2010PropOp43
 70
     1
102
RTVSPost2010Prop44ColorIndex
 90
        5
102
RTVSPost2010Prop44ColorRGB
 90
      255
102
RTVSPost2010PropOp44
 70
     1
102
RTVSPost2010Prop45
280
     0
102
RTVSPost2010PropOp45
 70
     1
102
RTVSPost2010Prop46
 90
       50
102
RTVSPost2010PropOp46
 70
     1
102
RTVSPost2010Prop47
 90
       50
102
RTVSPost2010PropOp47
 70
     1
102
RTVSPost2010Prop48
 90
       50
102
RTVSPost2010PropOp48
 70
     1
102
RTVSPost2010Prop49
280
     0
102
RTVSPost2010PropOp49
 70
     1
102
RTVSPost2010Prop50
 90
       50
102
RTVSPost2010PropOp50
 70
     1
102
RTVSPost2010Prop51ColorIndex
 90
      256
102
RTVSPost2010Prop51ColorRGB
 90
-16777216
102
RTVSPost2010PropOp51
 70
     0
102
RTVSPost2010Prop52
140
1.0
102
RTVSPost2010PropOp52
 70
     0
102
RTVSPost2010Prop53
 90
        2
102
RTVSPost2010PropOp53
 70
     1
102
RTVSPost2010Prop54
  1
strokes_ogs.tif
102
RTVSPost2010PropOp54
 70
     1
102
RTVSPost2010Prop55
280
     0
102
RTVSPost2010PropOp55
 70
     1
102
RTVSPost2010Prop56
140
1.0
102
RTVSPost2010PropOp56
 70
     1
102
RTVSPost2010Prop57
140
1.0
102
RTVSPost2010PropOp57
 70
     1
  0
XRECORD
  5
174
102
{ACAD_REACTORS
330
173
102
}
330
173
100
AcDbXrecord
280
     1
102
RTVSPropertyOp0
 70
     1
102
RTVSPropertyOp1
 70
     1
102
RTVSPropertyOp2
 70
     1
102
RTVSPropertyOp3
 70
     1
102
RTVSPropertyOp4
 70
     1
102
RTVSPropertyOp5
 70
     1
102
RTVSPropertyOp6
 70
     1
102
RTVSPropertyOp7
 70
     1
102
RTVSPropertyOp8
 70
     1
102
RTVSPropertyOp9
 70
     1
102
RTVSPropertyOp10
 70
     1
102
RTVSPropertyOp11
 70
     1
102
RTVSPropertyOp12
 70
     1
102
RTVSPropertyOp13
 70
     1
102
RTVSPropertyOp14
 70
     1
102
RTVSPropertyOp15
 70
     1
102
RTVSPropertyOp16
 70
     1
102
RTVSPropertyOp17
 70
     1
102
RTVSPropertyOp18
 70
     1
102
RTVSPropertyOp19
 70
     1
102
RTVSPropertyOp20
 70
     1
102
RTVSPropertyOp21
 70
     1
102
RTVSPropertyOp22
 70
     1
102
RTVSPropertyOp23
 70
     1
102
RTVSPropertyOp24
 70
     1
102
RTVSPropertyOp25
 70
     1
102
RTVSPropertyOp26
 70
     1
102
RTVSPropertyOp27
 70
     1
102
RTVSPropertyOp28
 70
     1
102
RTVSPropertyOp29
 70
     1
102
RTVSPropertyOp30
 70
     1
102
RTVSPropertyOp31
 70
     1
102
RTVSPropertyOp32
 70
     1
102
RTVSPropertyOp33
 70
     1
102
RTVSPropertyOp34
 70
     1
102
RTVSPropertyOp35
 70
     1
102
RTVSPropertyOp36
 70
     1
102
RTVSPropertyOp37
 70
     1
102
RTVSPropertyOp38
 70
     1
102
RTVSPropertyOp39
 70
     1
102
RTVSPropertyOp40
 70
     1
102
RTVSPropertyOp41
 70
     1
102
RTVSPropertyOp42
 70
     1
102
RTVSPropertyOp43
 70
     1
102
RTVSPropertyOp44
 70
     1
102
RTVSPropertyOp45
 70
     1
102
RTVSPropertyOp46
 70
     1
102
RTVSPropertyOp47
 70
     1
102
RTVSPropertyOp48
 70
     1
102
RTVSPropertyOp49
 70
     1
102
RTVSPropertyOp50
 70
     1
102
RTVSPropertyOp51
 70
     0
102
RTVSPropertyOp52
 70
     0
102
RTVSPropertyOp53
 70
     1
102
RTVSPropertyOp54
 70
     1
102
RTVSPropertyOp55
 70
     1
102
RTVSPropertyOp56
 70
     1
102
RTVSPropertyOp57
 70
     1
102
RTVSPost2010Prop28
280
     0
102
RTVSPost2010PropOp28
 70
     1
102
RTVSPost2010Prop29
280
     1
102
RTVSPost2010PropOp29
 70
     1
102
RTVSPost2010Prop30
280
     1
102
RTVSPost2010PropOp30
 70
     1
102
RTVSPost2010Prop31
280
     0
102
RTVSPost2010PropOp31
 70
     1
102
RTVSPost2010Prop32
280
     0
102
RTVSPost2010PropOp32
 70
     1
102
RTVSPost2010Prop33
280
     0
102
RTVSPost2010PropOp33
 70
     1
102
RTVSPost2010Prop34
280
     0
102
RTVSPost2010PropOp34
 70
     1
102
RTVSPost2010Prop35
280
     0
102
RTVSPost2010PropOp35
 70
     1
102
RTVSPost2010Prop36
280
     0
102
RTVSPost2010PropOp36
 70
     1
102
RTVSPost2010Prop37
 90
       50
102
RTVSPost2010PropOp37
 70
     1
102
RTVSPost2010Prop38
140
0.0
102
RTVSPost2010PropOp38
 70
     1
102
RTVSPost2010Prop39
140
1.0
102
RTVSPost2010PropOp39
 70
     1
102
RTVSPost2010Prop40
 90
        0
102
RTVSPost2010PropOp40
 70
     1
102
RTVSPost2010Prop41ColorIndex
 90
       18
102
RTVSPost2010Prop41ColorRGB
 90
        0
102
RTVSPost2010PropOp41
 70
     1
102
RTVSPost2010Prop42
 90
       50
102
RTVSPost2010PropOp42
 70
     1
102
RTVSPost2010Prop43
 90
        3
102
RTVSPost2010PropOp43
 70
     1
102
RTVSPost2010Prop44ColorIndex
 90
        5
102
RTVSPost2010Prop44ColorRGB
 90
      255
102
RTVSPost2010PropOp44
 70
     1
102
RTVSPost2010Prop45
280
     0
102
RTVSPost2010PropOp45
 70
     1
102
RTVSPost2010Prop46
 90
       50
102
RTVSPost2010PropOp46
 70
     1
102
RTVSPost2010Prop47
 90
       50
102
RTVSPost2010PropOp47
 70
     1
102
RTVSPost2010Prop48
 90
       50
102
RTVSPost2010PropOp48
 70
     1
102
RTVSPost2010Prop49
280
     0
102
RTVSPost2010PropOp49
 70
     1
102
RTVSPost2010Prop50
 90
       50
102
RTVSPost2010PropOp50
 70
     1
102
RTVSPost2010Prop51ColorIndex
 90
      256
102
RTVSPost2010Prop51ColorRGB
 90
-16777216
102
RTVSPost2010PropOp51
 70
     0
102
RTVSPost2010Prop52
140
1.0
102
RTVSPost2010PropOp52
 70
     0
102
RTVSPost2010Prop53
 90
        2
102
RTVSPost2010PropOp53
 70
     1
102
RTVSPost2010Prop54
  1
strokes_ogs.tif
102
RTVSPost2010PropOp54
 70
     1
102
RTVSPost2010Prop55
280
     0
102
RTVSPost2010PropOp55
 70
     1
102
RTVSPost2010Prop56
140
1.0
102
RTVSPost2010PropOp56
 70
     1
102
RTVSPost2010Prop57
140
1.0
102
RTVSPost2010PropOp57
 70
     1
  0
XRECORD
  5
176
102
{ACAD_REACTORS
330
175
102
}
330
175
100
AcDbXrecord
280
     1
102
RTVSPropertyOp0
 70
     1
102
RTVSPropertyOp1
 70
     1
102
RTVSPropertyOp2
 70
     1
102
RTVSPropertyOp3
 70
     1
102
RTVSPropertyOp4
 70
     1
102
RTVSPropertyOp5
 70
     1
102
RTVSPropertyOp6
 70
     1
102
RTVSPropertyOp7
 70
     1
102
RTVSPropertyOp8
 70
     1
102
RTVSPropertyOp9
 70
     1
102
RTVSPropertyOp10
 70
     1
102
RTVSPropertyOp11
 70
     1
102
RTVSPropertyOp12
 70
     1
102
RTVSPropertyOp13
 70
     1
102
RTVSPropertyOp14
 70
     1
102
RTVSPropertyOp15
 70
     1
102
RTVSPropertyOp16
 70
     1
102
RTVSPropertyOp17
 70
     1
102
RTVSPropertyOp18
 70
     1
102
RTVSPropertyOp19
 70
     1
102
RTVSPropertyOp20
 70
     1
102
RTVSPropertyOp21
 70
     1
102
RTVSPropertyOp22
 70
     1
102
RTVSPropertyOp23
 70
     1
102
RTVSPropertyOp24
 70
     1
102
RTVSPropertyOp25
 70
     1
102
RTVSPropertyOp26
 70
     1
102
RTVSPropertyOp27
 70
     1
102
RTVSPropertyOp28
 70
     1
102
RTVSPropertyOp29
 70
     1
102
RTVSPropertyOp30
 70
     1
102
RTVSPropertyOp31
 70
     1
102
RTVSPropertyOp32
 70
     1
102
RTVSPropertyOp33
 70
     1
102
RTVSPropertyOp34
 70
     1
102
RTVSPropertyOp35
 70
     1
102
RTVSPropertyOp36
 70
     1
102
RTVSPropertyOp37
 70
     1
102
RTVSPropertyOp38
 70
     1
102
RTVSPropertyOp39
 70
     1
102
RTVSPropertyOp40
 70
     1
102
RTVSPropertyOp41
 70
     1
102
RTVSPropertyOp42
 70
     1
102
RTVSPropertyOp43
 70
     1
102
RTVSPropertyOp44
 70
     1
102
RTVSPropertyOp45
 70
     1
102
RTVSPropertyOp46
 70
     1
102
RTVSPropertyOp47
 70
     1
102
RTVSPropertyOp48
 70
     1
102
RTVSPropertyOp49
 70
     1
102
RTVSPropertyOp50
 70
     1
102
RTVSPropertyOp51
 70
     0
102
RTVSPropertyOp52
 70
     0
102
RTVSPropertyOp53
 70
     1
102
RTVSPropertyOp54
 70
     1
102
RTVSPropertyOp55
 70
     1
102
RTVSPropertyOp56
 70
     1
102
RTVSPropertyOp57
 70
     1
102
RTVSPost2010Prop28
280
     0
102
RTVSPost2010PropOp28
 70
     1
102
RTVSPost2010Prop29
280
     1
102
RTVSPost2010PropOp29
 70
     1
102
RTVSPost2010Prop30
280
     1
102
RTVSPost2010PropOp30
 70
     1
102
RTVSPost2010Prop31
280
     0
102
RTVSPost2010PropOp31
 70
     1
102
RTVSPost2010Prop32
280
     0
102
RTVSPost2010PropOp32
 70
     1
102
RTVSPost2010Prop33
280
     0
102
RTVSPost2010PropOp33
 70
     1
102
RTVSPost2010Prop34
280
     0
102
RTVSPost2010PropOp34
 70
     1
102
RTVSPost2010Prop35
280
     0
102
RTVSPost2010PropOp35
 70
     1
102
RTVSPost2010Prop36
280
     0
102
RTVSPost2010PropOp36
 70
     1
102
RTVSPost2010Prop37
 90
       50
102
RTVSPost2010PropOp37
 70
     1
102
RTVSPost2010Prop38
140
0.0
102
RTVSPost2010PropOp38
 70
     1
102
RTVSPost2010Prop39
140
1.0
102
RTVSPost2010PropOp39
 70
     1
102
RTVSPost2010Prop40
 90
        0
102
RTVSPost2010PropOp40
 70
     1
102
RTVSPost2010Prop41ColorIndex
 90
       18
102
RTVSPost2010Prop41ColorRGB
 90
        0
102
RTVSPost2010PropOp41
 70
     1
102
RTVSPost2010Prop42
 90
       50
102
RTVSPost2010PropOp42
 70
     1
102
RTVSPost2010Prop43
 90
        3
102
RTVSPost2010PropOp43
 70
     1
102
RTVSPost2010Prop44ColorIndex
 90
        5
102
RTVSPost2010Prop44ColorRGB
 90
      255
102
RTVSPost2010PropOp44
 70
     1
102
RTVSPost2010Prop45
280
     0
102
RTVSPost2010PropOp45
 70
     1
102
RTVSPost2010Prop46
 90
       50
102
RTVSPost2010PropOp46
 70
     1
102
RTVSPost2010Prop47
 90
       50
102
RTVSPost2010PropOp47
 70
     1
102
RTVSPost2010Prop48
 90
       50
102
RTVSPost2010PropOp48
 70
     1
102
RTVSPost2010Prop49
280
     0
102
RTVSPost2010PropOp49
 70
     1
102
RTVSPost2010Prop50
 90
       50
102
RTVSPost2010PropOp50
 70
     1
102
RTVSPost2010Prop51ColorIndex
 90
      256
102
RTVSPost2010Prop51ColorRGB
 90
-16777216
102
RTVSPost2010PropOp51
 70
     0
102
RTVSPost2010Prop52
140
1.0
102
RTVSPost2010PropOp52
 70
     0
102
RTVSPost2010Prop53
 90
        2
102
RTVSPost2010PropOp53
 70
     1
102
RTVSPost2010Prop54
  1
strokes_ogs.tif
102
RTVSPost2010PropOp54
 70
     1
102
RTVSPost2010Prop55
280
     0
102
RTVSPost2010PropOp55
 70
     1
102
RTVSPost2010Prop56
140
1.0
102
RTVSPost2010PropOp56
 70
     1
102
RTVSPost2010Prop57
140
1.0
102
RTVSPost2010PropOp57
 70
     1
  0
XRECORD
  5
178
102
{ACAD_REACTORS
330
177
102
}
330
177
100
AcDbXrecord
280
     1
102
RTVSPropertyOp0
 70
     1
102
RTVSPropertyOp1
 70
     1
102
RTVSPropertyOp2
 70
     1
102
RTVSPropertyOp3
 70
     1
102
RTVSPropertyOp4
 70
     1
102
RTVSPropertyOp5
 70
     1
102
RTVSPropertyOp6
 70
     1
102
RTVSPropertyOp7
 70
     1
102
RTVSPropertyOp8
 70
     1
102
RTVSPropertyOp9
 70
     1
102
RTVSPropertyOp10
 70
     1
102
RTVSPropertyOp11
 70
     1
102
RTVSPropertyOp12
 70
     1
102
RTVSPropertyOp13
 70
     1
102
RTVSPropertyOp14
 70
     1
102
RTVSPropertyOp15
 70
     1
102
RTVSPropertyOp16
 70
     1
102
RTVSPropertyOp17
 70
     1
102
RTVSPropertyOp18
 70
     1
102
RTVSPropertyOp19
 70
     1
102
RTVSPropertyOp20
 70
     1
102
RTVSPropertyOp21
 70
     1
102
RTVSPropertyOp22
 70
     1
102
RTVSPropertyOp23
 70
     1
102
RTVSPropertyOp24
 70
     1
102
RTVSPropertyOp25
 70
     1
102
RTVSPropertyOp26
 70
     1
102
RTVSPropertyOp27
 70
     1
102
RTVSPropertyOp28
 70
     1
102
RTVSPropertyOp29
 70
     1
102
RTVSPropertyOp30
 70
     1
102
RTVSPropertyOp31
 70
     1
102
RTVSPropertyOp32
 70
     1
102
RTVSPropertyOp33
 70
     1
102
RTVSPropertyOp34
 70
     1
102
RTVSPropertyOp35
 70
     1
102
RTVSPropertyOp36
 70
     1
102
RTVSPropertyOp37
 70
     1
102
RTVSPropertyOp38
 70
     1
102
RTVSPropertyOp39
 70
     1
102
RTVSPropertyOp40
 70
     1
102
RTVSPropertyOp41
 70
     1
102
RTVSPropertyOp42
 70
     1
102
RTVSPropertyOp43
 70
     1
102
RTVSPropertyOp44
 70
     1
102
RTVSPropertyOp45
 70
     1
102
RTVSPropertyOp46
 70
     1
102
RTVSPropertyOp47
 70
     1
102
RTVSPropertyOp48
 70
     1
102
RTVSPropertyOp49
 70
     1
102
RTVSPropertyOp50
 70
     1
102
RTVSPropertyOp51
 70
     0
102
RTVSPropertyOp52
 70
     0
102
RTVSPropertyOp53
 70
     1
102
RTVSPropertyOp54
 70
     1
102
RTVSPropertyOp55
 70
     1
102
RTVSPropertyOp56
 70
     1
102
RTVSPropertyOp57
 70
     1
102
RTVSPost2010Prop28
280
     0
102
RTVSPost2010PropOp28
 70
     1
102
RTVSPost2010Prop29
280
     1
102
RTVSPost2010PropOp29
 70
     1
102
RTVSPost2010Prop30
280
     1
102
RTVSPost2010PropOp30
 70
     1
102
RTVSPost2010Prop31
280
     0
102
RTVSPost2010PropOp31
 70
     1
102
RTVSPost2010Prop32
280
     0
102
RTVSPost2010PropOp32
 70
     1
102
RTVSPost2010Prop33
280
     0
102
RTVSPost2010PropOp33
 70
     1
102
RTVSPost2010Prop34
280
     0
102
RTVSPost2010PropOp34
 70
     1
102
RTVSPost2010Prop35
280
     0
102
RTVSPost2010PropOp35
 70
     1
102
RTVSPost2010Prop36
280
     0
102
RTVSPost2010PropOp36
 70
     1
102
RTVSPost2010Prop37
 90
       50
102
RTVSPost2010PropOp37
 70
     1
102
RTVSPost2010Prop38
140
0.0
102
RTVSPost2010PropOp38
 70
     1
102
RTVSPost2010Prop39
140
1.0
102
RTVSPost2010PropOp39
 70
     1
102
RTVSPost2010Prop40
 90
        0
102
RTVSPost2010PropOp40
 70
     1
102
RTVSPost2010Prop41ColorIndex
 90
       18
102
RTVSPost2010Prop41ColorRGB
 90
        0
102
RTVSPost2010PropOp41
 70
     1
102
RTVSPost2010Prop42
 90
       50
102
RTVSPost2010PropOp42
 70
     1
102
RTVSPost2010Prop43
 90
        3
102
RTVSPost2010PropOp43
 70
     1
102
RTVSPost2010Prop44ColorIndex
 90
        5
102
RTVSPost2010Prop44ColorRGB
 90
      255
102
RTVSPost2010PropOp44
 70
     1
102
RTVSPost2010Prop45
280
     0
102
RTVSPost2010PropOp45
 70
     1
102
RTVSPost2010Prop46
 90
       50
102
RTVSPost2010PropOp46
 70
     1
102
RTVSPost2010Prop47
 90
       50
102
RTVSPost2010PropOp47
 70
     1
102
RTVSPost2010Prop48
 90
       50
102
RTVSPost2010PropOp48
 70
     1
102
RTVSPost2010Prop49
280
     0
102
RTVSPost2010PropOp49
 70
     1
102
RTVSPost2010Prop50
 90
       50
102
RTVSPost2010PropOp50
 70
     1
102
RTVSPost2010Prop51ColorIndex
 90
      256
102
RTVSPost2010Prop51ColorRGB
 90
-16777216
102
RTVSPost2010PropOp51
 70
     0
102
RTVSPost2010Prop52
140
1.0
102
RTVSPost2010PropOp52
 70
     0
102
RTVSPost2010Prop53
 90
        2
102
RTVSPost2010PropOp53
 70
     1
102
RTVSPost2010Prop54
  1
strokes_ogs.tif
102
RTVSPost2010PropOp54
 70
     1
102
RTVSPost2010Prop55
280
     0
102
RTVSPost2010PropOp55
 70
     1
102
RTVSPost2010Prop56
140
1.0
102
RTVSPost2010PropOp56
 70
     1
102
RTVSPost2010Prop57
140
1.0
102
RTVSPost2010PropOp57
 70
     1
  0
XRECORD
  5
17A
102
{ACAD_REACTORS
330
179
102
}
330
179
100
AcDbXrecord
280
     1
102
RTVSPropertyOp0
 70
     1
102
RTVSPropertyOp1
 70
     1
102
RTVSPropertyOp2
 70
     1
102
RTVSPropertyOp3
 70
     1
102
RTVSPropertyOp4
 70
     1
102
RTVSPropertyOp5
 70
     1
102
RTVSPropertyOp6
 70
     1
102
RTVSPropertyOp7
 70
     1
102
RTVSPropertyOp8
 70
     1
102
RTVSPropertyOp9
 70
     1
102
RTVSPropertyOp10
 70
     1
102
RTVSPropertyOp11
 70
     1
102
RTVSPropertyOp12
 70
     1
102
RTVSPropertyOp13
 70
     1
102
RTVSPropertyOp14
 70
     1
102
RTVSPropertyOp15
 70
     1
102
RTVSPropertyOp16
 70
     1
102
RTVSPropertyOp17
 70
     1
102
RTVSPropertyOp18
 70
     1
102
RTVSPropertyOp19
 70
     1
102
RTVSPropertyOp20
 70
     1
102
RTVSPropertyOp21
 70
     1
102
RTVSPropertyOp22
 70
     1
102
RTVSPropertyOp23
 70
     1
102
RTVSPropertyOp24
 70
     1
102
RTVSPropertyOp25
 70
     1
102
RTVSPropertyOp26
 70
     1
102
RTVSPropertyOp27
 70
     1
102
RTVSPropertyOp28
 70
     1
102
RTVSPropertyOp29
 70
     1
102
RTVSPropertyOp30
 70
     1
102
RTVSPropertyOp31
 70
     1
102
RTVSPropertyOp32
 70
     1
102
RTVSPropertyOp33
 70
     1
102
RTVSPropertyOp34
 70
     1
102
RTVSPropertyOp35
 70
     1
102
RTVSPropertyOp36
 70
     1
102
RTVSPropertyOp37
 70
     1
102
RTVSPropertyOp38
 70
     1
102
RTVSPropertyOp39
 70
     1
102
RTVSPropertyOp40
 70
     1
102
RTVSPropertyOp41
 70
     1
102
RTVSPropertyOp42
 70
     1
102
RTVSPropertyOp43
 70
     1
102
RTVSPropertyOp44
 70
     1
102
RTVSPropertyOp45
 70
     1
102
RTVSPropertyOp46
 70
     1
102
RTVSPropertyOp47
 70
     1
102
RTVSPropertyOp48
 70
     1
102
RTVSPropertyOp49
 70
     1
102
RTVSPropertyOp50
 70
     1
102
RTVSPropertyOp51
 70
     0
102
RTVSPropertyOp52
 70
     0
102
RTVSPropertyOp53
 70
     1
102
RTVSPropertyOp54
 70
     1
102
RTVSPropertyOp55
 70
     1
102
RTVSPropertyOp56
 70
     1
102
RTVSPropertyOp57
 70
     1
102
RTVSPost2010Prop28
280
     0
102
RTVSPost2010PropOp28
 70
     1
102
RTVSPost2010Prop29
280
     1
102
RTVSPost2010PropOp29
 70
     1
102
RTVSPost2010Prop30
280
     1
102
RTVSPost2010PropOp30
 70
     1
102
RTVSPost2010Prop31
280
     0
102
RTVSPost2010PropOp31
 70
     1
102
RTVSPost2010Prop32
280
     0
102
RTVSPost2010PropOp32
 70
     1
102
RTVSPost2010Prop33
280
     0
102
RTVSPost2010PropOp33
 70
     1
102
RTVSPost2010Prop34
280
     0
102
RTVSPost2010PropOp34
 70
     1
102
RTVSPost2010Prop35
280
     0
102
RTVSPost2010PropOp35
 70
     1
102
RTVSPost2010Prop36
280
     0
102
RTVSPost2010PropOp36
 70
     1
102
RTVSPost2010Prop37
 90
       50
102
RTVSPost2010PropOp37
 70
     1
102
RTVSPost2010Prop38
140
0.0
102
RTVSPost2010PropOp38
 70
     1
102
RTVSPost2010Prop39
140
1.0
102
RTVSPost2010PropOp39
 70
     1
102
RTVSPost2010Prop40
 90
        0
102
RTVSPost2010PropOp40
 70
     1
102
RTVSPost2010Prop41ColorIndex
 90
       18
102
RTVSPost2010Prop41ColorRGB
 90
        0
102
RTVSPost2010PropOp41
 70
     1
102
RTVSPost2010Prop42
 90
       50
102
RTVSPost2010PropOp42
 70
     1
102
RTVSPost2010Prop43
 90
        3
102
RTVSPost2010PropOp43
 70
     1
102
RTVSPost2010Prop44ColorIndex
 90
        5
102
RTVSPost2010Prop44ColorRGB
 90
      255
102
RTVSPost2010PropOp44
 70
     1
102
RTVSPost2010Prop45
280
     0
102
RTVSPost2010PropOp45
 70
     1
102
RTVSPost2010Prop46
 90
       50
102
RTVSPost2010PropOp46
 70
     1
102
RTVSPost2010Prop47
 90
       50
102
RTVSPost2010PropOp47
 70
     1
102
RTVSPost2010Prop48
 90
       50
102
RTVSPost2010PropOp48
 70
     1
102
RTVSPost2010Prop49
280
     0
102
RTVSPost2010PropOp49
 70
     1
102
RTVSPost2010Prop50
 90
       50
102
RTVSPost2010PropOp50
 70
     1
102
RTVSPost2010Prop51ColorIndex
 90
      256
102
RTVSPost2010Prop51ColorRGB
 90
-16777216
102
RTVSPost2010PropOp51
 70
     0
102
RTVSPost2010Prop52
140
1.0
102
RTVSPost2010PropOp52
 70
     0
102
RTVSPost2010Prop53
 90
        2
102
RTVSPost2010PropOp53
 70
     1
102
RTVSPost2010Prop54
  1
strokes_ogs.tif
102
RTVSPost2010PropOp54
 70
     1
102
RTVSPost2010Prop55
280
     0
102
RTVSPost2010PropOp55
 70
     1
102
RTVSPost2010Prop56
140
1.0
102
RTVSPost2010PropOp56
 70
     1
102
RTVSPost2010Prop57
140
1.0
102
RTVSPost2010PropOp57
 70
     1
  0
XRECORD
  5
180
102
{ACAD_REACTORS
330
17F
102
}
330
17F
100
AcDbXrecord
280
     1
102
RTVSPropertyOp0
 70
     1
102
RTVSPropertyOp1
 70
     1
102
RTVSPropertyOp2
 70
     1
102
RTVSPropertyOp3
 70
     1
102
RTVSPropertyOp4
 70
     1
102
RTVSPropertyOp5
 70
     1
102
RTVSPropertyOp6
 70
     1
102
RTVSPropertyOp7
 70
     1
102
RTVSPropertyOp8
 70
     1
102
RTVSPropertyOp9
 70
     1
102
RTVSPropertyOp10
 70
     1
102
RTVSPropertyOp11
 70
     1
102
RTVSPropertyOp12
 70
     1
102
RTVSPropertyOp13
 70
     1
102
RTVSPropertyOp14
 70
     1
102
RTVSPropertyOp15
 70
     1
102
RTVSPropertyOp16
 70
     1
102
RTVSPropertyOp17
 70
     1
102
RTVSPropertyOp18
 70
     1
102
RTVSPropertyOp19
 70
     1
102
RTVSPropertyOp20
 70
     1
102
RTVSPropertyOp21
 70
     1
102
RTVSPropertyOp22
 70
     1
102
RTVSPropertyOp23
 70
     1
102
RTVSPropertyOp24
 70
     1
102
RTVSPropertyOp25
 70
     1
102
RTVSPropertyOp26
 70
     1
102
RTVSPropertyOp27
 70
     1
102
RTVSPropertyOp28
 70
     1
102
RTVSPropertyOp29
 70
     1
102
RTVSPropertyOp30
 70
     1
102
RTVSPropertyOp31
 70
     1
102
RTVSPropertyOp32
 70
     1
102
RTVSPropertyOp33
 70
     1
102
RTVSPropertyOp34
 70
     1
102
RTVSPropertyOp35
 70
     1
102
RTVSPropertyOp36
 70
     1
102
RTVSPropertyOp37
 70
     1
102
RTVSPropertyOp38
 70
     1
102
RTVSPropertyOp39
 70
     1
102
RTVSPropertyOp40
 70
     1
102
RTVSPropertyOp41
 70
     1
102
RTVSPropertyOp42
 70
     1
102
RTVSPropertyOp43
 70
     1
102
RTVSPropertyOp44
 70
     1
102
RTVSPropertyOp45
 70
     1
102
RTVSPropertyOp46
 70
     1
102
RTVSPropertyOp47
 70
     1
102
RTVSPropertyOp48
 70
     1
102
RTVSPropertyOp49
 70
     1
102
RTVSPropertyOp50
 70
     1
102
RTVSPropertyOp51
 70
     0
102
RTVSPropertyOp52
 70
     0
102
RTVSPropertyOp53
 70
     1
102
RTVSPropertyOp54
 70
     1
102
RTVSPropertyOp55
 70
     1
102
RTVSPropertyOp56
 70
     1
102
RTVSPropertyOp57
 70
     1
102
RTVSPost2010Prop28
280
     0
102
RTVSPost2010PropOp28
 70
     1
102
RTVSPost2010Prop29
280
     1
102
RTVSPost2010PropOp29
 70
     1
102
RTVSPost2010Prop30
280
     1
102
RTVSPost2010PropOp30
 70
     1
102
RTVSPost2010Prop31
280
     0
102
RTVSPost2010PropOp31
 70
     1
102
RTVSPost2010Prop32
280
     0
102
RTVSPost2010PropOp32
 70
     1
102
RTVSPost2010Prop33
280
     0
102
RTVSPost2010PropOp33
 70
     1
102
RTVSPost2010Prop34
280
     0
102
RTVSPost2010PropOp34
 70
     1
102
RTVSPost2010Prop35
280
     0
102
RTVSPost2010PropOp35
 70
     1
102
RTVSPost2010Prop36
280
     0
102
RTVSPost2010PropOp36
 70
     1
102
RTVSPost2010Prop37
 90
       50
102
RTVSPost2010PropOp37
 70
     1
102
RTVSPost2010Prop38
140
0.0
102
RTVSPost2010PropOp38
 70
     1
102
RTVSPost2010Prop39
140
1.0
102
RTVSPost2010PropOp39
 70
     1
102
RTVSPost2010Prop40
 90
        0
102
RTVSPost2010PropOp40
 70
     1
102
RTVSPost2010Prop41ColorIndex
 90
       18
102
RTVSPost2010Prop41ColorRGB
 90
        0
102
RTVSPost2010PropOp41
 70
     1
102
RTVSPost2010Prop42
 90
       50
102
RTVSPost2010PropOp42
 70
     1
102
RTVSPost2010Prop43
 90
        3
102
RTVSPost2010PropOp43
 70
     1
102
RTVSPost2010Prop44ColorIndex
 90
        5
102
RTVSPost2010Prop44ColorRGB
 90
      255
102
RTVSPost2010PropOp44
 70
     1
102
RTVSPost2010Prop45
280
     0
102
RTVSPost2010PropOp45
 70
     1
102
RTVSPost2010Prop46
 90
       50
102
RTVSPost2010PropOp46
 70
     1
102
RTVSPost2010Prop47
 90
       50
102
RTVSPost2010PropOp47
 70
     1
102
RTVSPost2010Prop48
 90
       50
102
RTVSPost2010PropOp48
 70
     1
102
RTVSPost2010Prop49
280
     0
102
RTVSPost2010PropOp49
 70
     1
102
RTVSPost2010Prop50
 90
       50
102
RTVSPost2010PropOp50
 70
     1
102
RTVSPost2010Prop51ColorIndex
 90
      256
102
RTVSPost2010Prop51ColorRGB
 90
-16777216
102
RTVSPost2010PropOp51
 70
     0
102
RTVSPost2010Prop52
140
1.0
102
RTVSPost2010PropOp52
 70
     0
102
RTVSPost2010Prop53
 90
        2
102
RTVSPost2010PropOp53
 70
     1
102
RTVSPost2010Prop54
  1
strokes_ogs.tif
102
RTVSPost2010PropOp54
 70
     1
102
RTVSPost2010Prop55
280
     0
102
RTVSPost2010PropOp55
 70
     1
102
RTVSPost2010Prop56
140
1.0
102
RTVSPost2010PropOp56
 70
     1
102
RTVSPost2010Prop57
140
1.0
102
RTVSPost2010PropOp57
 70
     1
  0
XRECORD
  5
194
102
{ACAD_REACTORS
330
193
102
}
330
193
100
AcDbXrecord
280
     1
102
RTVSPropertyOp0
 70
     0
102
RTVSPropertyOp1
 70
     0
102
RTVSPropertyOp2
 70
     0
102
RTVSPropertyOp3
 70
     0
102
RTVSPropertyOp4
 70
     0
102
RTVSPropertyOp5
 70
     0
102
RTVSPropertyOp6
 70
     0
102
RTVSPropertyOp7
 70
     0
102
RTVSPropertyOp8
 70
     0
102
RTVSPropertyOp9
 70
     0
102
RTVSPropertyOp10
 70
     0
102
RTVSPropertyOp11
 70
     0
102
RTVSPropertyOp12
 70
     0
102
RTVSPropertyOp13
 70
     0
102
RTVSPropertyOp14
 70
     2
102
RTVSPropertyOp15
 70
     0
102
RTVSPropertyOp16
 70
     0
102
RTVSPropertyOp17
 70
     0
102
RTVSPropertyOp18
 70
     0
102
RTVSPropertyOp19
 70
     0
102
RTVSPropertyOp20
 70
     0
102
RTVSPropertyOp21
 70
     0
102
RTVSPropertyOp22
 70
     0
102
RTVSPropertyOp23
 70
     0
102
RTVSPropertyOp24
 70
     0
102
RTVSPropertyOp25
 70
     0
102
RTVSPropertyOp26
 70
     0
102
RTVSPropertyOp27
 70
     0
102
RTVSPropertyOp28
 70
     0
102
RTVSPropertyOp29
 70
     0
102
RTVSPropertyOp30
 70
     0
102
RTVSPropertyOp31
 70
     0
102
RTVSPropertyOp32
 70
     0
102
RTVSPropertyOp33
 70
     0
102
RTVSPropertyOp34
 70
     0
102
RTVSPropertyOp35
 70
     0
102
RTVSPropertyOp36
 70
     0
102
RTVSPropertyOp37
 70
     0
102
RTVSPropertyOp38
 70
     0
102
RTVSPropertyOp39
 70
     0
102
RTVSPropertyOp40
 70
     0
102
RTVSPropertyOp41
 70
     0
102
RTVSPropertyOp42
 70
     0
102
RTVSPropertyOp43
 70
     0
102
RTVSPropertyOp44
 70
     0
102
RTVSPropertyOp45
 70
     0
102
RTVSPropertyOp46
 70
     0
102
RTVSPropertyOp47
 70
     0
102
RTVSPropertyOp48
 70
     0
102
RTVSPropertyOp49
 70
     0
102
RTVSPropertyOp50
 70
     0
102
RTVSPropertyOp51
 70
     0
102
RTVSPropertyOp52
 70
     0
102
RTVSPropertyOp53
 70
     0
102
RTVSPropertyOp54
 70
     0
102
RTVSPropertyOp55
 70
     0
102
RTVSPropertyOp56
 70
     0
102
RTVSPropertyOp57
 70
     0
102
RTVSPost2010Prop28
280
     0
102
RTVSPost2010PropOp28
 70
     0
102
RTVSPost2010Prop29
280
     1
102
RTVSPost2010PropOp29
 70
     0
102
RTVSPost2010Prop30
280
     1
102
RTVSPost2010PropOp30
 70
     0
102
RTVSPost2010Prop31
280
     0
102
RTVSPost2010PropOp31
 70
     0
102
RTVSPost2010Prop32
280
     0
102
RTVSPost2010PropOp32
 70
     0
102
RTVSPost2010Prop33
280
     0
102
RTVSPost2010PropOp33
 70
     0
102
RTVSPost2010Prop34
280
     0
102
RTVSPost2010PropOp34
 70
     0
102
RTVSPost2010Prop35
280
     0
102
RTVSPost2010PropOp35
 70
     0
102
RTVSPost2010Prop36
280
     0
102
RTVSPost2010PropOp36
 70
     0
102
RTVSPost2010Prop37
 90
       50
102
RTVSPost2010PropOp37
 70
     0
102
RTVSPost2010Prop38
140
0.0
102
RTVSPost2010PropOp38
 70
     0
102
RTVSPost2010Prop39
140
1.0
102
RTVSPost2010PropOp39
 70
     0
102
RTVSPost2010Prop40
 90
        0
102
RTVSPost2010PropOp40
 70
     0
102
RTVSPost2010Prop41ColorIndex
 90
       18
102
RTVSPost2010Prop41ColorRGB
 90
        0
102
RTVSPost2010PropOp41
 70
     0
102
RTVSPost2010Prop42
 90
       50
102
RTVSPost2010PropOp42
 70
     0
102
RTVSPost2010Prop43
 90
        3
102
RTVSPost2010PropOp43
 70
     0
102
RTVSPost2010Prop44ColorIndex
 90
        5
102
RTVSPost2010Prop44ColorRGB
 90
      255
102
RTVSPost2010PropOp44
 70
     0
102
RTVSPost2010Prop45
280
     0
102
RTVSPost2010PropOp45
 70
     0
102
RTVSPost2010Prop46
 90
       50
102
RTVSPost2010PropOp46
 70
     0
102
RTVSPost2010Prop47
 90
       50
102
RTVSPost2010PropOp47
 70
     0
102
RTVSPost2010Prop48
 90
       50
102
RTVSPost2010PropOp48
 70
     0
102
RTVSPost2010Prop49
280
     0
102
RTVSPost2010PropOp49
 70
     0
102
RTVSPost2010Prop50
 90
       50
102
RTVSPost2010PropOp50
 70
     0
102
RTVSPost2010Prop51ColorIndex
 90
      256
102
RTVSPost2010Prop51ColorRGB
 90
-16777216
102
RTVSPost2010PropOp51
 70
     0
102
RTVSPost2010Prop52
140
1.0
102
RTVSPost2010PropOp52
 70
     0
102
RTVSPost2010Prop53
 90
        2
102
RTVSPost2010PropOp53
 70
     0
102
RTVSPost2010Prop54
  1
strokes_ogs.tif
102
RTVSPost2010PropOp54
 70
     0
102
RTVSPost2010Prop55
280
     0
102
RTVSPost2010PropOp55
 70
     0
102
RTVSPost2010Prop56
140
1.0
102
RTVSPost2010PropOp56
 70
     0
102
RTVSPost2010Prop57
140
1.0
102
RTVSPost2010PropOp57
 70
     0
  0
XRECORD
  5
18E
102
{ACAD_REACTORS
330
18D
102
}
330
18D
100
AcDbXrecord
280
     1
102
RTVSPropertyOp0
 70
     1
102
RTVSPropertyOp1
 70
     1
102
RTVSPropertyOp2
 70
     1
102
RTVSPropertyOp3
 70
     1
102
RTVSPropertyOp4
 70
     1
102
RTVSPropertyOp5
 70
     1
102
RTVSPropertyOp6
 70
     1
102
RTVSPropertyOp7
 70
     1
102
RTVSPropertyOp8
 70
     1
102
RTVSPropertyOp9
 70
     1
102
RTVSPropertyOp10
 70
     1
102
RTVSPropertyOp11
 70
     1
102
RTVSPropertyOp12
 70
     1
102
RTVSPropertyOp13
 70
     1
102
RTVSPropertyOp14
 70
     1
102
RTVSPropertyOp15
 70
     1
102
RTVSPropertyOp16
 70
     1
102
RTVSPropertyOp17
 70
     1
102
RTVSPropertyOp18
 70
     1
102
RTVSPropertyOp19
 70
     1
102
RTVSPropertyOp20
 70
     1
102
RTVSPropertyOp21
 70
     1
102
RTVSPropertyOp22
 70
     1
102
RTVSPropertyOp23
 70
     1
102
RTVSPropertyOp24
 70
     1
102
RTVSPropertyOp25
 70
     1
102
RTVSPropertyOp26
 70
     1
102
RTVSPropertyOp27
 70
     1
102
RTVSPropertyOp28
 70
     1
102
RTVSPropertyOp29
 70
     1
102
RTVSPropertyOp30
 70
     1
102
RTVSPropertyOp31
 70
     1
102
RTVSPropertyOp32
 70
     1
102
RTVSPropertyOp33
 70
     1
102
RTVSPropertyOp34
 70
     1
102
RTVSPropertyOp35
 70
     1
102
RTVSPropertyOp36
 70
     1
102
RTVSPropertyOp37
 70
     1
102
RTVSPropertyOp38
 70
     1
102
RTVSPropertyOp39
 70
     1
102
RTVSPropertyOp40
 70
     1
102
RTVSPropertyOp41
 70
     1
102
RTVSPropertyOp42
 70
     1
102
RTVSPropertyOp43
 70
     1
102
RTVSPropertyOp44
 70
     1
102
RTVSPropertyOp45
 70
     1
102
RTVSPropertyOp46
 70
     1
102
RTVSPropertyOp47
 70
     1
102
RTVSPropertyOp48
 70
     1
102
RTVSPropertyOp49
 70
     1
102
RTVSPropertyOp50
 70
     1
102
RTVSPropertyOp51
 70
     0
102
RTVSPropertyOp52
 70
     0
102
RTVSPropertyOp53
 70
     1
102
RTVSPropertyOp54
 70
     1
102
RTVSPropertyOp55
 70
     1
102
RTVSPropertyOp56
 70
     1
102
RTVSPropertyOp57
 70
     1
102
RTVSPost2010Prop28
280
     0
102
RTVSPost2010PropOp28
 70
     1
102
RTVSPost2010Prop29
280
     1
102
RTVSPost2010PropOp29
 70
     1
102
RTVSPost2010Prop30
280
     1
102
RTVSPost2010PropOp30
 70
     1
102
RTVSPost2010Prop31
280
     0
102
RTVSPost2010PropOp31
 70
     1
102
RTVSPost2010Prop32
280
     0
102
RTVSPost2010PropOp32
 70
     1
102
RTVSPost2010Prop33
280
     0
102
RTVSPost2010PropOp33
 70
     1
102
RTVSPost2010Prop34
280
     0
102
RTVSPost2010PropOp34
 70
     1
102
RTVSPost2010Prop35
280
     0
102
RTVSPost2010PropOp35
 70
     1
102
RTVSPost2010Prop36
280
     0
102
RTVSPost2010PropOp36
 70
     1
102
RTVSPost2010Prop37
 90
       50
102
RTVSPost2010PropOp37
 70
     1
102
RTVSPost2010Prop38
140
0.0
102
RTVSPost2010PropOp38
 70
     1
102
RTVSPost2010Prop39
140
1.0
102
RTVSPost2010PropOp39
 70
     1
102
RTVSPost2010Prop40
 90
        0
102
RTVSPost2010PropOp40
 70
     1
102
RTVSPost2010Prop41ColorIndex
 90
       18
102
RTVSPost2010Prop41ColorRGB
 90
        0
102
RTVSPost2010PropOp41
 70
     1
102
RTVSPost2010Prop42
 90
       50
102
RTVSPost2010PropOp42
 70
     1
102
RTVSPost2010Prop43
 90
        3
102
RTVSPost2010PropOp43
 70
     1
102
RTVSPost2010Prop44ColorIndex
 90
        5
102
RTVSPost2010Prop44ColorRGB
 90
      255
102
RTVSPost2010PropOp44
 70
     1
102
RTVSPost2010Prop45
280
     0
102
RTVSPost2010PropOp45
 70
     1
102
RTVSPost2010Prop46
 90
       50
102
RTVSPost2010PropOp46
 70
     1
102
RTVSPost2010Prop47
 90
       50
102
RTVSPost2010PropOp47
 70
     1
102
RTVSPost2010Prop48
 90
       50
102
RTVSPost2010PropOp48
 70
     1
102
RTVSPost2010Prop49
280
     0
102
RTVSPost2010PropOp49
 70
     1
102
RTVSPost2010Prop50
 90
       50
102
RTVSPost2010PropOp50
 70
     1
102
RTVSPost2010Prop51ColorIndex
 90
      256
102
RTVSPost2010Prop51ColorRGB
 90
-16777216
102
RTVSPost2010PropOp51
 70
     0
102
RTVSPost2010Prop52
140
1.0
102
RTVSPost2010PropOp52
 70
     0
102
RTVSPost2010Prop53
 90
        2
102
RTVSPost2010PropOp53
 70
     1
102
RTVSPost2010Prop54
  1
strokes_ogs.tif
102
RTVSPost2010PropOp54
 70
     1
102
RTVSPost2010Prop55
280
     0
102
RTVSPost2010PropOp55
 70
     1
102
RTVSPost2010Prop56
140
1.0
102
RTVSPost2010PropOp56
 70
     1
102
RTVSPost2010Prop57
140
1.0
102
RTVSPost2010PropOp57
 70
     1
  0
XRECORD
  5
196
102
{ACAD_REACTORS
330
195
102
}
330
195
100
AcDbXrecord
280
     1
102
RTVSPropertyOp0
 70
     0
102
RTVSPropertyOp1
 70
     0
102
RTVSPropertyOp2
 70
     0
102
RTVSPropertyOp3
 70
     0
102
RTVSPropertyOp4
 70
     0
102
RTVSPropertyOp5
 70
     0
102
RTVSPropertyOp6
 70
     0
102
RTVSPropertyOp7
 70
     0
102
RTVSPropertyOp8
 70
     0
102
RTVSPropertyOp9
 70
     0
102
RTVSPropertyOp10
 70
     0
102
RTVSPropertyOp11
 70
     0
102
RTVSPropertyOp12
 70
     0
102
RTVSPropertyOp13
 70
     0
102
RTVSPropertyOp14
 70
     2
102
RTVSPropertyOp15
 70
     0
102
RTVSPropertyOp16
 70
     0
102
RTVSPropertyOp17
 70
     0
102
RTVSPropertyOp18
 70
     0
102
RTVSPropertyOp19
 70
     0
102
RTVSPropertyOp20
 70
     0
102
RTVSPropertyOp21
 70
     0
102
RTVSPropertyOp22
 70
     0
102
RTVSPropertyOp23
 70
     0
102
RTVSPropertyOp24
 70
     0
102
RTVSPropertyOp25
 70
     0
102
RTVSPropertyOp26
 70
     0
102
RTVSPropertyOp27
 70
     0
102
RTVSPropertyOp28
 70
     0
102
RTVSPropertyOp29
 70
     0
102
RTVSPropertyOp30
 70
     0
102
RTVSPropertyOp31
 70
     0
102
RTVSPropertyOp32
 70
     0
102
RTVSPropertyOp33
 70
     0
102
RTVSPropertyOp34
 70
     0
102
RTVSPropertyOp35
 70
     0
102
RTVSPropertyOp36
 70
     0
102
RTVSPropertyOp37
 70
     0
102
RTVSPropertyOp38
 70
     0
102
RTVSPropertyOp39
 70
     0
102
RTVSPropertyOp40
 70
     0
102
RTVSPropertyOp41
 70
     0
102
RTVSPropertyOp42
 70
     0
102
RTVSPropertyOp43
 70
     0
102
RTVSPropertyOp44
 70
     0
102
RTVSPropertyOp45
 70
     0
102
RTVSPropertyOp46
 70
     0
102
RTVSPropertyOp47
 70
     0
102
RTVSPropertyOp48
 70
     0
102
RTVSPropertyOp49
 70
     0
102
RTVSPropertyOp50
 70
     0
102
RTVSPropertyOp51
 70
     0
102
RTVSPropertyOp52
 70
     0
102
RTVSPropertyOp53
 70
     0
102
RTVSPropertyOp54
 70
     0
102
RTVSPropertyOp55
 70
     0
102
RTVSPropertyOp56
 70
     0
102
RTVSPropertyOp57
 70
     0
102
RTVSPost2010Prop28
280
     0
102
RTVSPost2010PropOp28
 70
     0
102
RTVSPost2010Prop29
280
     1
102
RTVSPost2010PropOp29
 70
     0
102
RTVSPost2010Prop30
280
     1
102
RTVSPost2010PropOp30
 70
     0
102
RTVSPost2010Prop31
280
     0
102
RTVSPost2010PropOp31
 70
     0
102
RTVSPost2010Prop32
280
     0
102
RTVSPost2010PropOp32
 70
     0
102
RTVSPost2010Prop33
280
     0
102
RTVSPost2010PropOp33
 70
     0
102
RTVSPost2010Prop34
280
     0
102
RTVSPost2010PropOp34
 70
     0
102
RTVSPost2010Prop35
280
     0
102
RTVSPost2010PropOp35
 70
     0
102
RTVSPost2010Prop36
280
     0
102
RTVSPost2010PropOp36
 70
     0
102
RTVSPost2010Prop37
 90
       50
102
RTVSPost2010PropOp37
 70
     0
102
RTVSPost2010Prop38
140
0.0
102
RTVSPost2010PropOp38
 70
     0
102
RTVSPost2010Prop39
140
1.0
102
RTVSPost2010PropOp39
 70
     0
102
RTVSPost2010Prop40
 90
        0
102
RTVSPost2010PropOp40
 70
     0
102
RTVSPost2010Prop41ColorIndex
 90
       18
102
RTVSPost2010Prop41ColorRGB
 90
        0
102
RTVSPost2010PropOp41
 70
     0
102
RTVSPost2010Prop42
 90
       50
102
RTVSPost2010PropOp42
 70
     0
102
RTVSPost2010Prop43
 90
        3
102
RTVSPost2010PropOp43
 70
     0
102
RTVSPost2010Prop44ColorIndex
 90
        5
102
RTVSPost2010Prop44ColorRGB
 90
      255
102
RTVSPost2010PropOp44
 70
     0
102
RTVSPost2010Prop45
280
     0
102
RTVSPost2010PropOp45
 70
     0
102
RTVSPost2010Prop46
 90
       50
102
RTVSPost2010PropOp46
 70
     0
102
RTVSPost2010Prop47
 90
       50
102
RTVSPost2010PropOp47
 70
     0
102
RTVSPost2010Prop48
 90
       50
102
RTVSPost2010PropOp48
 70
     0
102
RTVSPost2010Prop49
280
     0
102
RTVSPost2010PropOp49
 70
     0
102
RTVSPost2010Prop50
 90
       50
102
RTVSPost2010PropOp50
 70
     0
102
RTVSPost2010Prop51ColorIndex
 90
      256
102
RTVSPost2010Prop51ColorRGB
 90
-16777216
102
RTVSPost2010PropOp51
 70
     0
102
RTVSPost2010Prop52
140
1.0
102
RTVSPost2010PropOp52
 70
     0
102
RTVSPost2010Prop53
 90
        2
102
RTVSPost2010PropOp53
 70
     0
102
RTVSPost2010Prop54
  1
strokes_ogs.tif
102
RTVSPost2010PropOp54
 70
     0
102
RTVSPost2010Prop55
280
     0
102
RTVSPost2010PropOp55
 70
     0
102
RTVSPost2010Prop56
140
1.0
102
RTVSPost2010PropOp56
 70
     0
102
RTVSPost2010Prop57
140
1.0
102
RTVSPost2010PropOp57
 70
     0
  0
XRECORD
  5
184
102
{ACAD_REACTORS
330
183
102
}
330
183
100
AcDbXrecord
280
     1
102
RTVSPropertyOp0
 70
     1
102
RTVSPropertyOp1
 70
     1
102
RTVSPropertyOp2
 70
     1
102
RTVSPropertyOp3
 70
     1
102
RTVSPropertyOp4
 70
     1
102
RTVSPropertyOp5
 70
     1
102
RTVSPropertyOp6
 70
     1
102
RTVSPropertyOp7
 70
     1
102
RTVSPropertyOp8
 70
     1
102
RTVSPropertyOp9
 70
     1
102
RTVSPropertyOp10
 70
     1
102
RTVSPropertyOp11
 70
     1
102
RTVSPropertyOp12
 70
     1
102
RTVSPropertyOp13
 70
     1
102
RTVSPropertyOp14
 70
     1
102
RTVSPropertyOp15
 70
     1
102
RTVSPropertyOp16
 70
     1
102
RTVSPropertyOp17
 70
     1
102
RTVSPropertyOp18
 70
     1
102
RTVSPropertyOp19
 70
     1
102
RTVSPropertyOp20
 70
     1
102
RTVSPropertyOp21
 70
     1
102
RTVSPropertyOp22
 70
     1
102
RTVSPropertyOp23
 70
     1
102
RTVSPropertyOp24
 70
     1
102
RTVSPropertyOp25
 70
     1
102
RTVSPropertyOp26
 70
     1
102
RTVSPropertyOp27
 70
     1
102
RTVSPropertyOp28
 70
     1
102
RTVSPropertyOp29
 70
     1
102
RTVSPropertyOp30
 70
     1
102
RTVSPropertyOp31
 70
     1
102
RTVSPropertyOp32
 70
     1
102
RTVSPropertyOp33
 70
     1
102
RTVSPropertyOp34
 70
     1
102
RTVSPropertyOp35
 70
     1
102
RTVSPropertyOp36
 70
     1
102
RTVSPropertyOp37
 70
     1
102
RTVSPropertyOp38
 70
     1
102
RTVSPropertyOp39
 70
     1
102
RTVSPropertyOp40
 70
     1
102
RTVSPropertyOp41
 70
     1
102
RTVSPropertyOp42
 70
     1
102
RTVSPropertyOp43
 70
     1
102
RTVSPropertyOp44
 70
     1
102
RTVSPropertyOp45
 70
     1
102
RTVSPropertyOp46
 70
     1
102
RTVSPropertyOp47
 70
     1
102
RTVSPropertyOp48
 70
     1
102
RTVSPropertyOp49
 70
     1
102
RTVSPropertyOp50
 70
     1
102
RTVSPropertyOp51
 70
     0
102
RTVSPropertyOp52
 70
     0
102
RTVSPropertyOp53
 70
     1
102
RTVSPropertyOp54
 70
     1
102
RTVSPropertyOp55
 70
     1
102
RTVSPropertyOp56
 70
     1
102
RTVSPropertyOp57
 70
     1
102
RTVSPost2010Prop28
280
     0
102
RTVSPost2010PropOp28
 70
     1
102
RTVSPost2010Prop29
280
     1
102
RTVSPost2010PropOp29
 70
     1
102
RTVSPost2010Prop30
280
     1
102
RTVSPost2010PropOp30
 70
     1
102
RTVSPost2010Prop31
280
     0
102
RTVSPost2010PropOp31
 70
     1
102
RTVSPost2010Prop32
280
     0
102
RTVSPost2010PropOp32
 70
     1
102
RTVSPost2010Prop33
280
     0
102
RTVSPost2010PropOp33
 70
     1
102
RTVSPost2010Prop34
280
     0
102
RTVSPost2010PropOp34
 70
     1
102
RTVSPost2010Prop35
280
     0
102
RTVSPost2010PropOp35
 70
     1
102
RTVSPost2010Prop36
280
     0
102
RTVSPost2010PropOp36
 70
     1
102
RTVSPost2010Prop37
 90
       50
102
RTVSPost2010PropOp37
 70
     1
102
RTVSPost2010Prop38
140
0.0
102
RTVSPost2010PropOp38
 70
     1
102
RTVSPost2010Prop39
140
1.0
102
RTVSPost2010PropOp39
 70
     1
102
RTVSPost2010Prop40
 90
        0
102
RTVSPost2010PropOp40
 70
     1
102
RTVSPost2010Prop41ColorIndex
 90
       18
102
RTVSPost2010Prop41ColorRGB
 90
        0
102
RTVSPost2010PropOp41
 70
     1
102
RTVSPost2010Prop42
 90
       50
102
RTVSPost2010PropOp42
 70
     1
102
RTVSPost2010Prop43
 90
        3
102
RTVSPost2010PropOp43
 70
     1
102
RTVSPost2010Prop44ColorIndex
 90
        5
102
RTVSPost2010Prop44ColorRGB
 90
      255
102
RTVSPost2010PropOp44
 70
     1
102
RTVSPost2010Prop45
280
     0
102
RTVSPost2010PropOp45
 70
     1
102
RTVSPost2010Prop46
 90
       50
102
RTVSPost2010PropOp46
 70
     1
102
RTVSPost2010Prop47
 90
       50
102
RTVSPost2010PropOp47
 70
     1
102
RTVSPost2010Prop48
 90
       50
102
RTVSPost2010PropOp48
 70
     1
102
RTVSPost2010Prop49
280
     0
102
RTVSPost2010PropOp49
 70
     1
102
RTVSPost2010Prop50
 90
       50
102
RTVSPost2010PropOp50
 70
     1
102
RTVSPost2010Prop51ColorIndex
 90
      256
102
RTVSPost2010Prop51ColorRGB
 90
-16777216
102
RTVSPost2010PropOp51
 70
     0
102
RTVSPost2010Prop52
140
1.0
102
RTVSPost2010PropOp52
 70
     0
102
RTVSPost2010Prop53
 90
        2
102
RTVSPost2010PropOp53
 70
     1
102
RTVSPost2010Prop54
  1
strokes_ogs.tif
102
RTVSPost2010PropOp54
 70
     1
102
RTVSPost2010Prop55
280
     0
102
RTVSPost2010PropOp55
 70
     1
102
RTVSPost2010Prop56
140
1.0
102
RTVSPost2010PropOp56
 70
     1
102
RTVSPost2010Prop57
140
1.0
102
RTVSPost2010PropOp57
 70
     1
  0
XRECORD
  5
1A2
102
{ACAD_REACTORS
330
1A1
102
}
330
1A1
100
AcDbXrecord
280
     1
102
RTVSPropertyOp0
 70
     1
102
RTVSPropertyOp1
 70
     1
102
RTVSPropertyOp2
 70
     1
102
RTVSPropertyOp3
 70
     1
102
RTVSPropertyOp4
 70
     1
102
RTVSPropertyOp5
 70
     1
102
RTVSPropertyOp6
 70
     1
102
RTVSPropertyOp7
 70
     1
102
RTVSPropertyOp8
 70
     1
102
RTVSPropertyOp9
 70
     1
102
RTVSPropertyOp10
 70
     1
102
RTVSPropertyOp11
 70
     1
102
RTVSPropertyOp12
 70
     1
102
RTVSPropertyOp13
 70
     1
102
RTVSPropertyOp14
 70
     1
102
RTVSPropertyOp15
 70
     1
102
RTVSPropertyOp16
 70
     1
102
RTVSPropertyOp17
 70
     1
102
RTVSPropertyOp18
 70
     1
102
RTVSPropertyOp19
 70
     1
102
RTVSPropertyOp20
 70
     1
102
RTVSPropertyOp21
 70
     1
102
RTVSPropertyOp22
 70
     1
102
RTVSPropertyOp23
 70
     1
102
RTVSPropertyOp24
 70
     1
102
RTVSPropertyOp25
 70
     1
102
RTVSPropertyOp26
 70
     1
102
RTVSPropertyOp27
 70
     1
102
RTVSPropertyOp28
 70
     1
102
RTVSPropertyOp29
 70
     1
102
RTVSPropertyOp30
 70
     1
102
RTVSPropertyOp31
 70
     1
102
RTVSPropertyOp32
 70
     1
102
RTVSPropertyOp33
 70
     1
102
RTVSPropertyOp34
 70
     1
102
RTVSPropertyOp35
 70
     1
102
RTVSPropertyOp36
 70
     1
102
RTVSPropertyOp37
 70
     1
102
RTVSPropertyOp38
 70
     1
102
RTVSPropertyOp39
 70
     1
102
RTVSPropertyOp40
 70
     1
102
RTVSPropertyOp41
 70
     1
102
RTVSPropertyOp42
 70
     1
102
RTVSPropertyOp43
 70
     1
102
RTVSPropertyOp44
 70
     1
102
RTVSPropertyOp45
 70
     1
102
RTVSPropertyOp46
 70
     1
102
RTVSPropertyOp47
 70
     1
102
RTVSPropertyOp48
 70
     1
102
RTVSPropertyOp49
 70
     1
102
RTVSPropertyOp50
 70
     1
102
RTVSPropertyOp51
 70
     0
102
RTVSPropertyOp52
 70
     0
102
RTVSPropertyOp53
 70
     1
102
RTVSPropertyOp54
 70
     1
102
RTVSPropertyOp55
 70
     1
102
RTVSPropertyOp56
 70
     1
102
RTVSPropertyOp57
 70
     1
102
RTVSPost2010Prop28
280
     0
102
RTVSPost2010PropOp28
 70
     1
102
RTVSPost2010Prop29
280
     1
102
RTVSPost2010PropOp29
 70
     1
102
RTVSPost2010Prop30
280
     1
102
RTVSPost2010PropOp30
 70
     1
102
RTVSPost2010Prop31
280
     0
102
RTVSPost2010PropOp31
 70
     1
102
RTVSPost2010Prop32
280
     0
102
RTVSPost2010PropOp32
 70
     1
102
RTVSPost2010Prop33
280
     0
102
RTVSPost2010PropOp33
 70
     1
102
RTVSPost2010Prop34
280
     0
102
RTVSPost2010PropOp34
 70
     1
102
RTVSPost2010Prop35
280
     0
102
RTVSPost2010PropOp35
 70
     1
102
RTVSPost2010Prop36
280
     0
102
RTVSPost2010PropOp36
 70
     1
102
RTVSPost2010Prop37
 90
       50
102
RTVSPost2010PropOp37
 70
     1
102
RTVSPost2010Prop38
140
0.0
102
RTVSPost2010PropOp38
 70
     1
102
RTVSPost2010Prop39
140
1.0
102
RTVSPost2010PropOp39
 70
     1
102
RTVSPost2010Prop40
 90
        0
102
RTVSPost2010PropOp40
 70
     1
102
RTVSPost2010Prop41ColorIndex
 90
       18
102
RTVSPost2010Prop41ColorRGB
 90
        0
102
RTVSPost2010PropOp41
 70
     1
102
RTVSPost2010Prop42
 90
       50
102
RTVSPost2010PropOp42
 70
     1
102
RTVSPost2010Prop43
 90
        3
102
RTVSPost2010PropOp43
 70
     1
102
RTVSPost2010Prop44ColorIndex
 90
        5
102
RTVSPost2010Prop44ColorRGB
 90
      255
102
RTVSPost2010PropOp44
 70
     1
102
RTVSPost2010Prop45
280
     0
102
RTVSPost2010PropOp45
 70
     1
102
RTVSPost2010Prop46
 90
       50
102
RTVSPost2010PropOp46
 70
     1
102
RTVSPost2010Prop47
 90
       50
102
RTVSPost2010PropOp47
 70
     1
102
RTVSPost2010Prop48
 90
       50
102
RTVSPost2010PropOp48
 70
     1
102
RTVSPost2010Prop49
280
     0
102
RTVSPost2010PropOp49
 70
     1
102
RTVSPost2010Prop50
 90
       50
102
RTVSPost2010PropOp50
 70
     1
102
RTVSPost2010Prop51ColorIndex
 90
      256
102
RTVSPost2010Prop51ColorRGB
 90
-16777216
102
RTVSPost2010PropOp51
 70
     0
102
RTVSPost2010Prop52
140
1.0
102
RTVSPost2010PropOp52
 70
     0
102
RTVSPost2010Prop53
 90
        2
102
RTVSPost2010PropOp53
 70
     1
102
RTVSPost2010Prop54
  1
strokes_ogs.tif
102
RTVSPost2010PropOp54
 70
     1
102
RTVSPost2010Prop55
280
     0
102
RTVSPost2010PropOp55
 70
     1
102
RTVSPost2010Prop56
140
1.0
102
RTVSPost2010PropOp56
 70
     1
102
RTVSPost2010Prop57
140
1.0
102
RTVSPost2010PropOp57
 70
     1
  0
XRECORD
  5
1A0
102
{ACAD_REACTORS
330
19F
102
}
330
19F
100
AcDbXrecord
280
     1
102
RTVSPropertyOp0
 70
     1
102
RTVSPropertyOp1
 70
     1
102
RTVSPropertyOp2
 70
     1
102
RTVSPropertyOp3
 70
     1
102
RTVSPropertyOp4
 70
     1
102
RTVSPropertyOp5
 70
     1
102
RTVSPropertyOp6
 70
     1
102
RTVSPropertyOp7
 70
     1
102
RTVSPropertyOp8
 70
     1
102
RTVSPropertyOp9
 70
     1
102
RTVSPropertyOp10
 70
     1
102
RTVSPropertyOp11
 70
     1
102
RTVSPropertyOp12
 70
     1
102
RTVSPropertyOp13
 70
     1
102
RTVSPropertyOp14
 70
     1
102
RTVSPropertyOp15
 70
     1
102
RTVSPropertyOp16
 70
     1
102
RTVSPropertyOp17
 70
     1
102
RTVSPropertyOp18
 70
     1
102
RTVSPropertyOp19
 70
     1
102
RTVSPropertyOp20
 70
     1
102
RTVSPropertyOp21
 70
     1
102
RTVSPropertyOp22
 70
     1
102
RTVSPropertyOp23
 70
     1
102
RTVSPropertyOp24
 70
     1
102
RTVSPropertyOp25
 70
     1
102
RTVSPropertyOp26
 70
     1
102
RTVSPropertyOp27
 70
     1
102
RTVSPropertyOp28
 70
     1
102
RTVSPropertyOp29
 70
     1
102
RTVSPropertyOp30
 70
     1
102
RTVSPropertyOp31
 70
     1
102
RTVSPropertyOp32
 70
     1
102
RTVSPropertyOp33
 70
     1
102
RTVSPropertyOp34
 70
     1
102
RTVSPropertyOp35
 70
     1
102
RTVSPropertyOp36
 70
     1
102
RTVSPropertyOp37
 70
     1
102
RTVSPropertyOp38
 70
     1
102
RTVSPropertyOp39
 70
     1
102
RTVSPropertyOp40
 70
     1
102
RTVSPropertyOp41
 70
     1
102
RTVSPropertyOp42
 70
     1
102
RTVSPropertyOp43
 70
     1
102
RTVSPropertyOp44
 70
     1
102
RTVSPropertyOp45
 70
     1
102
RTVSPropertyOp46
 70
     1
102
RTVSPropertyOp47
 70
     1
102
RTVSPropertyOp48
 70
     1
102
RTVSPropertyOp49
 70
     1
102
RTVSPropertyOp50
 70
     1
102
RTVSPropertyOp51
 70
     0
102
RTVSPropertyOp52
 70
     0
102
RTVSPropertyOp53
 70
     1
102
RTVSPropertyOp54
 70
     1
102
RTVSPropertyOp55
 70
     1
102
RTVSPropertyOp56
 70
     1
102
RTVSPropertyOp57
 70
     1
102
RTVSPost2010Prop28
280
     0
102
RTVSPost2010PropOp28
 70
     1
102
RTVSPost2010Prop29
280
     1
102
RTVSPost2010PropOp29
 70
     1
102
RTVSPost2010Prop30
280
     1
102
RTVSPost2010PropOp30
 70
     1
102
RTVSPost2010Prop31
280
     0
102
RTVSPost2010PropOp31
 70
     1
102
RTVSPost2010Prop32
280
     0
102
RTVSPost2010PropOp32
 70
     1
102
RTVSPost2010Prop33
280
     0
102
RTVSPost2010PropOp33
 70
     1
102
RTVSPost2010Prop34
280
     0
102
RTVSPost2010PropOp34
 70
     1
102
RTVSPost2010Prop35
280
     0
102
RTVSPost2010PropOp35
 70
     1
102
RTVSPost2010Prop36
280
     0
102
RTVSPost2010PropOp36
 70
     1
102
RTVSPost2010Prop37
 90
       50
102
RTVSPost2010PropOp37
 70
     1
102
RTVSPost2010Prop38
140
0.0
102
RTVSPost2010PropOp38
 70
     1
102
RTVSPost2010Prop39
140
1.0
102
RTVSPost2010PropOp39
 70
     1
102
RTVSPost2010Prop40
 90
        0
102
RTVSPost2010PropOp40
 70
     1
102
RTVSPost2010Prop41ColorIndex
 90
       18
102
RTVSPost2010Prop41ColorRGB
 90
        0
102
RTVSPost2010PropOp41
 70
     1
102
RTVSPost2010Prop42
 90
       50
102
RTVSPost2010PropOp42
 70
     1
102
RTVSPost2010Prop43
 90
        3
102
RTVSPost2010PropOp43
 70
     1
102
RTVSPost2010Prop44ColorIndex
 90
        5
102
RTVSPost2010Prop44ColorRGB
 90
      255
102
RTVSPost2010PropOp44
 70
     1
102
RTVSPost2010Prop45
280
     0
102
RTVSPost2010PropOp45
 70
     1
102
RTVSPost2010Prop46
 90
       50
102
RTVSPost2010PropOp46
 70
     1
102
RTVSPost2010Prop47
 90
       50
102
RTVSPost2010PropOp47
 70
     1
102
RTVSPost2010Prop48
 90
       50
102
RTVSPost2010PropOp48
 70
     1
102
RTVSPost2010Prop49
280
     0
102
RTVSPost2010PropOp49
 70
     1
102
RTVSPost2010Prop50
 90
       50
102
RTVSPost2010PropOp50
 70
     1
102
RTVSPost2010Prop51ColorIndex
 90
      256
102
RTVSPost2010Prop51ColorRGB
 90
-16777216
102
RTVSPost2010PropOp51
 70
     0
102
RTVSPost2010Prop52
140
1.0
102
RTVSPost2010PropOp52
 70
     0
102
RTVSPost2010Prop53
 90
        2
102
RTVSPost2010PropOp53
 70
     1
102
RTVSPost2010Prop54
  1
strokes_ogs.tif
102
RTVSPost2010PropOp54
 70
     1
102
RTVSPost2010Prop55
280
     0
102
RTVSPost2010PropOp55
 70
     1
102
RTVSPost2010Prop56
140
1.0
102
RTVSPost2010PropOp56
 70
     1
102
RTVSPost2010Prop57
140
1.0
102
RTVSPost2010PropOp57
 70
     1
  0
XRECORD
  5
19A
102
{ACAD_REACTORS
330
199
102
}
330
199
100
AcDbXrecord
280
     1
102
RTVSPropertyOp0
 70
     1
102
RTVSPropertyOp1
 70
     1
102
RTVSPropertyOp2
 70
     1
102
RTVSPropertyOp3
 70
     1
102
RTVSPropertyOp4
 70
     1
102
RTVSPropertyOp5
 70
     1
102
RTVSPropertyOp6
 70
     1
102
RTVSPropertyOp7
 70
     1
102
RTVSPropertyOp8
 70
     1
102
RTVSPropertyOp9
 70
     1
102
RTVSPropertyOp10
 70
     1
102
RTVSPropertyOp11
 70
     1
102
RTVSPropertyOp12
 70
     1
102
RTVSPropertyOp13
 70
     1
102
RTVSPropertyOp14
 70
     1
102
RTVSPropertyOp15
 70
     1
102
RTVSPropertyOp16
 70
     1
102
RTVSPropertyOp17
 70
     1
102
RTVSPropertyOp18
 70
     1
102
RTVSPropertyOp19
 70
     1
102
RTVSPropertyOp20
 70
     1
102
RTVSPropertyOp21
 70
     1
102
RTVSPropertyOp22
 70
     1
102
RTVSPropertyOp23
 70
     1
102
RTVSPropertyOp24
 70
     1
102
RTVSPropertyOp25
 70
     1
102
RTVSPropertyOp26
 70
     1
102
RTVSPropertyOp27
 70
     1
102
RTVSPropertyOp28
 70
     1
102
RTVSPropertyOp29
 70
     1
102
RTVSPropertyOp30
 70
     1
102
RTVSPropertyOp31
 70
     1
102
RTVSPropertyOp32
 70
     1
102
RTVSPropertyOp33
 70
     1
102
RTVSPropertyOp34
 70
     1
102
RTVSPropertyOp35
 70
     1
102
RTVSPropertyOp36
 70
     1
102
RTVSPropertyOp37
 70
     1
102
RTVSPropertyOp38
 70
     1
102
RTVSPropertyOp39
 70
     1
102
RTVSPropertyOp40
 70
     1
102
RTVSPropertyOp41
 70
     1
102
RTVSPropertyOp42
 70
     1
102
RTVSPropertyOp43
 70
     1
102
RTVSPropertyOp44
 70
     1
102
RTVSPropertyOp45
 70
     1
102
RTVSPropertyOp46
 70
     1
102
RTVSPropertyOp47
 70
     1
102
RTVSPropertyOp48
 70
     1
102
RTVSPropertyOp49
 70
     1
102
RTVSPropertyOp50
 70
     1
102
RTVSPropertyOp51
 70
     0
102
RTVSPropertyOp52
 70
     0
102
RTVSPropertyOp53
 70
     1
102
RTVSPropertyOp54
 70
     1
102
RTVSPropertyOp55
 70
     1
102
RTVSPropertyOp56
 70
     1
102
RTVSPropertyOp57
 70
     1
102
RTVSPost2010Prop28
280
     0
102
RTVSPost2010PropOp28
 70
     1
102
RTVSPost2010Prop29
280
     1
102
RTVSPost2010PropOp29
 70
     1
102
RTVSPost2010Prop30
280
     1
102
RTVSPost2010PropOp30
 70
     1
102
RTVSPost2010Prop31
280
     0
102
RTVSPost2010PropOp31
 70
     1
102
RTVSPost2010Prop32
280
     0
102
RTVSPost2010PropOp32
 70
     1
102
RTVSPost2010Prop33
280
     0
102
RTVSPost2010PropOp33
 70
     1
102
RTVSPost2010Prop34
280
     0
102
RTVSPost2010PropOp34
 70
     1
102
RTVSPost2010Prop35
280
     0
102
RTVSPost2010PropOp35
 70
     1
102
RTVSPost2010Prop36
280
     0
102
RTVSPost2010PropOp36
 70
     1
102
RTVSPost2010Prop37
 90
       50
102
RTVSPost2010PropOp37
 70
     1
102
RTVSPost2010Prop38
140
0.0
102
RTVSPost2010PropOp38
 70
     1
102
RTVSPost2010Prop39
140
1.0
102
RTVSPost2010PropOp39
 70
     1
102
RTVSPost2010Prop40
 90
        0
102
RTVSPost2010PropOp40
 70
     1
102
RTVSPost2010Prop41ColorIndex
 90
       18
102
RTVSPost2010Prop41ColorRGB
 90
        0
102
RTVSPost2010PropOp41
 70
     1
102
RTVSPost2010Prop42
 90
       50
102
RTVSPost2010PropOp42
 70
     1
102
RTVSPost2010Prop43
 90
        3
102
RTVSPost2010PropOp43
 70
     1
102
RTVSPost2010Prop44ColorIndex
 90
        5
102
RTVSPost2010Prop44ColorRGB
 90
      255
102
RTVSPost2010PropOp44
 70
     1
102
RTVSPost2010Prop45
280
     0
102
RTVSPost2010PropOp45
 70
     1
102
RTVSPost2010Prop46
 90
       50
102
RTVSPost2010PropOp46
 70
     1
102
RTVSPost2010Prop47
 90
       50
102
RTVSPost2010PropOp47
 70
     1
102
RTVSPost2010Prop48
 90
       50
102
RTVSPost2010PropOp48
 70
     1
102
RTVSPost2010Prop49
280
     0
102
RTVSPost2010PropOp49
 70
     1
102
RTVSPost2010Prop50
 90
       50
102
RTVSPost2010PropOp50
 70
     1
102
RTVSPost2010Prop51ColorIndex
 90
      256
102
RTVSPost2010Prop51ColorRGB
 90
-16777216
102
RTVSPost2010PropOp51
 70
     0
102
RTVSPost2010Prop52
140
1.0
102
RTVSPost2010PropOp52
 70
     0
102
RTVSPost2010Prop53
 90
        2
102
RTVSPost2010PropOp53
 70
     1
102
RTVSPost2010Prop54
  1
strokes_ogs.tif
102
RTVSPost2010PropOp54
 70
     1
102
RTVSPost2010Prop55
280
     0
102
RTVSPost2010PropOp55
 70
     1
102
RTVSPost2010Prop56
140
1.0
102
RTVSPost2010PropOp56
 70
     1
102
RTVSPost2010Prop57
140
1.0
102
RTVSPost2010PropOp57
 70
     1
  0
XRECORD
  5
19C
102
{ACAD_REACTORS
330
19B
102
}
330
19B
100
AcDbXrecord
280
     1
102
RTVSPropertyOp0
 70
     1
102
RTVSPropertyOp1
 70
     1
102
RTVSPropertyOp2
 70
     1
102
RTVSPropertyOp3
 70
     1
102
RTVSPropertyOp4
 70
     1
102
RTVSPropertyOp5
 70
     1
102
RTVSPropertyOp6
 70
     1
102
RTVSPropertyOp7
 70
     1
102
RTVSPropertyOp8
 70
     1
102
RTVSPropertyOp9
 70
     1
102
RTVSPropertyOp10
 70
     1
102
RTVSPropertyOp11
 70
     1
102
RTVSPropertyOp12
 70
     1
102
RTVSPropertyOp13
 70
     1
102
RTVSPropertyOp14
 70
     1
102
RTVSPropertyOp15
 70
     1
102
RTVSPropertyOp16
 70
     1
102
RTVSPropertyOp17
 70
     1
102
RTVSPropertyOp18
 70
     1
102
RTVSPropertyOp19
 70
     1
102
RTVSPropertyOp20
 70
     1
102
RTVSPropertyOp21
 70
     1
102
RTVSPropertyOp22
 70
     1
102
RTVSPropertyOp23
 70
     1
102
RTVSPropertyOp24
 70
     1
102
RTVSPropertyOp25
 70
     1
102
RTVSPropertyOp26
 70
     1
102
RTVSPropertyOp27
 70
     1
102
RTVSPropertyOp28
 70
     1
102
RTVSPropertyOp29
 70
     1
102
RTVSPropertyOp30
 70
     1
102
RTVSPropertyOp31
 70
     1
102
RTVSPropertyOp32
 70
     1
102
RTVSPropertyOp33
 70
     1
102
RTVSPropertyOp34
 70
     1
102
RTVSPropertyOp35
 70
     1
102
RTVSPropertyOp36
 70
     1
102
RTVSPropertyOp37
 70
     1
102
RTVSPropertyOp38
 70
     1
102
RTVSPropertyOp39
 70
     1
102
RTVSPropertyOp40
 70
     1
102
RTVSPropertyOp41
 70
     1
102
RTVSPropertyOp42
 70
     1
102
RTVSPropertyOp43
 70
     1
102
RTVSPropertyOp44
 70
     1
102
RTVSPropertyOp45
 70
     1
102
RTVSPropertyOp46
 70
     1
102
RTVSPropertyOp47
 70
     1
102
RTVSPropertyOp48
 70
     1
102
RTVSPropertyOp49
 70
     1
102
RTVSPropertyOp50
 70
     1
102
RTVSPropertyOp51
 70
     0
102
RTVSPropertyOp52
 70
     0
102
RTVSPropertyOp53
 70
     1
102
RTVSPropertyOp54
 70
     1
102
RTVSPropertyOp55
 70
     1
102
RTVSPropertyOp56
 70
     1
102
RTVSPropertyOp57
 70
     1
102
RTVSPost2010Prop28
280
     0
102
RTVSPost2010PropOp28
 70
     1
102
RTVSPost2010Prop29
280
     1
102
RTVSPost2010PropOp29
 70
     1
102
RTVSPost2010Prop30
280
     1
102
RTVSPost2010PropOp30
 70
     1
102
RTVSPost2010Prop31
280
     0
102
RTVSPost2010PropOp31
 70
     1
102
RTVSPost2010Prop32
280
     0
102
RTVSPost2010PropOp32
 70
     1
102
RTVSPost2010Prop33
280
     0
102
RTVSPost2010PropOp33
 70
     1
102
RTVSPost2010Prop34
280
     0
102
RTVSPost2010PropOp34
 70
     1
102
RTVSPost2010Prop35
280
     0
102
RTVSPost2010PropOp35
 70
     1
102
RTVSPost2010Prop36
280
     0
102
RTVSPost2010PropOp36
 70
     1
102
RTVSPost2010Prop37
 90
       50
102
RTVSPost2010PropOp37
 70
     1
102
RTVSPost2010Prop38
140
0.0
102
RTVSPost2010PropOp38
 70
     1
102
RTVSPost2010Prop39
140
1.0
102
RTVSPost2010PropOp39
 70
     1
102
RTVSPost2010Prop40
 90
        0
102
RTVSPost2010PropOp40
 70
     1
102
RTVSPost2010Prop41ColorIndex
 90
       18
102
RTVSPost2010Prop41ColorRGB
 90
        0
102
RTVSPost2010PropOp41
 70
     1
102
RTVSPost2010Prop42
 90
       50
102
RTVSPost2010PropOp42
 70
     1
102
RTVSPost2010Prop43
 90
        3
102
RTVSPost2010PropOp43
 70
     1
102
RTVSPost2010Prop44ColorIndex
 90
        5
102
RTVSPost2010Prop44ColorRGB
 90
      255
102
RTVSPost2010PropOp44
 70
     1
102
RTVSPost2010Prop45
280
     0
102
RTVSPost2010PropOp45
 70
     1
102
RTVSPost2010Prop46
 90
       50
102
RTVSPost2010PropOp46
 70
     1
102
RTVSPost2010Prop47
 90
       50
102
RTVSPost2010PropOp47
 70
     1
102
RTVSPost2010Prop48
 90
       50
102
RTVSPost2010PropOp48
 70
     1
102
RTVSPost2010Prop49
280
     0
102
RTVSPost2010PropOp49
 70
     1
102
RTVSPost2010Prop50
 90
       50
102
RTVSPost2010PropOp50
 70
     1
102
RTVSPost2010Prop51ColorIndex
 90
      256
102
RTVSPost2010Prop51ColorRGB
 90
-16777216
102
RTVSPost2010PropOp51
 70
     0
102
RTVSPost2010Prop52
140
1.0
102
RTVSPost2010PropOp52
 70
     0
102
RTVSPost2010Prop53
 90
        2
102
RTVSPost2010PropOp53
 70
     1
102
RTVSPost2010Prop54
  1
strokes_ogs.tif
102
RTVSPost2010PropOp54
 70
     1
102
RTVSPost2010Prop55
280
     0
102
RTVSPost2010PropOp55
 70
     1
102
RTVSPost2010Prop56
140
1.0
102
RTVSPost2010PropOp56
 70
     1
102
RTVSPost2010Prop57
140
1.0
102
RTVSPost2010PropOp57
 70
     1
  0
XRECORD
  5
18C
102
{ACAD_REACTORS
330
18B
102
}
330
18B
100
AcDbXrecord
280
     1
102
RTVSPropertyOp0
 70
     1
102
RTVSPropertyOp1
 70
     1
102
RTVSPropertyOp2
 70
     1
102
RTVSPropertyOp3
 70
     1
102
RTVSPropertyOp4
 70
     1
102
RTVSPropertyOp5
 70
     1
102
RTVSPropertyOp6
 70
     1
102
RTVSPropertyOp7
 70
     1
102
RTVSPropertyOp8
 70
     1
102
RTVSPropertyOp9
 70
     1
102
RTVSPropertyOp10
 70
     1
102
RTVSPropertyOp11
 70
     1
102
RTVSPropertyOp12
 70
     1
102
RTVSPropertyOp13
 70
     1
102
RTVSPropertyOp14
 70
     1
102
RTVSPropertyOp15
 70
     1
102
RTVSPropertyOp16
 70
     1
102
RTVSPropertyOp17
 70
     1
102
RTVSPropertyOp18
 70
     1
102
RTVSPropertyOp19
 70
     1
102
RTVSPropertyOp20
 70
     1
102
RTVSPropertyOp21
 70
     1
102
RTVSPropertyOp22
 70
     1
102
RTVSPropertyOp23
 70
     1
102
RTVSPropertyOp24
 70
     1
102
RTVSPropertyOp25
 70
     1
102
RTVSPropertyOp26
 70
     1
102
RTVSPropertyOp27
 70
     1
102
RTVSPropertyOp28
 70
     1
102
RTVSPropertyOp29
 70
     1
102
RTVSPropertyOp30
 70
     1
102
RTVSPropertyOp31
 70
     1
102
RTVSPropertyOp32
 70
     1
102
RTVSPropertyOp33
 70
     1
102
RTVSPropertyOp34
 70
     1
102
RTVSPropertyOp35
 70
     1
102
RTVSPropertyOp36
 70
     1
102
RTVSPropertyOp37
 70
     1
102
RTVSPropertyOp38
 70
     1
102
RTVSPropertyOp39
 70
     1
102
RTVSPropertyOp40
 70
     1
102
RTVSPropertyOp41
 70
     1
102
RTVSPropertyOp42
 70
     1
102
RTVSPropertyOp43
 70
     1
102
RTVSPropertyOp44
 70
     1
102
RTVSPropertyOp45
 70
     1
102
RTVSPropertyOp46
 70
     1
102
RTVSPropertyOp47
 70
     1
102
RTVSPropertyOp48
 70
     1
102
RTVSPropertyOp49
 70
     1
102
RTVSPropertyOp50
 70
     1
102
RTVSPropertyOp51
 70
     0
102
RTVSPropertyOp52
 70
     0
102
RTVSPropertyOp53
 70
     1
102
RTVSPropertyOp54
 70
     1
102
RTVSPropertyOp55
 70
     1
102
RTVSPropertyOp56
 70
     1
102
RTVSPropertyOp57
 70
     1
102
RTVSPost2010Prop28
280
     0
102
RTVSPost2010PropOp28
 70
     1
102
RTVSPost2010Prop29
280
     1
102
RTVSPost2010PropOp29
 70
     1
102
RTVSPost2010Prop30
280
     1
102
RTVSPost2010PropOp30
 70
     1
102
RTVSPost2010Prop31
280
     0
102
RTVSPost2010PropOp31
 70
     1
102
RTVSPost2010Prop32
280
     0
102
RTVSPost2010PropOp32
 70
     1
102
RTVSPost2010Prop33
280
     0
102
RTVSPost2010PropOp33
 70
     1
102
RTVSPost2010Prop34
280
     0
102
RTVSPost2010PropOp34
 70
     1
102
RTVSPost2010Prop35
280
     0
102
RTVSPost2010PropOp35
 70
     1
102
RTVSPost2010Prop36
280
     0
102
RTVSPost2010PropOp36
 70
     1
102
RTVSPost2010Prop37
 90
       50
102
RTVSPost2010PropOp37
 70
     1
102
RTVSPost2010Prop38
140
0.0
102
RTVSPost2010PropOp38
 70
     1
102
RTVSPost2010Prop39
140
1.0
102
RTVSPost2010PropOp39
 70
     1
102
RTVSPost2010Prop40
 90
        0
102
RTVSPost2010PropOp40
 70
     1
102
RTVSPost2010Prop41ColorIndex
 90
       18
102
RTVSPost2010Prop41ColorRGB
 90
        0
102
RTVSPost2010PropOp41
 70
     1
102
RTVSPost2010Prop42
 90
       50
102
RTVSPost2010PropOp42
 70
     1
102
RTVSPost2010Prop43
 90
        3
102
RTVSPost2010PropOp43
 70
     1
102
RTVSPost2010Prop44ColorIndex
 90
        5
102
RTVSPost2010Prop44ColorRGB
 90
      255
102
RTVSPost2010PropOp44
 70
     1
102
RTVSPost2010Prop45
280
     0
102
RTVSPost2010PropOp45
 70
     1
102
RTVSPost2010Prop46
 90
       50
102
RTVSPost2010PropOp46
 70
     1
102
RTVSPost2010Prop47
 90
       50
102
RTVSPost2010PropOp47
 70
     1
102
RTVSPost2010Prop48
 90
       50
102
RTVSPost2010PropOp48
 70
     1
102
RTVSPost2010Prop49
280
     0
102
RTVSPost2010PropOp49
 70
     1
102
RTVSPost2010Prop50
 90
       50
102
RTVSPost2010PropOp50
 70
     1
102
RTVSPost2010Prop51ColorIndex
 90
      256
102
RTVSPost2010Prop51ColorRGB
 90
-16777216
102
RTVSPost2010PropOp51
 70
     0
102
RTVSPost2010Prop52
140
1.0
102
RTVSPost2010PropOp52
 70
     0
102
RTVSPost2010Prop53
 90
        2
102
RTVSPost2010PropOp53
 70
     1
102
RTVSPost2010Prop54
  1
strokes_ogs.tif
102
RTVSPost2010PropOp54
 70
     1
102
RTVSPost2010Prop55
280
     0
102
RTVSPost2010PropOp55
 70
     1
102
RTVSPost2010Prop56
140
1.0
102
RTVSPost2010PropOp56
 70
     1
102
RTVSPost2010Prop57
140
1.0
102
RTVSPost2010PropOp57
 70
     1
  0
XRECORD
  5
17E
102
{ACAD_REACTORS
330
17D
102
}
330
17D
100
AcDbXrecord
280
     1
102
RTVSPropertyOp0
 70
     1
102
RTVSPropertyOp1
 70
     1
102
RTVSPropertyOp2
 70
     1
102
RTVSPropertyOp3
 70
     1
102
RTVSPropertyOp4
 70
     1
102
RTVSPropertyOp5
 70
     1
102
RTVSPropertyOp6
 70
     1
102
RTVSPropertyOp7
 70
     1
102
RTVSPropertyOp8
 70
     1
102
RTVSPropertyOp9
 70
     1
102
RTVSPropertyOp10
 70
     1
102
RTVSPropertyOp11
 70
     1
102
RTVSPropertyOp12
 70
     1
102
RTVSPropertyOp13
 70
     1
102
RTVSPropertyOp14
 70
     1
102
RTVSPropertyOp15
 70
     1
102
RTVSPropertyOp16
 70
     1
102
RTVSPropertyOp17
 70
     1
102
RTVSPropertyOp18
 70
     1
102
RTVSPropertyOp19
 70
     1
102
RTVSPropertyOp20
 70
     1
102
RTVSPropertyOp21
 70
     1
102
RTVSPropertyOp22
 70
     1
102
RTVSPropertyOp23
 70
     1
102
RTVSPropertyOp24
 70
     1
102
RTVSPropertyOp25
 70
     1
102
RTVSPropertyOp26
 70
     1
102
RTVSPropertyOp27
 70
     1
102
RTVSPropertyOp28
 70
     1
102
RTVSPropertyOp29
 70
     1
102
RTVSPropertyOp30
 70
     1
102
RTVSPropertyOp31
 70
     1
102
RTVSPropertyOp32
 70
     1
102
RTVSPropertyOp33
 70
     1
102
RTVSPropertyOp34
 70
     1
102
RTVSPropertyOp35
 70
     1
102
RTVSPropertyOp36
 70
     1
102
RTVSPropertyOp37
 70
     1
102
RTVSPropertyOp38
 70
     1
102
RTVSPropertyOp39
 70
     1
102
RTVSPropertyOp40
 70
     1
102
RTVSPropertyOp41
 70
     1
102
RTVSPropertyOp42
 70
     1
102
RTVSPropertyOp43
 70
     1
102
RTVSPropertyOp44
 70
     1
102
RTVSPropertyOp45
 70
     1
102
RTVSPropertyOp46
 70
     1
102
RTVSPropertyOp47
 70
     1
102
RTVSPropertyOp48
 70
     1
102
RTVSPropertyOp49
 70
     1
102
RTVSPropertyOp50
 70
     1
102
RTVSPropertyOp51
 70
     0
102
RTVSPropertyOp52
 70
     0
102
RTVSPropertyOp53
 70
     1
102
RTVSPropertyOp54
 70
     1
102
RTVSPropertyOp55
 70
     1
102
RTVSPropertyOp56
 70
     1
102
RTVSPropertyOp57
 70
     1
102
RTVSPost2010Prop28
280
     0
102
RTVSPost2010PropOp28
 70
     1
102
RTVSPost2010Prop29
280
     1
102
RTVSPost2010PropOp29
 70
     1
102
RTVSPost2010Prop30
280
     1
102
RTVSPost2010PropOp30
 70
     1
102
RTVSPost2010Prop31
280
     0
102
RTVSPost2010PropOp31
 70
     1
102
RTVSPost2010Prop32
280
     0
102
RTVSPost2010PropOp32
 70
     1
102
RTVSPost2010Prop33
280
     0
102
RTVSPost2010PropOp33
 70
     1
102
RTVSPost2010Prop34
280
     0
102
RTVSPost2010PropOp34
 70
     1
102
RTVSPost2010Prop35
280
     0
102
RTVSPost2010PropOp35
 70
     1
102
RTVSPost2010Prop36
280
     0
102
RTVSPost2010PropOp36
 70
     1
102
RTVSPost2010Prop37
 90
       50
102
RTVSPost2010PropOp37
 70
     1
102
RTVSPost2010Prop38
140
0.0
102
RTVSPost2010PropOp38
 70
     1
102
RTVSPost2010Prop39
140
1.0
102
RTVSPost2010PropOp39
 70
     1
102
RTVSPost2010Prop40
 90
        0
102
RTVSPost2010PropOp40
 70
     1
102
RTVSPost2010Prop41ColorIndex
 90
       18
102
RTVSPost2010Prop41ColorRGB
 90
        0
102
RTVSPost2010PropOp41
 70
     1
102
RTVSPost2010Prop42
 90
       50
102
RTVSPost2010PropOp42
 70
     1
102
RTVSPost2010Prop43
 90
        3
102
RTVSPost2010PropOp43
 70
     1
102
RTVSPost2010Prop44ColorIndex
 90
        5
102
RTVSPost2010Prop44ColorRGB
 90
      255
102
RTVSPost2010PropOp44
 70
     1
102
RTVSPost2010Prop45
280
     0
102
RTVSPost2010PropOp45
 70
     1
102
RTVSPost2010Prop46
 90
       50
102
RTVSPost2010PropOp46
 70
     1
102
RTVSPost2010Prop47
 90
       50
102
RTVSPost2010PropOp47
 70
     1
102
RTVSPost2010Prop48
 90
       50
102
RTVSPost2010PropOp48
 70
     1
102
RTVSPost2010Prop49
280
     0
102
RTVSPost2010PropOp49
 70
     1
102
RTVSPost2010Prop50
 90
       50
102
RTVSPost2010PropOp50
 70
     1
102
RTVSPost2010Prop51ColorIndex
 90
      256
102
RTVSPost2010Prop51ColorRGB
 90
-16777216
102
RTVSPost2010PropOp51
 70
     0
102
RTVSPost2010Prop52
140
1.0
102
RTVSPost2010PropOp52
 70
     0
102
RTVSPost2010Prop53
 90
        2
102
RTVSPost2010PropOp53
 70
     1
102
RTVSPost2010Prop54
  1
strokes_ogs.tif
102
RTVSPost2010PropOp54
 70
     1
102
RTVSPost2010Prop55
280
     0
102
RTVSPost2010PropOp55
 70
     1
102
RTVSPost2010Prop56
140
1.0
102
RTVSPost2010PropOp56
 70
     1
102
RTVSPost2010Prop57
140
1.0
102
RTVSPost2010PropOp57
 70
     1
  0
XRECORD
  5
19E
102
{ACAD_REACTORS
330
19D
102
}
330
19D
100
AcDbXrecord
280
     1
102
RTVSPropertyOp0
 70
     1
102
RTVSPropertyOp1
 70
     1
102
RTVSPropertyOp2
 70
     1
102
RTVSPropertyOp3
 70
     1
102
RTVSPropertyOp4
 70
     1
102
RTVSPropertyOp5
 70
     1
102
RTVSPropertyOp6
 70
     1
102
RTVSPropertyOp7
 70
     1
102
RTVSPropertyOp8
 70
     1
102
RTVSPropertyOp9
 70
     1
102
RTVSPropertyOp10
 70
     1
102
RTVSPropertyOp11
 70
     1
102
RTVSPropertyOp12
 70
     1
102
RTVSPropertyOp13
 70
     1
102
RTVSPropertyOp14
 70
     1
102
RTVSPropertyOp15
 70
     1
102
RTVSPropertyOp16
 70
     1
102
RTVSPropertyOp17
 70
     1
102
RTVSPropertyOp18
 70
     1
102
RTVSPropertyOp19
 70
     1
102
RTVSPropertyOp20
 70
     1
102
RTVSPropertyOp21
 70
     1
102
RTVSPropertyOp22
 70
     1
102
RTVSPropertyOp23
 70
     1
102
RTVSPropertyOp24
 70
     1
102
RTVSPropertyOp25
 70
     1
102
RTVSPropertyOp26
 70
     1
102
RTVSPropertyOp27
 70
     1
102
RTVSPropertyOp28
 70
     1
102
RTVSPropertyOp29
 70
     1
102
RTVSPropertyOp30
 70
     1
102
RTVSPropertyOp31
 70
     1
102
RTVSPropertyOp32
 70
     1
102
RTVSPropertyOp33
 70
     1
102
RTVSPropertyOp34
 70
     1
102
RTVSPropertyOp35
 70
     1
102
RTVSPropertyOp36
 70
     1
102
RTVSPropertyOp37
 70
     1
102
RTVSPropertyOp38
 70
     1
102
RTVSPropertyOp39
 70
     1
102
RTVSPropertyOp40
 70
     1
102
RTVSPropertyOp41
 70
     1
102
RTVSPropertyOp42
 70
     1
102
RTVSPropertyOp43
 70
     1
102
RTVSPropertyOp44
 70
     1
102
RTVSPropertyOp45
 70
     1
102
RTVSPropertyOp46
 70
     1
102
RTVSPropertyOp47
 70
     1
102
RTVSPropertyOp48
 70
     1
102
RTVSPropertyOp49
 70
     1
102
RTVSPropertyOp50
 70
     1
102
RTVSPropertyOp51
 70
     0
102
RTVSPropertyOp52
 70
     0
102
RTVSPropertyOp53
 70
     1
102
RTVSPropertyOp54
 70
     1
102
RTVSPropertyOp55
 70
     1
102
RTVSPropertyOp56
 70
     1
102
RTVSPropertyOp57
 70
     1
102
RTVSPost2010Prop28
280
     0
102
RTVSPost2010PropOp28
 70
     1
102
RTVSPost2010Prop29
280
     1
102
RTVSPost2010PropOp29
 70
     1
102
RTVSPost2010Prop30
280
     1
102
RTVSPost2010PropOp30
 70
     1
102
RTVSPost2010Prop31
280
     0
102
RTVSPost2010PropOp31
 70
     1
102
RTVSPost2010Prop32
280
     0
102
RTVSPost2010PropOp32
 70
     1
102
RTVSPost2010Prop33
280
     0
102
RTVSPost2010PropOp33
 70
     1
102
RTVSPost2010Prop34
280
     0
102
RTVSPost2010PropOp34
 70
     1
102
RTVSPost2010Prop35
280
     0
102
RTVSPost2010PropOp35
 70
     1
102
RTVSPost2010Prop36
280
     0
102
RTVSPost2010PropOp36
 70
     1
102
RTVSPost2010Prop37
 90
       50
102
RTVSPost2010PropOp37
 70
     1
102
RTVSPost2010Prop38
140
0.0
102
RTVSPost2010PropOp38
 70
     1
102
RTVSPost2010Prop39
140
1.0
102
RTVSPost2010PropOp39
 70
     1
102
RTVSPost2010Prop40
 90
        0
102
RTVSPost2010PropOp40
 70
     1
102
RTVSPost2010Prop41ColorIndex
 90
       18
102
RTVSPost2010Prop41ColorRGB
 90
        0
102
RTVSPost2010PropOp41
 70
     1
102
RTVSPost2010Prop42
 90
       50
102
RTVSPost2010PropOp42
 70
     1
102
RTVSPost2010Prop43
 90
        3
102
RTVSPost2010PropOp43
 70
     1
102
RTVSPost2010Prop44ColorIndex
 90
        5
102
RTVSPost2010Prop44ColorRGB
 90
      255
102
RTVSPost2010PropOp44
 70
     1
102
RTVSPost2010Prop45
280
     0
102
RTVSPost2010PropOp45
 70
     1
102
RTVSPost2010Prop46
 90
       50
102
RTVSPost2010PropOp46
 70
     1
102
RTVSPost2010Prop47
 90
       50
102
RTVSPost2010PropOp47
 70
     1
102
RTVSPost2010Prop48
 90
       50
102
RTVSPost2010PropOp48
 70
     1
102
RTVSPost2010Prop49
280
     0
102
RTVSPost2010PropOp49
 70
     1
102
RTVSPost2010Prop50
 90
       50
102
RTVSPost2010PropOp50
 70
     1
102
RTVSPost2010Prop51ColorIndex
 90
      256
102
RTVSPost2010Prop51ColorRGB
 90
-16777216
102
RTVSPost2010PropOp51
 70
     0
102
RTVSPost2010Prop52
140
1.0
102
RTVSPost2010PropOp52
 70
     0
102
RTVSPost2010Prop53
 90
        2
102
RTVSPost2010PropOp53
 70
     1
102
RTVSPost2010Prop54
  1
strokes_ogs.tif
102
RTVSPost2010PropOp54
 70
     1
102
RTVSPost2010Prop55
280
     0
102
RTVSPost2010PropOp55
 70
     1
102
RTVSPost2010Prop56
140
1.0
102
RTVSPost2010PropOp56
 70
     1
102
RTVSPost2010Prop57
140
1.0
102
RTVSPost2010PropOp57
 70
     1
  0
ENDSEC
  0
EOF
