  0
SECTION
  2
HEADER
  9
$ACADVER
  1
AC1021
  9
$ACADMAINTVER
 70
    25
  9
$DWGCODEPAGE
  3
ANSI_1252
  9
$LASTSAVEDBY
  1
colombo_c
  9
$INSBASE
 10
0.0
 20
0.0
 30
0.0
  9
$EXTMIN
 10
-470.5386341249689
 20
-1569.714898083778
 30
0.0
  9
$EXTMAX
 10
455.0282983631981
 20
1500.491537244765
 30
0.0
  9
$LIMMIN
 10
0.0
 20
0.0
  9
$LIMMAX
 10
12.0
 20
9.0
  9
$ORTHOMODE
 70
     0
  9
$REGENMODE
 70
     1
  9
$FILLMODE
 70
     1
  9
$QTEXTMODE
 70
     0
  9
$MIRRTEXT
 70
     1
  9
$LTSCALE
 40
1.0
  9
$ATTMODE
 70
     1
  9
$TEXTSIZE
 40
0.2
  9
$TRACEWID
 40
0.05
  9
$TEXTSTYLE
  7
Standard
  9
$CLAYER
  8
Make2D
  9
$CELTYPE
  6
ByLayer
  9
$CECOLOR
 62
   256
  9
$CELTSCALE
 40
1.0
  9
$DISPSILH
 70
     0
  9
$DIMSCALE
 40
1.0
  9
$DIMASZ
 40
0.18
  9
$DIMEXO
 40
0.0625
  9
$DIMDLI
 40
0.38
  9
$DIMRND
 40
0.0
  9
$DIMDLE
 40
0.0
  9
$DIMEXE
 40
0.18
  9
$DIMTP
 40
0.0
  9
$DIMTM
 40
0.0
  9
$DIMTXT
 40
0.18
  9
$DIMCEN
 40
0.09
  9
$DIMTSZ
 40
0.0
  9
$DIMTOL
 70
     0
  9
$DIMLIM
 70
     0
  9
$DIMTIH
 70
     1
  9
$DIMTOH
 70
     1
  9
$DIMSE1
 70
     0
  9
$DIMSE2
 70
     0
  9
$DIMTAD
 70
     0
  9
$DIMZIN
 70
     0
  9
$DIMBLK
  1

  9
$DIMASO
 70
     1
  9
$DIMSHO
 70
     1
  9
$DIMPOST
  1

  9
$DIMAPOST
  1

  9
$DIMALT
 70
     0
  9
$DIMALTD
 70
     2
  9
$DIMALTF
 40
25.4
  9
$DIMLFAC
 40
1.0
  9
$DIMTOFL
 70
     0
  9
$DIMTVP
 40
0.0
  9
$DIMTIX
 70
     0
  9
$DIMSOXD
 70
     0
  9
$DIMSAH
 70
     0
  9
$DIMBLK1
  1

  9
$DIMBLK2
  1

  9
$DIMSTYLE
  2
STANDARD_ACAD
  9
$DIMCLRD
 70
     0
  9
$DIMCLRE
 70
     0
  9
$DIMCLRT
 70
     0
  9
$DIMTFAC
 40
1.0
  9
$DIMGAP
 40
0.09
  9
$DIMJUST
 70
     0
  9
$DIMSD1
 70
     0
  9
$DIMSD2
 70
     0
  9
$DIMTOLJ
 70
     1
  9
$DIMTZIN
 70
     0
  9
$DIMALTZ
 70
     0
  9
$DIMALTTZ
 70
     0
  9
$DIMUPT
 70
     0
  9
$DIMDEC
 70
     4
  9
$DIMTDEC
 70
     4
  9
$DIMALTU
 70
     2
  9
$DIMALTTD
 70
     2
  9
$DIMTXSTY
  7
Standard
  9
$DIMAUNIT
 70
     0
  9
$DIMADEC
 70
     0
  9
$DIMALTRND
 40
0.0
  9
$DIMAZIN
 70
     0
  9
$DIMDSEP
 70
    46
  9
$DIMATFIT
 70
     3
  9
$DIMFRAC
 70
     0
  9
$DIMLDRBLK
  1

  9
$DIMLUNIT
 70
     2
  9
$DIMLWD
 70
    -2
  9
$DIMLWE
 70
    -2
  9
$DIMTMOVE
 70
     2
  9
$DIMFXL
 40
1.0
  9
$DIMFXLON
 70
     0
  9
$DIMJOGANG
 40
0.7853981633974483
  9
$DIMTFILL
 70
     0
  9
$DIMTFILLCLR
 70
     0
  9
$DIMARCSYM
 70
     0
  9
$DIMLTYPE
  6

  9
$DIMLTEX1
  6

  9
$DIMLTEX2
  6

  9
$LUNITS
 70
     2
  9
$LUPREC
 70
     3
  9
$SKETCHINC
 40
0.1
  9
$FILLETRAD
 40
0.0
  9
$AUNITS
 70
     0
  9
$AUPREC
 70
     0
  9
$MENU
  1
.
  9
$ELEVATION
 40
0.0
  9
$PELEVATION
 40
0.0
  9
$THICKNESS
 40
0.0
  9
$LIMCHECK
 70
     0
  9
$CHAMFERA
 40
0.0
  9
$CHAMFERB
 40
0.0
  9
$CHAMFERC
 40
0.0
  9
$CHAMFERD
 40
0.0
  9
$SKPOLY
 70
     0
  9
$TDCREATE
 40
2460826.743114526
  9
$TDUCREATE
 40
2460826.659781192
  9
$TDUPDATE
 40
2460826.74312794
  9
$TDUUPDATE
 40
2460826.659794607
  9
$TDINDWG
 40
0.0000000116
  9
$TDUSRTIMER
 40
0.0000000116
  9
$USRTIMER
 70
     1
  9
$ANGBASE
 50
0.0
  9
$ANGDIR
 70
     0
  9
$PDMODE
 70
     0
  9
$PDSIZE
 40
0.0
  9
$PLINEWID
 40
0.0
  9
$SPLFRAME
 70
     0
  9
$SPLINETYPE
 70
     6
  9
$SPLINESEGS
 70
     8
  9
$HANDSEED
  5
191
  9
$SURFTAB1
 70
     6
  9
$SURFTAB2
 70
     6
  9
$SURFTYPE
 70
     6
  9
$SURFU
 70
     6
  9
$SURFV
 70
     6
  9
$UCSBASE
  2

  9
$UCSNAME
  2

  9
$UCSORG
 10
0.0
 20
0.0
 30
0.0
  9
$UCSXDIR
 10
1.0
 20
0.0
 30
0.0
  9
$UCSYDIR
 10
0.0
 20
1.0
 30
0.0
  9
$UCSORTHOREF
  2

  9
$UCSORTHOVIEW
 70
     0
  9
$UCSORGTOP
 10
0.0
 20
0.0
 30
0.0
  9
$UCSORGBOTTOM
 10
0.0
 20
0.0
 30
0.0
  9
$UCSORGLEFT
 10
0.0
 20
0.0
 30
0.0
  9
$UCSORGRIGHT
 10
0.0
 20
0.0
 30
0.0
  9
$UCSORGFRONT
 10
0.0
 20
0.0
 30
0.0
  9
$UCSORGBACK
 10
0.0
 20
0.0
 30
0.0
  9
$PUCSBASE
  2

  9
$PUCSNAME
  2

  9
$PUCSORG
 10
0.0
 20
0.0
 30
0.0
  9
$PUCSXDIR
 10
1.0
 20
0.0
 30
0.0
  9
$PUCSYDIR
 10
0.0
 20
1.0
 30
0.0
  9
$PUCSORTHOREF
  2

  9
$PUCSORTHOVIEW
 70
     0
  9
$PUCSORGTOP
 10
0.0
 20
0.0
 30
0.0
  9
$PUCSORGBOTTOM
 10
0.0
 20
0.0
 30
0.0
  9
$PUCSORGLEFT
 10
0.0
 20
0.0
 30
0.0
  9
$PUCSORGRIGHT
 10
0.0
 20
0.0
 30
0.0
  9
$PUCSORGFRONT
 10
0.0
 20
0.0
 30
0.0
  9
$PUCSORGBACK
 10
0.0
 20
0.0
 30
0.0
  9
$USERI1
 70
     0
  9
$USERI2
 70
     0
  9
$USERI3
 70
     0
  9
$USERI4
 70
     0
  9
$USERI5
 70
     0
  9
$USERR1
 40
0.0
  9
$USERR2
 40
0.0
  9
$USERR3
 40
0.0
  9
$USERR4
 40
0.0
  9
$USERR5
 40
0.0
  9
$WORLDVIEW
 70
     1
  9
$SHADEDGE
 70
     3
  9
$SHADEDIF
 70
    70
  9
$TILEMODE
 70
     1
  9
$MAXACTVP
 70
    64
  9
$PINSBASE
 10
0.0
 20
0.0
 30
0.0
  9
$PLIMCHECK
 70
     0
  9
$PEXTMIN
 10
1.000000000000000E+20
 20
1.000000000000000E+20
 30
1.000000000000000E+20
  9
$PEXTMAX
 10
-1.000000000000000E+20
 20
-1.000000000000000E+20
 30
-1.000000000000000E+20
  9
$PLIMMIN
 10
0.0
 20
0.0
  9
$PLIMMAX
 10
12.0
 20
9.0
  9
$UNITMODE
 70
     0
  9
$VISRETAIN
 70
     1
  9
$PLINEGEN
 70
     0
  9
$PSLTSCALE
 70
     1
  9
$TREEDEPTH
 70
  3020
  9
$CMLSTYLE
  2
Standard
  9
$CMLJUST
 70
     0
  9
$CMLSCALE
 40
1.0
  9
$PROXYGRAPHICS
 70
     1
  9
$MEASUREMENT
 70
     1
  9
$CELWEIGHT
370
    -1
  9
$ENDCAPS
280
     0
  9
$JOINSTYLE
280
     0
  9
$LWDISPLAY
290
     0
  9
$INSUNITS
 70
     4
  9
$HYPERLINKBASE
  1

  9
$STYLESHEET
  1

  9
$XEDIT
290
     1
  9
$CEPSNTYPE
380
     0
  9
$PSTYLEMODE
290
     1
  9
$FINGERPRINTGUID
  2
{b559984f-3b78-4bac-b48c-eaaef69d0c68}
  9
$VERSIONGUID
  2
{FAEB1C32-E019-11D5-929B-00C0DF256EC4}
  9
$EXTNAMES
290
     1
  9
$PSVPSCALE
 40
0.0
  9
$OLESTARTUP
290
     0
  9
$SORTENTS
280
   127
  9
$INDEXCTL
280
     0
  9
$HIDETEXT
280
     1
  9
$XCLIPFRAME
290
     0
  9
$HALOGAP
280
     0
  9
$OBSCOLOR
 70
   257
  9
$OBSLTYPE
280
     0
  9
$INTERSECTIONDISPLAY
280
     0
  9
$INTERSECTIONCOLOR
 70
   257
  9
$DIMASSOC
280
     2
  9
$PROJECTNAME
  1

  9
$CAMERADISPLAY
290
     0
  9
$LENSLENGTH
 40
50.0
  9
$CAMERAHEIGHT
 40
0.0
  9
$STEPSPERSEC
 40
2.0
  9
$STEPSIZE
 40
6.0
  9
$3DDWFPREC
 40
2.0
  9
$PSOLWIDTH
 40
0.25
  9
$PSOLHEIGHT
 40
4.0
  9
$LOFTANG1
 40
1.570796326794897
  9
$LOFTANG2
 40
1.570796326794897
  9
$LOFTMAG1
 40
0.0
  9
$LOFTMAG2
 40
0.0
  9
$LOFTPARAM
 70
     7
  9
$LOFTNORMALS
280
     1
  9
$LATITUDE
 40
37.795
  9
$LONGITUDE
 40
-122.394
  9
$NORTHDIRECTION
 40
0.0
  9
$TIMEZONE
 70
 -8000
  9
$LIGHTGLYPHDISPLAY
280
     1
  9
$TILEMODELIGHTSYNCH
280
     1
  9
$CMATERIAL
347
44
  9
$SOLIDHIST
280
     0
  9
$SHOWHIST
280
     1
  9
$DWFFRAME
280
     2
  9
$DGNFRAME
280
     2
  9
$REALWORLDSCALE
290
     1
  9
$INTERFERECOLOR
 62
   256
  9
$CSHADOW
280
     0
  9
$SHADOWPLANELOCATION
 40
0.0
  0
ENDSEC
  0
SECTION
  2
CLASSES
  0
CLASS
  1
ACDBDICTIONARYWDFLT
  2
AcDbDictionaryWithDefault
  3
ObjectDBX Classes
 90
        0
 91
        3
280
     0
281
     0
  0
CLASS
  1
VISUALSTYLE
  2
AcDbVisualStyle
  3
ObjectDBX Classes
 90
     4095
 91
        3
280
     0
281
     0
  0
CLASS
  1
MATERIAL
  2
AcDbMaterial
  3
ObjectDBX Classes
 90
     1153
 91
        3
280
     0
281
     0
  0
CLASS
  1
SCALE
  2
AcDbScale
  3
ObjectDBX Classes
 90
     1153
 91
        3
280
     0
281
     0
  0
CLASS
  1
TABLESTYLE
  2
AcDbTableStyle
  3
ObjectDBX Classes
 90
     4095
 91
        3
280
     0
281
     0
  0
CLASS
  1
MLEADERSTYLE
  2
AcDbMLeaderStyle
  3
ACDB_MLEADERSTYLE_CLASS
 90
     4095
 91
        3
280
     0
281
     0
  0
CLASS
  1
SUN
  2
AcDbSun
  3
SCENEOE
 90
     1153
 91
        3
280
     0
281
     0
  0
CLASS
  1
DICTIONARYVAR
  2
AcDbDictionaryVar
  3
ObjectDBX Classes
 90
        0
 91
        3
280
     0
281
     0
  0
CLASS
  1
CELLSTYLEMAP
  2
AcDbCellStyleMap
  3
ObjectDBX Classes
 90
     1152
 91
        3
280
     0
281
     0
  0
ENDSEC
  0
SECTION
  2
TABLES
  0
TABLE
  2
VPORT
  5
8
330
0
100
AcDbSymbolTable
 70
     1
  0
VPORT
  5
29
330
8
100
AcDbSymbolTableRecord
100
AcDbViewportTableRecord
  2
*Active
 70
     0
 10
0.0
 20
0.0
 11
1.0
 21
1.0
 12
10.42990654205607
 22
4.5
 13
0.0
 23
0.0
 14
0.5
 24
0.5
 15
0.5
 25
0.5
 16
0.0
 26
0.0
 36
1.0
 17
0.0
 27
0.0
 37
0.0
 40
9.0
 41
1.972972972850329
 42
50.0
 43
0.0
 44
0.0
 50
0.0
 51
0.0
 71
     0
 72
   100
 73
     1
 74
     3
 75
     0
 76
     0
 77
     0
 78
     0
281
     0
 65
     1
110
0.0
120
0.0
130
0.0
111
1.0
121
0.0
131
0.0
112
0.0
122
1.0
132
0.0
 79
     0
146
0.0
348
2F
 60
     3
 61
     5
292
     1
282
     1
141
0.0
142
0.0
 63
   250
361
5D
  0
ENDTAB
  0
TABLE
  2
LTYPE
  5
5
330
0
100
AcDbSymbolTable
 70
     1
  0
LTYPE
  5
14
330
5
100
AcDbSymbolTableRecord
100
AcDbLinetypeTableRecord
  2
ByBlock
 70
     0
  3

 72
    65
 73
     0
 40
0.0
  0
LTYPE
  5
15
330
5
100
AcDbSymbolTableRecord
100
AcDbLinetypeTableRecord
  2
ByLayer
 70
     0
  3

 72
    65
 73
     0
 40
0.0
  0
LTYPE
  5
16
330
5
100
AcDbSymbolTableRecord
100
AcDbLinetypeTableRecord
  2
Continuous
 70
     0
  3
Solid line
 72
    65
 73
     0
 40
0.0
  0
ENDTAB
  0
TABLE
  2
LAYER
  5
2
330
0
100
AcDbSymbolTable
 70
     3
  0
LAYER
  5
10
330
2
100
AcDbSymbolTableRecord
100
AcDbLayerTableRecord
  2
0
 70
     0
 62
     7
  6
Continuous
370
    -3
390
F
347
46
  0
LAYER
  5
5F
330
2
100
AcDbSymbolTableRecord
100
AcDbLayerTableRecord
  2
Make2D
 70
     0
 62
    18
420
        0
  6
Continuous
370
    -3
390
F
347
46
  0
LAYER
  5
78
330
2
100
AcDbSymbolTableRecord
100
AcDbLayerTableRecord
  2
Make2D$Visibile$Curve
 70
     0
 62
    18
420
        0
  6
Continuous
370
    -3
390
F
347
46
  0
ENDTAB
  0
TABLE
  2
STYLE
  5
3
330
0
100
AcDbSymbolTable
 70
     1
  0
STYLE
  5
11
330
3
100
AcDbSymbolTableRecord
100
AcDbTextStyleTableRecord
  2
Standard
 70
     0
 40
0.0
 41
1.0
 50
0.0
 71
     0
 42
0.2
  3
txt
  4

  0
ENDTAB
  0
TABLE
  2
VIEW
  5
6
330
0
100
AcDbSymbolTable
 70
     0
  0
ENDTAB
  0
TABLE
  2
UCS
  5
7
330
0
100
AcDbSymbolTable
 70
     0
  0
ENDTAB
  0
TABLE
  2
APPID
  5
9
330
0
100
AcDbSymbolTable
 70
     3
  0
APPID
  5
12
330
9
100
AcDbSymbolTableRecord
100
AcDbRegAppTableRecord
  2
ACAD
 70
     0
  0
APPID
  5
5E
330
9
100
AcDbSymbolTableRecord
100
AcDbRegAppTableRecord
  2
Rhino
 70
     0
  0
APPID
  5
189
330
9
100
AcDbSymbolTableRecord
100
AcDbRegAppTableRecord
  2
ACAD_MLEADERVER
 70
     0
  0
ENDTAB
  0
TABLE
  2
DIMSTYLE
  5
A
330
0
100
AcDbSymbolTable
 70
     1
100
AcDbDimStyleTable
  0
DIMSTYLE
105
27
330
A
100
AcDbSymbolTableRecord
100
AcDbDimStyleTableRecord
  2
STANDARD_ACAD
 70
     0
178
     0
340
11
  0
ENDTAB
  0
TABLE
  2
BLOCK_RECORD
  5
1
330
0
100
AcDbSymbolTable
 70
     1
  0
BLOCK_RECORD
  5
1F
330
1
100
AcDbSymbolTableRecord
100
AcDbBlockTableRecord
  2
*Model_Space
340
22
 70
     0
280
     1
281
     0
  0
BLOCK_RECORD
  5
1B
330
1
100
AcDbSymbolTableRecord
100
AcDbBlockTableRecord
  2
*Paper_Space
340
1E
 70
     0
280
     1
281
     0
  0
BLOCK_RECORD
  5
23
330
1
100
AcDbSymbolTableRecord
100
AcDbBlockTableRecord
  2
*Paper_Space0
340
26
 70
     0
280
     1
281
     0
  0
ENDTAB
  0
ENDSEC
  0
SECTION
  2
BLOCKS
  0
BLOCK
  5
20
330
1F
100
AcDbEntity
  8
0
100
AcDbBlockBegin
  2
*Model_Space
 70
     0
 10
0.0
 20
0.0
 30
0.0
  3
*Model_Space
  1

  0
ENDBLK
  5
21
330
1F
100
AcDbEntity
  8
0
100
AcDbBlockEnd
  0
BLOCK
  5
1C
330
1B
100
AcDbEntity
 67
     1
  8
0
100
AcDbBlockBegin
  2
*Paper_Space
 70
     0
 10
0.0
 20
0.0
 30
0.0
  3
*Paper_Space
  1

  0
ENDBLK
  5
1D
330
1B
100
AcDbEntity
 67
     1
  8
0
100
AcDbBlockEnd
  0
BLOCK
  5
24
330
23
100
AcDbEntity
  8
0
100
AcDbBlockBegin
  2
*Paper_Space0
 70
     0
 10
0.0
 20
0.0
 30
0.0
  3
*Paper_Space0
  1

  0
ENDBLK
  5
25
330
23
100
AcDbEntity
  8
0
100
AcDbBlockEnd
  0
ENDSEC
  0
SECTION
  2
ENTITIES
  0
POLYLINE
  5
60
330
1F
100
AcDbEntity
  8
Make2D
100
AcDb2dPolyline
 66
     1
 10
0.0
 20
0.0
 30
0.0
  0
VERTEX
  5
61
330
60
100
AcDbEntity
  8
Make2D
100
AcDbVertex
100
AcDb2dVertex
 10
-306.9757070838915
 20
-903.4202622961027
 30
0.0
  0
VERTEX
  5
62
330
60
100
AcDbEntity
  8
Make2D
100
AcDbVertex
100
AcDb2dVertex
 10
-306.9696250080974
 20
876.2788176316526
 30
0.0
  0
SEQEND
  5
63
330
60
100
AcDbEntity
  8
Make2D
  0
POLYLINE
  5
64
330
1F
100
AcDbEntity
  8
Make2D
100
AcDb2dPolyline
 66
     1
 10
0.0
 20
0.0
 30
0.0
  0
VERTEX
  5
65
330
64
100
AcDbEntity
  8
Make2D
100
AcDbVertex
100
AcDb2dVertex
 10
-378.886499832816
 20
-903.4284365830805
 30
0.0
  0
VERTEX
  5
66
330
64
100
AcDbEntity
  8
Make2D
100
AcDbVertex
100
AcDb2dVertex
 10
-378.886499832816
 20
876.2706432522281
 30
0.0
  0
SEQEND
  5
67
330
64
100
AcDbEntity
  8
Make2D
  0
POLYLINE
  5
68
330
1F
100
AcDbEntity
  8
Make2D
100
AcDb2dPolyline
 66
     1
 10
0.0
 20
0.0
 30
0.0
  0
VERTEX
  5
69
330
68
100
AcDbEntity
  8
Make2D
100
AcDbVertex
100
AcDb2dVertex
 10
273.5103495556323
 20
-903.4367320263639
 30
0.0
  0
VERTEX
  5
6A
330
68
100
AcDbEntity
  8
Make2D
100
AcDbVertex
100
AcDb2dVertex
 10
273.5103495556323
 20
-635.9360696499941
 30
0.0
  0
SEQEND
  5
6B
330
68
100
AcDbEntity
  8
Make2D
  0
POLYLINE
  5
6C
330
1F
100
AcDbEntity
  8
Make2D
100
AcDb2dPolyline
 66
     1
 10
0.0
 20
0.0
 30
0.0
  0
VERTEX
  5
6D
330
6C
100
AcDbEntity
  8
Make2D
100
AcDbVertex
100
AcDb2dVertex
 10
315.8952919300941
 20
-903.4447358044386
 30
0.0
  0
VERTEX
  5
6E
330
6C
100
AcDbEntity
  8
Make2D
100
AcDbVertex
100
AcDb2dVertex
 10
315.8952919300932
 20
876.2543546411052
 30
0.0
  0
SEQEND
  5
6F
330
6C
100
AcDbEntity
  8
Make2D
  0
POLYLINE
  5
70
330
1F
100
AcDbEntity
  8
Make2D
100
AcDb2dPolyline
 66
     1
 10
0.0
 20
0.0
 30
0.0
  0
VERTEX
  5
71
330
70
100
AcDbEntity
  8
Make2D
100
AcDbVertex
100
AcDb2dVertex
 10
314.1613047963019
 20
-903.4447358044386
 30
0.0
  0
VERTEX
  5
72
330
70
100
AcDbEntity
  8
Make2D
100
AcDbVertex
100
AcDb2dVertex
 10
314.1613047963028
 20
876.2543546411052
 30
0.0
  0
SEQEND
  5
73
330
70
100
AcDbEntity
  8
Make2D
  0
POLYLINE
  5
74
330
1F
100
AcDbEntity
  8
Make2D
100
AcDb2dPolyline
 66
     1
 10
0.0
 20
0.0
 30
0.0
  0
VERTEX
  5
75
330
74
100
AcDbEntity
  8
Make2D
100
AcDbVertex
100
AcDb2dVertex
 10
356.5462471707647
 20
-903.4367320263639
 30
0.0
  0
VERTEX
  5
76
330
74
100
AcDbEntity
  8
Make2D
100
AcDbVertex
100
AcDb2dVertex
 10
356.5462471707647
 20
-635.9360696499941
 30
0.0
  0
SEQEND
  5
77
330
74
100
AcDbEntity
  8
Make2D
  0
SPLINE
  5
79
330
1F
100
AcDbEntity
  8
Make2D$Visibile$Curve
 62
    18
420
        0
370
    -3
100
AcDbSpline
210
0.0
220
0.0
230
1.0
 70
    12
 71
     4
 72
    14
 73
     9
 74
     0
 42
0.0000000001
 43
0.0000000001
 40
240.4718163170658
 40
240.4718163170658
 40
240.4718163170658
 40
240.4718163170658
 40
240.4718163170658
 40
259.0093001821709
 40
259.0093001821709
 40
259.0093001821709
 40
259.0093001821709
 40
277.546784047276
 40
277.546784047276
 40
277.546784047276
 40
277.546784047276
 40
277.546784047276
 10
314.1613047963019
 20
-903.4447358044386
 30
0.0
 41
1.0
 10
311.8445318454414
 20
-903.4442795542965
 30
0.0
 41
0.8568108607842306
 10
309.5274838231534
 20
-903.4438233222024
 30
0.0
 41
0.7341248511578142
 10
307.2102982627256
 20
-903.4433670991333
 30
0.0
 41
0.629006145643622
 10
304.8931126974427
 20
-903.4429108760642
 30
0.0
 41
0.538939297087483
 10
302.57592713216
 20
-903.4424546529948
 30
0.0
 41
0.6290061456436221
 10
300.2587415620229
 20
-903.4419984299261
 30
0.0
 41
0.7341248511578143
 10
297.9415559846041
 20
-903.4415422068581
 30
0.0
 41
0.8568108607842309
 10
272.6443237795334
 20
-903.43656151746
 30
0.0
 41
1.0
  0
POLYLINE
  5
7A
330
1F
100
AcDbEntity
  8
Make2D$Visibile$Curve
 62
    18
420
        0
370
    -3
100
AcDb2dPolyline
 66
     1
 10
0.0
 20
0.0
 30
0.0
  0
VERTEX
  5
7B
330
7A
100
AcDbEntity
  8
Make2D$Visibile$Curve
 62
    18
420
        0
370
    -3
100
AcDbVertex
100
AcDb2dVertex
 10
292.0671007681535
 20
-903.4402072985768
 30
0.0
  0
VERTEX
  5
7C
330
7A
100
AcDbEntity
  8
Make2D$Visibile$Curve
 62
    18
420
        0
370
    -3
100
AcDbVertex
100
AcDb2dVertex
 10
292.0671007681535
 20
-635.9360696499944
 30
0.0
  0
SEQEND
  5
7D
330
7A
100
AcDbEntity
  8
Make2D$Visibile$Curve
 62
    18
420
        0
370
    -3
  0
POLYLINE
  5
7E
330
1F
100
AcDbEntity
  8
Make2D$Visibile$Curve
 62
    18
420
        0
370
    -3
100
AcDb2dPolyline
 66
     1
 10
0.0
 20
0.0
 30
0.0
  0
VERTEX
  5
7F
330
7E
100
AcDbEntity
  8
Make2D$Visibile$Curve
 62
    18
420
        0
370
    -3
100
AcDbVertex
100
AcDb2dVertex
 10
272.6443237795334
 20
-903.43656151746
 30
0.0
  0
VERTEX
  5
80
330
7E
100
AcDbEntity
  8
Make2D$Visibile$Curve
 62
    18
420
        0
370
    -3
100
AcDbVertex
100
AcDb2dVertex
 10
272.6443237795334
 20
-635.9360696499941
 30
0.0
  0
SEQEND
  5
81
330
7E
100
AcDbEntity
  8
Make2D$Visibile$Curve
 62
    18
420
        0
370
    -3
  0
POLYLINE
  5
82
330
1F
100
AcDbEntity
  8
Make2D$Visibile$Curve
 62
    18
420
        0
370
    -3
100
AcDb2dPolyline
 66
     1
 10
0.0
 20
0.0
 30
0.0
  0
VERTEX
  5
83
330
82
100
AcDbEntity
  8
Make2D$Visibile$Curve
 62
    18
420
        0
370
    -3
100
AcDbVertex
100
AcDb2dVertex
 10
272.6443237795334
 20
-629.9608876448922
 30
0.0
  0
VERTEX
  5
84
330
82
100
AcDbEntity
  8
Make2D$Visibile$Curve
 62
    18
420
        0
370
    -3
100
AcDbVertex
100
AcDb2dVertex
 10
272.6443237795334
 20
-629.5815736953274
 30
0.0
  0
SEQEND
  5
85
330
82
100
AcDbEntity
  8
Make2D$Visibile$Curve
 62
    18
420
        0
370
    -3
  0
SPLINE
  5
86
330
1F
100
AcDbEntity
  8
Make2D$Visibile$Curve
 62
    18
420
        0
370
    -3
100
AcDbSpline
210
0.0
220
0.0
230
1.0
 70
    28
 71
     4
 72
    10
 73
     5
 74
     0
 42
0.0000000001
 43
0.0000000001
 40
498.956699219288
 40
498.956699219288
 40
498.956699219288
 40
498.956699219288
 40
498.956699219288
 40
517.495019370789
 40
517.495019370789
 40
517.495019370789
 40
517.495019370789
 40
517.495019370789
 10
334.4322258663788
 20
-903.4410859837853
 30
0.0
 41
1.0
 10
332.1149357725743
 20
-903.4415422274368
 30
0.0
 41
0.8568108607842306
 10
329.7976456787692
 20
-903.4419984710879
 30
0.0
 41
0.7341248511578142
 10
327.4803555849644
 20
-903.4424547147393
 30
0.0
 41
0.629006145643622
 10
325.1630654911594
 20
-903.4429109583905
 30
0.0
 41
0.538939297087483
  0
SPLINE
  5
87
330
1F
100
AcDbEntity
  8
Make2D$Visibile$Curve
 62
    18
420
        0
370
    -3
100
AcDbSpline
210
0.0
220
0.0
230
1.0
 70
    28
 71
     4
 72
    10
 73
     5
 74
     0
 42
0.0000000001
 43
0.0000000001
 40
438.9083519900485
 40
438.9083519900485
 40
438.9083519900485
 40
438.9083519900485
 40
438.9083519900485
 40
457.446643673642
 40
457.446643673642
 40
457.446643673642
 40
457.446643673642
 40
457.446643673642
 10
357.4122725619943
 20
-903.4365615174604
 30
0.0
 41
1.0
 10
355.0949860564703
 20
-903.4370177604126
 30
0.0
 41
0.8568108607842306
 10
352.7776995509464
 20
-903.4374740033642
 30
0.0
 41
0.7341248511578142
 10
350.4604130454226
 20
-903.4379302463167
 30
0.0
 41
0.629006145643622
 10
348.1431265398984
 20
-903.4383864892687
 30
0.0
 41
0.538939297087483
  0
SPLINE
  5
88
330
1F
100
AcDbEntity
  8
Make2D$Visibile$Curve
 62
    18
420
        0
370
    -3
100
AcDbSpline
210
0.0
220
0.0
230
1.0
 70
    12
 71
     4
 72
    14
 73
     9
 74
     0
 42
0.0000000001
 43
0.0000000001
 40
240.4718163170658
 40
240.4718163170658
 40
240.4718163170658
 40
240.4718163170658
 40
240.4718163170658
 40
259.0093001821709
 40
259.0093001821709
 40
259.0093001821709
 40
259.0093001821709
 40
277.546784047276
 40
277.546784047276
 40
277.546784047276
 40
277.546784047276
 40
277.546784047276
 10
314.1613047963028
 20
876.2543546411052
 30
0.0
 41
1.0
 10
311.8445318454419
 20
876.2548108912468
 30
0.0
 41
0.8568108607842306
 10
309.5274838231543
 20
876.2552671233408
 30
0.0
 41
0.7341248511578142
 10
307.2102982627264
 20
876.2557233464098
 30
0.0
 41
0.629006145643622
 10
304.8931126974435
 20
876.2561795694794
 30
0.0
 41
0.538939297087483
 10
302.5759271321609
 20
876.2566357925485
 30
0.0
 41
0.6290061456436221
 10
300.2587415620238
 20
876.2570920156174
 30
0.0
 41
0.7341248511578143
 10
297.9415559846051
 20
876.2575482386856
 30
0.0
 41
0.8568108607842309
 10
295.6243703974769
 20
876.2580044617525
 30
0.0
 41
1.0
  0
SPLINE
  5
89
330
1F
100
AcDbEntity
  8
Make2D$Visibile$Curve
 62
    18
420
        0
370
    -3
100
AcDbSpline
210
0.0
220
0.0
230
1.0
 70
    12
 71
     4
 72
    14
 73
     9
 74
     0
 42
0.0000000001
 43
0.0000000001
 40
219.3354205142911
 40
219.3354205142911
 40
219.3354205142911
 40
219.3354205142911
 40
219.3354205142911
 40
237.8737406657922
 40
237.8737406657922
 40
237.8737406657922
 40
237.8737406657922
 40
240.4718163170658
 40
240.4718163170658
 40
240.4718163170658
 40
240.4718163170658
 40
240.4718163170658
 10
325.1630654911594
 20
-903.4429109583905
 30
0.0
 41
0.538939297087483
 10
322.8457753973543
 20
-903.4433672020417
 30
0.0
 41
0.538939297087483
 10
320.5284853035496
 20
-903.4438234456929
 30
0.0
 41
0.538939297087483
 10
318.2110576873033
 20
-903.4442796803166
 30
0.0
 41
0.538939297087483
 10
315.8933550261747
 20
-903.444735896885
 30
0.0
 41
0.538939297087483
 10
315.6046285716744
 20
-903.4447927297979
 30
0.0
 41
0.471754616071178
 10
315.0272528127825
 20
-903.4448211050894
 30
0.0
 41
0.4894165780802715
 10
314.4499284528604
 20
-903.4447926440973
 30
0.0
 41
0.6426081549032938
 10
314.1613047963019
 20
-903.4447358044386
 30
0.0
 41
1.0
  0
SPLINE
  5
8A
330
1F
100
AcDbEntity
  8
Make2D$Visibile$Curve
 62
    18
420
        0
370
    -3
100
AcDbSpline
210
0.0
220
0.0
230
1.0
 70
    28
 71
     4
 72
    10
 73
     5
 74
     0
 42
0.0000000001
 43
0.0000000001
 40
405.4307751829433
 40
405.4307751829433
 40
405.4307751829433
 40
405.4307751829433
 40
405.4307751829433
 40
405.4334317467756
 40
405.4334317467756
 40
405.4334317467756
 40
405.4334317467756
 40
405.4334317467756
 10
325.1630654911596
 20
-903.4363910085476
 30
0.0
 41
1.0
 10
325.1637296321178
 20
-903.4363910085474
 30
0.0
 41
1.0
 10
325.1643937730757
 20
-903.4363910085474
 30
0.0
 41
1.0
 10
325.1650579140337
 20
-903.4363910085472
 30
0.0
 41
1.0
 10
325.1657220549919
 20
-903.4363910085472
 30
0.0
 41
1.0
  0
SPLINE
  5
8B
330
1F
100
AcDbEntity
  8
Make2D$Visibile$Curve
 62
    18
420
        0
370
    -3
100
AcDbSpline
210
0.0
220
0.0
230
1.0
 70
    28
 71
     2
 72
     6
 73
     3
 74
     0
 42
0.0000000001
 43
0.0000000001
 40
5.977175703069599
 40
5.977175703069599
 40
5.977175703069599
 40
6.638036721450121
 40
6.638036721450121
 40
6.638036721450121
 10
334.4992131707635
 20
870.2808571860106
 30
0.0
 41
0.7298124081375746
 10
334.4992131707635
 20
869.9504266773275
 30
0.0
 41
0.7298124081375745
 10
334.4992131707635
 20
869.6199961686445
 30
0.0
 41
0.7298124081375745
  0
SPLINE
  5
8C
330
1F
100
AcDbEntity
  8
Make2D$Visibile$Curve
 62
    18
420
        0
370
    -3
100
AcDbSpline
210
0.0
220
0.0
230
1.0
 70
    28
 71
     2
 72
     6
 73
     3
 74
     0
 42
0.0000000001
 43
0.0000000001
 40
1505.853835155679
 40
1505.853835155679
 40
1505.853835155679
 40
1506.232385986891
 40
1506.232385986891
 40
1506.232385986891
 10
334.4992131707635
 20
-629.595799964275
 30
0.0
 41
0.7298124081375745
 10
334.4992131707635
 20
-629.7850753795908
 30
0.0
 41
0.7298124081375745
 10
334.4992131707635
 20
-629.9743507949065
 30
0.0
 41
0.7298124081375745
  0
SPLINE
  5
8D
330
1F
100
AcDbEntity
  8
Make2D$Visibile$Curve
 62
    18
420
        0
370
    -3
100
AcDbSpline
210
0.0
220
0.0
230
1.0
 70
    28
 71
     2
 72
     6
 73
     3
 74
     0
 42
0.0000000001
 43
0.0000000001
 40
1512.08750797406
 40
1512.08750797406
 40
1512.08750797406
 40
1779.699093177391
 40
1779.699093177391
 40
1779.699093177391
 10
334.4992131707635
 20
-635.8294727730873
 30
0.0
 41
0.7298124081375745
 10
334.4992131707635
 20
-769.63526516936
 30
0.0
 41
0.7298124081375745
 10
334.4992131707635
 20
-903.4410575656325
 30
0.0
 41
0.7298124081375745
  0
SPLINE
  5
8E
330
1F
100
AcDbEntity
  8
Make2D$Visibile$Curve
 62
    18
420
        0
370
    -3
100
AcDbSpline
210
0.0
220
0.0
230
1.0
 70
    28
 71
     2
 72
     6
 73
     3
 74
     0
 42
0.0000000001
 43
0.0000000001
 40
5.97127260453184
 40
5.97127260453184
 40
5.97127260453184
 40
6.642589605934918
 40
6.642589605934918
 40
6.642589605934918
 10
357.5462471707639
 20
870.2913131690169
 30
0.0
 41
0.6768255021811296
 10
357.5462471707638
 20
869.9556546688306
 30
0.0
 41
0.6768255021811296
 10
357.5462471707638
 20
869.6199961686443
 30
0.0
 41
0.6768255021811295
  0
SPLINE
  5
8F
330
1F
100
AcDbEntity
  8
Make2D$Visibile$Curve
 62
    18
420
        0
370
    -3
100
AcDbSpline
210
0.0
220
0.0
230
1.0
 70
    28
 71
     2
 72
     6
 73
     3
 74
     0
 42
0.0000000001
 43
0.0000000001
 40
1505.859773444952
 40
1505.859773444952
 40
1505.859773444952
 40
1506.230896718843
 40
1506.230896718843
 40
1506.230896718843
 10
357.5462471707638
 20
-629.5971853690611
 30
0.0
 41
0.6768255021811295
 10
357.5462471707638
 20
-629.7827470057215
 30
0.0
 41
0.6768255021811295
 10
357.5462471707638
 20
-629.9683086423819
 30
0.0
 41
0.6768255021811295
  0
SPLINE
  5
90
330
1F
100
AcDbEntity
  8
Make2D$Visibile$Curve
 62
    18
420
        0
370
    -3
100
AcDbSpline
210
0.0
220
0.0
230
1.0
 70
    28
 71
     2
 72
     6
 73
     3
 74
     0
 42
0.0000000001
 43
0.0000000001
 40
1512.214946439211
 40
1512.214946439211
 40
1512.214946439211
 40
1779.699093177391
 40
1779.699093177391
 40
1779.699093177391
 10
357.5462471707638
 20
-635.9523583535639
 30
0.0
 41
0.6768255021811295
 10
357.5462471707638
 20
-769.6944315173589
 30
0.0
 41
0.6768255021811295
 10
357.5462471707638
 20
-903.436504681154
 30
0.0
 41
0.6768255021811295
  0
SPLINE
  5
91
330
1F
100
AcDbEntity
  8
Make2D$Visibile$Curve
 62
    18
420
        0
370
    -3
100
AcDbSpline
210
0.0
220
0.0
230
1.0
 70
    12
 71
     4
 72
    10
 73
     5
 74
     0
 42
0.0000000001
 43
0.0000000001
 40
481.409053416173
 40
481.409053416173
 40
481.409053416173
 40
481.409053416173
 40
481.409053416173
 40
481.6804726166497
 40
481.6804726166497
 40
481.6804726166497
 40
481.6804726166497
 40
481.6804726166497
 10
334.7825925597746
 20
876.2591664804687
 30
0.0
 41
0.6323746343149835
 10
334.7121824471529
 20
876.2591686100326
 30
0.0
 41
0.6270600256623282
 10
334.6414595065536
 20
876.2591705738063
 30
0.0
 41
0.6218873939895214
 10
334.5704582265718
 20
876.2591723714507
 30
0.0
 41
0.6168536123046912
 10
334.4992131844508
 20
876.2591740027857
 30
0.0
 41
0.611955608640316
  0
SPLINE
  5
92
330
1F
100
AcDbEntity
  8
Make2D$Visibile$Curve
 62
    18
420
        0
370
    -3
100
AcDbSpline
210
0.0
220
0.0
230
1.0
 70
    28
 71
     4
 72
    10
 73
     5
 74
     0
 42
0.0000000001
 43
0.0000000001
 40
478.2981899991557
 40
478.2981899991557
 40
478.2981899991557
 40
478.2981899991557
 40
478.2981899991557
 40
478.3438853334413
 40
478.3438853334413
 40
478.3438853334413
 40
478.3438853334413
 40
478.3438853334413
 10
337.2336513528167
 20
876.2589871322934
 30
0.0
 41
1.0
 10
337.2263748276171
 20
876.258988133362
 30
0.0
 41
1.0
 10
337.2190983024173
 20
876.258989134431
 30
0.0
 41
1.0
 10
337.2118217772174
 20
876.2589901355
 30
0.0
 41
1.0
 10
337.2045452520179
 20
876.2589911365685
 30
0.0
 41
1.0
  0
SPLINE
  5
93
330
1F
100
AcDbEntity
  8
Make2D$Visibile$Curve
 62
    18
420
        0
370
    -3
100
AcDbSpline
210
0.0
220
0.0
230
1.0
 70
    28
 71
     2
 72
     6
 73
     3
 74
     0
 42
0.0000000001
 43
0.0000000001
 40
173.6392989355022
 40
173.6392989355022
 40
173.6392989355022
 40
173.8732748049872
 40
173.8732748049872
 40
173.8732748049872
 10
337.9894953837234
 20
-629.966134394941
 30
0.0
 41
1.0
 10
337.9894953837234
 20
-629.7818836683442
 30
0.0
 41
1.0
 10
337.9894953837234
 20
-629.5976329417474
 30
0.0
 41
1.0
  0
SPLINE
  5
94
330
1F
100
AcDbEntity
  8
Make2D$Visibile$Curve
 62
    18
420
        0
370
    -3
100
AcDbSpline
210
0.0
220
0.0
230
1.0
 70
    28
 71
     2
 72
     6
 73
     3
 74
     0
 42
0.0000000001
 43
0.0000000001
 40
1125.784713086723
 40
1125.784713086723
 40
1125.784713086723
 40
1126.209306946425
 40
1126.209306946425
 40
1126.209306946425
 10
337.9894953837238
 20
869.6199961686443
 30
0.0
 41
1.0
 10
337.9894953837238
 20
869.9543542686088
 30
0.0
 41
1.0
 10
337.9894953837238
 20
870.2887123685732
 30
0.0
 41
1.0
  0
SPLINE
  5
95
330
1F
100
AcDbEntity
  8
Make2D$Visibile$Curve
 62
    18
420
        0
370
    -3
100
AcDbSpline
210
0.0
220
0.0
230
1.0
 70
    28
 71
     2
 72
     6
 73
     3
 74
     0
 42
0.0000000001
 43
0.0000000001
 40
173.6284997280538
 40
173.6284997280538
 40
173.6284997280538
 40
173.8828238698843
 40
173.8828238698843
 40
173.8828238698843
 10
292.0671007681535
 20
-629.9831426601284
 30
0.0
 41
1.0
 10
292.0671007681535
 20
-629.7828681274318
 30
0.0
 41
1.0
 10
292.0671007681535
 20
-629.5825935947353
 30
0.0
 41
1.0
  0
SPLINE
  5
96
330
1F
100
AcDbEntity
  8
Make2D$Visibile$Curve
 62
    18
420
        0
370
    -3
100
AcDbSpline
210
0.0
220
0.0
230
1.0
 70
    28
 71
     2
 72
     6
 73
     3
 74
     0
 42
0.0000000001
 43
0.0000000001
 40
1125.786155000785
 40
1125.786155000785
 40
1125.786155000785
 40
1126.212822383921
 40
1126.212822383921
 40
1126.212822383921
 10
292.0671007681544
 20
869.6222671183396
 30
0.0
 41
1.0
 10
292.0671007681544
 20
869.9582580712995
 30
0.0
 41
1.0
 10
292.0671007681544
 20
870.2942490242594
 30
0.0
 41
1.0
  0
SPLINE
  5
97
330
1F
100
AcDbEntity
  8
Make2D$Visibile$Curve
 62
    18
420
        0
370
    -3
100
AcDbSpline
210
0.0
220
0.0
230
1.0
 70
    28
 71
     2
 72
     6
 73
     3
 74
     0
 42
0.0000000001
 43
0.0000000001
 40
173.6290495041678
 40
173.6290495041678
 40
173.6290495041678
 40
173.8730284976149
 40
173.8730284976149
 40
173.8730284976149
 10
295.624370397476
 20
-629.9831554727311
 30
0.0
 41
1.0
 10
295.624370397476
 20
-629.7910275113481
 30
0.0
 41
1.0
 10
295.624370397476
 20
-629.5988995499652
 30
0.0
 41
1.0
  0
SPLINE
  5
98
330
1F
100
AcDbEntity
  8
Make2D$Visibile$Curve
 62
    18
420
        0
370
    -3
100
AcDbSpline
210
0.0
220
0.0
230
1.0
 70
    28
 71
     2
 72
     6
 73
     3
 74
     0
 42
0.0000000001
 43
0.0000000001
 40
1125.78527099805
 40
1125.78527099805
 40
1125.78527099805
 40
1126.212279792186
 40
1126.212279792186
 40
1126.212279792186
 10
295.6243703974769
 20
869.6199961686448
 30
0.0
 41
1.0
 10
295.6243703974769
 20
869.9562559750764
 30
0.0
 41
1.0
 10
295.6243703974769
 20
870.292515781508
 30
0.0
 41
1.0
  0
SPLINE
  5
99
330
1F
100
AcDbEntity
  8
Make2D$Visibile$Curve
 62
    18
420
        0
370
    -3
100
AcDbSpline
210
0.0
220
0.0
230
1.0
 70
    28
 71
     2
 72
     6
 73
     3
 74
     0
 42
0.0000000001
 43
0.0000000001
 40
1129.898964067382
 40
1129.898964067382
 40
1129.898964067382
 40
1129.999999999981
 40
1129.999999999981
 40
1129.999999999981
 10
295.6243703974769
 20
876.0988774198499
 30
0.0
 41
1.0
 10
295.6243703974769
 20
876.1784409408012
 30
0.0
 41
1.0
 10
295.6243703974769
 20
876.2580044617525
 30
0.0
 41
1.0
  0
SPLINE
  5
9A
330
1F
100
AcDbEntity
  8
Make2D$Visibile$Curve
 62
    18
420
        0
370
    -3
100
AcDbSpline
210
0.0
220
0.0
230
1.0
 70
    28
 71
     2
 72
     6
 73
     3
 74
     0
 42
0.0000000001
 43
0.0000000001
 40
1125.78239823884
 40
1125.78239823884
 40
1125.78239823884
 40
1126.208964465936
 40
1126.208964465936
 40
1126.208964465936
 10
272.6443237795343
 20
869.6199961686443
 30
0.0
 41
1.0
 10
272.6443237795343
 20
869.9559074635022
 30
0.0
 41
1.0
 10
272.6443237795343
 20
870.29181875836
 30
0.0
 41
1.0
  0
SPLINE
  5
9B
330
1F
100
AcDbEntity
  8
Make2D$Visibile$Curve
 62
    18
420
        0
370
    -3
100
AcDbSpline
210
0.0
220
0.0
230
1.0
 70
    28
 71
     4
 72
    10
 73
     5
 74
     0
 42
0.0000000001
 43
0.0000000001
 40
498.956699219288
 40
498.956699219288
 40
498.956699219288
 40
498.956699219288
 40
498.956699219288
 40
517.495019370789
 40
517.495019370789
 40
517.495019370789
 40
517.495019370789
 40
517.495019370789
 10
334.4322258663797
 20
876.258004461758
 30
0.0
 41
1.0
 10
332.1149357725751
 20
876.2575482181066
 30
0.0
 41
0.8568108607842306
 10
329.7976456787698
 20
876.2570919744556
 30
0.0
 41
0.7341248511578142
 10
327.4803555849651
 20
876.2566357308037
 30
0.0
 41
0.629006145643622
 10
325.1630654911603
 20
876.2561794871528
 30
0.0
 41
0.538939297087483
  0
SPLINE
  5
9C
330
1F
100
AcDbEntity
  8
Make2D$Visibile$Curve
 62
    18
420
        0
370
    -3
100
AcDbSpline
210
0.0
220
0.0
230
1.0
 70
    12
 71
     4
 72
    14
 73
     9
 74
     0
 42
0.0000000001
 43
0.0000000001
 40
219.3354205142911
 40
219.3354205142911
 40
219.3354205142911
 40
219.3354205142911
 40
219.3354205142911
 40
237.8737406657922
 40
237.8737406657922
 40
237.8737406657922
 40
237.8737406657922
 40
240.4718163170658
 40
240.4718163170658
 40
240.4718163170658
 40
240.4718163170658
 40
240.4718163170658
 10
325.1630654911603
 20
876.2561794871528
 30
0.0
 41
0.538939297087483
 10
322.8457753973552
 20
876.2557232435016
 30
0.0
 41
0.538939297087483
 10
320.5284853035504
 20
876.25526699985
 30
0.0
 41
0.538939297087483
 10
318.2110576873043
 20
876.2548107652269
 30
0.0
 41
0.538939297087483
 10
315.8933550261756
 20
876.2543545486582
 30
0.0
 41
0.538939297087483
 10
315.6046285716754
 20
876.2542977157457
 30
0.0
 41
0.471754616071178
 10
315.0272528127834
 20
876.2542693404536
 30
0.0
 41
0.4894165780802715
 10
314.4499284528611
 20
876.2542978014457
 30
0.0
 41
0.6426081549032938
 10
314.1613047963028
 20
876.2543546411052
 30
0.0
 41
1.0
  0
SPLINE
  5
9D
330
1F
100
AcDbEntity
  8
Make2D$Visibile$Curve
 62
    18
420
        0
370
    -3
100
AcDbSpline
210
0.0
220
0.0
230
1.0
 70
    12
 71
     4
 72
    10
 73
     5
 74
     0
 42
0.0000000001
 43
0.0000000001
 40
294.8186461751884
 40
294.8186461751884
 40
294.8186461751884
 40
294.8186461751884
 40
294.8186461751884
 40
295.0836670500847
 40
295.0836670500847
 40
295.0836670500847
 40
295.0836670500847
 40
295.0836670500847
 10
295.5620046783153
 20
876.2591741083273
 30
0.0
 41
0.611640709184485
 10
295.4923972716002
 20
876.2591725226587
 30
0.0
 41
0.616416854676367
 10
295.4230202351711
 20
876.2591707782553
 30
0.0
 41
0.6213223578920666
 10
295.3539058085015
 20
876.2591688752746
 30
0.0
 41
0.6263600778044741
 10
295.2850861547291
 20
876.2591668140178
 30
0.0
 41
0.6315329234029445
  0
SPLINE
  5
9E
330
1F
100
AcDbEntity
  8
Make2D$Visibile$Curve
 62
    18
420
        0
370
    -3
100
AcDbSpline
210
0.0
220
0.0
230
1.0
 70
    12
 71
     4
 72
    10
 73
     5
 74
     0
 42
0.0000000001
 43
0.0000000001
 40
380.9688602877463
 40
380.9688602877463
 40
380.9688602877463
 40
380.9688602877463
 40
380.9688602877463
 40
381.1892613330477
 40
381.1892613330477
 40
381.1892613330477
 40
381.1892613330477
 40
381.1892613330477
 10
310.2782983711631
 20
876.2622935491449
 30
0.0
 41
0.7464786343210961
 10
310.2783015245498
 20
876.2622873602745
 30
0.0
 41
0.7404478607573257
 10
310.2791366693254
 20
876.2622811694202
 30
0.0
 41
0.734530002538157
 10
310.2808052257369
 20
876.2622749782123
 30
0.0
 41
0.7287232527036306
 10
310.2833081772777
 20
876.2622687882852
 30
0.0
 41
0.7230258282185285
  0
SPLINE
  5
9F
330
1F
100
AcDbEntity
  8
Make2D$Visibile$Curve
 62
    18
420
        0
370
    -3
100
AcDbSpline
210
0.0
220
0.0
230
1.0
 70
    12
 71
     4
 72
    10
 73
     5
 74
     0
 42
0.0000000001
 43
0.0000000001
 40
498.663318717017
 40
498.663318717017
 40
498.663318717017
 40
498.663318717017
 40
498.663318717017
 40
498.956699219288
 40
498.956699219288
 40
498.956699219288
 40
498.956699219288
 40
498.956699219288
 10
334.4992131707645
 20
876.2580328799108
 30
0.0
 41
0.7298124081372092
 10
334.4992131707646
 20
876.2580252459234
 30
0.0
 41
0.7887199899037014
 10
334.4872054611238
 20
876.25801764944
 30
0.0
 41
0.8537568914955296
 10
334.4633908814279
 20
876.2580105977356
 30
0.0
 41
0.9254820269240032
 10
334.4322258663797
 20
876.258004461758
 30
0.0
 41
1.0
  0
SPLINE
  5
A0
330
1F
100
AcDbEntity
  8
Make2D$Visibile$Curve
 62
    18
420
        0
370
    -3
100
AcDbSpline
210
0.0
220
0.0
230
1.0
 70
    28
 71
     2
 72
     6
 73
     3
 74
     0
 42
0.0000000001
 43
0.0000000001
 40
0.0
 40
0.0
 40
0.0
 40
0.0900745261876833
 40
0.0900745261876833
 40
0.0900745261876833
 10
334.4992131707635
 20
876.258032879905
 30
0.0
 41
0.7298124081375745
 10
334.4992131707635
 20
876.2129956168804
 30
0.0
 41
0.7298124081375745
 10
334.4992131707635
 20
876.1679583538559
 30
0.0
 41
0.7298124081375745
  0
SPLINE
  5
A1
330
1F
100
AcDbEntity
  8
Make2D$Visibile$Curve
 62
    18
420
        0
370
    -3
100
AcDbSpline
210
0.0
220
0.0
230
1.0
 70
    12
 71
     4
 72
    10
 73
     5
 74
     0
 42
0.0000000001
 43
0.0000000001
 40
438.3443755399818
 40
438.3443755399818
 40
438.3443755399818
 40
438.3443755399818
 40
438.3443755399818
 40
438.9083519900485
 40
438.9083519900485
 40
438.9083519900485
 40
438.9083519900485
 40
438.9083519900485
 10
357.5462471707636
 20
-903.4365046811542
 30
0.0
 41
0.6768255021811067
 10
357.5462471707638
 20
-903.4365199103966
 30
0.0
 41
0.7333806109644281
 10
357.5225979020568
 20
-903.4365347794785
 30
0.0
 41
0.804170450224013
 10
357.476938464768
 20
-903.4365487856026
 30
0.0
 41
0.8919736006209406
 10
357.4122725619943
 20
-903.4365615174604
 30
0.0
 41
1.0
  0
SPLINE
  5
A2
330
1F
100
AcDbEntity
  8
Make2D$Visibile$Curve
 62
    18
420
        0
370
    -3
100
AcDbSpline
210
0.0
220
0.0
230
1.0
 70
    12
 71
     4
 72
    10
 73
     5
 74
     0
 42
0.0000000001
 43
0.0000000001
 40
498.6633187170174
 40
498.6633187170174
 40
498.6633187170174
 40
498.6633187170174
 40
498.6633187170174
 40
498.956699219288
 40
498.956699219288
 40
498.956699219288
 40
498.956699219288
 40
498.956699219288
 10
334.4992131707636
 20
-903.4410575656326
 30
0.0
 41
0.7298124081375288
 10
334.4992131707636
 20
-903.44106519962
 30
0.0
 41
0.788719989903966
 10
334.4872054611229
 20
-903.4410727961032
 30
0.0
 41
0.8537568914957241
 10
334.4633908814269
 20
-903.4410798478078
 30
0.0
 41
0.9254820269241042
 10
334.4322258663788
 20
-903.4410859837853
 30
0.0
 41
1.0
  0
SPLINE
  5
A3
330
1F
100
AcDbEntity
  8
Make2D$Visibile$Curve
 62
    18
420
        0
370
    -3
100
AcDbSpline
210
0.0
220
0.0
230
1.0
 70
    12
 71
     4
 72
    10
 73
     5
 74
     0
 42
0.0000000001
 43
0.0000000001
 40
478.3438853334413
 40
478.3438853334413
 40
478.3438853334413
 40
478.3438853334413
 40
478.3438853334413
 40
481.6804726166497
 40
481.6804726166497
 40
481.6804726166497
 40
481.6804726166497
 40
481.6804726166497
 10
337.2045452520169
 20
-903.4400993089748
 30
0.0
 41
1.0
 10
336.6914963840249
 20
-903.4400295935145
 30
0.0
 41
0.8598542877210613
 10
336.0478884251427
 20
-903.4399733597857
 30
0.0
 41
0.7528979117521528
 10
335.3029637366548
 20
-903.4399348466553
 30
0.0
 41
0.6721673280432248
 10
334.4992131844499
 20
-903.4399164427577
 30
0.0
 41
0.611955608640316
  0
SPLINE
  5
A4
330
1F
100
AcDbEntity
  8
Make2D$Visibile$Curve
 62
    18
420
        0
370
    -3
100
AcDbSpline
210
0.0
220
0.0
230
1.0
 70
    28
 71
     4
 72
    10
 73
     5
 74
     0
 42
0.0000000001
 43
0.0000000001
 40
477.1115471747342
 40
477.1115471747342
 40
477.1115471747342
 40
477.1115471747342
 40
477.1115471747342
 40
478.3438853334413
 40
478.3438853334413
 40
478.3438853334413
 40
478.3438853334413
 40
478.3438853334413
 10
337.9894953837231
 20
-903.4402072985872
 30
0.0
 41
1.0
 10
337.7932578507966
 20
-903.440180301184
 30
0.0
 41
1.0
 10
337.5970203178699
 20
-903.440153303781
 30
0.0
 41
1.0
 10
337.4007827849434
 20
-903.4401263063778
 30
0.0
 41
1.0
 10
337.2045452520169
 20
-903.4400993089748
 30
0.0
 41
1.0
  0
SPLINE
  5
A5
330
1F
100
AcDbEntity
  8
Make2D$Visibile$Curve
 62
    18
420
        0
370
    -3
100
AcDbSpline
210
0.0
220
0.0
230
1.0
 70
    28
 71
     2
 72
     6
 73
     3
 74
     0
 42
0.0000000001
 43
0.0000000001
 40
0.0
 40
0.0
 40
0.0
 40
169.8384130949914
 40
169.8384130949914
 40
169.8384130949914
 10
337.9894953837231
 20
-903.4402072985872
 30
0.0
 41
1.0
 10
337.9894953837232
 20
-769.6962828260758
 30
0.0
 41
1.0
 10
337.9894953837234
 20
-635.9523583535645
 30
0.0
 41
1.0
  0
SPLINE
  5
A6
330
1F
100
AcDbEntity
  8
Make2D$Visibile$Curve
 62
    18
420
        0
370
    -3
100
AcDbSpline
210
0.0
220
0.0
230
1.0
 70
    12
 71
     4
 72
    18
 73
    13
 74
     0
 42
0.0000000001
 43
0.0000000001
 40
457.446643673642
 40
457.446643673642
 40
457.446643673642
 40
457.446643673642
 40
457.446643673642
 40
475.9849353572356
 40
475.9849353572356
 40
475.9849353572356
 40
475.9849353572356
 40
476.5482412659849
 40
476.5482412659849
 40
476.5482412659849
 40
476.5482412659849
 40
477.1115471747342
 40
477.1115471747342
 40
477.1115471747342
 40
477.1115471747342
 40
477.1115471747342
 10
348.1431265398984
 20
-903.4383864892687
 30
0.0
 41
0.538939297087483
 10
345.8258400343742
 20
-903.4388427322208
 30
0.0
 41
0.538939297087483
 10
343.5085535288505
 20
-903.439298975173
 30
0.0
 41
0.538939297087483
 10
341.1912242859797
 20
-903.4397552153199
 30
0.0
 41
0.538939297087483
 10
338.8738095684162
 20
-903.440211449857
 30
0.0
 41
0.538939297087483
 10
338.809163371222
 20
-903.4402241768961
 30
0.0
 41
0.538939297087483
 10
338.697104733502
 20
-903.4402359125942
 30
0.0
 41
0.5314786368938083
 10
338.549850177229
 20
-903.4402403618014
 30
0.0
 41
0.538939297087483
 10
338.4206754440208
 20
-903.44023975389
 30
0.0
 41
0.538939297087483
 10
338.2915007108124
 20
-903.4402391459784
 30
0.0
 41
0.6290061456436221
 10
338.1479854239919
 20
-903.4402333283739
 30
0.0
 41
0.7239621926101459
 10
338.0448441445747
 20
-903.4402205799202
 30
0.0
 41
0.8568108607842309
 10
337.9894953837231
 20
-903.4402072985872
 30
0.0
 41
1.0
  0
SPLINE
  5
A7
330
1F
100
AcDbEntity
  8
Make2D$Visibile$Curve
 62
    18
420
        0
370
    -3
100
AcDbSpline
210
0.0
220
0.0
230
1.0
 70
    12
 71
     4
 72
    10
 73
     5
 74
     0
 42
0.0000000001
 43
0.0000000001
 40
277.546784047276
 40
277.546784047276
 40
277.546784047276
 40
277.546784047276
 40
277.546784047276
 40
277.8402776093491
 40
277.8402776093491
 40
277.8402776093491
 40
277.8402776093491
 40
277.8402776093491
 10
295.6243703974769
 20
876.2580044617525
 30
0.0
 41
1.0
 10
295.5931924091125
 20
876.2580106002847
 30
0.0
 41
0.9254533502328958
 10
295.5693708882165
 20
876.2580176553249
 30
0.0
 41
0.8537016826695645
 10
295.5573680153394
 20
876.2580252554227
 30
0.0
 41
0.7886449008320882
 10
295.5573830041845
 20
876.25803289262
 30
0.0
 41
0.7297217287262263
  0
SPLINE
  5
A8
330
1F
100
AcDbEntity
  8
Make2D$Visibile$Curve
 62
    18
420
        0
370
    -3
100
AcDbSpline
210
0.0
220
0.0
230
1.0
 70
    12
 71
     4
 72
    10
 73
     5
 74
     0
 42
0.0000000001
 43
0.0000000001
 40
277.546784047276
 40
277.546784047276
 40
277.546784047276
 40
277.546784047276
 40
277.546784047276
 40
277.8402776093463
 40
277.8402776093463
 40
277.8402776093463
 40
277.8402776093463
 40
277.8402776093463
 10
295.624370397476
 20
-903.4410859837903
 30
0.0
 41
1.0
 10
295.5931924091119
 20
-903.4410798452583
 30
0.0
 41
0.9254533502336177
 10
295.5693708882159
 20
-903.4410727902184
 30
0.0
 41
0.8537016826709541
 10
295.557368015339
 20
-903.441065190121
 30
0.0
 41
0.7886449008339782
 10
295.5573830041836
 20
-903.4410575529229
 30
0.0
 41
0.7297217287285087
  0
SPLINE
  5
A9
330
1F
100
AcDbEntity
  8
Make2D$Visibile$Curve
 62
    18
420
        0
370
    -3
100
AcDbSpline
210
0.0
220
0.0
230
1.0
 70
    28
 71
     2
 72
     6
 73
     3
 74
     0
 42
0.0000000001
 43
0.0000000001
 40
0.0
 40
0.0
 40
0.0
 40
169.9424177273155
 40
169.9424177273155
 40
169.9424177273155
 10
295.624370397476
 20
-903.4410859837903
 30
0.0
 41
1.0
 10
295.624370397476
 20
-769.6152602061687
 30
0.0
 41
1.0
 10
295.624370397476
 20
-635.7894344285471
 30
0.0
 41
1.0
  0
SPLINE
  5
AA
330
1F
100
AcDbEntity
  8
Make2D$Visibile$Curve
 62
    18
420
        0
370
    -3
100
AcDbSpline
210
0.0
220
0.0
230
1.0
 70
     8
 71
     3
 72
     8
 73
     4
 74
     0
 42
0.0000000001
 43
0.0000000001
 40
0.0000000000006651
 40
0.0000000000006651
 40
0.0000000000006651
 40
0.0000000000006651
 40
0.8760132548474868
 40
0.8760132548474868
 40
0.8760132548474868
 40
0.8760132548474868
 10
266.0932250682722
 20
-635.9360696499941
 30
0.0
 10
265.8287054984239
 20
-635.9360696499937
 30
0.0
 10
265.5932250682731
 20
-635.7122120249094
 30
0.0
 10
265.5933019607553
 20
-635.4272579596222
 30
0.0
  0
SPLINE
  5
AB
330
1F
100
AcDbEntity
  8
Make2D$Visibile$Curve
 62
    18
420
        0
370
    -3
100
AcDbSpline
210
0.0
220
0.0
230
1.0
 70
     8
 71
     3
 72
    10
 73
     6
 74
     0
 42
0.0000000001
 43
0.0000000001
 40
0.0
 40
0.0
 40
0.0
 40
0.0
 40
0.4541601198163703
 40
0.4541601198163703
 40
0.7812821286618596
 40
0.7812821286618596
 40
0.7812821286618596
 40
0.7812821286618596
 10
295.7850125658039
 20
-635.4285197094291
 30
0.0
 10
295.7850784544394
 20
-635.5684620991606
 30
0.0
 10
295.7325531034012
 20
-635.695701782219
 30
0.0
 10
295.5502434973841
 20
-635.8262346929391
 30
0.0
 10
295.3734668020877
 20
-635.8994579976425
 30
0.0
 10
295.2850784544394
 20
-635.9360696499941
 30
0.0
  0
SPLINE
  5
AC
330
1F
100
AcDbEntity
  8
Make2D$Visibile$Curve
 62
    18
420
        0
370
    -3
100
AcDbSpline
210
0.0
220
0.0
230
1.0
 70
     8
 71
     3
 72
    10
 73
     6
 74
     0
 42
0.0000000001
 43
0.0000000001
 40
0.0000000000002101
 40
0.0000000000002101
 40
0.0000000000002101
 40
0.0000000000002101
 40
0.327122008845981
 40
0.327122008845981
 40
0.7812821286619132
 40
0.7812821286619132
 40
0.7812821286619132
 40
0.7812821286619132
 10
334.7713691219915
 20
-635.9360696499941
 30
0.0
 10
334.6829807743432
 20
-635.8994579976425
 30
0.0
 10
334.5062040790467
 20
-635.8262346929391
 30
0.0
 10
334.3238944730301
 20
-635.6957017822192
 30
0.0
 10
334.2713691219915
 20
-635.5684620991603
 30
0.0
 10
334.2714374561787
 20
-635.4282389719556
 30
0.0
  0
SPLINE
  5
AD
330
1F
100
AcDbEntity
  8
Make2D$Visibile$Curve
 62
    18
420
        0
370
    -3
100
AcDbSpline
210
0.0
220
0.0
230
1.0
 70
     8
 71
     3
 72
    10
 73
     6
 74
     0
 42
0.0000000001
 43
0.0000000001
 40
0.0
 40
0.0
 40
0.0
 40
0.0
 40
0.4541601198163169
 40
0.4541601198163169
 40
0.7812821286615141
 40
0.7812821286615141
 40
0.7812821286615141
 40
0.7812821286615141
 10
364.4631503937309
 20
-635.4278033384104
 30
0.0
 10
364.4632225081582
 20
-635.5684620991606
 30
0.0
 10
364.4106971571198
 20
-635.695701782219
 30
0.0
 10
364.228387551103
 20
-635.8262346929391
 30
0.0
 10
364.0516108558068
 20
-635.8994579976422
 30
0.0
 10
363.9632225081584
 20
-635.9360696499939
 30
0.0
  0
SPLINE
  5
AE
330
1F
100
AcDbEntity
  8
Make2D$Visibile$Curve
 62
    18
420
        0
370
    -3
100
AcDbSpline
210
0.0
220
0.0
230
1.0
 70
     8
 71
     3
 72
    10
 73
     6
 74
     0
 42
0.0000000001
 43
0.0000000001
 40
0.0000000000001015
 40
0.0000000000001015
 40
0.0000000000001015
 40
0.0000000000001015
 40
0.1512849614594145
 40
0.1512849614594145
 40
0.7890807732954219
 40
0.7890807732954219
 40
0.7890807732954219
 40
0.7890807732954219
 10
-335.7681556204388
 20
876.2780846898086
 30
0.0
 10
-335.7681424808575
 20
876.2780846898086
 30
0.0
 10
-335.4368803221264
 20
876.1539161726828
 30
0.0
 10
-335.3206809714773
 20
876.0377168220339
 30
0.0
 10
-335.2681556204388
 20
875.9104771389748
 30
0.0
 10
-335.2629756852604
 20
875.7780846739181
 30
0.0
  0
SPLINE
  5
AF
330
1F
100
AcDbEntity
  8
Make2D$Visibile$Curve
 62
    18
420
        0
370
    -3
100
AcDbSpline
210
0.0
220
0.0
230
1.0
 70
    12
 71
     2
 72
    12
 73
     9
 74
     0
 42
0.0000000001
 43
0.0000000001
 40
-96.4592917842251
 40
-96.4592917842251
 40
-96.4592917842251
 40
-91.3186354198981
 40
-91.3186354198981
 40
-74.56510203394144
 40
-74.56510203394144
 40
-57.81156864798478
 40
-57.81156864798478
 40
-48.97406744998924
 40
-48.97406744998924
 40
-48.97406744998924
 10
-335.2629924631102
 20
870.3088981114391
 30
0.0
 41
0.9361721070257643
 10
-335.2630209011016
 20
870.3088836215584
 30
0.0
 41
0.9539587505358313
 10
-336.1058998220735
 20
870.3088320233956
 30
0.0
 41
1.0
 10
-339.189010149244
 20
870.3086432859316
 30
0.0
 41
0.8499503652137049
 10
-348.4732652993054
 20
870.3082189957977
 30
0.0
 41
1.0
 10
-357.757520449367
 20
870.3077947056647
 30
0.0
 41
0.8499503652137049
 10
-362.9342637075044
 20
870.3076059681098
 30
0.0
 41
1.0
 10
-365.4547537088062
 20
870.3075140742116
 30
0.0
 41
0.9208487071572482
 10
-365.454703062107
 20
870.3075398799932
 30
0.0
 41
0.9252021448338574
  0
SPLINE
  5
B0
330
1F
100
AcDbEntity
  8
Make2D$Visibile$Curve
 62
    18
420
        0
370
    -3
100
AcDbSpline
210
0.0
220
0.0
230
1.0
 70
    12
 71
     2
 72
     8
 73
     5
 74
     0
 42
0.0000000001
 43
0.0000000001
 40
0.0
 40
0.0
 40
0.0
 40
0.3970624048289396
 40
0.3970624048289396
 40
0.7941248096578791
 40
0.7941248096578791
 40
0.7941248096578791
 10
-305.4696526539524
 20
875.778656663682
 30
0.0
 41
1.0
 10
-305.4273301106439
 20
875.9798619824388
 30
0.0
 41
0.9222009716703332
 10
-305.2858178007539
 20
876.129086705495
 30
0.0
 41
1.0
 10
-305.1443054908638
 20
876.278311428551
 30
0.0
 41
0.9222009716703332
 10
-304.9426294806767
 20
876.2780846898086
 30
0.0
 41
1.0
  0
POLYLINE
  5
B1
330
1F
100
AcDbEntity
  8
Make2D$Visibile$Curve
 62
    18
420
        0
370
    -3
100
AcDb2dPolyline
 66
     1
 10
0.0
 20
0.0
 30
0.0
  0
VERTEX
  5
B2
330
B1
100
AcDbEntity
  8
Make2D$Visibile$Curve
 62
    18
420
        0
370
    -3
100
AcDbVertex
100
AcDb2dVertex
 10
-335.2629741590257
 20
876.2756014530142
 30
0.0
  0
VERTEX
  5
B3
330
B1
100
AcDbEntity
  8
Make2D$Visibile$Curve
 62
    18
420
        0
370
    -3
100
AcDbVertex
100
AcDb2dVertex
 10
-335.2675936875752
 20
-629.5826326080015
 30
0.0
  0
SEQEND
  5
B4
330
B1
100
AcDbEntity
  8
Make2D$Visibile$Curve
 62
    18
420
        0
370
    -3
  0
SPLINE
  5
B5
330
1F
100
AcDbEntity
  8
Make2D$Visibile$Curve
 62
    18
420
        0
370
    -3
100
AcDbSpline
210
0.0
220
0.0
230
1.0
 70
    24
 71
     3
 72
    14
 73
    10
 74
     0
 42
0.0000000001
 43
0.0000000001
 40
22.23258936582751
 40
22.23258936582751
 40
22.23258936582751
 40
22.23258936582751
 40
39.85975638975093
 40
39.85975638975093
 40
39.85975638975093
 40
57.48692341191948
 40
57.48692341191948
 40
57.48692341191948
 40
67.80991694886544
 40
67.80991694886544
 40
67.80991694886544
 40
67.80991694886544
 10
-305.4699929888826
 20
869.6362848722147
 30
0.0
 10
-303.8965598955645
 20
869.6362848722147
 30
0.0
 10
-299.3572155183185
 20
869.6362848722147
 30
0.0
 10
-293.7256817547865
 20
869.6362848722147
 30
0.0
 10
-288.0941479917948
 20
869.6362848722147
 30
0.0
 10
-282.3422277973052
 20
869.6362848722147
 30
0.0
 10
-278.8784428494132
 20
869.6362848722147
 30
0.0
 10
-276.8499473126085
 20
869.6362848722147
 30
0.0
 10
-275.8111932762308
 20
869.6362848722147
 30
0.0
 10
-275.8107853321906
 20
869.6362848722147
 30
0.0
  0
SPLINE
  5
B6
330
1F
100
AcDbEntity
  8
Make2D$Visibile$Curve
 62
    18
420
        0
370
    -3
100
AcDbSpline
210
0.0
220
0.0
230
1.0
 70
    24
 71
     3
 72
    17
 73
    13
 74
     0
 42
0.0000000001
 43
0.0000000001
 40
26.16833061968973
 40
26.16833061968973
 40
26.16833061968973
 40
26.16833061968973
 40
39.85975638975093
 40
39.85975638975093
 40
39.85975638975093
 40
57.48692341191948
 40
57.48692341191948
 40
57.48692341191948
 40
75.11409042700397
 40
75.11409042700397
 40
75.11409042700397
 40
76.09034926117832
 40
76.09034926117832
 40
76.09034926117832
 40
76.09034926117832
 10
295.7994757455069
 20
869.6362848722147
 30
0.0
 10
295.7993646377604
 20
869.6362848722147
 30
0.0
 10
293.9318465179049
 20
869.6362848722147
 30
0.0
 10
290.5594113306618
 20
869.6362848722147
 30
0.0
 10
286.2175349391482
 20
869.6362848722147
 30
0.0
 10
280.1304310784778
 20
869.6362848722147
 30
0.0
 10
274.8469740515234
 20
869.6362848722147
 30
0.0
 10
269.5635170266153
 20
869.6362848722147
 30
0.0
 10
265.9954441073507
 20
869.6362848722147
 30
0.0
 10
265.636826952581
 20
869.6362848722147
 30
0.0
 10
265.6169653851989
 20
869.6362848722147
 30
0.0
 10
265.6071382002069
 20
869.6362848722147
 30
0.0
 10
265.6071382002069
 20
869.6362848722147
 30
0.0
  0
SPLINE
  5
B7
330
1F
100
AcDbEntity
  8
Make2D$Visibile$Curve
 62
    18
420
        0
370
    -3
100
AcDbSpline
210
0.0
220
0.0
230
1.0
 70
    12
 71
     2
 72
    10
 73
     7
 74
     0
 42
0.0000000001
 43
0.0000000001
 40
5.123803443213422
 40
5.123803443213422
 40
5.123803443213422
 40
18.01310110269667
 40
18.01310110269667
 40
34.76663448865333
 40
34.76663448865333
 40
51.52016787461
 40
51.52016787461
 40
51.52016787461
 10
295.7859378603911
 20
-629.5825680011118
 30
0.0
 41
0.9467468904521408
 10
295.785937858975
 20
-629.5827309538129
 30
0.0
 41
0.8845596112830456
 10
290.5463813665606
 20
-629.5825440995502
 30
0.0
 41
1.0
 10
283.458682942617
 20
-629.5822913364276
 30
0.0
 41
0.8499503652137049
 10
274.8339440945576
 20
-629.5817231137917
 30
0.0
 41
1.0
 10
266.2092052464984
 20
-629.5811548911556
 30
0.0
 41
0.8499503652137049
 10
265.6237970027505
 20
-629.5809021279115
 30
0.0
 41
1.0
  0
SPLINE
  5
B8
330
1F
100
AcDbEntity
  8
Make2D$Visibile$Curve
 62
    18
420
        0
370
    -3
100
AcDbSpline
210
0.0
220
0.0
230
1.0
 70
    12
 71
     2
 72
     6
 73
     3
 74
     0
 42
0.0000000001
 43
0.0000000001
 40
52.50700639230477
 40
52.50700639230477
 40
52.50700639230477
 40
53.54476846219909
 40
53.54476846219909
 40
53.54476846219909
 10
265.5942272553426
 20
-629.5808782262521
 30
0.0
 41
0.9833643849344571
 10
265.5942272554458
 20
-629.5808663253695
 30
0.0
 41
0.9751648330538805
 10
265.6280044279551
 20
-629.5808563415618
 30
0.0
 41
0.9681167380927705
  0
SPLINE
  5
B9
330
1F
100
AcDbEntity
  8
Make2D$Visibile$Curve
 62
    18
420
        0
370
    -3
100
AcDbSpline
210
0.0
220
0.0
230
1.0
 70
    28
 71
     2
 72
     6
 73
     3
 74
     0
 42
0.0000000001
 43
0.0000000001
 40
375.7049184639757
 40
375.7049184639757
 40
375.7049184639757
 40
1874.923771457588
 40
1874.923771457588
 40
1874.923771457588
 10
295.7989678246998
 20
869.6362848766282
 30
0.0
 41
0.9467468904521408
 10
295.7924528425455
 20
120.0268584377582
 30
0.0
 41
0.9467468904521408
 10
295.7859378603911
 20
-629.5825680011118
 30
0.0
 41
0.9467468904521408
  0
SPLINE
  5
BA
330
1F
100
AcDbEntity
  8
Make2D$Visibile$Curve
 62
    18
420
        0
370
    -3
100
AcDbSpline
210
0.0
220
0.0
230
1.0
 70
    28
 71
     2
 72
     6
 73
     3
 74
     0
 42
0.0000000001
 43
0.0000000001
 40
0.0
 40
0.0
 40
0.0
 40
1499.217163213308
 40
1499.217163213308
 40
1499.217163213308
 10
265.5942272553424
 20
-629.5808782262521
 30
0.0
 41
0.9833643849344572
 10
265.6007422301539
 20
120.0277033224658
 30
0.0
 41
0.9833643849344572
 10
265.6072572049653
 20
869.6362848711839
 30
0.0
 41
0.9833643849344572
  0
SPLINE
  5
BB
330
1F
100
AcDbEntity
  8
Make2D$Visibile$Curve
 62
    18
420
        0
370
    -3
100
AcDbSpline
210
0.0
220
0.0
230
1.0
 70
    15
 71
     2
 72
    12
 73
     9
 74
     0
 42
0.0000000001
 43
0.0000000001
 40
0.0
 40
0.0
 40
0.0
 40
219.9114857512855
 40
219.9114857512855
 40
439.822971502571
 40
439.822971502571
 40
659.7344572538566
 40
659.7344572538566
 40
879.645943005142
 40
879.645943005142
 40
879.645943005142
 10
454.9719353153307
 20
1360.491537244765
 30
0.0
 41
1.0
 10
454.9719353153307
 20
1500.491537244766
 30
0.0
 41
0.7071067811865476
 10
314.9719353153307
 20
1500.491537244765
 30
0.0
 41
1.0
 10
174.9719353153308
 20
1500.491537244766
 30
0.0
 41
0.7071067811865476
 10
174.9719353153307
 20
1360.491537244765
 30
0.0
 41
1.0
 10
174.9719353153308
 20
1220.491537244765
 30
0.0
 41
0.7071067811865476
 10
314.9719353153307
 20
1220.491537244765
 30
0.0
 41
1.0
 10
454.9719353153307
 20
1220.491537244765
 30
0.0
 41
0.7071067811865476
 10
454.9719353153307
 20
1360.491537244765
 30
0.0
 41
1.0
  0
SPLINE
  5
BC
330
1F
100
AcDbEntity
  8
Make2D$Visibile$Curve
 62
    18
420
        0
370
    -3
100
AcDbSpline
210
0.0
220
0.0
230
1.0
 70
    15
 71
     2
 72
    12
 73
     9
 74
     0
 42
0.0000000001
 43
0.0000000001
 40
0.0
 40
0.0
 40
0.0
 40
196.3495408493621
 40
196.3495408493621
 40
392.6990816987241
 40
392.6990816987241
 40
589.0486225480862
 40
589.0486225480862
 40
785.3981633974482
 40
785.3981633974482
 40
785.3981633974482
 10
189.9719353153312
 20
1360.491537244765
 30
0.0
 41
1.0
 10
189.9719353153311
 20
1485.491537244766
 30
0.0
 41
0.7071067811865476
 10
314.9719353153312
 20
1485.491537244765
 30
0.0
 41
1.0
 10
439.9719353153311
 20
1485.491537244766
 30
0.0
 41
0.7071067811865476
 10
439.9719353153312
 20
1360.491537244765
 30
0.0
 41
1.0
 10
439.9719353153311
 20
1235.491537244765
 30
0.0
 41
0.7071067811865476
 10
314.9719353153312
 20
1235.491537244765
 30
0.0
 41
1.0
 10
189.9719353153311
 20
1235.491537244765
 30
0.0
 41
0.7071067811865476
 10
189.9719353153312
 20
1360.491537244765
 30
0.0
 41
1.0
  0
SPLINE
  5
BD
330
1F
100
AcDbEntity
  8
Make2D$Visibile$Curve
 62
    18
420
        0
370
    -3
100
AcDbSpline
210
0.0
220
0.0
230
1.0
 70
    12
 71
     2
 72
     6
 73
     3
 74
     0
 42
0.0000000001
 43
0.0000000001
 40
-108.9210254154666
 40
-108.9210254154666
 40
-108.9210254154666
 40
-108.0721688058548
 40
-108.0721688058548
 40
-108.0721688058548
 10
318.6229457159727
 20
-1405.230181469129
 30
0.0
 41
1.0
 10
318.6229502454219
 20
-1404.73410969382
 30
0.0
 41
0.7967945443744971
 10
319.1006323590364
 20
-1404.600292637295
 30
0.0
 41
1.0
  0
SPLINE
  5
BE
330
1F
100
AcDbEntity
  8
Make2D$Visibile$Curve
 62
    18
420
        0
370
    -3
100
AcDbSpline
210
0.0
220
0.0
230
1.0
 70
    12
 71
     2
 72
     8
 73
     5
 74
     0
 42
0.0000000001
 43
0.0000000001
 40
4.599317276129282
 40
4.599317276129282
 40
4.599317276129282
 40
12.50587514573017
 40
12.50587514573017
 40
25.01175029146034
 40
25.01175029146034
 40
25.01175029146034
 10
310.9560026149221
 20
-1404.600356845019
 30
0.0
 41
0.9120897962986704
 10
307.1492846784869
 20
-1403.533908117343
 30
0.0
 41
0.8535533905932737
 10
304.3538943204356
 20
-1400.738517789956
 30
0.0
 41
0.8535533905932737
 10
299.9323997360752
 20
-1396.317023254098
 30
0.0
 41
0.8535533905932737
 10
299.9323997017791
 20
-1390.064085681233
 30
0.0
 41
1.0
  0
SPLINE
  5
BF
330
1F
100
AcDbEntity
  8
Make2D$Visibile$Curve
 62
    18
420
        0
370
    -3
100
AcDbSpline
210
0.0
220
0.0
230
1.0
 70
    12
 71
     2
 72
     6
 73
     3
 74
     0
 42
0.0000000001
 43
0.0000000001
 40
-108.9210254154666
 40
-108.9210254154666
 40
-108.9210254154666
 40
-108.0721688058548
 40
-108.0721688058548
 40
-108.0721688058548
 10
338.0302863228462
 20
-1438.844360444685
 30
0.0
 41
1.0
 10
338.4599013983007
 20
-1439.092388856811
 30
0.0
 41
0.7967945443744971
 10
338.8146285576631
 20
-1438.745609606142
 30
0.0
 41
1.0
  0
SPLINE
  5
C0
330
1F
100
AcDbEntity
  8
Make2D$Visibile$Curve
 62
    18
420
        0
370
    -3
100
AcDbSpline
210
0.0
220
0.0
230
1.0
 70
    12
 71
     2
 72
     8
 73
     5
 74
     0
 42
0.0000000001
 43
0.0000000001
 40
-130.8006513990317
 40
-130.8006513990317
 40
-130.8006513990317
 40
-130.1708675406617
 40
-130.1708675406617
 40
-129.5410836822918
 40
-129.5410836822918
 40
-129.5410836822918
 10
334.7423809666661
 20
-1445.79908395738
 30
0.0
 41
1.0
 10
334.8270650662769
 20
-1445.468046703133
 30
0.0
 41
0.8863586191788156
 10
334.6037375456617
 20
-1445.209431392368
 30
0.0
 41
1.0
 10
334.3804100250462
 20
-1444.950816081603
 30
0.0
 41
0.8863586191788156
 10
334.0405683356848
 20
-1444.986378514002
 30
0.0
 41
1.0
  0
SPLINE
  5
C1
330
1F
100
AcDbEntity
  8
Make2D$Visibile$Curve
 62
    18
420
        0
370
    -3
100
AcDbSpline
210
0.0
220
0.0
230
1.0
 70
    12
 71
     2
 72
     6
 73
     3
 74
     0
 42
0.0000000001
 43
0.0000000001
 40
-109.3317365225948
 40
-109.3317365225948
 40
-109.3317365225948
 40
-108.9210254154666
 40
-108.9210254154666
 40
-108.9210254154666
 10
337.7598953530323
 20
-1438.544192194406
 30
0.0
 41
1.0
 10
337.8463638132007
 20
-1438.738169527655
 30
0.0
 41
0.9511280869760951
 10
338.0302863228462
 20
-1438.844360444685
 30
0.0
 41
1.0
  0
SPLINE
  5
C2
330
1F
100
AcDbEntity
  8
Make2D$Visibile$Curve
 62
    18
420
        0
370
    -3
100
AcDbSpline
210
0.0
220
0.0
230
1.0
 70
    12
 71
     2
 72
     8
 73
     5
 74
     0
 42
0.0000000001
 43
0.0000000001
 40
0.0
 40
0.0
 40
0.0
 40
12.50587514573018
 40
12.50587514573018
 40
20.41243301533119
 40
20.41243301533119
 40
20.41243301533119
 10
341.8194341183655
 20
-1462.613864662065
 30
0.0
 41
1.0
 10
336.4042054934039
 20
-1459.487440629797
 30
0.0
 41
0.8535533905932737
 10
334.7857762450996
 20
-1453.44758011333
 30
0.0
 41
0.8535533905932737
 10
333.7625608075184
 20
-1449.629014347936
 30
0.0
 41
0.8535533905932737
 10
334.7423164120852
 20
-1445.799067443388
 30
0.0
 41
0.9120897962986718
  0
SPLINE
  5
C3
330
1F
100
AcDbEntity
  8
Make2D$Visibile$Curve
 62
    18
420
        0
370
    -3
100
AcDbSpline
210
0.0
220
0.0
230
1.0
 70
    12
 71
     2
 72
     6
 73
     3
 74
     0
 42
0.0000000001
 43
0.0000000001
 40
-108.9210254154666
 40
-108.9210254154666
 40
-108.9210254154666
 40
-108.0721688058548
 40
-108.0721688058548
 40
-108.0721688058548
 10
295.6207480464054
 20
-1445.070593525218
 30
0.0
 41
1.0
 10
295.1911365161457
 20
-1445.318628077947
 30
0.0
 41
0.7967945443744971
 10
295.3140827210582
 20
-1445.799222956178
 30
0.0
 41
1.0
  0
SPLINE
  5
C4
330
1F
100
AcDbEntity
  8
Make2D$Visibile$Curve
 62
    18
420
        0
370
    -3
100
AcDbSpline
210
0.0
220
0.0
230
1.0
 70
    12
 71
     2
 72
     8
 73
     5
 74
     0
 42
0.0000000001
 43
0.0000000001
 40
-130.8006513990317
 40
-130.8006513990317
 40
-130.8006513990317
 40
-130.1708675406617
 40
-130.1708675406617
 40
-129.5410836822918
 40
-129.5410836822918
 40
-129.5410836822918
 10
291.2418631952319
 20
-1438.745732401889
 30
0.0
 41
1.0
 10
291.4862029186799
 20
-1438.98459462153
 30
0.0
 41
0.8863586191788156
 10
291.8218354223998
 20
-1438.920501853817
 30
0.0
 41
1.0
 10
292.1574679261195
 20
-1438.856409086105
 30
0.0
 41
0.8863586191788156
 10
292.2965972012762
 20
-1438.544319186844
 30
0.0
 41
1.0
  0
SPLINE
  5
C5
330
1F
100
AcDbEntity
  8
Make2D$Visibile$Curve
 62
    18
420
        0
370
    -3
100
AcDbSpline
210
0.0
220
0.0
230
1.0
 70
    12
 71
     2
 72
     6
 73
     3
 74
     0
 42
0.0000000001
 43
0.0000000001
 40
-109.3317365225948
 40
-109.3317365225948
 40
-109.3317365225948
 40
-108.9210254154666
 40
-108.9210254154666
 40
-108.9210254154666
 10
296.0158985857156
 20
-1444.986520305255
 30
0.0
 41
1.0
 10
295.8046755106478
 20
-1444.964411190006
 30
0.0
 41
0.9511280869760951
 10
295.6207480464054
 20
-1445.070593525218
 30
0.0
 41
1.0
  0
SPLINE
  5
C6
330
1F
100
AcDbEntity
  8
Make2D$Visibile$Curve
 62
    18
420
        0
370
    -3
100
AcDbSpline
210
0.0
220
0.0
230
1.0
 70
    12
 71
     2
 72
     8
 73
     5
 74
     0
 42
0.0000000001
 43
0.0000000001
 40
0.0
 40
0.0
 40
0.0
 40
12.50587514573024
 40
12.50587514573024
 40
20.41243301533117
 40
20.41243301533117
 40
20.41243301533117
 10
273.1413561008776
 20
-1436.466878658041
 30
0.0
 41
1.0
 10
278.5565971655559
 20
-1433.340476172504
 30
0.0
 41
0.8535533905932737
 10
284.5964512423913
 20
-1434.958929452857
 30
0.0
 41
0.8535533905932737
 10
288.4150129364723
 20
-1435.982160084159
 30
0.0
 41
0.8535533905932737
 10
291.2419097750363
 20
-1438.745684753934
 30
0.0
 41
0.9120897962986703
  0
SPLINE
  5
C7
330
1F
100
AcDbEntity
  8
Make2D$Visibile$Curve
 62
    18
420
        0
370
    -3
100
AcDbSpline
210
0.0
220
0.0
230
1.0
 70
    12
 71
     2
 72
     8
 73
     5
 74
     0
 42
0.0000000001
 43
0.0000000001
 40
4.382539539026041
 40
4.382539539026041
 40
4.382539539026041
 40
5.560677264131519
 40
5.560677264131519
 40
7.313964192367884
 40
7.313964192367884
 40
7.313964192367884
 10
292.296536341562
 20
-1438.544292055662
 30
0.0
 41
0.8588716328657762
 10
292.5325301463808
 20
-1438.014919048512
 30
0.0
 41
0.8675072301080051
 10
292.892563626423
 20
-1437.560711221784
 30
0.0
 41
0.8901650429449552
 10
293.4371192303961
 20
-1436.873715619642
 30
0.0
 41
0.9267766952966369
 10
294.1963201068888
 20
-1436.435403182774
 30
0.0
 41
1.0
  0
SPLINE
  5
C8
330
1F
100
AcDbEntity
  8
Make2D$Visibile$Curve
 62
    18
420
        0
370
    -3
100
AcDbSpline
210
0.0
220
0.0
230
1.0
 70
    15
 71
     2
 72
    12
 73
     9
 74
     0
 42
0.0000000001
 43
0.0000000001
 40
0.0
 40
0.0
 40
0.0
 40
219.9114857512855
 40
219.9114857512855
 40
439.822971502571
 40
439.822971502571
 40
659.7344572538566
 40
659.7344572538566
 40
879.645943005142
 40
879.645943005142
 40
879.645943005142
 10
455.028298363198
 20
-1429.714898083778
 30
0.0
 41
1.0
 10
455.0282983631982
 20
-1569.714898083778
 30
0.0
 41
0.7071067811865476
 10
315.028298363198
 20
-1569.714898083778
 30
0.0
 41
1.0
 10
175.0282983631982
 20
-1569.714898083778
 30
0.0
 41
0.7071067811865476
 10
175.028298363198
 20
-1429.714898083778
 30
0.0
 41
1.0
 10
175.0282983631982
 20
-1289.714898083778
 30
0.0
 41
0.7071067811865476
 10
315.028298363198
 20
-1289.714898083778
 30
0.0
 41
1.0
 10
455.0282983631982
 20
-1289.714898083778
 30
0.0
 41
0.7071067811865476
 10
455.028298363198
 20
-1429.714898083778
 30
0.0
 41
1.0
  0
SPLINE
  5
C9
330
1F
100
AcDbEntity
  8
Make2D$Visibile$Curve
 62
    18
420
        0
370
    -3
100
AcDbSpline
210
0.0
220
0.0
230
1.0
 70
    12
 71
     2
 72
    28
 73
    25
 74
     0
 42
0.0000000001
 43
0.0000000001
 40
28.25961071388172
 40
28.25961071388172
 40
28.25961071388172
 40
29.78258082976385
 40
29.78258082976385
 40
36.03551840262897
 40
36.03551840262897
 40
42.28845597549409
 40
42.28845597549409
 40
48.04735787017196
 40
48.04735787017196
 40
53.80625976484983
 40
53.80625976484983
 40
60.05919733771495
 40
60.05919733771495
 40
66.31213491058007
 40
66.31213491058007
 40
72.07103680525793
 40
72.07103680525793
 40
77.82993869993581
 40
77.82993869993581
 40
84.08287627280093
 40
84.08287627280093
 40
90.33581384566605
 40
90.33581384566605
 40
96.09471574034393
 40
96.09471574034393
 40
96.09471574034393
 10
295.3141472757048
 20
-1445.799206442443
 30
0.0
 41
0.9120897962986715
 10
295.5085137136703
 20
-1446.55901375601
 30
0.0
 41
0.8998471756578266
 10
295.6230982158472
 20
-1447.334871898854
 30
0.0
 41
0.8901650429449552
 10
296.0798836501243
 20
-1450.427791900983
 30
0.0
 41
0.8535533905932737
 10
295.2706570099483
 20
-1453.447718939401
 30
0.0
 41
0.8535533905932737
 10
294.4614303697724
 20
-1456.467645977819
 30
0.0
 41
0.8535533905932737
 10
292.5193225825305
 20
-1458.917752999006
 30
0.0
 41
0.8901650429449552
 10
290.7306579612572
 20
-1461.174280559382
 30
0.0
 41
0.9267766952966369
 10
288.2369626649179
 20
-1462.613975501773
 30
0.0
 41
1.0
 10
285.7432673685788
 20
-1464.053670444164
 30
0.0
 41
0.9267766952966369
 10
282.8947145639509
 20
-1464.474365912856
 30
0.0
 41
0.8901650429449552
 10
279.8017945618221
 20
-1464.931151347134
 30
0.0
 41
0.8535533905932737
 10
276.7818675234045
 20
-1464.121924706958
 30
0.0
 41
0.8535533905932737
 10
273.7619404849867
 20
-1463.312698066782
 30
0.0
 41
0.8535533905932737
 10
271.3118334637991
 20
-1461.37059027954
 30
0.0
 41
0.8901650429449552
 10
269.0553059034233
 20
-1459.581925658266
 30
0.0
 41
0.9267766952966369
 10
267.615610961032
 20
-1457.088230361927
 30
0.0
 41
1.0
 10
266.1759160186407
 20
-1454.594535065588
 30
0.0
 41
0.9267766952966369
 10
265.7552205499485
 20
-1451.74598226096
 30
0.0
 41
0.8901650429449552
 10
265.2984351156713
 20
-1448.653062258831
 30
0.0
 41
0.8535533905932737
 10
266.1076617558472
 20
-1445.633135220413
 30
0.0
 41
0.8535533905932737
 10
266.9168883960235
 20
-1442.613208181996
 30
0.0
 41
0.8535533905932737
 10
268.8589961832654
 20
-1440.163101160808
 30
0.0
 41
0.8901650429449552
 10
270.6476608045387
 20
-1437.906573600432
 30
0.0
 41
0.9267766952966369
 10
273.1413561008776
 20
-1436.466878658041
 30
0.0
 41
1.0
  0
SPLINE
  5
CA
330
1F
100
AcDbEntity
  8
Make2D$Visibile$Curve
 62
    18
420
        0
370
    -3
100
AcDbSpline
210
0.0
220
0.0
230
1.0
 70
    12
 71
     2
 72
    24
 73
    21
 74
     0
 42
0.0000000001
 43
0.0000000001
 40
0.0
 40
0.0
 40
0.0
 40
1.753286928236361
 40
1.753286928236361
 40
3.656982096183941
 40
3.656982096183941
 40
5.560677264131519
 40
5.560677264131519
 40
7.313964192367882
 40
7.313964192367882
 40
9.067251120604244
 40
9.067251120604244
 40
10.97094628855182
 40
10.97094628855182
 40
12.8746414564994
 40
12.8746414564994
 40
14.62792838473576
 40
14.62792838473576
 40
16.38121531297213
 40
16.38121531297213
 40
17.55935303807762
 40
17.55935303807762
 40
17.55935303807762
 10
294.1963201068888
 20
-1436.435403182774
 30
0.0
 41
1.0
 10
294.9555209833817
 20
-1435.997090745905
 30
0.0
 41
0.9267766952966369
 10
295.8227575656476
 20
-1435.869010796027
 30
0.0
 41
0.8901650429449552
 10
296.7643912848859
 20
-1435.729943323516
 30
0.0
 41
0.8535533905932737
 10
297.6838024326218
 20
-1435.976310863049
 30
0.0
 41
0.8535533905932737
 10
298.6032135803582
 20
-1436.222678402581
 30
0.0
 41
0.8535533905932737
 10
299.3491440878735
 20
-1436.813949491909
 30
0.0
 41
0.8901650429449552
 10
300.0361396900157
 20
-1437.358505095882
 30
0.0
 41
0.9267766952966369
 10
300.474452126884
 20
-1438.117705972375
 30
0.0
 41
1.0
 10
300.9127645637527
 20
-1438.876906848868
 30
0.0
 41
0.9267766952966369
 10
301.0408445136312
 20
-1439.744143431134
 30
0.0
 41
0.8901650429449552
 10
301.1799119861413
 20
-1440.685777150372
 30
0.0
 41
0.8535533905932737
 10
300.9335444466088
 20
-1441.605188298108
 30
0.0
 41
0.8535533905932737
 10
300.6871769070763
 20
-1442.524599445844
 30
0.0
 41
0.8535533905932737
 10
300.0959058177489
 20
-1443.27052995336
 30
0.0
 41
0.8901650429449552
 10
299.5513502137758
 20
-1443.957525555502
 30
0.0
 41
0.9267766952966369
 10
298.7921493372828
 20
-1444.39583799237
 30
0.0
 41
1.0
 10
298.0329484607898
 20
-1444.834150429239
 30
0.0
 41
0.9267766952966369
 10
297.1657118785243
 20
-1444.962230379117
 30
0.0
 41
0.8901650429449552
 10
296.5923375482353
 20
-1445.04691056557
 30
0.0
 41
0.8675072301080047
 10
296.0158916505287
 20
-1444.986586576735
 30
0.0
 41
0.858871632865776
  0
SPLINE
  5
CB
330
1F
100
AcDbEntity
  8
Make2D$Visibile$Curve
 62
    18
420
        0
370
    -3
100
AcDbSpline
210
0.0
220
0.0
230
1.0
 70
    12
 71
     2
 72
     8
 73
     5
 74
     0
 42
0.0000000001
 43
0.0000000001
 40
-130.8006513990317
 40
-130.8006513990317
 40
-130.8006513990317
 40
-130.1708675406617
 40
-130.1708675406617
 40
-129.5410836822918
 40
-129.5410836822918
 40
-129.5410836822918
 10
310.9560205901453
 20
-1404.600292681967
 30
0.0
 41
1.0
 10
311.285050074046
 20
-1404.692470006459
 30
0.0
 41
0.8863586191788156
 10
311.3973564115195
 20
-1405.015184039295
 30
0.0
 41
1.0
 10
311.5096627489928
 20
-1405.337898072132
 30
0.0
 41
0.8863586191788156
 10
311.3089462213482
 20
-1405.61443005212
 30
0.0
 41
1.0
  0
SPLINE
  5
CC
330
1F
100
AcDbEntity
  8
Make2D$Visibile$Curve
 62
    18
420
        0
370
    -3
100
AcDbSpline
210
0.0
220
0.0
230
1.0
 70
    12
 71
     2
 72
    24
 73
    21
 74
     0
 42
0.0000000001
 43
0.0000000001
 40
11.69650373139409
 40
11.69650373139409
 40
11.69650373139409
 40
12.87464145649958
 40
12.87464145649958
 40
14.62792838473597
 40
14.62792838473597
 40
16.38121531297235
 40
16.38121531297235
 40
18.28491048091996
 40
18.28491048091996
 40
20.18860564886756
 40
20.18860564886756
 40
21.94189257710395
 40
21.94189257710395
 40
23.69517950534034
 40
23.69517950534034
 40
25.59887467328794
 40
25.59887467328794
 40
27.50256984123556
 40
27.50256984123556
 40
29.25585676947194
 40
29.25585676947194
 40
29.25585676947194
 10
318.747760664629
 20
-1405.614390870192
 30
0.0
 41
0.8588716328657764
 10
319.0882199799784
 20
-1406.083449833653
 30
0.0
 41
0.8675072301080052
 10
319.3015653574508
 20
-1406.622349273738
 30
0.0
 41
0.8901650429449552
 10
319.6242531832356
 20
-1407.437442109108
 30
0.0
 41
0.9267766952966369
 10
319.6242531880434
 20
-1408.314085573226
 30
0.0
 41
1.0
 10
319.6242531928519
 20
-1409.190729037344
 30
0.0
 41
0.9267766952966369
 10
319.3015653760087
 20
-1410.005821876254
 30
0.0
 41
0.8901650429449552
 10
318.9511953208926
 20
-1410.890838626149
 30
0.0
 41
0.8535533905932737
 10
318.2781374433004
 20
-1411.563896511124
 30
0.0
 41
0.8535533905932737
 10
317.6050795657083
 20
-1412.2369543961
 30
0.0
 41
0.8535533905932737
 10
316.7200628196565
 20
-1412.587324460924
 30
0.0
 41
0.8901650429449552
 10
315.9049699842866
 20
-1412.910012286709
 30
0.0
 41
0.9267766952966369
 10
315.0283265201683
 20
-1412.910012291517
 30
0.0
 41
1.0
 10
314.15168305605
 20
-1412.910012296325
 30
0.0
 41
0.9267766952966369
 10
313.3365902171403
 20
-1412.587324479482
 30
0.0
 41
0.8901650429449552
 10
312.4515734672452
 20
-1412.236954424366
 30
0.0
 41
0.8535533905932737
 10
311.7785155822696
 20
-1411.563896546774
 30
0.0
 41
0.8535533905932737
 10
311.1054576972941
 20
-1410.890838669182
 30
0.0
 41
0.8535533905932737
 10
310.75508763247
 20
-1410.00582192313
 30
0.0
 41
0.8901650429449552
 10
310.4323998066855
 20
-1409.19072908776
 30
0.0
 41
0.9267766952966369
 10
310.4323998018772
 20
-1408.314085623642
 30
0.0
 41
1.0
  0
SPLINE
  5
CD
330
1F
100
AcDbEntity
  8
Make2D$Visibile$Curve
 62
    18
420
        0
370
    -3
100
AcDbSpline
210
0.0
220
0.0
230
1.0
 70
    12
 71
     2
 72
    28
 73
    25
 74
     0
 42
0.0000000001
 43
0.0000000001
 40
0.0
 40
0.0
 40
0.0
 40
5.758901894677855
 40
5.758901894677855
 40
12.01183946754293
 40
12.01183946754293
 40
18.26477704040802
 40
18.26477704040802
 40
24.02367893508586
 40
24.02367893508586
 40
29.7825808297637
 40
29.7825808297637
 40
36.0355184026288
 40
36.0355184026288
 40
42.28845597549387
 40
42.28845597549387
 40
48.04735787017172
 40
48.04735787017172
 40
53.80625976484956
 40
53.80625976484956
 40
60.05919733771465
 40
60.05919733771465
 40
66.31213491057973
 40
66.31213491057973
 40
67.83510502646182
 40
67.83510502646182
 40
67.83510502646182
 10
299.9323997017791
 20
-1390.064085681233
 30
0.0
 41
1.0
 10
299.9323996859857
 20
-1387.184634733894
 30
0.0
 41
0.9267766952966369
 10
300.9923103314597
 20
-1384.507354923762
 30
0.0
 41
0.8901650429449552
 10
302.1431469354115
 20
-1381.600400816188
 30
0.0
 41
0.8535533905932737
 10
304.3538942033406
 20
-1379.389653524008
 30
0.0
 41
0.8535533905932737
 10
306.5646414712697
 20
-1377.178906231828
 30
0.0
 41
0.8535533905932737
 10
309.4715955662193
 20
-1376.028069595987
 30
0.0
 41
0.8901650429449552
 10
312.1488753647249
 20
-1374.968158921145
 30
0.0
 41
0.9267766952966369
 10
315.0283263120637
 20
-1374.968158905351
 30
0.0
 41
1.0
 10
317.9077772594025
 20
-1374.968158889558
 30
0.0
 41
0.9267766952966369
 10
320.5850570695349
 20
-1376.028069535032
 30
0.0
 41
0.8901650429449552
 10
323.4920111771088
 20
-1377.178906138984
 30
0.0
 41
0.8535533905932737
 10
325.7027584692888
 20
-1379.389653406913
 30
0.0
 41
0.8535533905932737
 10
327.913505761469
 20
-1381.600400674842
 30
0.0
 41
0.8535533905932737
 10
329.0643423973095
 20
-1384.507354769792
 30
0.0
 41
0.8901650429449552
 10
330.124253072152
 20
-1387.184634568297
 30
0.0
 41
0.9267766952966369
 10
330.1242530879454
 20
-1390.064085515636
 30
0.0
 41
1.0
 10
330.1242531037388
 20
-1392.943536462975
 30
0.0
 41
0.9267766952966369
 10
329.0643424582651
 20
-1395.620816273107
 30
0.0
 41
0.8901650429449552
 10
327.9135058543129
 20
-1398.527770380681
 30
0.0
 41
0.8535533905932737
 10
325.7027585863838
 20
-1400.738517672861
 30
0.0
 41
0.8535533905932737
 10
323.4920113184547
 20
-1402.949264965041
 30
0.0
 41
0.8535533905932737
 10
320.5850572235055
 20
-1404.100101600881
 30
0.0
 41
0.8901650429449552
 10
319.855848577989
 20
-1404.388788658544
 30
0.0
 41
0.8998471756578263
 10
319.1006503342602
 20
-1404.600356800347
 30
0.0
 41
0.9120897962986709
  0
SPLINE
  5
CE
330
1F
100
AcDbEntity
  8
Make2D$Visibile$Curve
 62
    18
420
        0
370
    -3
100
AcDbSpline
210
0.0
220
0.0
230
1.0
 70
    12
 71
     2
 72
     8
 73
     5
 74
     0
 42
0.0000000001
 43
0.0000000001
 40
0.0
 40
0.0
 40
0.0
 40
1.753286928236392
 40
1.753286928236392
 40
2.920378382268868
 40
2.920378382268868
 40
2.920378382268868
 10
310.4323998018772
 20
-1408.314085623642
 30
0.0
 41
1.0
 10
310.432399797069
 20
-1407.437442159524
 30
0.0
 41
0.9267766952966369
 10
310.7550876139121
 20
-1406.622349320614
 30
0.0
 41
0.8901650429449552
 10
310.9663809070599
 20
-1406.088633322782
 30
0.0
 41
0.8677196707566536
 10
311.302455006628
 20
-1405.623282034324
 30
0.0
 41
0.8590348010398621
  0
SPLINE
  5
CF
330
1F
100
AcDbEntity
  8
Make2D$Visibile$Curve
 62
    18
420
        0
370
    -3
100
AcDbSpline
210
0.0
220
0.0
230
1.0
 70
    12
 71
     2
 72
    24
 73
    21
 74
     0
 42
0.0000000001
 43
0.0000000001
 40
0.0
 40
0.0
 40
0.0
 40
1.753286928236358
 40
1.753286928236358
 40
3.656982096183938
 40
3.656982096183938
 40
5.560677264131518
 40
5.560677264131518
 40
7.313964192367877
 40
7.313964192367877
 40
9.067251120604242
 40
9.067251120604242
 40
10.97094628855181
 40
10.97094628855181
 40
12.8746414564994
 40
12.8746414564994
 40
14.62792838473576
 40
14.62792838473576
 40
16.38121531297212
 40
16.38121531297212
 40
17.55935303807748
 40
17.55935303807748
 40
17.55935303807748
 10
331.2643199344111
 20
-1444.39568515467
 30
0.0
 41
1.0
 10
330.5051208019302
 20
-1443.957369697013
 30
0.0
 41
0.9267766952966369
 10
329.9605679314549
 20
-1443.270371928139
 30
0.0
 41
0.8901650429449552
 10
329.3692998101222
 20
-1442.524439068015
 30
0.0
 41
0.8535533905932737
 10
329.1229359288459
 20
-1441.605026940012
 30
0.0
 41
0.8535533905932737
 10
328.8765720475691
 20
-1440.685614812009
 30
0.0
 41
0.8535533905932737
 10
329.0156432667539
 20
-1439.743981646115
 30
0.0
 41
0.8901650429449552
 10
329.143726667288
 20
-1438.876745573475
 30
0.0
 41
0.9267766952966369
 10
329.5820421249446
 20
-1438.117546440993
 30
0.0
 41
1.0
 10
330.0203575826017
 20
-1437.358347308512
 30
0.0
 41
0.9267766952966369
 10
330.7073553514761
 20
-1436.813794438037
 30
0.0
 41
0.8901650429449552
 10
331.4532882115996
 20
-1436.222526316705
 30
0.0
 41
0.8535533905932737
 10
332.3727003396029
 20
-1435.976162435428
 30
0.0
 41
0.8535533905932737
 10
333.2921124676057
 20
-1435.729798554151
 30
0.0
 41
0.8535533905932737
 10
334.2337456334998
 20
-1435.868869773336
 30
0.0
 41
0.8901650429449552
 10
335.1009817061401
 20
-1435.99695317387
 30
0.0
 41
0.9267766952966369
 10
335.8601808386213
 20
-1436.435268631527
 30
0.0
 41
1.0
 10
336.6193799711027
 20
-1436.873584089184
 30
0.0
 41
0.9267766952966369
 10
337.1639328415775
 20
-1437.560581858058
 30
0.0
 41
0.8901650429449552
 10
337.5239645143649
 20
-1438.014791117323
 30
0.0
 41
0.8675072301080072
 10
337.7599562128543
 20
-1438.544165063467
 30
0.0
 41
0.8588716328657778
  0
SPLINE
  5
D0
330
1F
100
AcDbEntity
  8
Make2D$Visibile$Curve
 62
    18
420
        0
370
    -3
100
AcDbSpline
210
0.0
220
0.0
230
1.0
 70
    12
 71
     2
 72
    28
 73
    25
 74
     0
 42
0.0000000001
 43
0.0000000001
 40
28.2596107138817
 40
28.2596107138817
 40
28.2596107138817
 40
29.78258082976372
 40
29.78258082976372
 40
36.03551840262881
 40
36.03551840262881
 40
42.2884559754939
 40
42.2884559754939
 40
48.04735787017174
 40
48.04735787017174
 40
53.80625976484959
 40
53.80625976484959
 40
60.05919733771468
 40
60.05919733771468
 40
66.31213491057977
 40
66.31213491057977
 40
72.07103680525762
 40
72.07103680525762
 40
77.82993869993545
 40
77.82993869993545
 40
84.08287627280055
 40
84.08287627280055
 40
90.33581384566564
 40
90.33581384566564
 40
96.09471574034349
 40
96.09471574034349
 40
96.09471574034349
 10
338.8145819780482
 20
-1438.745561958001
 30
0.0
 41
0.9120897962986698
 10
339.375399951405
 20
-1438.197320526953
 30
0.0
 41
0.8998471756578259
 10
339.9900105709254
 20
-1437.710145761258
 30
0.0
 41
0.8901650429449552
 10
342.4401253195652
 20
-1435.768047722787
 30
0.0
 41
0.8535533905932737
 10
345.4600555777986
 20
-1434.958833098634
 30
0.0
 41
0.8535533905932737
 10
348.4799858360325
 20
-1434.149618474482
 30
0.0
 41
0.8535533905932737
 10
351.572904020629
 20
-1434.606416215206
 30
0.0
 41
0.8901650429449552
 10
354.4214551513247
 20
-1435.02712301803
 30
0.0
 41
0.9267766952966369
 10
356.9151447192276
 20
-1436.466827882598
 30
0.0
 41
1.0
 10
359.4088342871307
 20
-1437.906532747167
 30
0.0
 41
0.9267766952966369
 10
361.1974899298703
 20
-1440.16306742446
 30
0.0
 41
0.8901650429449552
 10
363.1395879683413
 20
-1442.6131821731
 30
0.0
 41
0.8535533905932737
 10
363.9488025924938
 20
-1445.633112431334
 30
0.0
 41
0.8535533905932737
 10
364.758017216646
 20
-1448.653042689568
 30
0.0
 41
0.8535533905932737
 10
364.3012194759226
 20
-1451.745960874164
 30
0.0
 41
0.8901650429449552
 10
363.8805126730987
 20
-1454.594512004859
 30
0.0
 41
0.9267766952966369
 10
362.4408078085298
 20
-1457.088201572763
 30
0.0
 41
1.0
 10
361.0011029439614
 20
-1459.581891140665
 30
0.0
 41
0.9267766952966369
 10
358.7445682666682
 20
-1461.370546783405
 30
0.0
 41
0.8901650429449552
 10
356.2944535180279
 20
-1463.312644821876
 30
0.0
 41
0.8535533905932737
 10
353.2745232597945
 20
-1464.121859446029
 30
0.0
 41
0.8535533905932737
 10
350.2545930015606
 20
-1464.931074070181
 30
0.0
 41
0.8535533905932737
 10
347.1616748169645
 20
-1464.474276329457
 30
0.0
 41
0.8901650429449552
 10
344.3131236862686
 20
-1464.053569526633
 30
0.0
 41
0.9267766952966369
 10
341.8194341183655
 20
-1462.613864662065
 30
0.0
 41
1.0
  0
SPLINE
  5
D1
330
1F
100
AcDbEntity
  8
Make2D$Visibile$Curve
 62
    18
420
        0
370
    -3
100
AcDbSpline
210
0.0
220
0.0
230
1.0
 70
    12
 71
     2
 72
     8
 73
     5
 74
     0
 42
0.0000000001
 43
0.0000000001
 40
4.382539539026004
 40
4.382539539026004
 40
4.382539539026004
 40
5.560677264131514
 40
5.560677264131514
 40
7.313964192367882
 40
7.313964192367882
 40
7.313964192367882
 10
334.040575270608
 20
-1444.98644478551
 30
0.0
 41
0.8588716328657757
 10
333.4641291328821
 20
-1445.046766480718
 30
0.0
 41
0.8675072301080043
 10
332.8907551395329
 20
-1444.962084012861
 30
0.0
 41
0.8901650429449552
 10
332.0235190668926
 20
-1444.834000612327
 30
0.0
 41
0.9267766952966369
 10
331.2643199344111
 20
-1444.39568515467
 30
0.0
 41
1.0
  0
SPLINE
  5
D2
330
1F
100
AcDbEntity
  8
Make2D$Visibile$Curve
 62
    18
420
        0
370
    -3
100
AcDbSpline
210
0.0
220
0.0
230
1.0
 70
    28
 71
     4
 72
    10
 73
     5
 74
     0
 42
0.0000000001
 43
0.0000000001
 40
278.6742683983477
 40
278.6742683983477
 40
278.6742683983477
 40
278.6742683983477
 40
278.6742683983477
 40
279.9066071268514
 40
279.9066071268514
 40
279.9066071268514
 40
279.9066071268514
 40
279.9066071268514
 10
296.0979360630934
 20
-1445.200146320056
 30
0.0
 41
1.0
 10
296.4017372332087
 20
-1445.148950416039
 30
0.0
 41
1.0
 10
296.7055384033242
 20
-1445.097754512022
 30
0.0
 41
1.0
 10
297.0093395734398
 20
-1445.046558608006
 30
0.0
 41
1.0
 10
297.3131407435549
 20
-1444.995362703989
 30
0.0
 41
1.0
  0
SPLINE
  5
D3
330
1F
100
AcDbEntity
  8
Make2D$Visibile$Curve
 62
    18
420
        0
370
    -3
100
AcDbSpline
210
0.0
220
0.0
230
1.0
 70
    28
 71
     4
 72
    10
 73
     5
 74
     0
 42
0.0000000001
 43
0.0000000001
 40
298.1595988564978
 40
298.1595988564978
 40
298.1595988564978
 40
298.1595988564978
 40
298.1595988564978
 40
299.3919373118882
 40
299.3919373118882
 40
299.3919373118882
 40
299.3919373118882
 40
299.3919373118882
 10
292.8520514743736
 20
-1437.268529151223
 30
0.0
 41
1.0
 10
292.6558137978188
 20
-1437.506030535849
 30
0.0
 41
1.0
 10
292.459576121264
 20
-1437.743531920475
 30
0.0
 41
1.0
 10
292.263338444709
 20
-1437.9810333051
 30
0.0
 41
1.0
 10
292.0671007681544
 20
-1438.218534689726
 30
0.0
 41
1.0
  0
SPLINE
  5
D4
330
1F
100
AcDbEntity
  8
Make2D$Visibile$Curve
 62
    18
420
        0
370
    -3
100
AcDbSpline
210
0.0
220
0.0
230
1.0
 70
    12
 71
     4
 72
    14
 73
     9
 74
     0
 42
0.0000000001
 43
0.0000000001
 40
299.3919373118882
 40
299.3919373118882
 40
299.3919373118882
 40
299.3919373118882
 40
299.3919373118882
 40
299.9561152712778
 40
299.9561152712778
 40
299.9561152712778
 40
299.9561152712778
 40
300.5202932306674
 40
300.5202932306674
 40
300.5202932306674
 40
300.5202932306674
 40
300.5202932306674
 10
292.0671007681544
 20
-1438.218534689726
 30
0.0
 41
1.0
 10
292.0116805879745
 20
-1438.335523831125
 30
0.0
 41
0.8568108607842306
 10
291.9083258964512
 20
-1438.44784403117
 30
0.0
 41
0.723905221215882
 10
291.7644913444485
 20
-1438.498928671904
 30
0.0
 41
0.629006145643622
 10
291.635141819
 20
-1438.504081811505
 30
0.0
 41
0.538939297087483
 10
291.5057922935512
 20
-1438.509234951105
 30
0.0
 41
0.6290061456436221
 10
291.3583497289492
 20
-1438.469754463065
 30
0.0
 41
0.7239052212158821
 10
291.2463873546531
 20
-1438.366012252733
 30
0.0
 41
0.8568108607842309
 10
291.1816649498053
 20
-1438.253901473964
 30
0.0
 41
1.0
  0
SPLINE
  5
D5
330
1F
100
AcDbEntity
  8
Make2D$Visibile$Curve
 62
    18
420
        0
370
    -3
100
AcDbSpline
210
0.0
220
0.0
230
1.0
 70
    12
 71
     4
 72
    10
 73
     5
 74
     0
 42
0.0000000001
 43
0.0000000001
 40
339.6897124297837
 40
339.6897124297837
 40
339.6897124297837
 40
339.6897124297837
 40
339.6897124297837
 40
376.7655164297836
 40
376.7655164297836
 40
376.7655164297836
 40
376.7655164297836
 40
376.7655164297836
 10
273.5103491707646
 20
-1404.645888890527
 30
0.0
 41
1.0
 10
282.7793001707646
 20
-1404.645888890527
 30
0.0
 41
1.0
 10
292.0482511707646
 20
-1404.645888890527
 30
0.0
 41
1.0
 10
301.3172021707646
 20
-1404.645888874529
 30
0.0
 41
1.0
 10
310.5861531707646
 20
-1404.645888826537
 30
0.0
 41
1.0
  0
SPLINE
  5
D6
330
1F
100
AcDbEntity
  8
Make2D$Visibile$Curve
 62
    18
420
        0
370
    -3
100
AcDbSpline
210
0.0
220
0.0
230
1.0
 70
    28
 71
     4
 72
    10
 73
     5
 74
     0
 42
0.0000000001
 43
0.0000000001
 40
477.1115471747342
 40
477.1115471747342
 40
477.1115471747342
 40
477.1115471747342
 40
477.1115471747342
 40
478.3438853334413
 40
478.3438853334413
 40
478.3438853334413
 40
478.3438853334413
 40
478.3438853334413
 10
337.9894953837238
 20
-1438.218534779568
 30
0.0
 41
1.0
 10
337.7932578507975
 20
-1437.981033372482
 30
0.0
 41
1.0
 10
337.5970203178708
 20
-1437.743531965396
 30
0.0
 41
1.0
 10
337.4007827849441
 20
-1437.50603055831
 30
0.0
 41
1.0
 10
337.2045452520179
 20
-1437.268529151223
 30
0.0
 41
1.0
  0
SPLINE
  5
D7
330
1F
100
AcDbEntity
  8
Make2D$Visibile$Curve
 62
    18
420
        0
370
    -3
100
AcDbSpline
210
0.0
220
0.0
230
1.0
 70
    28
 71
     4
 72
    10
 73
     5
 74
     0
 42
0.0000000001
 43
0.0000000001
 40
496.5968770630877
 40
496.5968770630877
 40
496.5968770630877
 40
496.5968770630877
 40
496.5968770630877
 40
497.8292154768079
 40
497.8292154768079
 40
497.8292154768079
 40
497.8292154768079
 40
497.8292154768079
 10
332.7434559828362
 20
-1444.995362703989
 30
0.0
 41
1.0
 10
333.0472570620798
 20
-1445.046558673674
 30
0.0
 41
1.0
 10
333.3510581413234
 20
-1445.097754643359
 30
0.0
 41
1.0
 10
333.654859220567
 20
-1445.148950613045
 30
0.0
 41
1.0
 10
333.9586602998106
 20
-1445.20014658273
 30
0.0
 41
1.0
  0
SPLINE
  5
D8
330
1F
100
AcDbEntity
  8
Make2D$Visibile$Curve
 62
    18
420
        0
370
    -3
100
AcDbSpline
210
0.0
220
0.0
230
1.0
 70
    24
 71
     2
 72
     6
 73
     3
 74
     0
 42
0.0000000001
 43
0.0000000001
 40
697.8977517190453
 40
697.8977517190453
 40
697.8977517190453
 40
734.9735557190454
 40
734.9735557190454
 40
734.9735557190454
 10
319.4704431707646
 20
-1404.645888890527
 30
0.0
 10
338.0083451707646
 20
-1404.645888890527
 30
0.0
 10
356.5462471707647
 20
-1404.645888890527
 30
0.0
  0
SPLINE
  5
D9
330
1F
100
AcDbEntity
  8
Make2D$Visibile$Curve
 62
    18
420
        0
370
    -3
100
AcDbSpline
210
0.0
220
0.0
230
1.0
 70
    28
 71
     2
 72
     6
 73
     3
 74
     0
 42
0.0000000001
 43
0.0000000001
 40
0.0
 40
0.0
 40
0.0
 40
1779.699093177392
 40
1779.699093177392
 40
1779.699093177392
 10
281.9130799777262
 20
-1422.199845795363
 30
0.0
 41
0.538939297087483
 10
281.9130799777262
 20
-1422.24915034629
 30
0.0
 41
0.538939297087483
 10
281.9130799777262
 20
-1422.298454897218
 30
0.0
 41
0.538939297087483
  0
SPLINE
  5
DA
330
1F
100
AcDbEntity
  8
Make2D$Visibile$Curve
 62
    18
420
        0
370
    -3
100
AcDbSpline
210
0.0
220
0.0
230
1.0
 70
    28
 71
     2
 72
     6
 73
     3
 74
     0
 42
0.0000000001
 43
0.0000000001
 40
0.0
 40
0.0
 40
0.0
 40
1779.699093177392
 40
1779.699093177392
 40
1779.699093177392
 10
325.1630654911594
 20
-1462.003156031225
 30
0.0
 41
0.538939297087483
 10
325.1630654911594
 20
-1462.052460582153
 30
0.0
 41
0.538939297087483
 10
325.1630654911594
 20
-1462.101765133081
 30
0.0
 41
0.538939297087483
  0
SPLINE
  5
DB
330
1F
100
AcDbEntity
  8
Make2D$Visibile$Curve
 62
    18
420
        0
370
    -3
100
AcDbSpline
210
0.0
220
0.0
230
1.0
 70
    12
 71
     4
 72
    10
 73
     5
 74
     0
 42
0.0000000001
 43
0.0000000001
 40
300.5202932306674
 40
300.5202932306674
 40
300.5202932306674
 40
300.5202932306674
 40
300.5202932306674
 40
319.0578052664749
 40
319.0578052664749
 40
319.0578052664749
 40
319.0578052664749
 40
319.0578052664749
 10
291.1816649498053
 20
-1438.253901473964
 30
0.0
 41
1.0
 10
288.8646043198434
 20
-1434.240338129241
 30
0.0
 41
0.8568108607842306
 10
286.5474580768236
 20
-1430.226824209591
 30
0.0
 41
0.7341248511578142
 10
284.2302690272754
 20
-1426.213335002477
 30
0.0
 41
0.629006145643622
 10
281.913079977727
 20
-1422.199845795363
 30
0.0
 41
0.538939297087483
  0
SPLINE
  5
DC
330
1F
100
AcDbEntity
  8
Make2D$Visibile$Curve
 62
    18
420
        0
370
    -3
100
AcDbSpline
210
0.0
220
0.0
230
1.0
 70
    28
 71
     4
 72
    10
 73
     5
 74
     0
 42
0.0000000001
 43
0.0000000001
 40
319.0578052664749
 40
319.0578052664749
 40
319.0578052664749
 40
319.0578052664749
 40
319.0578052664749
 40
337.5953173022825
 40
337.5953173022825
 40
337.5953173022825
 40
337.5953173022825
 40
337.5953173022825
 10
281.913079977727
 20
-1422.199845795363
 30
0.0
 41
0.538939297087483
 10
279.5958909281787
 20
-1418.186356588249
 30
0.0
 41
0.6290061456436221
 10
277.2787018786306
 20
-1414.172867381135
 30
0.0
 41
0.7341248511578143
 10
274.9615128290823
 20
-1410.159378174021
 30
0.0
 41
0.8568108607842309
 10
272.6443237795343
 20
-1406.145888966907
 30
0.0
 41
1.0
  0
SPLINE
  5
DD
330
1F
100
AcDbEntity
  8
Make2D$Visibile$Curve
 62
    18
420
        0
370
    -3
100
AcDbSpline
210
0.0
220
0.0
230
1.0
 70
    12
 71
     4
 72
    14
 73
     9
 74
     0
 42
0.0000000001
 43
0.0000000001
 40
240.4718163170658
 40
240.4718163170658
 40
240.4718163170658
 40
240.4718163170658
 40
240.4718163170658
 40
259.0093001821709
 40
259.0093001821709
 40
259.0093001821709
 40
259.0093001821709
 40
277.546784047276
 40
277.546784047276
 40
277.546784047276
 40
277.546784047276
 40
277.546784047276
 10
314.1613047963028
 20
-1478.056681715831
 30
0.0
 41
1.0
 10
311.8445318454419
 20
-1474.042960458486
 30
0.0
 41
0.8568108607842306
 10
309.5274838231543
 20
-1470.029397976015
 30
0.0
 41
0.7341248511578142
 10
307.2102982627264
 20
-1466.015914882382
 30
0.0
 41
0.629006145643622
 10
304.8931126974435
 20
-1462.002431791552
 30
0.0
 41
0.538939297087483
 10
302.5759271321609
 20
-1457.988948700721
 30
0.0
 41
0.6290061456436221
 10
300.2587415620238
 20
-1453.975465612694
 30
0.0
 41
0.7341248511578143
 10
297.9415559846051
 20
-1449.961982528871
 30
0.0
 41
0.8568108607842309
 10
295.6243703974769
 20
-1445.948499450653
 30
0.0
 41
1.0
  0
SPLINE
  5
DE
330
1F
100
AcDbEntity
  8
Make2D$Visibile$Curve
 62
    18
420
        0
370
    -3
100
AcDbSpline
210
0.0
220
0.0
230
1.0
 70
    12
 71
     4
 72
    14
 73
     9
 74
     0
 42
0.0000000001
 43
0.0000000001
 40
376.7655164297836
 40
376.7655164297836
 40
376.7655164297836
 40
376.7655164297836
 40
376.7655164297836
 40
377.3292585153764
 40
377.3292585153764
 40
377.3292585153764
 40
377.3292585153764
 40
377.8930006009691
 40
377.8930006009691
 40
377.8930006009691
 40
377.8930006009691
 40
377.8930006009691
 10
310.5861531707646
 20
-1404.645888826537
 30
0.0
 41
1.0
 10
310.7155219638198
 20
-1404.645888825867
 30
0.0
 41
0.8568108607842306
 10
310.8611537693844
 20
-1404.691147123818
 30
0.0
 41
0.7239337283578129
 10
310.9688719328962
 20
-1404.79909958685
 30
0.0
 41
0.629006145643622
 10
311.0289558891
 20
-1404.913669232828
 30
0.0
 41
0.538939297087483
 10
311.0890398453039
 20
-1405.028238878807
 30
0.0
 41
0.6290061456436221
 10
311.1165959386148
 20
-1405.178230877048
 30
0.0
 41
0.723933728357813
 10
311.0710211873697
 20
-1405.323763965272
 30
0.0
 41
0.8568108607842309
 10
310.9974630659306
 20
-1405.430185242336
 30
0.0
 41
1.0
  0
SPLINE
  5
DF
330
1F
100
AcDbEntity
  8
Make2D$Visibile$Curve
 62
    18
420
        0
370
    -3
100
AcDbSpline
210
0.0
220
0.0
230
1.0
 70
    28
 71
     4
 72
    10
 73
     5
 74
     0
 42
0.0000000001
 43
0.0000000001
 40
397.3783306379078
 40
397.3783306379078
 40
397.3783306379078
 40
397.3783306379078
 40
397.3783306379078
 40
398.6106691299323
 40
398.6106691299323
 40
398.6106691299323
 40
398.6106691299323
 40
398.6106691299323
 10
319.489387632377
 20
-1406.584974972294
 30
0.0
 41
1.0
 10
319.3818240853529
 20
-1406.296277510657
 30
0.0
 41
1.0
 10
319.2742605383287
 20
-1406.007580049019
 30
0.0
 41
1.0
 10
319.1666969913044
 20
-1405.718882587381
 30
0.0
 41
1.0
 10
319.0591334442802
 20
-1405.430185125744
 30
0.0
 41
1.0
  0
SPLINE
  5
E0
330
1F
100
AcDbEntity
  8
Make2D$Visibile$Curve
 62
    18
420
        0
370
    -3
100
AcDbSpline
210
0.0
220
0.0
230
1.0
 70
    28
 71
     4
 72
    10
 73
     5
 74
     0
 42
0.0000000001
 43
0.0000000001
 40
438.9083519900485
 40
438.9083519900485
 40
438.9083519900485
 40
438.9083519900485
 40
438.9083519900485
 40
457.446643673642
 40
457.446643673642
 40
457.446643673642
 40
457.446643673642
 40
457.446643673642
 10
357.412272561995
 20
-1406.145888966907
 30
0.0
 41
1.0
 10
355.0949860564714
 20
-1410.159546972721
 30
0.0
 41
0.8568108607842306
 10
352.777699550947
 20
-1414.173204978536
 30
0.0
 41
0.7341248511578142
 10
350.4604130454235
 20
-1418.18686298435
 30
0.0
 41
0.629006145643622
 10
348.1431265398992
 20
-1422.200520990165
 30
0.0
 41
0.538939297087483
  0
SPLINE
  5
E1
330
1F
100
AcDbEntity
  8
Make2D$Visibile$Curve
 62
    18
420
        0
370
    -3
100
AcDbSpline
210
0.0
220
0.0
230
1.0
 70
    12
 71
     4
 72
    18
 73
    13
 74
     0
 42
0.0000000001
 43
0.0000000001
 40
457.446643673642
 40
457.446643673642
 40
457.446643673642
 40
457.446643673642
 40
457.446643673642
 40
475.9849353572356
 40
475.9849353572356
 40
475.9849353572356
 40
475.9849353572356
 40
476.5482412659849
 40
476.5482412659849
 40
476.5482412659849
 40
476.5482412659849
 40
477.1115471747342
 40
477.1115471747342
 40
477.1115471747342
 40
477.1115471747342
 40
477.1115471747342
 10
348.1431265398992
 20
-1422.200520990165
 30
0.0
 41
0.538939297087483
 10
345.8258400343751
 20
-1426.214178995979
 30
0.0
 41
0.538939297087483
 10
343.5085535288513
 20
-1430.227837001794
 30
0.0
 41
0.538939297087483
 10
341.1912242859806
 20
-1434.241470331368
 30
0.0
 41
0.538939297087483
 10
338.873809568417
 20
-1438.255054308461
 30
0.0
 41
0.538939297087483
 10
338.8091633712229
 20
-1438.367016547793
 30
0.0
 41
0.538939297087483
 10
338.6971047335028
 20
-1438.470257764558
 30
0.0
 41
0.5314786368938083
 10
338.5498501772299
 20
-1438.50939830772
 30
0.0
 41
0.538939297087483
 10
338.4206754440216
 20
-1438.504050391899
 30
0.0
 41
0.538939297087483
 10
338.2915007108134
 20
-1438.498702476077
 30
0.0
 41
0.6290061456436221
 10
338.1479854239928
 20
-1438.447523877132
 30
0.0
 41
0.7239621926101459
 10
338.0448441445755
 20
-1438.33537324741
 30
0.0
 41
0.8568108607842309
 10
337.9894953837238
 20
-1438.218534779568
 30
0.0
 41
1.0
  0
SPLINE
  5
E2
330
1F
100
AcDbEntity
  8
Make2D$Visibile$Curve
 62
    18
420
        0
370
    -3
100
AcDbSpline
210
0.0
220
0.0
230
1.0
 70
    12
 71
     4
 72
    14
 73
     9
 74
     0
 42
0.0000000001
 43
0.0000000001
 40
497.8292154768079
 40
497.8292154768079
 40
497.8292154768079
 40
497.8292154768079
 40
497.8292154768079
 40
498.392957348048
 40
498.392957348048
 40
498.392957348048
 40
498.392957348048
 40
498.956699219288
 40
498.956699219288
 40
498.956699219288
 40
498.956699219288
 40
498.956699219288
 10
333.9586602998106
 20
-1445.20014658273
 30
0.0
 41
1.0
 10
334.0876028496274
 20
-1445.189654067935
 30
0.0
 41
0.8568108607842296
 10
334.2364255001131
 20
-1445.222951737087
 30
0.0
 41
0.7239337423615454
 10
334.3525442814899
 20
-1445.321811968279
 30
0.0
 41
0.629006145643622
 10
334.421722511782
 20
-1445.431130984631
 30
0.0
 41
0.538939297087483
 10
334.4909007420742
 20
-1445.540450000982
 30
0.0
 41
0.6290061456436221
 10
334.5305312385966
 20
-1445.687712831707
 30
0.0
 41
0.723933742361545
 10
334.4969102452274
 20
-1445.836462777604
 30
0.0
 41
0.8568108607842309
 10
334.4322258663797
 20
-1445.948499405809
 30
0.0
 41
1.0
  0
SPLINE
  5
E3
330
1F
100
AcDbEntity
  8
Make2D$Visibile$Curve
 62
    18
420
        0
370
    -3
100
AcDbSpline
210
0.0
220
0.0
230
1.0
 70
    28
 71
     4
 72
    10
 73
     5
 74
     0
 42
0.0000000001
 43
0.0000000001
 40
498.956699219288
 40
498.956699219288
 40
498.956699219288
 40
498.956699219288
 40
498.956699219288
 40
517.495019370789
 40
517.495019370789
 40
517.495019370789
 40
517.495019370789
 40
517.495019370789
 10
334.4322258663797
 20
-1445.948499405809
 30
0.0
 41
1.0
 10
332.1149357725751
 20
-1449.962163562163
 30
0.0
 41
0.8568108607842306
 10
329.7976456787698
 20
-1453.975827718517
 30
0.0
 41
0.7341248511578142
 10
327.4803555849651
 20
-1457.989491874872
 30
0.0
 41
0.629006145643622
 10
325.1630654911603
 20
-1462.003156031226
 30
0.0
 41
0.538939297087483
  0
SPLINE
  5
E4
330
1F
100
AcDbEntity
  8
Make2D$Visibile$Curve
 62
    18
420
        0
370
    -3
100
AcDbSpline
210
0.0
220
0.0
230
1.0
 70
    12
 71
     2
 72
     6
 73
     3
 74
     0
 42
0.0000000001
 43
0.0000000001
 40
-109.3317365225948
 40
-109.3317365225948
 40
-109.3317365225948
 40
-108.9210254154666
 40
-108.9210254154666
 40
-108.9210254154666
 10
318.7477067389582
 20
-1405.61443001132
 30
0.0
 41
1.0
 10
318.6229502493081
 20
-1405.442558493295
 30
0.0
 41
0.9511280869760951
 10
318.6229457159727
 20
-1405.230181469129
 30
0.0
 41
1.0
  0
SPLINE
  5
E5
330
1F
100
AcDbEntity
  8
Make2D$Visibile$Curve
 62
    18
420
        0
370
    -3
100
AcDbSpline
210
0.0
220
0.0
230
1.0
 70
    12
 71
     4
 72
    14
 73
     9
 74
     0
 42
0.0000000001
 43
0.0000000001
 40
219.3354205142911
 40
219.3354205142911
 40
219.3354205142911
 40
219.3354205142911
 40
219.3354205142911
 40
237.8737406657922
 40
237.8737406657922
 40
237.8737406657922
 40
237.8737406657922
 40
240.4718163170658
 40
240.4718163170658
 40
240.4718163170658
 40
240.4718163170658
 40
240.4718163170658
 10
325.1630654911603
 20
-1462.003156031226
 30
0.0
 41
0.538939297087483
 10
322.8457753973552
 20
-1466.01682018758
 30
0.0
 41
0.538939297087483
 10
320.5284853035504
 20
-1470.030484343934
 30
0.0
 41
0.538939297087483
 10
318.2110576873043
 20
-1474.044069082814
 30
0.0
 41
0.538939297087483
 10
315.8933550261756
 20
-1478.057494986743
 30
0.0
 41
0.538939297087483
 10
315.6046285716754
 20
-1478.557465173202
 30
0.0
 41
0.471754616071178
 10
315.0272528127834
 20
-1478.807088138364
 30
0.0
 41
0.4894165780802715
 10
314.4499284528611
 20
-1478.556711252723
 30
0.0
 41
0.6426081549032938
 10
314.1613047963028
 20
-1478.056681715831
 30
0.0
 41
1.0
  0
SPLINE
  5
E6
330
1F
100
AcDbEntity
  8
Make2D$Visibile$Curve
 62
    18
420
        0
370
    -3
100
AcDbSpline
210
0.0
220
0.0
230
1.0
 70
    12
 71
     4
 72
    14
 73
     9
 74
     0
 42
0.0000000001
 43
0.0000000001
 40
277.546784047276
 40
277.546784047276
 40
277.546784047276
 40
277.546784047276
 40
277.546784047276
 40
278.1105262228119
 40
278.1105262228119
 40
278.1105262228119
 40
278.1105262228119
 40
278.6742683983477
 40
278.6742683983477
 40
278.6742683983477
 40
278.6742683983477
 40
278.6742683983477
 10
295.6243703974769
 20
-1445.948499450653
 30
0.0
 41
1.0
 10
295.5596859895043
 20
-1445.836462772079
 30
0.0
 41
0.8568108607842301
 10
295.5260648866188
 20
-1445.6877127546
 30
0.0
 41
0.7239337224817886
 10
295.5656953713037
 20
-1445.540449823383
 30
0.0
 41
0.629006145643622
 10
295.6348736163541
 20
-1445.431130747515
 30
0.0
 41
0.538939297087483
 10
295.7040518614045
 20
-1445.321811671647
 30
0.0
 41
0.6290061456436221
 10
295.8201707090873
 20
-1445.222951373387
 30
0.0
 41
0.7239337224817923
 10
295.9689934611849
 20
-1445.189653728033
 30
0.0
 41
0.856810860784224
 10
296.0979360630934
 20
-1445.200146320056
 30
0.0
 41
1.0
  0
SPLINE
  5
E7
330
1F
100
AcDbEntity
  8
Make2D$Visibile$Curve
 62
    18
420
        0
370
    -3
100
AcDbSpline
210
0.0
220
0.0
230
1.0
 70
    12
 71
     4
 72
    22
 73
    17
 74
     0
 42
0.0000000001
 43
0.0000000001
 40
279.9066071268514
 40
279.9066071268514
 40
279.9066071268514
 40
279.9066071268514
 40
279.9066071268514
 40
284.469855059263
 40
284.469855059263
 40
284.469855059263
 40
284.469855059263
 40
289.0331029916746
 40
289.0331029916746
 40
289.0331029916746
 40
289.0331029916746
 40
293.5963509240862
 40
293.5963509240862
 40
293.5963509240862
 40
293.5963509240862
 40
298.1595988564978
 40
298.1595988564978
 40
298.1595988564978
 40
298.1595988564978
 40
298.1595988564978
 10
297.3131407435549
 20
-1444.995362703989
 30
0.0
 41
1.0
 10
298.4590359037646
 20
-1444.795088624537
 30
0.0
 41
0.808331214648076
 10
299.5005162869759
 20
-1444.241861207008
 30
0.0
 41
0.6787410013759029
 10
300.3063940949324
 20
-1443.380871686475
 30
0.0
 41
0.5934160326397341
 10
300.7988045204821
 20
-1442.326965867203
 30
0.0
 41
0.538939297087483
 10
301.2912149460323
 20
-1441.273060047931
 30
0.0
 41
0.5084453017292137
 10
301.4345251771614
 20
-1440.102502821952
 30
0.0
 41
0.4982806366097906
 10
301.1906078820061
 20
-1438.948706309595
 30
0.0
 41
0.5084453017292138
 10
300.6089753901845
 20
-1437.941289245733
 30
0.0
 41
0.538939297087483
 10
300.0273428983633
 20
-1436.93387218187
 30
0.0
 41
0.5084453017292137
 10
299.1500844918374
 20
-1436.145735343972
 30
0.0
 41
0.4982806366097906
 10
298.0646971189148
 20
-1435.684567036282
 30
0.0
 41
0.5084453017292138
 10
296.9057827266993
 20
-1435.584054079794
 30
0.0
 41
0.538939297087483
 10
295.7468683344838
 20
-1435.483541123305
 30
0.0
 41
0.5934160326397341
 10
294.5982906604901
 20
-1435.750957042495
 30
0.0
 41
0.678741001375903
 10
293.5984414886858
 20
-1436.376291835987
 30
0.0
 41
0.8083312146480763
 10
292.8520514743736
 20
-1437.268529151223
 30
0.0
 41
1.0
  0
SPLINE
  5
E8
330
1F
100
AcDbEntity
  8
Make2D$Visibile$Curve
 62
    18
420
        0
370
    -3
100
AcDbSpline
210
0.0
220
0.0
230
1.0
 70
    12
 71
     4
 72
    14
 73
     9
 74
     0
 42
0.0000000001
 43
0.0000000001
 40
337.5953173022825
 40
337.5953173022825
 40
337.5953173022825
 40
337.5953173022825
 40
337.5953173022825
 40
338.6425148660331
 40
338.6425148660331
 40
338.6425148660331
 40
338.6425148660331
 40
339.6897124297837
 40
339.6897124297837
 40
339.6897124297837
 40
339.6897124297837
 40
339.6897124297837
 10
272.6443237795343
 20
-1406.145888966907
 30
0.0
 41
1.0
 10
272.5103491758104
 20
-1405.913838151337
 30
0.0
 41
0.799415414886338
 10
272.4613110638265
 20
-1405.645888946705
 30
0.0
 41
0.66855546261799
 10
272.5103491657189
 20
-1405.377939740227
 30
0.0
 41
0.586870722466695
 10
272.644323760703
 20
-1405.145888919611
 30
0.0
 41
0.538939297087483
 10
272.7782983556874
 20
-1404.913838098994
 30
0.0
 41
0.5868707224666954
 10
272.9858301115929
 20
-1404.737395247006
 30
0.0
 41
0.6685554626179903
 10
273.2423999749697
 20
-1404.645888890527
 30
0.0
 41
0.799415414886338
 10
273.5103491707646
 20
-1404.645888890527
 30
0.0
 41
1.0
  0
SPLINE
  5
E9
330
1F
100
AcDbEntity
  8
Make2D$Visibile$Curve
 62
    18
420
        0
370
    -3
100
AcDbSpline
210
0.0
220
0.0
230
1.0
 70
    28
 71
     4
 72
    10
 73
     5
 74
     0
 42
0.0000000001
 43
0.0000000001
 40
377.8930006009691
 40
377.8930006009691
 40
377.8930006009691
 40
377.8930006009691
 40
377.8930006009691
 40
379.1253389082617
 40
379.1253389082617
 40
379.1253389082617
 40
379.1253389082617
 40
379.1253389082617
 10
310.9974630659306
 20
-1405.430185242336
 30
0.0
 41
1.0
 10
310.8898995729514
 20
-1405.718882674826
 30
0.0
 41
1.0
 10
310.7823360799725
 20
-1406.007580107315
 30
0.0
 41
1.0
 10
310.6747725869932
 20
-1406.296277539805
 30
0.0
 41
1.0
 10
310.5672090940143
 20
-1406.584974972294
 30
0.0
 41
1.0
  0
SPLINE
  5
EA
330
1F
100
AcDbEntity
  8
Make2D$Visibile$Curve
 62
    18
420
        0
370
    -3
100
AcDbSpline
210
0.0
220
0.0
230
1.0
 70
    12
 71
     4
 72
    22
 73
    17
 74
     0
 42
0.0000000001
 43
0.0000000001
 40
379.1253389082617
 40
379.1253389082617
 40
379.1253389082617
 40
379.1253389082617
 40
379.1253389082617
 40
383.6885868406732
 40
383.6885868406732
 40
383.6885868406732
 40
383.6885868406732
 40
388.2518347730847
 40
388.2518347730847
 40
388.2518347730847
 40
388.2518347730847
 40
392.8150827054963
 40
392.8150827054963
 40
392.8150827054963
 40
392.8150827054963
 40
397.3783306379078
 40
397.3783306379078
 40
397.3783306379078
 40
397.3783306379078
 40
397.3783306379078
 10
310.5672090940143
 20
-1406.584974972294
 30
0.0
 41
1.0
 10
310.1677039481166
 20
-1407.677486366982
 30
0.0
 41
0.8083312146480767
 10
310.1260727367097
 20
-1408.856048578003
 30
0.0
 41
0.6787410013759035
 10
310.4687726027469
 20
-1409.984454017727
 30
0.0
 41
0.5934160326397345
 10
311.1352765694127
 20
-1410.93784688051
 30
0.0
 41
0.538939297087483
 10
311.8017805360786
 20
-1411.891239743293
 30
0.0
 41
0.5084453017292141
 10
312.7438576778716
 20
-1412.600628661584
 30
0.0
 41
0.4982806366097911
 10
313.8650333795525
 20
-1412.966288336041
 30
0.0
 41
0.5084453017292141
 10
315.0282983631954
 20
-1412.966288336041
 30
0.0
 41
0.538939297087483
 10
316.191563346839
 20
-1412.966288336041
 30
0.0
 41
0.5084453017292141
 10
317.3127390485196
 20
-1412.600628661584
 30
0.0
 41
0.4982806366097911
 10
318.2548161903129
 20
-1411.891239743293
 30
0.0
 41
0.5084453017292141
 10
318.9213201569785
 20
-1410.93784688051
 30
0.0
 41
0.538939297087483
 10
319.5878241236442
 20
-1409.984454017727
 30
0.0
 41
0.5934160326397346
 10
319.9305239896815
 20
-1408.856048578003
 30
0.0
 41
0.6787410013759038
 10
319.8888927782749
 20
-1407.677486366982
 30
0.0
 41
0.8083312146480769
 10
319.489387632377
 20
-1406.584974972294
 30
0.0
 41
1.0
  0
SPLINE
  5
EB
330
1F
100
AcDbEntity
  8
Make2D$Visibile$Curve
 62
    18
420
        0
370
    -3
100
AcDbSpline
210
0.0
220
0.0
230
1.0
 70
    12
 71
     4
 72
    14
 73
     9
 74
     0
 42
0.0000000001
 43
0.0000000001
 40
398.6106691299323
 40
398.6106691299323
 40
398.6106691299323
 40
398.6106691299323
 40
398.6106691299323
 40
399.1744109962398
 40
399.1744109962398
 40
399.1744109962398
 40
399.1744109962398
 40
399.7381528625474
 40
399.7381528625474
 40
399.7381528625474
 40
399.7381528625474
 40
399.7381528625474
 10
319.0591334442802
 20
-1405.430185125744
 30
0.0
 41
1.0
 10
318.9855753773553
 20
-1405.32376386197
 30
0.0
 41
0.8568108607842306
 10
318.9400006775739
 20
-1405.178230828586
 30
0.0
 41
0.7239337426837882
 10
318.9675567529194
 20
-1405.028238895891
 30
0.0
 41
0.629006145643622
 10
319.0276406772979
 20
-1404.913669280567
 30
0.0
 41
0.538939297087483
 10
319.0877246016765
 20
-1404.799099665243
 30
0.0
 41
0.6290061456436221
 10
319.195442698207
 20
-1404.691147231033
 30
0.0
 41
0.7239337426837886
 10
319.3410744196386
 20
-1404.645888890526
 30
0.0
 41
0.8568108607842303
 10
319.4704431707646
 20
-1404.645888890527
 30
0.0
 41
1.0
  0
SPLINE
  5
EC
330
1F
100
AcDbEntity
  8
Make2D$Visibile$Curve
 62
    18
420
        0
370
    -3
100
AcDbSpline
210
0.0
220
0.0
230
1.0
 70
    12
 71
     4
 72
    14
 73
     9
 74
     0
 42
0.0000000001
 43
0.0000000001
 40
436.8139568625474
 40
436.8139568625474
 40
436.8139568625474
 40
436.8139568625474
 40
436.8139568625474
 40
437.861154426298
 40
437.861154426298
 40
437.861154426298
 40
437.861154426298
 40
438.9083519900485
 40
438.9083519900485
 40
438.9083519900485
 40
438.9083519900485
 40
438.9083519900485
 10
356.5462471707647
 20
-1404.645888890527
 30
0.0
 41
1.0
 10
356.8141963665597
 20
-1404.645888890527
 30
0.0
 41
0.7994154148863511
 10
357.0707662299363
 20
-1404.737395247006
 30
0.0
 41
0.668555462618005
 10
357.2782979858415
 20
-1404.913838098995
 30
0.0
 41
0.5868707224667049
 10
357.4122725808259
 20
-1405.145888919611
 30
0.0
 41
0.538939297087483
 10
357.5462471758103
 20
-1405.377939740227
 30
0.0
 41
0.5868707224667049
 10
357.5952852777028
 20
-1405.645888946705
 30
0.0
 41
0.6685554626180052
 10
357.5462471657191
 20
-1405.913838151337
 30
0.0
 41
0.7994154148863514
 10
357.412272561995
 20
-1406.145888966907
 30
0.0
 41
1.0
  0
SPLINE
  5
ED
330
1F
100
AcDbEntity
  8
Make2D$Visibile$Curve
 62
    18
420
        0
370
    -3
100
AcDbSpline
210
0.0
220
0.0
230
1.0
 70
    12
 71
     4
 72
    22
 73
    17
 74
     0
 42
0.0000000001
 43
0.0000000001
 40
478.3438853334413
 40
478.3438853334413
 40
478.3438853334413
 40
478.3438853334413
 40
478.3438853334413
 40
482.907133265853
 40
482.907133265853
 40
482.907133265853
 40
482.907133265853
 40
487.4703811982645
 40
487.4703811982645
 40
487.4703811982645
 40
487.4703811982645
 40
492.0336291306761
 40
492.0336291306761
 40
492.0336291306761
 40
492.0336291306761
 40
496.5968770630877
 40
496.5968770630877
 40
496.5968770630877
 40
496.5968770630877
 40
496.5968770630877
 10
337.2045452520179
 20
-1437.268529151223
 30
0.0
 41
1.0
 10
336.4581552377057
 20
-1436.376291835987
 30
0.0
 41
0.8083312146480761
 10
335.4583060659012
 20
-1435.750957042495
 30
0.0
 41
0.6787410013759031
 10
334.3097283919075
 20
-1435.483541123305
 30
0.0
 41
0.5934160326397341
 10
333.1508139996919
 20
-1435.584054079794
 30
0.0
 41
0.538939297087483
 10
331.9918996074763
 20
-1435.684567036282
 30
0.0
 41
0.5084453017292138
 10
330.906512234554
 20
-1436.145735343972
 30
0.0
 41
0.4982806366097907
 10
330.029253828028
 20
-1436.933872181871
 30
0.0
 41
0.5084453017292138
 10
329.4476213362065
 20
-1437.941289245733
 30
0.0
 41
0.538939297087483
 10
328.8659888443847
 20
-1438.948706309595
 30
0.0
 41
0.5084453017292138
 10
328.6220715492298
 20
-1440.102502821952
 30
0.0
 41
0.4982806366097907
 10
328.7653817803593
 20
-1441.273060047932
 30
0.0
 41
0.5084453017292138
 10
329.2577922059089
 20
-1442.326965867203
 30
0.0
 41
0.538939297087483
 10
329.7502026314589
 20
-1443.380871686474
 30
0.0
 41
0.5934160326397342
 10
330.5560804394151
 20
-1444.241861207009
 30
0.0
 41
0.6787410013759032
 10
331.5975608226263
 20
-1444.795088624537
 30
0.0
 41
0.8083312146480763
 10
332.7434559828362
 20
-1444.995362703989
 30
0.0
 41
1.0
  0
SPLINE
  5
EE
330
1F
100
AcDbEntity
  8
Make2D$Visibile$Curve
 62
    18
420
        0
370
    -3
100
AcDbSpline
210
0.0
220
0.0
230
1.0
 70
    28
 71
     2
 72
     6
 73
     3
 74
     0
 42
0.0000000001
 43
0.0000000001
 40
0.0
 40
0.0
 40
0.0
 40
0.8802581923332159
 40
0.8802581923332159
 40
0.8802581923332159
 10
-304.9426294806768
 20
876.2780846898086
 30
0.0
 41
1.0
 10
-305.0682017868045
 20
876.2780846898086
 30
0.0
 41
0.8805586522420533
 10
-305.4696249317175
 20
876.2780846898089
 30
0.0
 41
0.9015292389011251
  0
SPLINE
  5
EF
330
1F
100
AcDbEntity
  8
Make2D$Visibile$Curve
 62
    18
420
        0
370
    -3
100
AcDbSpline
210
0.0
220
0.0
230
1.0
 70
     8
 71
     3
 72
    10
 73
     6
 74
     0
 42
0.0000000001
 43
0.0000000001
 40
0.0000000000005617
 40
0.0000000000005617
 40
0.0000000000005617
 40
0.0000000000005617
 40
0.3271220088460544
 40
0.3271220088460544
 40
0.7812821286615292
 40
0.7812821286615292
 40
0.7812821286615292
 40
0.7812821286615292
 10
-276.2918949465412
 20
876.2780846898086
 30
0.0
 10
-276.2035065988928
 20
876.2414730374567
 30
0.0
 10
-276.0267299035967
 20
876.1682497327529
 30
0.0
 10
-275.8444202975802
 20
876.037716822033
 30
0.0
 10
-275.7918949465418
 20
875.9104771389757
 30
0.0
 10
-275.7918949465418
 20
875.7780846898086
 30
0.0
  0
SPLINE
  5
F0
330
1F
100
AcDbEntity
  8
Make2D$Visibile$Curve
 62
    18
420
        0
370
    -3
100
AcDbSpline
210
0.0
220
0.0
230
1.0
 70
    28
 71
     2
 72
     6
 73
     3
 74
     0
 42
0.0000000001
 43
0.0000000001
 40
0.0
 40
0.0
 40
0.0
 40
5.461684884238173
 40
5.461684884238173
 40
5.461684884238173
 10
-275.7919699315057
 20
875.769490278706
 30
0.0
 41
0.9270179637879669
 10
-275.7920447510166
 20
873.0386478393942
 30
0.0
 41
0.9270179637879669
 10
-275.7921195705275
 20
870.3078054000824
 30
0.0
 41
0.9270179637879669
  0
SPLINE
  5
F1
330
1F
100
AcDbEntity
  8
Make2D$Visibile$Curve
 62
    18
420
        0
370
    -3
100
AcDbSpline
210
0.0
220
0.0
230
1.0
 70
    12
 71
     2
 72
     6
 73
     3
 74
     0
 42
0.0000000001
 43
0.0000000001
 40
-130.8552232502775
 40
-130.8552232502775
 40
-130.8552232502775
 40
-130.8006513990317
 40
-130.8006513990317
 40
-130.8006513990317
 10
-305.4103780370573
 20
870.296594903023
 30
0.0
 41
0.9988709646128624
 10
-305.417319416761
 20
870.2965825413444
 30
0.0
 41
0.999433905265859
 10
-305.4241783621794
 20
870.2965702110941
 30
0.0
 41
1.0
  0
SPLINE
  5
F2
330
1F
100
AcDbEntity
  8
Make2D$Visibile$Curve
 62
    18
420
        0
370
    -3
100
AcDbSpline
210
0.0
220
0.0
230
1.0
 70
    28
 71
     2
 72
     8
 73
     5
 74
     0
 42
0.0000000001
 43
0.0000000001
 40
41.86762265393567
 40
41.86762265393567
 40
41.86762265393567
 40
62.80143390084863
 40
62.80143390084863
 40
83.73524514776159
 40
83.73524514776159
 40
83.73524514776159
 10
-276.2918949465402
 20
876.2780846898086
 30
0.0
 41
1.0
 10
-276.2918949465389
 20
876.2780846898086
 30
0.0
 41
0.753707279592463
 10
-288.9005960489449
 20
876.2780846898086
 30
0.0
 41
1.0
 10
-301.5092971513508
 20
876.2780846898086
 30
0.0
 41
0.753707279592463
 10
-304.9426294806767
 20
876.2780846898086
 30
0.0
 41
1.0
  0
SPLINE
  5
F3
330
1F
100
AcDbEntity
  8
Make2D$Visibile$Curve
 62
    18
420
        0
370
    -3
100
AcDbSpline
210
0.0
220
0.0
230
1.0
 70
    12
 71
     2
 72
     8
 73
     5
 74
     0
 42
0.0000000001
 43
0.0000000001
 40
0.0
 40
0.0
 40
0.0
 40
0.3970624048289396
 40
0.3970624048289396
 40
0.7941248096578791
 40
0.7941248096578791
 40
0.7941248096578791
 10
-305.4240205853391
 20
-635.4284342221781
 30
0.0
 41
1.0
 10
-305.4273220174974
 20
-635.6378469426248
 30
0.0
 41
0.9222009716703332
 10
-305.2858097076073
 20
-635.7870716656807
 30
0.0
 41
1.0
 10
-305.1442973977172
 20
-635.9362963887368
 30
0.0
 41
0.9222009716703332
 10
-304.9426213875302
 20
-635.9360696499948
 30
0.0
 41
1.0
  0
SPLINE
  5
F4
330
1F
100
AcDbEntity
  8
Make2D$Visibile$Curve
 62
    18
420
        0
370
    -3
100
AcDbSpline
210
0.0
220
0.0
230
1.0
 70
    28
 71
     2
 72
     6
 73
     3
 74
     0
 42
0.0000000001
 43
0.0000000001
 40
0.0
 40
0.0
 40
0.0
 40
0.969272228734383
 40
0.969272228734383
 40
0.969272228734383
 10
-304.9426213875302
 20
-635.9360696499946
 30
0.0
 41
1.0
 10
-305.0828148679458
 20
-635.9360696499945
 30
0.0
 41
0.8684804272738207
 10
-305.55044651908
 20
-635.9360696499948
 30
0.0
 41
0.9072062641192657
  0
SPLINE
  5
F5
330
1F
100
AcDbEntity
  8
Make2D$Visibile$Curve
 62
    18
420
        0
370
    -3
100
AcDbSpline
210
0.0
220
0.0
230
1.0
 70
    24
 71
     2
 72
     6
 73
     3
 74
     0
 42
0.0000000001
 43
0.0000000001
 40
0.0
 40
0.0
 40
0.0
 40
5.461684884238173
 40
5.461684884238173
 40
5.461684884238173
 10
-305.424020585339
 20
-635.4284342221781
 30
0.0
 10
-305.4240954048499
 20
-632.6975917828661
 30
0.0
 10
-305.4241702243609
 20
-629.966749343554
 30
0.0
  0
SPLINE
  5
F6
330
1F
100
AcDbEntity
  8
Make2D$Visibile$Curve
 62
    18
420
        0
370
    -3
100
AcDbSpline
210
0.0
220
0.0
230
1.0
 70
     8
 71
     3
 72
    10
 73
     6
 74
     0
 42
0.0000000001
 43
0.0000000001
 40
0.0
 40
0.0
 40
0.0
 40
0.0
 40
0.4541601198163895
 40
0.4541601198163895
 40
0.7812821286613898
 40
0.7812821286613898
 40
0.7812821286613898
 40
0.7812821286613898
 10
-275.791886853395
 20
-635.4360696499946
 30
0.0
 10
-275.791886853395
 20
-635.568462099161
 30
0.0
 10
-275.8444122044332
 20
-635.6957017822194
 30
0.0
 10
-276.02672181045
 20
-635.8262346929396
 30
0.0
 10
-276.2034985057461
 20
-635.8994579976427
 30
0.0
 10
-276.2918868533945
 20
-635.9360696499944
 30
0.0
  0
SPLINE
  5
F7
330
1F
100
AcDbEntity
  8
Make2D$Visibile$Curve
 62
    18
420
        0
370
    -3
100
AcDbSpline
210
0.0
220
0.0
230
1.0
 70
    28
 71
     2
 72
     6
 73
     3
 74
     0
 42
0.0000000001
 43
0.0000000001
 40
0.0
 40
0.0
 40
0.0
 40
5.461684884238173
 40
5.461684884238173
 40
5.461684884238173
 10
-275.7921114773809
 20
-629.9657903602681
 30
0.0
 41
0.9270179637879669
 10
-275.79203665787
 20
-632.69663279958
 30
0.0
 41
0.9270179637879669
 10
-275.7919618383592
 20
-635.4274752388919
 30
0.0
 41
0.9270179637879669
  0
SPLINE
  5
F8
330
1F
100
AcDbEntity
  8
Make2D$Visibile$Curve
 62
    18
420
        0
370
    -3
100
AcDbSpline
210
0.0
220
0.0
230
1.0
 70
    12
 71
     2
 72
     8
 73
     5
 74
     0
 42
0.0000000001
 43
0.0000000001
 40
-108.0721688058548
 40
-108.0721688058548
 40
-108.0721688058548
 40
-86.42135355646745
 40
-86.42135355646745
 40
-64.77053830708013
 40
-64.77053830708013
 40
-64.77053830708013
 10
-305.4241702243609
 20
-629.966749343554
 30
0.0
 41
1.0
 10
-301.8732445935997
 20
-629.9671099866573
 30
0.0
 41
0.7537072402266906
 10
-288.8326780289756
 20
-629.9666879543754
 30
0.0
 41
1.0
 10
-275.7921114643515
 20
-629.9662659220932
 30
0.0
 41
0.7537072402266906
 10
-275.7921114773809
 20
-629.9657903602681
 30
0.0
 41
1.0
  0
SPLINE
  5
F9
330
1F
100
AcDbEntity
  8
Make2D$Visibile$Curve
 62
    18
420
        0
370
    -3
100
AcDbSpline
210
0.0
220
0.0
230
1.0
 70
    28
 71
     2
 72
     8
 73
     5
 74
     0
 42
0.0000000001
 43
0.0000000001
 40
41.86762265393703
 40
41.86762265393703
 40
41.86762265393703
 40
62.8014339008493
 40
62.8014339008493
 40
83.73524514776159
 40
83.73524514776159
 40
83.73524514776159
 10
-276.2918868533936
 20
-635.9360696499946
 30
0.0
 41
1.0
 10
-276.2918868533937
 20
-635.9360696499947
 30
0.0
 41
0.7537072795924783
 10
-288.900587955799
 20
-635.9360696499946
 30
0.0
 41
1.0
 10
-301.5092890582045
 20
-635.9360696499947
 30
0.0
 41
0.7537072795924783
 10
-304.9426213875302
 20
-635.9360696499946
 30
0.0
 41
1.0
  0
SPLINE
  5
FA
330
1F
100
AcDbEntity
  8
Make2D$Visibile$Curve
 62
    18
420
        0
370
    -3
100
AcDbSpline
210
0.0
220
0.0
230
1.0
 70
    12
 71
     2
 72
     8
 73
     5
 74
     0
 42
0.0000000001
 43
0.0000000001
 40
-108.0721688058548
 40
-108.0721688058548
 40
-108.0721688058548
 40
-86.42135355646745
 40
-86.42135355646745
 40
-64.77053830708013
 40
-64.77053830708013
 40
-64.77053830708013
 10
-305.4241783175074
 20
870.3087643833678
 30
0.0
 41
1.0
 10
-301.8732526867462
 20
870.309125026471
 30
0.0
 41
0.7537072402266906
 10
-288.8326861221221
 20
870.3087029941894
 30
0.0
 41
1.0
 10
-275.7921195574982
 20
870.3082809619076
 30
0.0
 41
0.7537072402266906
 10
-275.7921195705275
 20
870.3078054000816
 30
0.0
 41
1.0
  0
SPLINE
  5
FB
330
1F
100
AcDbEntity
  8
Make2D$Visibile$Curve
 62
    18
420
        0
370
    -3
100
AcDbSpline
210
0.0
220
0.0
230
1.0
 70
    28
 71
     2
 72
     6
 73
     3
 74
     0
 42
0.0000000001
 43
0.0000000001
 40
0.0
 40
0.0
 40
0.0
 40
5.461684884238173
 40
5.461684884238173
 40
5.461684884238173
 10
-365.459685981609
 20
870.307539879043
 30
0.0
 41
0.925201983753589
 10
-365.4598088339148
 20
873.038382318355
 30
0.0
 41
0.925201983753589
 10
-365.4599316862207
 20
875.7692247576672
 30
0.0
 41
0.925201983753589
  0
SPLINE
  5
FC
330
1F
100
AcDbEntity
  8
Make2D$Visibile$Curve
 62
    18
420
        0
370
    -3
100
AcDbSpline
210
0.0
220
0.0
230
1.0
 70
     8
 71
     3
 72
    10
 73
     6
 74
     0
 42
0.0000000001
 43
0.0000000001
 40
0.0
 40
0.0
 40
0.0
 40
0.0
 40
0.4541601198156865
 40
0.4541601198156865
 40
0.7812821286608936
 40
0.7812821286608936
 40
0.7812821286608936
 40
0.7812821286608936
 10
-365.4600090066052
 20
875.7780846898086
 30
0.0
 10
-365.4600090066052
 20
875.9104771389743
 30
0.0
 10
-365.4074836555667
 20
876.0377168220339
 30
0.0
 10
-365.2251740495503
 20
876.1682497327533
 30
0.0
 10
-365.0483973542543
 20
876.2414730374567
 30
0.0
 10
-364.9600090066058
 20
876.2780846898086
 30
0.0
  0
SPLINE
  5
FD
330
1F
100
AcDbEntity
  8
Make2D$Visibile$Curve
 62
    18
420
        0
370
    -3
100
AcDbSpline
210
0.0
220
0.0
230
1.0
 70
    28
 71
     2
 72
     6
 73
     3
 74
     0
 42
0.0000000001
 43
0.0000000001
 40
26.58268325509457
 40
26.58268325509457
 40
26.58268325509457
 40
34.73797288020359
 40
34.73797288020359
 40
34.73797288020359
 10
-364.9600090066064
 20
876.2780846898086
 30
0.0
 41
1.0
 10
-364.9600090066062
 20
876.2780846898087
 30
0.0
 41
0.8958169288961317
 10
-362.826892072416
 20
876.2780846898081
 30
0.0
 41
0.8657503726682627
  0
SPLINE
  5
FE
330
1F
100
AcDbEntity
  8
Make2D$Visibile$Curve
 62
    18
420
        0
370
    -3
100
AcDbSpline
210
0.0
220
0.0
230
1.0
 70
    28
 71
     2
 72
     6
 73
     3
 74
     0
 42
0.0000000001
 43
0.0000000001
 40
0.0
 40
0.0
 40
0.0
 40
219.9114857512855
 40
219.9114857512855
 40
219.9114857512855
 10
-330.5386341249689
 20
-904.1479655956125
 30
0.0
 41
1.0
 10
-470.5386341249688
 20
-904.1479655956125
 30
0.0
 41
0.7071067811865476
 10
-470.5386341249689
 20
-904.1479655956125
 30
0.0
 41
1.0
  0
SPLINE
  5
FF
330
1F
100
AcDbEntity
  8
Make2D$Visibile$Curve
 62
    18
420
        0
370
    -3
100
AcDbSpline
210
0.0
220
0.0
230
1.0
 70
    28
 71
     2
 72
     6
 73
     3
 74
     0
 42
0.0000000001
 43
0.0000000001
 40
0.0
 40
0.0
 40
0.0
 40
3.999999999999659
 40
3.999999999999659
 40
3.999999999999659
 10
-190.5386341249689
 20
-904.1479655956125
 30
0.0
 41
1.0
 10
-190.5386341249689
 20
-906.1479655956124
 30
0.0
 41
1.0
 10
-190.5386341249689
 20
-908.1479655956123
 30
0.0
 41
1.0
  0
SPLINE
  5
100
330
1F
100
AcDbEntity
  8
Make2D$Visibile$Curve
 62
    18
420
        0
370
    -3
100
AcDbSpline
210
0.0
220
0.0
230
1.0
 70
    28
 71
     2
 72
     6
 73
     3
 74
     0
 42
0.0000000001
 43
0.0000000001
 40
0.0
 40
0.0
 40
0.0
 40
3.999999999999659
 40
3.999999999999659
 40
3.999999999999659
 10
-470.5386341249689
 20
-908.1479655956123
 30
0.0
 41
1.0
 10
-470.5386341249689
 20
-906.1479655956124
 30
0.0
 41
1.0
 10
-470.5386341249689
 20
-904.1479655956125
 30
0.0
 41
1.0
  0
SPLINE
  5
101
330
1F
100
AcDbEntity
  8
Make2D$Visibile$Curve
 62
    18
420
        0
370
    -3
100
AcDbSpline
210
0.0
220
0.0
230
1.0
 70
    28
 71
     2
 72
     6
 73
     3
 74
     0
 42
0.0000000001
 43
0.0000000001
 40
659.7344572538566
 40
659.7344572538566
 40
659.7344572538566
 40
879.645943005142
 40
879.645943005142
 40
879.645943005142
 10
-190.5386341249689
 20
-904.1479655956125
 30
0.0
 41
1.0
 10
-190.5386341249689
 20
-904.1479655956125
 30
0.0
 41
0.7071067811865476
 10
-330.5386341249689
 20
-904.1479655956125
 30
0.0
 41
1.0
  0
SPLINE
  5
102
330
1F
100
AcDbEntity
  8
Make2D$Visibile$Curve
 62
    18
420
        0
370
    -3
100
AcDbSpline
210
0.0
220
0.0
230
1.0
 70
    28
 71
     2
 72
     6
 73
     3
 74
     0
 42
0.0000000001
 43
0.0000000001
 40
0.0
 40
0.0
 40
0.0
 40
1499.217098607416
 40
1499.217098607416
 40
1499.217098607416
 10
-365.4593042884375
 20
-629.5808136193635
 30
0.0
 41
0.9252019837569416
 10
-365.4569945269652
 20
120.0277356264084
 30
0.0
 41
0.9252019837569416
 10
-365.4546847654929
 20
869.6362848721802
 30
0.0
 41
0.9252019837569416
  0
SPLINE
  5
103
330
1F
100
AcDbEntity
  8
Make2D$Visibile$Curve
 62
    18
420
        0
370
    -3
100
AcDbSpline
210
0.0
220
0.0
230
1.0
 70
    12
 71
     2
 72
    10
 73
     7
 74
     0
 42
0.0000000001
 43
0.0000000001
 40
1.259567716740008
 40
1.259567716740008
 40
1.259567716740008
 40
18.01310110269667
 40
18.01310110269667
 40
34.76663448865333
 40
34.76663448865333
 40
44.52564567517642
 40
44.52564567517642
 40
44.52564567517642
 10
-305.4249907237574
 20
-629.5824535139075
 30
0.0
 41
1.0
 10
-302.9006740351172
 20
-629.5827968626736
 30
0.0
 41
0.8499503652137049
 10
-293.707733155088
 20
-629.5825440995507
 30
0.0
 41
1.0
 10
-284.5147922750593
 20
-629.5822913364282
 30
0.0
 41
0.8499503652137049
 10
-278.8604942595434
 20
-629.5817231137921
 30
0.0
 41
1.0
 10
-275.7929319738368
 20
-629.5814148423987
 30
0.0
 41
0.9125953892424502
 10
-275.7929319767776
 20
-629.5811692134554
 30
0.0
 41
0.92701796377008
  0
SPLINE
  5
104
330
1F
100
AcDbEntity
  8
Make2D$Visibile$Curve
 62
    18
420
        0
370
    -3
100
AcDbSpline
210
0.0
220
0.0
230
1.0
 70
    28
 71
     2
 72
     6
 73
     3
 74
     0
 42
0.0000000001
 43
0.0000000001
 40
375.7063172571858
 40
375.7063172571858
 40
375.7063172571858
 40
1874.923771457588
 40
1874.923771457588
 40
1874.923771457588
 10
-275.8108805600161
 20
869.6362848710743
 30
0.0
 41
0.92701796377008
 10
-275.8019062683969
 20
120.0275578288094
 30
0.0
 41
0.92701796377008
 10
-275.7929319767776
 20
-629.5811692134554
 30
0.0
 41
0.92701796377008
  0
SPLINE
  5
105
330
1F
100
AcDbEntity
  8
Make2D$Visibile$Curve
 62
    18
420
        0
370
    -3
100
AcDbSpline
210
0.0
220
0.0
230
1.0
 70
     8
 71
     3
 72
    10
 73
     6
 74
     0
 42
0.0000000001
 43
0.0000000001
 40
0.0
 40
0.0
 40
0.0
 40
0.0
 40
0.6072501612817345
 40
0.6072501612817345
 40
0.8105200327877451
 40
0.8105200327877451
 40
0.8105200327877451
 40
0.8105200327877451
 10
-335.2681607280733
 20
-635.4360696499946
 30
0.0
 10
-335.2681607280733
 20
-635.5684620991608
 30
0.0
 10
-335.3206860791116
 20
-635.6957017822194
 30
0.0
 10
-335.446046377496
 20
-635.8210620806037
 30
0.0
 10
-335.7512203642702
 20
-635.9360696499946
 30
0.0
 10
-335.7681607280733
 20
-635.9360696499946
 30
0.0
  0
SPLINE
  5
106
330
1F
100
AcDbEntity
  8
Make2D$Visibile$Curve
 62
    18
420
        0
370
    -3
100
AcDbSpline
210
0.0
220
0.0
230
1.0
 70
     8
 71
     3
 72
    10
 73
     6
 74
     0
 42
0.0000000001
 43
0.0000000001
 40
0.0000000000007174
 40
0.0000000000007174
 40
0.0000000000007174
 40
0.0000000000007174
 40
0.3271220088457754
 40
0.3271220088457754
 40
0.7812821286618843
 40
0.7812821286618843
 40
0.7812821286618843
 40
0.7812821286618843
 10
-364.9600141142404
 20
-635.9360696499944
 30
0.0
 10
-365.0484024618888
 20
-635.8994579976425
 30
0.0
 10
-365.2251791571849
 20
-635.8262346929394
 30
0.0
 10
-365.4074887632015
 20
-635.6957017822194
 30
0.0
 10
-365.4600141142398
 20
-635.5684620991608
 30
0.0
 10
-365.4600141142398
 20
-635.4360696499946
 30
0.0
  0
SPLINE
  5
107
330
1F
100
AcDbEntity
  8
Make2D$Visibile$Curve
 62
    18
420
        0
370
    -3
100
AcDbSpline
210
0.0
220
0.0
230
1.0
 70
    28
 71
     2
 72
     6
 73
     3
 74
     0
 42
0.0000000001
 43
0.0000000001
 40
0.0
 40
0.0
 40
0.0
 40
5.461684884238173
 40
5.461684884238173
 40
5.461684884238173
 10
-365.4599367938555
 20
-635.427209717853
 30
0.0
 41
0.925201983753589
 10
-365.4598139415497
 20
-632.6963672785411
 30
0.0
 41
0.925201983753589
 10
-365.4596910892439
 20
-629.965524839229
 30
0.0
 41
0.925201983753589
  0
SPLINE
  5
108
330
1F
100
AcDbEntity
  8
Make2D$Visibile$Curve
 62
    18
420
        0
370
    -3
100
AcDbSpline
210
0.0
220
0.0
230
1.0
 70
    28
 71
     2
 72
     6
 73
     3
 74
     0
 42
0.0000000001
 43
0.0000000001
 40
0.0
 40
0.0
 40
0.0
 40
5.461684884238173
 40
5.461684884238173
 40
5.461684884238173
 10
-335.2679804883815
 20
-629.9668830725756
 30
0.0
 41
0.9361709620409189
 10
-335.2681033406873
 20
-632.6977255118874
 30
0.0
 41
0.9361709620409189
 10
-335.2682261929932
 20
-635.4285679511993
 30
0.0
 41
0.9361709620409189
  0
SPLINE
  5
109
330
1F
100
AcDbEntity
  8
Make2D$Visibile$Curve
 62
    18
420
        0
370
    -3
100
AcDbSpline
210
0.0
220
0.0
230
1.0
 70
    12
 71
     2
 72
     6
 73
     3
 74
     0
 42
0.0000000001
 43
0.0000000001
 40
0.6185798327078633
 40
0.6185798327078633
 40
0.6185798327078633
 40
0.7941248096578791
 40
0.7941248096578791
 40
0.7941248096578791
 10
-339.8041896587591
 20
-635.905891375684
 30
0.0
 41
0.9616219469825362
 10
-339.8636057522359
 20
-635.93616538742
 30
0.0
 41
0.9656043270056032
 10
-339.9268427442989
 20
-635.9360696499948
 30
0.0
 41
1.0
  0
SPLINE
  5
10A
330
1F
100
AcDbEntity
  8
Make2D$Visibile$Curve
 62
    18
420
        0
370
    -3
100
AcDbSpline
210
0.0
220
0.0
230
1.0
 70
    28
 71
     4
 72
    10
 73
     5
 74
     0
 42
0.0000000001
 43
0.0000000001
 40
438.9083519900485
 40
438.9083519900485
 40
438.9083519900485
 40
438.9083519900485
 40
438.9083519900485
 40
457.446643673642
 40
457.446643673642
 40
457.446643673642
 40
457.446643673642
 40
457.446643673642
 10
-306.9696250080974
 20
876.2788176316526
 30
0.0
 41
1.0
 10
-310.9832830139118
 20
876.2783613887009
 30
0.0
 41
0.8568108607842306
 10
-314.9969410197262
 20
876.2779051457484
 30
0.0
 41
0.7341248511578142
 10
-319.0105990255406
 20
876.2774489027967
 30
0.0
 41
0.629006145643622
 10
-323.0242570313553
 20
876.2769926598442
 30
0.0
 41
0.538939297087483
  0
SPLINE
  5
10B
330
1F
100
AcDbEntity
  8
Make2D$Visibile$Curve
 62
    18
420
        0
370
    -3
100
AcDbSpline
210
0.0
220
0.0
230
1.0
 70
    28
 71
     4
 72
    10
 73
     5
 74
     0
 42
0.0000000001
 43
0.0000000001
 40
496.5968770630877
 40
496.5968770630877
 40
496.5968770630877
 40
496.5968770630877
 40
496.5968770630877
 40
497.8292154768079
 40
497.8292154768079
 40
497.8292154768079
 40
497.8292154768079
 40
497.8292154768079
 10
-345.9177078470341
 20
-903.424688934686
 30
0.0
 41
1.0
 10
-345.9689038167194
 20
-903.4246947542649
 30
0.0
 41
1.0
 10
-346.0200997864047
 20
-903.4247005738441
 30
0.0
 41
1.0
 10
-346.07129575609
 20
-903.4247063934233
 30
0.0
 41
1.0
 10
-346.1224917257753
 20
-903.4247122130023
 30
0.0
 41
1.0
  0
SPLINE
  5
10C
330
1F
100
AcDbEntity
  8
Make2D$Visibile$Curve
 62
    18
420
        0
370
    -3
100
AcDbSpline
210
0.0
220
0.0
230
1.0
 70
    28
 71
     2
 72
     6
 73
     3
 74
     0
 42
0.0000000001
 43
0.0000000001
 40
0.0
 40
0.0
 40
0.0
 40
169.8389169938403
 40
169.8389169938403
 40
169.8389169938403
 10
-346.1224917257753
 20
-903.4247122130023
 30
0.0
 41
1.0
 10
-346.1150812553926
 20
-769.6803909314984
 30
0.0
 41
1.0
 10
-346.10767078501
 20
-635.9360696499946
 30
0.0
 41
1.0
  0
SPLINE
  5
10D
330
1F
100
AcDbEntity
  8
Make2D$Visibile$Curve
 62
    18
420
        0
370
    -3
100
AcDbSpline
210
0.0
220
0.0
230
1.0
 70
    28
 71
     4
 72
    14
 73
     9
 74
     0
 42
0.0000000001
 43
0.0000000001
 40
497.8292154768079
 40
497.8292154768079
 40
497.8292154768079
 40
497.8292154768079
 40
497.8292154768079
 40
498.392957348048
 40
498.392957348048
 40
498.392957348048
 40
498.392957348048
 40
498.956699219288
 40
498.956699219288
 40
498.956699219288
 40
498.956699219288
 40
498.956699219288
 10
-346.1224917257753
 20
-903.4247122130023
 30
0.0
 41
1.0
 10
-346.1119992109802
 20
-903.4247110202908
 30
0.0
 41
0.8568108607842296
 10
-346.145296880132
 20
-903.4247148053234
 30
0.0
 41
0.7239337423615454
 10
-346.244157111324
 20
-903.4247260430233
 30
0.0
 41
0.629006145643622
 10
-346.3534761276761
 20
-903.4247384696005
 30
0.0
 41
0.538939297087483
 10
-346.4627951440281
 20
-903.4247508961778
 30
0.0
 41
0.6290061456436221
 10
-346.6100579747522
 20
-903.4247676359269
 30
0.0
 41
0.723933742361545
 10
-346.7588079206495
 20
-903.4247845447209
 30
0.0
 41
0.8568108607842309
 10
-346.8708445488542
 20
-903.4247972802154
 30
0.0
 41
1.0
  0
SPLINE
  5
10E
330
1F
100
AcDbEntity
  8
Make2D$Visibile$Curve
 62
    18
420
        0
370
    -3
100
AcDbSpline
210
0.0
220
0.0
230
1.0
 70
    28
 71
     4
 72
    10
 73
     5
 74
     0
 42
0.0000000001
 43
0.0000000001
 40
498.956699219288
 40
498.956699219288
 40
498.956699219288
 40
498.956699219288
 40
498.956699219288
 40
517.495019370789
 40
517.495019370789
 40
517.495019370789
 40
517.495019370789
 40
517.495019370789
 10
-346.8708445488542
 20
-903.4247972802154
 30
0.0
 41
1.0
 10
-350.8845087052082
 20
-903.4252535238668
 30
0.0
 41
0.8568108607842306
 10
-354.8981728615626
 20
-903.4257097675181
 30
0.0
 41
0.7341248511578142
 10
-358.9118370179168
 20
-903.4261660111692
 30
0.0
 41
0.629006145643622
 10
-362.9255011742713
 20
-903.4266222548206
 30
0.0
 41
0.538939297087483
  0
SPLINE
  5
10F
330
1F
100
AcDbEntity
  8
Make2D$Visibile$Curve
 62
    18
420
        0
370
    -3
100
AcDbSpline
210
0.0
220
0.0
230
1.0
 70
    28
 71
     2
 72
     6
 73
     3
 74
     0
 42
0.0000000001
 43
0.0000000001
 40
0.0
 40
0.0
 40
0.0
 40
1779.699093177391
 40
1779.699093177391
 40
1779.699093177391
 10
-379.4794335134961
 20
-903.4285039833956
 30
0.0
 41
0.5439830367541313
 10
-379.4301289625684
 20
-13.57895876062664
 30
0.0
 41
0.5439830367541313
 10
-379.3808244116408
 20
876.2705864621422
 30
0.0
 41
0.5439830367541313
  0
SPLINE
  5
110
330
1F
100
AcDbEntity
  8
Make2D$Visibile$Curve
 62
    18
420
        0
370
    -3
100
AcDbSpline
210
0.0
220
0.0
230
1.0
 70
    28
 71
     2
 72
     6
 73
     3
 74
     0
 42
0.0000000001
 43
0.0000000001
 40
0.0
 40
0.0
 40
0.0
 40
267.4878818595682
 40
267.4878818595682
 40
267.4878818595682
 10
-339.426823487741
 20
-903.4239510989664
 30
0.0
 41
0.5388739784751674
 10
-339.4194130384441
 20
-769.6800103744804
 30
0.0
 41
0.5388739784751674
 10
-339.4120025891473
 20
-635.9360696499946
 30
0.0
 41
0.5388739784751674
  0
SPLINE
  5
111
330
1F
100
AcDbEntity
  8
Make2D$Visibile$Curve
 62
    18
420
        0
370
    -3
100
AcDbSpline
210
0.0
220
0.0
230
1.0
 70
    28
 71
     4
 72
    14
 73
     9
 74
     0
 42
0.0000000001
 43
0.0000000001
 40
488.1143872129487
 40
488.1143872129487
 40
488.1143872129487
 40
488.1143872129487
 40
488.1143872129487
 40
492.0336291306761
 40
492.0336291306761
 40
492.0336291306761
 40
492.0336291306761
 40
496.5968770630877
 40
496.5968770630877
 40
496.5968770630877
 40
496.5968770630877
 40
496.5968770630877
 10
-339.4272527836795
 20
-903.4239511477656
 30
0.0
 41
0.5241544041270506
 10
-340.3564946035499
 20
-903.4240567771019
 30
0.0
 41
0.5053564382918977
 10
-341.3601244599245
 20
-903.4241708623198
 30
0.0
 41
0.5015545985069187
 10
-342.351738956078
 20
-903.4242835817206
 30
0.0
 41
0.5127488847721138
 10
-343.2493110102486
 20
-903.4243856110722
 30
0.0
 41
0.538939297087483
 10
-344.3032168295197
 20
-903.4245054112899
 30
0.0
 41
0.5934160326397342
 10
-345.1642063500538
 20
-903.4246032822098
 30
0.0
 41
0.6787410013759032
 10
-345.7174337675824
 20
-903.4246661690096
 30
0.0
 41
0.8083312146480763
 10
-345.9177078470341
 20
-903.424688934686
 30
0.0
 41
1.0
  0
SPLINE
  5
112
330
1F
100
AcDbEntity
  8
Make2D$Visibile$Curve
 62
    18
420
        0
370
    -3
100
AcDbSpline
210
0.0
220
0.0
230
1.0
 70
    28
 71
     4
 72
    14
 73
     9
 74
     0
 42
0.0000000001
 43
0.0000000001
 40
219.3354205142911
 40
219.3354205142911
 40
219.3354205142911
 40
219.3354205142911
 40
219.3354205142911
 40
237.8737406657922
 40
237.8737406657922
 40
237.8737406657922
 40
237.8737406657922
 40
239.0719747677367
 40
239.0719747677367
 40
239.0719747677367
 40
239.0719747677367
 40
239.0719747677367
 10
-362.9255011742713
 20
-903.4266222548206
 30
0.0
 41
0.538939297087483
 10
-366.9391653306255
 20
-903.4270784984718
 30
0.0
 41
0.538939297087483
 10
-370.9528294869796
 20
-903.427534742123
 30
0.0
 41
0.538939297087483
 10
-374.9664142258589
 20
-903.4279909767467
 30
0.0
 41
0.538939297087483
 10
-378.9798401297881
 20
-903.428447193315
 30
0.0
 41
0.538939297087483
 10
-379.193994054275
 20
-903.428471536749
 30
0.0
 41
0.507953680528344
 10
-379.3742834128411
 20
-903.4284920307098
 30
0.0
 41
0.4950154550524559
 10
-379.4794335134959
 20
-903.4285039833954
 30
0.0
 41
0.5050966275286248
 10
-379.4794335134961
 20
-903.4285039833953
 30
0.0
 41
0.5439830367540428
  0
SPLINE
  5
113
330
1F
100
AcDbEntity
  8
Make2D$Visibile$Curve
 62
    18
420
        0
370
    -3
100
AcDbSpline
210
0.0
220
0.0
230
1.0
 70
    28
 71
     4
 72
    14
 73
     9
 74
     0
 42
0.0000000001
 43
0.0000000001
 40
436.8139568625474
 40
436.8139568625474
 40
436.8139568625474
 40
436.8139568625474
 40
436.8139568625474
 40
437.861154426298
 40
437.861154426298
 40
437.861154426298
 40
437.861154426298
 40
438.9083519900485
 40
438.9083519900485
 40
438.9083519900485
 40
438.9083519900485
 40
438.9083519900485
 10
-305.5682340335721
 20
-903.4201023049773
 30
0.0
 41
1.0
 10
-305.5682340335722
 20
-903.4201023049778
 30
0.0
 41
0.7994154148863511
 10
-305.6597403900512
 20
-903.4201127067433
 30
0.0
 41
0.668555462618005
 10
-305.83618324204
 20
-903.4201327634613
 30
0.0
 41
0.5868707224667049
 10
-306.0682340626565
 20
-903.4201591412824
 30
0.0
 41
0.538939297087483
 10
-306.3002848832723
 20
-903.420185519103
 30
0.0
 41
0.5868707224667049
 10
-306.5682340897505
 20
-903.4202159775867
 30
0.0
 41
0.6685554626180052
 10
-306.8361832943816
 20
-903.4202464360704
 30
0.0
 41
0.7994154148863514
 10
-307.0682341099523
 20
-903.4202728138905
 30
0.0
 41
1.0
  0
SPLINE
  5
114
330
1F
100
AcDbEntity
  8
Make2D$Visibile$Curve
 62
    18
420
        0
370
    -3
100
AcDbSpline
210
0.0
220
0.0
230
1.0
 70
    28
 71
     4
 72
    10
 73
     5
 74
     0
 42
0.0000000001
 43
0.0000000001
 40
438.9083519900485
 40
438.9083519900485
 40
438.9083519900485
 40
438.9083519900485
 40
438.9083519900485
 40
457.446643673642
 40
457.446643673642
 40
457.446643673642
 40
457.446643673642
 40
457.446643673642
 10
-307.0682341099523
 20
-903.4202728138905
 30
0.0
 41
1.0
 10
-311.0818921157666
 20
-903.4207290568424
 30
0.0
 41
0.8568108607842306
 10
-315.0955501215811
 20
-903.4211852997945
 30
0.0
 41
0.7341248511578142
 10
-319.1092081273956
 20
-903.4216415427468
 30
0.0
 41
0.629006145643622
 10
-323.1228661332103
 20
-903.4220977856988
 30
0.0
 41
0.538939297087483
  0
SPLINE
  5
115
330
1F
100
AcDbEntity
  8
Make2D$Visibile$Curve
 62
    18
420
        0
370
    -3
100
AcDbSpline
210
0.0
220
0.0
230
1.0
 70
    28
 71
     4
 72
    14
 73
     9
 74
     0
 42
0.0000000001
 43
0.0000000001
 40
457.446643673642
 40
457.446643673642
 40
457.446643673642
 40
457.446643673642
 40
457.446643673642
 40
475.9849353572356
 40
475.9849353572356
 40
475.9849353572356
 40
475.9849353572356
 40
476.5258319506983
 40
476.5258319506983
 40
476.5258319506983
 40
476.5258319506983
 40
476.5258319506983
 10
-323.1228661332103
 20
-903.4220977856988
 30
0.0
 41
0.538939297087483
 10
-327.1365241390247
 20
-903.4225540286509
 30
0.0
 41
0.538939297087483
 10
-331.1501821448391
 20
-903.4230102716031
 30
0.0
 41
0.538939297087483
 10
-335.1638154744132
 20
-903.42346651175
 30
0.0
 41
0.538939297087483
 10
-339.1773994515064
 20
-903.4239227462871
 30
0.0
 41
0.538939297087483
 10
-339.2849076329585
 20
-903.4239349670219
 30
0.0
 41
0.538939297087483
 10
-339.3842684875403
 20
-903.4239462616289
 30
0.0
 41
0.5320604265027489
 10
-339.4268234877408
 20
-903.4239510989665
 30
0.0
 41
0.5381183358086034
 10
-339.4268234877412
 20
-903.4239510989664
 30
0.0
 41
0.5388739784751598
  0
SPLINE
  5
116
330
1F
100
AcDbEntity
  8
Make2D$Visibile$Curve
 62
    18
420
        0
370
    -3
100
AcDbSpline
210
0.0
220
0.0
230
1.0
 70
    28
 71
     4
 72
    10
 73
     5
 74
     0
 42
0.0000000001
 43
0.0000000001
 40
457.446643673642
 40
457.446643673642
 40
457.446643673642
 40
457.446643673642
 40
457.446643673642
 40
472.1620864655961
 40
472.1620864655961
 40
472.1620864655961
 40
472.1620864655961
 40
472.1620864655961
 10
-323.0242570313553
 20
876.2769926598442
 30
0.0
 41
0.538939297087483
 10
-326.2102439485479
 20
876.2766305004193
 30
0.0
 41
0.538939297087483
 10
-329.3962308657408
 20
876.2762683409936
 30
0.0
 41
0.538939297087483
 10
-332.5822054408106
 20
876.2759061829715
 30
0.0
 41
0.538939297087483
 10
-335.7681553316348
 20
876.2755440277555
 30
0.0
 41
0.538939297087483
  0
SPLINE
  5
117
330
1F
100
AcDbEntity
  8
Make2D$Visibile$Curve
 62
    18
420
        0
370
    -3
100
AcDbSpline
210
0.0
220
0.0
230
1.0
 70
    12
 71
     2
 72
     6
 73
     3
 74
     0
 42
0.0000000001
 43
0.0000000001
 40
1.006871270051634
 40
1.006871270051634
 40
1.006871270051634
 40
1.259567716740008
 40
1.259567716740008
 40
1.259567716740008
 10
-305.5347188773746
 20
-629.5820460915116
 30
0.0
 41
0.9150313384791968
 10
-305.4587755963554
 20
-629.5822691099784
 30
0.0
 41
0.9395076906949698
 10
-305.4249907237574
 20
-629.5824535139075
 30
0.0
 41
1.0
  0
SPLINE
  5
118
330
1F
100
AcDbEntity
  8
Make2D$Visibile$Curve
 62
    18
420
        0
370
    -3
100
AcDbSpline
210
0.0
220
0.0
230
1.0
 70
    28
 71
     2
 72
     6
 73
     3
 74
     0
 42
0.0000000001
 43
0.0000000001
 40
173.6420845005087
 40
173.6420845005087
 40
173.6420845005087
 40
173.8734450787031
 40
173.8734450787031
 40
173.8734450787031
 10
-346.1073389027692
 20
-629.9462521699684
 30
0.0
 41
1.0
 10
-346.1073288079644
 20
-629.76406092635
 30
0.0
 41
1.0
 10
-346.1073187131597
 20
-629.5818696827316
 30
0.0
 41
1.0
  0
SPLINE
  5
119
330
1F
100
AcDbEntity
  8
Make2D$Visibile$Curve
 62
    18
420
        0
370
    -3
100
AcDbSpline
210
0.0
220
0.0
230
1.0
 70
    28
 71
     2
 72
     6
 73
     3
 74
     0
 42
0.0000000001
 43
0.0000000001
 40
273.4573136978363
 40
273.4573136978363
 40
273.4573136978363
 40
273.8416473849973
 40
273.8416473849973
 40
273.8416473849973
 10
-339.4116718364294
 20
-629.9666378208896
 30
0.0
 41
0.5388739784751674
 10
-339.4116611888992
 20
-629.774470977604
 30
0.0
 41
0.5388739784751674
 10
-339.411650541369
 20
-629.5823041343184
 30
0.0
 41
0.5388739784751674
  0
SPLINE
  5
11A
330
1F
100
AcDbEntity
  8
Make2D$Visibile$Curve
 62
    18
420
        0
370
    -3
100
AcDbSpline
210
0.0
220
0.0
230
1.0
 70
    12
 71
     2
 72
     6
 73
     3
 74
     0
 42
0.0000000001
 43
0.0000000001
 40
-108.1588873453656
 40
-108.1588873453656
 40
-108.1588873453656
 40
-108.0721688058548
 40
-108.0721688058548
 40
-108.0721688058548
 10
-305.4513238820063
 20
870.3086697538452
 30
0.0
 41
0.9627228843600613
 10
-305.4353019336893
 20
870.3087190478815
 30
0.0
 41
0.979240686668472
 10
-305.4241783175074
 20
870.3087643833683
 30
0.0
 41
1.0
  0
SPLINE
  5
11B
330
1F
100
AcDbEntity
  8
Make2D$Visibile$Curve
 62
    18
420
        0
370
    -3
100
AcDbSpline
210
0.0
220
0.0
230
1.0
 70
    12
 71
     2
 72
     6
 73
     3
 74
     0
 42
0.0000000001
 43
0.0000000001
 40
-108.3298399177688
 40
-108.3298399177688
 40
-108.3298399177688
 40
-108.0721688058548
 40
-108.0721688058548
 40
-108.0721688058548
 10
-305.5368359787755
 20
-635.4281232584196
 30
0.0
 41
0.9140815975045788
 10
-305.4585142804605
 20
-635.4282936394368
 30
0.0
 41
0.9383168192305624
 10
-305.4240205853391
 20
-635.4284342221781
 30
0.0
 41
1.0
  0
SPLINE
  5
11C
330
1F
100
AcDbEntity
  8
Make2D$Visibile$Curve
 62
    18
420
        0
370
    -3
100
AcDbSpline
210
0.0
220
0.0
230
1.0
 70
    12
 71
     2
 72
     6
 73
     3
 74
     0
 42
0.0000000001
 43
0.0000000001
 40
-108.3199289114761
 40
-108.3199289114761
 40
-108.3199289114761
 40
-108.0721688058548
 40
-108.0721688058548
 40
-108.0721688058548
 10
-305.5308689196443
 20
-629.9664517919247
 30
0.0
 41
0.916001357089715
 10
-305.4572535091004
 20
-629.9666145090911
 30
0.0
 41
0.940689387844163
 10
-305.4241702243609
 20
-629.9667493435543
 30
0.0
 41
1.0
  0
SPLINE
  5
11D
330
1F
100
AcDbEntity
  8
Make2D$Visibile$Curve
 62
    18
420
        0
370
    -3
100
AcDbSpline
210
0.0
220
0.0
230
1.0
 70
    28
 71
     4
 72
    14
 73
     9
 74
     0
 42
0.0000000001
 43
0.0000000001
 40
221.8049957567724
 40
221.8049957567724
 40
221.8049957567724
 40
221.8049957567724
 40
221.8049957567724
 40
237.8737406657922
 40
237.8737406657922
 40
237.8737406657922
 40
237.8737406657922
 40
239.0719747677377
 40
239.0719747677377
 40
239.0719747677377
 40
239.0719747677377
 40
239.0719747677377
 10
-364.9656062753556
 20
876.2722250775125
 30
0.0
 41
0.538939297087483
 10
-368.4445880284084
 20
876.2718296126019
 30
0.0
 41
0.538939297087483
 10
-371.9235538842436
 20
876.2714341494983
 30
0.0
 41
0.538939297087483
 10
-375.4024521237794
 20
876.2710386940806
 30
0.0
 41
0.538939297087483
 10
-378.8812310279332
 20
876.2706432522281
 30
0.0
 41
0.538939297087483
 10
-379.0953849524203
 20
876.2706189087946
 30
0.0
 41
0.5079536805283181
 10
-379.2756743109865
 20
876.2705984148332
 30
0.0
 41
0.4950154550524343
 10
-379.3808244116412
 20
876.270586462148
 30
0.0
 41
0.5050966275286497
 10
-379.380824411641
 20
876.270586462148
 30
0.0
 41
0.5439830367541718
  0
SPLINE
  5
11E
330
1F
100
AcDbEntity
  8
Make2D$Visibile$Curve
 62
    18
420
        0
370
    -3
100
AcDbSpline
210
0.0
220
0.0
230
1.0
 70
    28
 71
     2
 72
     6
 73
     3
 74
     0
 42
0.0000000001
 43
0.0000000001
 40
1125.785216985572
 40
1125.785216985572
 40
1125.785216985572
 40
1126.211925993084
 40
1126.211925993084
 40
1126.211925993084
 10
-346.0242504256616
 20
869.6362848722147
 30
0.0
 41
1.0
 10
-346.0242318073466
 20
869.972308603433
 30
0.0
 41
1.0
 10
-346.0242131890316
 20
870.3083323346514
 30
0.0
 41
1.0
  0
SPLINE
  5
11F
330
1F
100
AcDbEntity
  8
Make2D$Visibile$Curve
 62
    18
420
        0
370
    -3
100
AcDbSpline
210
0.0
220
0.0
230
1.0
 70
    28
 71
     2
 72
     6
 73
     3
 74
     0
 42
0.0000000001
 43
0.0000000001
 40
1773.060238692844
 40
1773.060238692844
 40
1773.060238692844
 40
1773.732610922045
 40
1773.732610922045
 40
1773.732610922045
 10
-339.3285822297984
 20
869.6362848722144
 30
0.0
 41
0.5388739784751674
 10
-339.3285636024862
 20
869.9724709862988
 30
0.0
 41
0.5388739784751674
 10
-339.3285449751739
 20
870.3086571003831
 30
0.0
 41
0.5388739784751674
  0
SPLINE
  5
120
330
1F
100
AcDbEntity
  8
Make2D$Visibile$Curve
 62
    18
420
        0
370
    -3
100
AcDbSpline
210
0.0
220
0.0
230
1.0
 70
    28
 71
     2
 72
     8
 73
     5
 74
     0
 42
0.0000000001
 43
0.0000000001
 40
34.75979364935763
 40
34.75979364935763
 40
34.75979364935763
 40
49.50991129075894
 40
49.50991129075894
 40
72.43713932642332
 40
72.43713932642332
 40
72.43713932642332
 10
-362.8150645033396
 20
876.2780846898085
 30
0.0
 41
0.8655900076121543
 10
-358.5456281522551
 20
876.2780846898086
 30
0.0
 41
0.8115686105992839
 10
-350.3640823135217
 20
876.2780846898086
 30
0.0
 41
1.0
 10
-335.7681556204374
 20
876.2780846898086
 30
0.0
 41
0.7071067811865361
 10
-335.7681556204384
 20
876.2780846898086
 30
0.0
 41
1.0
  0
SPLINE
  5
121
330
1F
100
AcDbEntity
  8
Make2D$Visibile$Curve
 62
    18
420
        0
370
    -3
100
AcDbSpline
210
0.0
220
0.0
230
1.0
 70
    28
 71
     4
 72
    14
 73
     9
 74
     0
 42
0.0000000001
 43
0.0000000001
 40
436.8139568625474
 40
436.8139568625474
 40
436.8139568625474
 40
436.8139568625474
 40
436.8139568625474
 40
437.861154426298
 40
437.861154426298
 40
437.861154426298
 40
437.861154426298
 40
438.9083519900485
 40
438.9083519900485
 40
438.9083519900485
 40
438.9083519900485
 40
438.9083519900485
 10
-305.4696249317172
 20
876.2789881405661
 30
0.0
 41
1.0
 10
-305.4696249317174
 20
876.2789881405655
 30
0.0
 41
0.7994154148863511
 10
-305.5611312881962
 20
876.2789777388002
 30
0.0
 41
0.668555462618005
 10
-305.7375741401852
 20
876.278957682082
 30
0.0
 41
0.5868707224667049
 10
-305.9696249608016
 20
876.2789313042609
 30
0.0
 41
0.538939297087483
 10
-306.2016757814175
 20
876.2789049264404
 30
0.0
 41
0.5868707224667049
 10
-306.4696249878956
 20
876.2788744679567
 30
0.0
 41
0.6685554626180052
 10
-306.7375741925268
 20
876.2788440094727
 30
0.0
 41
0.7994154148863514
 10
-306.9696250080974
 20
876.2788176316526
 30
0.0
 41
1.0
  0
SPLINE
  5
122
330
1F
100
AcDbEntity
  8
Make2D$Visibile$Curve
 62
    18
420
        0
370
    -3
100
AcDbSpline
210
0.0
220
0.0
230
1.0
 70
    28
 71
     2
 72
     6
 73
     3
 74
     0
 42
0.0000000001
 43
0.0000000001
 40
0.0
 40
0.0
 40
0.0
 40
15.99999999999886
 40
15.99999999999886
 40
15.99999999999886
 10
-455.5386341249689
 20
-924.1479655956116
 30
0.0
 41
1.0
 10
-455.5386341249689
 20
-916.1479655956122
 30
0.0
 41
1.0
 10
-455.5386341249689
 20
-908.1479655956127
 30
0.0
 41
1.0
  0
SPLINE
  5
123
330
1F
100
AcDbEntity
  8
Make2D$Visibile$Curve
 62
    18
420
        0
370
    -3
100
AcDbSpline
210
0.0
220
0.0
230
1.0
 70
    28
 71
     2
 72
     6
 73
     3
 74
     0
 42
0.0000000001
 43
0.0000000001
 40
0.0
 40
0.0
 40
0.0
 40
15.99999999999886
 40
15.99999999999886
 40
15.99999999999886
 10
-205.5386341249689
 20
-908.1479655956127
 30
0.0
 41
1.0
 10
-205.5386341249689
 20
-916.1479655956122
 30
0.0
 41
1.0
 10
-205.5386341249689
 20
-924.1479655956116
 30
0.0
 41
1.0
  0
SPLINE
  5
124
330
1F
100
AcDbEntity
  8
Make2D$Visibile$Curve
 62
    18
420
        0
370
    -3
100
AcDbSpline
210
0.0
220
0.0
230
1.0
 70
    28
 71
     2
 72
     8
 73
     5
 74
     0
 42
0.0000000001
 43
0.0000000001
 40
196.3495408493621
 40
196.3495408493621
 40
196.3495408493621
 40
392.6990816987241
 40
392.6990816987241
 40
589.0486225480862
 40
589.0486225480862
 40
589.0486225480862
 10
-455.5386341249689
 20
-924.1479655956116
 30
0.0
 41
1.0
 10
-455.5386341249688
 20
-924.1479655956116
 30
0.0
 41
0.7071067811865476
 10
-330.5386341249689
 20
-924.1479655956116
 30
0.0
 41
1.0
 10
-205.5386341249688
 20
-924.1479655956116
 30
0.0
 41
0.7071067811865476
 10
-205.5386341249689
 20
-924.1479655956116
 30
0.0
 41
1.0
  0
SPLINE
  5
125
330
1F
100
AcDbEntity
  8
Make2D$Visibile$Curve
 62
    18
420
        0
370
    -3
100
AcDbSpline
210
0.0
220
0.0
230
1.0
 70
    28
 71
     2
 72
     6
 73
     3
 74
     0
 42
0.0000000001
 43
0.0000000001
 40
0.0
 40
0.0
 40
0.0
 40
219.9114857512855
 40
219.9114857512855
 40
219.9114857512855
 10
-330.5386341249689
 20
-908.1479655956123
 30
0.0
 41
1.0
 10
-470.5386341249688
 20
-908.1479655956123
 30
0.0
 41
0.7071067811865476
 10
-470.5386341249689
 20
-908.1479655956123
 30
0.0
 41
1.0
  0
SPLINE
  5
126
330
1F
100
AcDbEntity
  8
Make2D$Visibile$Curve
 62
    18
420
        0
370
    -3
100
AcDbSpline
210
0.0
220
0.0
230
1.0
 70
    28
 71
     2
 72
     6
 73
     3
 74
     0
 42
0.0000000001
 43
0.0000000001
 40
659.7344572538566
 40
659.7344572538566
 40
659.7344572538566
 40
879.645943005142
 40
879.645943005142
 40
879.645943005142
 10
-190.5386341249689
 20
-908.1479655956123
 30
0.0
 41
1.0
 10
-190.5386341249689
 20
-908.1479655956123
 30
0.0
 41
0.7071067811865476
 10
-330.5386341249689
 20
-908.1479655956123
 30
0.0
 41
1.0
  0
SPLINE
  5
127
330
1F
100
AcDbEntity
  8
Make2D$Visibile$Curve
 62
    18
420
        0
370
    -3
100
AcDbSpline
210
0.0
220
0.0
230
1.0
 70
    12
 71
     2
 72
    12
 73
     9
 74
     0
 42
0.0000000001
 43
0.0000000001
 40
12.87227927709032
 40
12.87227927709032
 40
12.87227927709032
 40
18.01310110269667
 40
18.01310110269667
 40
34.76663448865333
 40
34.76663448865333
 40
51.52016787461
 40
51.52016787461
 40
60.3575055500974
 40
60.3575055500974
 40
60.3575055500974
 10
-335.2675936875754
 20
-629.5826326080016
 30
0.0
 41
0.9361709620647535
 10
-335.2675936875155
 20
-629.5826132037585
 30
0.0
 41
0.9539572686153333
 10
-336.1105010474711
 20
-629.5825440995507
 30
0.0
 41
1.0
 10
-339.1936113746416
 20
-629.5822913364282
 30
0.0
 41
0.8499503652137049
 10
-348.477866524703
 20
-629.5817231137921
 30
0.0
 41
1.0
 10
-357.7621216747646
 20
-629.5811548911562
 30
0.0
 41
0.8499503652137049
 10
-362.938864932902
 20
-629.5809021279119
 30
0.0
 41
1.0
 10
-365.4593042883311
 20
-629.5807790631977
 30
0.0
 41
0.9208501717135337
 10
-365.4593042884375
 20
-629.5808136193635
 30
0.0
 41
0.9252019837569416
  0
SPLINE
  5
128
330
1F
100
AcDbEntity
  8
Make2D$Visibile$Curve
 62
    18
420
        0
370
    -3
100
AcDbSpline
210
0.0
220
0.0
230
1.0
 70
    24
 71
     3
 72
    17
 73
    13
 74
     0
 42
0.0000000001
 43
0.0000000001
 40
34.56316840057112
 40
34.56316840057112
 40
34.56316840057112
 40
34.56316840057112
 40
39.85975638975093
 40
39.85975638975093
 40
39.85975638975093
 40
57.48692341191948
 40
57.48692341191948
 40
57.48692341191948
 40
75.11409042700397
 40
75.11409042700397
 40
75.11409042700397
 40
84.43184514607748
 40
84.43184514607748
 40
84.43184514607748
 40
84.43184514607748
 10
-335.2625862814439
 20
869.6362848722147
 30
0.0
 10
-335.26234435986
 20
869.6362848722147
 30
0.0
 10
-335.5383696320359
 20
869.6362848722147
 30
0.0
 10
-336.1058815191944
 20
869.6362848722147
 30
0.0
 10
-337.9945741723669
 20
869.6362848722147
 30
0.0
 10
-342.7857747220613
 20
869.6362848722147
 30
0.0
 10
-348.473246998956
 20
869.6362848722147
 30
0.0
 10
-354.1607192736478
 20
869.6362848722147
 30
0.0
 10
-359.7630073013275
 20
869.6362848722147
 30
0.0
 10
-362.9342454096846
 20
869.6362848722147
 30
0.0
 10
-364.6105680328003
 20
869.6362848722147
 30
0.0
 10
-365.4546959513452
 20
869.6362848722147
 30
0.0
 10
-365.4546959513452
 20
869.6362848722147
 30
0.0
  0
SPLINE
  5
129
330
1F
100
AcDbEntity
  8
Make2D$Visibile$Curve
 62
    18
420
        0
370
    -3
100
AcDbSpline
210
0.0
220
0.0
230
1.0
 70
    12
 71
     2
 72
    12
 73
     9
 74
     0
 42
0.0000000001
 43
0.0000000001
 40
-96.38708891252396
 40
-96.38708891252396
 40
-96.38708891252396
 40
-82.5548254999
 40
-82.5548254999
 40
-68.72256208727603
 40
-68.72256208727603
 40
-54.89029867465207
 40
-54.89029867465207
 40
-48.94503856010866
 40
-48.94503856010866
 40
-48.94503856010866
 10
-335.2679804883815
 20
-629.9668830725755
 30
0.0
 41
1.0
 10
-335.2679804864848
 20
-629.9668409106703
 30
0.0
 41
0.8968732116569721
 10
-341.1740358807896
 20
-629.9665495485663
 30
0.0
 41
1.0
 10
-347.0800912750944
 20
-629.9662581864621
 30
0.0
 41
0.8968732116569721
 10
-354.2708686421914
 20
-629.9659456073628
 30
0.0
 41
1.0
 10
-361.4616460092885
 20
-629.9656330282633
 30
0.0
 41
0.8968732116569721
 10
-364.3105506817953
 20
-629.9655438171146
 30
0.0
 41
1.0
 10
-365.4596997546988
 20
-629.9655078324398
 30
0.0
 41
0.9556749634396633
 10
-365.4596910891808
 20
-629.9655248394755
 30
0.0
 41
0.9494527107949863
  0
SPLINE
  5
12A
330
1F
100
AcDbEntity
  8
Make2D$Visibile$Curve
 62
    18
420
        0
370
    -3
100
AcDbSpline
210
0.0
220
0.0
230
1.0
 70
    28
 71
     2
 72
     8
 73
     5
 74
     0
 42
0.0000000001
 43
0.0000000001
 40
26.58268325509377
 40
26.58268325509377
 40
26.58268325509377
 40
49.50991129075832
 40
49.50991129075832
 40
72.43713932642288
 40
72.43713932642288
 40
72.43713932642288
 10
-364.9600141142409
 20
-635.9360696499946
 30
0.0
 41
1.0
 10
-364.9600141142416
 20
-635.9360696499946
 30
0.0
 41
0.7071067811865318
 10
-350.3640874211569
 20
-635.9360696499946
 30
0.0
 41
1.0
 10
-335.7681607280724
 20
-635.9360696499946
 30
0.0
 41
0.7071067811865318
 10
-335.7681607280729
 20
-635.9360696499946
 30
0.0
 41
1.0
  0
SPLINE
  5
12B
330
1F
100
AcDbEntity
  8
Make2D$Visibile$Curve
 62
    18
420
        0
370
    -3
100
AcDbSpline
210
0.0
220
0.0
230
1.0
 70
    28
 71
     2
 72
     6
 73
     3
 74
     0
 42
0.0000000001
 43
0.0000000001
 40
0.0
 40
0.0
 40
0.0
 40
1129.999999999981
 40
1129.999999999981
 40
1129.999999999981
 10
-305.5682340335721
 20
-903.4201023049773
 30
0.0
 41
1.0
 10
-305.5189294826445
 20
-13.57055708220832
 30
0.0
 41
1.0
 10
-305.4696249317168
 20
876.2789881405606
 30
0.0
 41
1.0
  0
SPLINE
  5
12C
330
1F
100
AcDbEntity
  8
Make2D$Visibile$Curve
 62
    18
420
        0
370
    -3
100
AcDbSpline
210
0.0
220
0.0
230
1.0
 70
    28
 71
     2
 72
     6
 73
     3
 74
     0
 42
0.0000000001
 43
0.0000000001
 40
0.0
 40
0.0
 40
0.0
 40
5.461684884238173
 40
5.461684884238173
 40
5.461684884238173
 10
364.4631194612112
 20
-629.9661184597865
 30
0.0
 41
0.9690155274770401
 10
364.4631349274711
 20
-632.6969608990984
 30
0.0
 41
0.9690155274770401
 10
364.4631503937309
 20
-635.4278033384104
 30
0.0
 41
0.9690155274770401
  0
SPLINE
  5
12D
330
1F
100
AcDbEntity
  8
Make2D$Visibile$Curve
 62
    18
420
        0
370
    -3
100
AcDbSpline
210
0.0
220
0.0
230
1.0
 70
    28
 71
     2
 72
     6
 73
     3
 74
     0
 42
0.0000000001
 43
0.0000000001
 40
0.0
 40
0.0
 40
0.0
 40
5.461684884238173
 40
5.461684884238173
 40
5.461684884238173
 10
334.2714374561787
 20
-635.4282389719556
 30
0.0
 41
0.9350074730268609
 10
334.2714219899188
 20
-632.6973965326437
 30
0.0
 41
0.9350074730268609
 10
334.271406523659
 20
-629.9665540933319
 30
0.0
 41
0.9350074730268609
  0
SPLINE
  5
12E
330
1F
100
AcDbEntity
  8
Make2D$Visibile$Curve
 62
    18
420
        0
370
    -3
100
AcDbSpline
210
0.0
220
0.0
230
1.0
 70
    28
 71
     2
 72
     6
 73
     3
 74
     0
 42
0.0000000001
 43
0.0000000001
 40
0.0
 40
0.0
 40
0.0
 40
5.461684884238173
 40
5.461684884238173
 40
5.461684884238173
 10
265.5933019607553
 20
-635.4272579596222
 30
0.0
 41
0.9833643848034229
 10
265.5934160861179
 20
-632.6964155203103
 30
0.0
 41
0.9833643848034229
 10
265.5935302114805
 20
-629.9655730809984
 30
0.0
 41
0.9833643848034229
  0
SPLINE
  5
12F
330
1F
100
AcDbEntity
  8
Make2D$Visibile$Curve
 62
    18
420
        0
370
    -3
100
AcDbSpline
210
0.0
220
0.0
230
1.0
 70
    28
 71
     2
 72
     6
 73
     3
 74
     0
 42
0.0000000001
 43
0.0000000001
 40
0.0
 40
0.0
 40
0.0
 40
5.46168488423823
 40
5.46168488423823
 40
5.46168488423823
 10
295.7852408165293
 20
-629.9668348308052
 30
0.0
 41
0.9467468903751067
 10
295.7851266911666
 20
-632.6976772701172
 30
0.0
 41
0.9467468903751067
 10
295.7850125658039
 20
-635.4285197094291
 30
0.0
 41
0.9467468903751067
  0
SPLINE
  5
130
330
1F
100
AcDbEntity
  8
Make2D$Visibile$Curve
 62
    18
420
        0
370
    -3
100
AcDbSpline
210
0.0
220
0.0
230
1.0
 70
    12
 71
     2
 72
     6
 73
     3
 74
     0
 42
0.0000000001
 43
0.0000000001
 40
2.356194490193158
 40
2.356194490193158
 40
2.356194490193158
 40
2.48412368961825
 40
2.48412368961825
 40
2.48412368961825
 10
273.3913507992975
 20
876.278084689809
 30
0.0
 41
1.0
 10
273.3608531844366
 20
876.2775523812151
 30
0.0
 41
0.9522922299210373
 10
273.3312984041343
 20
876.2624934684965
 30
0.0
 41
0.9201261738847031
  0
SPLINE
  5
131
330
1F
100
AcDbEntity
  8
Make2D$Visibile$Curve
 62
    18
420
        0
370
    -3
100
AcDbSpline
210
0.0
220
0.0
230
1.0
 70
    28
 71
     2
 72
     6
 73
     3
 74
     0
 42
0.0000000001
 43
0.0000000001
 40
0.0
 40
0.0
 40
0.0
 40
5.461684884238173
 40
5.461684884238173
 40
5.461684884238173
 10
265.5935378330221
 20
870.3075881208139
 30
0.0
 41
0.9833643848034229
 10
265.5934237076594
 20
873.0384305601254
 30
0.0
 41
0.9833643848034229
 10
265.5933095822968
 20
875.7692729994369
 30
0.0
 41
0.9833643848034229
  0
SPLINE
  5
132
330
1F
100
AcDbEntity
  8
Make2D$Visibile$Curve
 62
    18
420
        0
370
    -3
100
AcDbSpline
210
0.0
220
0.0
230
1.0
 70
     8
 71
     3
 72
    10
 73
     6
 74
     0
 42
0.0000000001
 43
0.0000000001
 40
0.0
 40
0.0
 40
0.0
 40
0.0
 40
0.6054162796170871
 40
0.6054162796170871
 40
0.8108140867567927
 40
0.8108140867567927
 40
0.8108140867567927
 40
0.8108140867567927
 10
265.5932326898146
 20
875.7780846898095
 30
0.0
 10
265.5932326898146
 20
875.9104771389757
 30
0.0
 10
265.6457580408528
 20
876.0377168220339
 30
0.0
 10
265.7715436893313
 20
876.1635024705124
 30
0.0
 10
266.0755063815188
 20
876.2780846898086
 30
0.0
 10
266.0932326898146
 20
876.278084689809
 30
0.0
  0
SPLINE
  5
133
330
1F
100
AcDbEntity
  8
Make2D$Visibile$Curve
 62
    18
420
        0
370
    -3
100
AcDbSpline
210
0.0
220
0.0
230
1.0
 70
    28
 71
     2
 72
     6
 73
     3
 74
     0
 42
0.0000000001
 43
0.0000000001
 40
0.0
 40
0.0
 40
0.0
 40
5.461684884237719
 40
5.461684884237719
 40
5.461684884237719
 10
295.7850201873456
 20
875.7705347492443
 30
0.0
 41
0.9467468903751067
 10
295.7851343127082
 20
873.0396923099323
 30
0.0
 41
0.9467468903751067
 10
295.7852484380709
 20
870.3088498706203
 30
0.0
 41
0.9467468903751067
  0
SPLINE
  5
134
330
1F
100
AcDbEntity
  8
Make2D$Visibile$Curve
 62
    18
420
        0
370
    -3
100
AcDbSpline
210
0.0
220
0.0
230
1.0
 70
     8
 71
     3
 72
    10
 73
     6
 74
     0
 42
0.0000000001
 43
0.0000000001
 40
0.0000000000004489
 40
0.0000000000004489
 40
0.0000000000004489
 40
0.0000000000004489
 40
0.3271220088451458
 40
0.3271220088451458
 40
0.7812821286618336
 40
0.7812821286618336
 40
0.7812821286618336
 40
0.7812821286618336
 10
363.9632161118802
 20
876.2780846898095
 30
0.0
 10
364.0516044595288
 20
876.2414730374576
 30
0.0
 10
364.228381154825
 20
876.1682497327538
 30
0.0
 10
364.4106907608418
 20
876.0377168220339
 30
0.0
 10
364.4632161118798
 20
875.9104771389757
 30
0.0
 10
364.4632161118798
 20
875.7780846898095
 30
0.0
  0
SPLINE
  5
135
330
1F
100
AcDbEntity
  8
Make2D$Visibile$Curve
 62
    18
420
        0
370
    -3
100
AcDbSpline
210
0.0
220
0.0
230
1.0
 70
    28
 71
     2
 72
     6
 73
     3
 74
     0
 42
0.0000000001
 43
0.0000000001
 40
0.0
 40
0.0
 40
0.0
 40
5.461684884237946
 40
5.461684884237946
 40
5.461684884237946
 10
364.4631439974526
 20
875.7698183782253
 30
0.0
 41
0.9690155274770401
 10
364.4631285311928
 20
873.0389759389136
 30
0.0
 41
0.9690155274770401
 10
364.463113064933
 20
870.3081334996018
 30
0.0
 41
0.9690155274770401
  0
SPLINE
  5
136
330
1F
100
AcDbEntity
  8
Make2D$Visibile$Curve
 62
    18
420
        0
370
    -3
100
AcDbSpline
210
0.0
220
0.0
230
1.0
 70
    28
 71
     2
 72
     6
 73
     3
 74
     0
 42
0.0000000001
 43
0.0000000001
 40
0.0
 40
0.0
 40
0.0
 40
5.461684884237946
 40
5.461684884237946
 40
5.461684884237946
 10
334.2714001273808
 20
870.3085691331472
 30
0.0
 41
0.9350074730268609
 10
334.2714155936406
 20
873.0394115724589
 30
0.0
 41
0.9350074730268609
 10
334.2714310599005
 20
875.7702540117705
 30
0.0
 41
0.9350074730268609
  0
SPLINE
  5
137
330
1F
100
AcDbEntity
  8
Make2D$Visibile$Curve
 62
    18
420
        0
370
    -3
100
AcDbSpline
210
0.0
220
0.0
230
1.0
 70
    28
 71
     2
 72
     6
 73
     3
 74
     0
 42
0.0000000001
 43
0.0000000001
 40
-21.46891487643688
 40
-21.46891487643688
 40
-21.46891487643688
 40
-21.30282083432376
 40
-21.30282083432376
 40
-21.30282083432376
 10
334.7416323191378
 20
-629.582453513907
 30
0.0
 41
1.0
 10
334.7620397855055
 20
-629.5824535139072
 30
0.0
 41
0.9700291520002404
 10
334.7620397855058
 20
-629.582453513907
 30
0.0
 41
0.9558668364792984
  0
SPLINE
  5
138
330
1F
100
AcDbEntity
  8
Make2D$Visibile$Curve
 62
    18
420
        0
370
    -3
100
AcDbSpline
210
0.0
220
0.0
230
1.0
 70
    28
 71
     2
 72
     6
 73
     3
 74
     0
 42
0.0000000001
 43
0.0000000001
 40
375.705877858804
 40
375.705877858804
 40
375.705877858804
 40
1874.923771457588
 40
1874.923771457588
 40
1874.923771457588
 10
364.4443372373693
 20
869.6362848683054
 30
0.0
 41
0.9690155273774721
 10
364.4533662936469
 20
120.0273381268496
 30
0.0
 41
0.9690155273774721
 10
364.4623953499245
 20
-629.5816086146064
 30
0.0
 41
0.9690155273774721
  0
SPLINE
  5
139
330
1F
100
AcDbEntity
  8
Make2D$Visibile$Curve
 62
    18
420
        0
370
    -3
100
AcDbSpline
210
0.0
220
0.0
230
1.0
 70
    28
 71
     2
 72
     8
 73
     5
 74
     0
 42
0.0000000001
 43
0.0000000001
 40
0.0
 40
0.0
 40
0.0
 40
196.3495408493621
 40
196.3495408493621
 40
392.6990816987241
 40
392.6990816987241
 40
392.6990816987241
 10
190.0282983631985
 20
-924.1479655956111
 30
0.0
 41
1.0
 10
190.0282983631985
 20
-924.1479655956113
 30
0.0
 41
0.7071067811865476
 10
315.0282983631985
 20
-924.1479655956111
 30
0.0
 41
1.0
 10
440.0282983631986
 20
-924.1479655956113
 30
0.0
 41
0.7071067811865476
 10
440.0282983631985
 20
-924.1479655956111
 30
0.0
 41
1.0
  0
SPLINE
  5
13A
330
1F
100
AcDbEntity
  8
Make2D$Visibile$Curve
 62
    18
420
        0
370
    -3
100
AcDbSpline
210
0.0
220
0.0
230
1.0
 70
    28
 71
     2
 72
     6
 73
     3
 74
     0
 42
0.0000000001
 43
0.0000000001
 40
0.0
 40
0.0
 40
0.0
 40
15.99999999999886
 40
15.99999999999886
 40
15.99999999999886
 10
190.0282983631985
 20
-924.1479655956111
 30
0.0
 41
1.0
 10
190.0282983631985
 20
-916.1479655956117
 30
0.0
 41
1.0
 10
190.0282983631985
 20
-908.1479655956123
 30
0.0
 41
1.0
  0
SPLINE
  5
13B
330
1F
100
AcDbEntity
  8
Make2D$Visibile$Curve
 62
    18
420
        0
370
    -3
100
AcDbSpline
210
0.0
220
0.0
230
1.0
 70
    28
 71
     2
 72
     6
 73
     3
 74
     0
 42
0.0000000001
 43
0.0000000001
 40
0.0
 40
0.0
 40
0.0
 40
15.99999999999886
 40
15.99999999999886
 40
15.99999999999886
 10
440.0282983631985
 20
-908.1479655956123
 30
0.0
 41
1.0
 10
440.0282983631985
 20
-916.1479655956117
 30
0.0
 41
1.0
 10
440.0282983631985
 20
-924.1479655956111
 30
0.0
 41
1.0
  0
SPLINE
  5
13C
330
1F
100
AcDbEntity
  8
Make2D$Visibile$Curve
 62
    18
420
        0
370
    -3
100
AcDbSpline
210
0.0
220
0.0
230
1.0
 70
    28
 71
     2
 72
     8
 73
     5
 74
     0
 42
0.0000000001
 43
0.0000000001
 40
0.0
 40
0.0
 40
0.0
 40
219.9114857512855
 40
219.9114857512855
 40
439.822971502571
 40
439.822971502571
 40
439.822971502571
 10
455.028298363198
 20
-904.147965595612
 30
0.0
 41
1.0
 10
455.0282983631982
 20
-904.1479655956122
 30
0.0
 41
0.7071067811865476
 10
315.028298363198
 20
-904.147965595612
 30
0.0
 41
1.0
 10
175.0282983631982
 20
-904.1479655956122
 30
0.0
 41
0.7071067811865476
 10
175.028298363198
 20
-904.147965595612
 30
0.0
 41
1.0
  0
SPLINE
  5
13D
330
1F
100
AcDbEntity
  8
Make2D$Visibile$Curve
 62
    18
420
        0
370
    -3
100
AcDbSpline
210
0.0
220
0.0
230
1.0
 70
    28
 71
     2
 72
     6
 73
     3
 74
     0
 42
0.0000000001
 43
0.0000000001
 40
0.0
 40
0.0
 40
0.0
 40
3.999999999999659
 40
3.999999999999659
 40
3.999999999999659
 10
455.028298363198
 20
-904.147965595612
 30
0.0
 41
1.0
 10
455.028298363198
 20
-906.1479655956119
 30
0.0
 41
1.0
 10
455.028298363198
 20
-908.1479655956118
 30
0.0
 41
1.0
  0
SPLINE
  5
13E
330
1F
100
AcDbEntity
  8
Make2D$Visibile$Curve
 62
    18
420
        0
370
    -3
100
AcDbSpline
210
0.0
220
0.0
230
1.0
 70
    28
 71
     2
 72
     6
 73
     3
 74
     0
 42
0.0000000001
 43
0.0000000001
 40
0.0
 40
0.0
 40
0.0
 40
3.999999999999659
 40
3.999999999999659
 40
3.999999999999659
 10
175.028298363198
 20
-908.1479655956118
 30
0.0
 41
1.0
 10
175.028298363198
 20
-906.1479655956119
 30
0.0
 41
1.0
 10
175.028298363198
 20
-904.147965595612
 30
0.0
 41
1.0
  0
SPLINE
  5
13F
330
1F
100
AcDbEntity
  8
Make2D$Visibile$Curve
 62
    18
420
        0
370
    -3
100
AcDbSpline
210
0.0
220
0.0
230
1.0
 70
    28
 71
     2
 72
     6
 73
     3
 74
     0
 42
0.0000000001
 43
0.0000000001
 40
0.0
 40
0.0
 40
0.0
 40
1499.218477032238
 40
1499.218477032238
 40
1499.218477032238
 10
334.2706824123724
 20
-629.582192028695
 30
0.0
 41
0.9350074731357396
 10
334.261653352581
 20
120.0270464294879
 30
0.0
 41
0.9350074731357396
 10
334.2526242927897
 20
869.6362848876707
 30
0.0
 41
0.9350074731357396
  0
SPLINE
  5
140
330
1F
100
AcDbEntity
  8
Make2D$Visibile$Curve
 62
    18
420
        0
370
    -3
100
AcDbSpline
210
0.0
220
0.0
230
1.0
 70
    28
 71
     2
 72
     8
 73
     5
 74
     0
 42
0.0000000001
 43
0.0000000001
 40
18.94039453821616
 40
18.94039453821616
 40
18.94039453821616
 40
34.22515291448744
 40
34.22515291448744
 40
49.50991129075871
 40
49.50991129075871
 40
49.50991129075871
 10
342.0694369359921
 20
-635.9360696499941
 30
0.0
 41
1.0
 10
349.3674002821604
 20
-635.9360696499941
 30
0.0
 41
0.8660264368477151
 10
356.6653113951602
 20
-635.9360696499941
 30
0.0
 41
1.0
 10
363.9632225081596
 20
-635.9360696499941
 30
0.0
 41
0.8660264368477151
 10
363.9632225081596
 20
-635.9360696499941
 30
0.0
 41
1.0
  0
SPLINE
  5
141
330
1F
100
AcDbEntity
  8
Make2D$Visibile$Curve
 62
    18
420
        0
370
    -3
100
AcDbSpline
210
0.0
220
0.0
230
1.0
 70
    12
 71
     2
 72
     6
 73
     3
 74
     0
 42
0.0000000001
 43
0.0000000001
 40
-150.3897717846229
 40
-150.3897717846229
 40
-150.3897717846229
 40
-134.5813085159163
 40
-134.5813085159163
 40
-134.5813085159163
 10
341.8194476577896
 20
-629.9656585681514
 30
0.0
 41
1.0
 10
334.2714087955849
 20
-629.9614318929335
 30
0.0
 41
0.8660233245748746
 10
334.2714062049099
 20
-629.9565426966378
 30
0.0
 41
1.0
  0
SPLINE
  5
142
330
1F
100
AcDbEntity
  8
Make2D$Visibile$Curve
 62
    18
420
        0
370
    -3
100
AcDbSpline
210
0.0
220
0.0
230
1.0
 70
    28
 71
     2
 72
     6
 73
     3
 74
     0
 42
0.0000000001
 43
0.0000000001
 40
3.655455219430184
 40
3.655455219430184
 40
3.655455219430184
 40
18.94039453821616
 40
18.94039453821616
 40
18.94039453821616
 10
334.7713691219915
 20
-635.9360696499941
 30
0.0
 41
1.0
 10
334.7713691219912
 20
-635.9360696499942
 30
0.0
 41
0.8660233376467822
 10
342.0694369359921
 20
-635.9360696499941
 30
0.0
 41
1.0
  0
SPLINE
  5
143
330
1F
100
AcDbEntity
  8
Make2D$Visibile$Curve
 62
    18
420
        0
370
    -3
100
AcDbSpline
210
0.0
220
0.0
230
1.0
 70
    12
 71
     2
 72
     8
 73
     5
 74
     0
 42
0.0000000001
 43
0.0000000001
 40
-72.67458232956064
 40
-72.67458232956064
 40
-72.67458232956064
 40
-56.86630879579437
 40
-56.86630879579437
 40
-41.05803526202811
 40
-41.05803526202811
 40
-41.05803526202811
 10
364.4631194612111
 20
-629.9661184597865
 30
0.0
 41
1.0
 10
364.4631194589906
 20
-629.9657263735173
 30
0.0
 41
0.8660264667508266
 10
356.9152473864965
 20
-629.9655730766822
 30
0.0
 41
1.0
 10
349.3673753140023
 20
-629.9654197798465
 30
0.0
 41
0.8660264667508266
 10
341.8194476577896
 20
-629.9656585681514
 30
0.0
 41
1.0
  0
SPLINE
  5
144
330
1F
100
AcDbEntity
  8
Make2D$Visibile$Curve
 62
    18
420
        0
370
    -3
100
AcDbSpline
210
0.0
220
0.0
230
1.0
 70
    12
 71
     2
 72
     6
 73
     3
 74
     0
 42
0.0000000001
 43
0.0000000001
 40
-108.0721688058548
 40
-108.0721688058548
 40
-108.0721688058548
 40
-104.2915673497365
 40
-104.2915673497365
 40
-104.2915673497365
 10
295.3143033502415
 20
-629.9667493435536
 30
0.0
 41
1.0
 10
295.7852408179259
 20
-629.9668014063535
 30
0.0
 41
0.9921702286484401
 10
295.785240816529
 20
-629.9668348308053
 30
0.0
 41
1.0
  0
SPLINE
  5
145
330
1F
100
AcDbEntity
  8
Make2D$Visibile$Curve
 62
    18
420
        0
370
    -3
100
AcDbSpline
210
0.0
220
0.0
230
1.0
 70
    12
 71
     2
 72
    12
 73
     9
 74
     0
 42
0.0000000001
 43
0.0000000001
 40
-104.2915673497365
 40
-104.2915673497365
 40
-104.2915673497365
 40
-88.4831843278094
 40
-88.4831843278094
 40
-72.6748013058823
 40
-72.6748013058823
 40
-56.86641828395521
 40
-56.86641828395521
 40
-56.86601493680224
 40
-56.86601493680224
 40
-56.86601493680224
 10
295.785240816529
 20
-629.9668348308053
 30
0.0
 41
1.0
 10
295.785240810122
 20
-629.9669881348458
 30
0.0
 41
0.8660246535356448
 10
288.2372739224807
 20
-629.966749347376
 30
0.0
 41
1.0
 10
280.6893070348391
 20
-629.9665105599065
 30
0.0
 41
0.8660246535356448
 10
273.1413793869847
 20
-629.9661184696376
 30
0.0
 41
1.0
 10
265.5934517391295
 20
-629.965726379369
 30
0.0
 41
0.8660246535356448
 10
265.5935302120924
 20
-629.9655730786078
 30
0.0
 41
1.0
 10
265.5935302138263
 20
-629.9655730752204
 30
0.0
 41
0.9999965816507299
 10
265.5935302204742
 20
-629.9655730718332
 30
0.0
 41
0.9999931634758965
  0
SPLINE
  5
146
330
1F
100
AcDbEntity
  8
Make2D$Visibile$Curve
 62
    18
420
        0
370
    -3
100
AcDbSpline
210
0.0
220
0.0
230
1.0
 70
    28
 71
     2
 72
     8
 73
     5
 74
     0
 42
0.0000000001
 43
0.0000000001
 40
34.2253919328796
 40
34.2253919328796
 40
34.2253919328796
 40
57.15261996854386
 40
57.15261996854386
 40
80.07984800420813
 40
80.07984800420813
 40
80.07984800420813
 10
266.0932250682715
 20
-635.9360696499941
 30
0.0
 41
1.0
 10
266.0932250682711
 20
-635.9360696499942
 30
0.0
 41
0.7071067811865387
 10
280.6891517613553
 20
-635.9360696499941
 30
0.0
 41
1.0
 10
295.2850784544397
 20
-635.9360696499942
 30
0.0
 41
0.7071067811865387
 10
295.2850784544394
 20
-635.9360696499941
 30
0.0
 41
1.0
  0
SPLINE
  5
147
330
1F
100
AcDbEntity
  8
Make2D$Visibile$Curve
 62
    18
420
        0
370
    -3
100
AcDbSpline
210
0.0
220
0.0
230
1.0
 70
    12
 71
     2
 72
    12
 73
     9
 74
     0
 42
0.0000000001
 43
0.0000000001
 40
-108.0721688058548
 40
-108.0721688058548
 40
-108.0721688058548
 40
-91.3186354198981
 40
-91.3186354198981
 40
-74.56510203394144
 40
-74.56510203394144
 40
-57.81156864798478
 40
-57.81156864798478
 40
-56.82459001207142
 40
-56.82459001207142
 40
-56.82459001207142
 10
295.3143109717832
 20
870.3087643833687
 30
0.0
 41
1.0
 10
297.6333903681841
 20
870.3090207608598
 30
0.0
 41
0.8499503652137049
 10
290.5456919442404
 20
870.3088320233956
 30
0.0
 41
1.0
 10
283.4579935202966
 20
870.3086432859321
 30
0.0
 41
0.8499503652137049
 10
274.8332546722372
 20
870.3082189957986
 30
0.0
 41
1.0
 10
266.208515824178
 20
870.3077947056647
 30
0.0
 41
0.8499503652137049
 10
265.6231075804303
 20
870.3076059681102
 30
0.0
 41
1.0
 10
265.5935335969617
 20
870.3075964333601
 30
0.0
 41
0.9911603253803872
 10
265.5935378336284
 20
870.3075881184335
 30
0.0
 41
0.983362170755034
  0
SPLINE
  5
148
330
1F
100
AcDbEntity
  8
Make2D$Visibile$Curve
 62
    18
420
        0
370
    -3
100
AcDbSpline
210
0.0
220
0.0
230
1.0
 70
     8
 71
     3
 72
    10
 73
     6
 74
     0
 42
0.0000000001
 43
0.0000000001
 40
0.0000000000000999
 40
0.0000000000000999
 40
0.0000000000000999
 40
0.0000000000000999
 40
0.3271220088457433
 40
0.3271220088457433
 40
0.7812821286622174
 40
0.7812821286622174
 40
0.7812821286622174
 40
0.7812821286622174
 10
295.2850860759813
 20
876.2780846898095
 30
0.0
 10
295.3734744236294
 20
876.2414730374576
 30
0.0
 10
295.5502511189261
 20
876.1682497327538
 30
0.0
 10
295.7325607249429
 20
876.0377168220339
 30
0.0
 10
295.7850860759811
 20
875.9104771389748
 30
0.0
 10
295.7850860759811
 20
875.7780846898086
 30
0.0
  0
SPLINE
  5
149
330
1F
100
AcDbEntity
  8
Make2D$Visibile$Curve
 62
    18
420
        0
370
    -3
100
AcDbSpline
210
0.0
220
0.0
230
1.0
 70
    28
 71
     2
 72
     8
 73
     5
 74
     0
 42
0.0000000001
 43
0.0000000001
 40
34.22539193288009
 40
34.22539193288009
 40
34.22539193288009
 40
57.15261996854439
 40
57.15261996854439
 40
80.0798480042087
 40
80.0798480042087
 40
80.0798480042087
 10
266.0932326898132
 20
876.278084689809
 30
0.0
 41
1.0
 10
266.0932326898133
 20
876.2780846898091
 30
0.0
 41
0.7071067811865377
 10
280.6891593828977
 20
876.278084689809
 30
0.0
 41
1.0
 10
295.2850860759821
 20
876.2780846898091
 30
0.0
 41
0.7071067811865377
 10
295.2850860759811
 20
876.278084689809
 30
0.0
 41
1.0
  0
SPLINE
  5
14A
330
1F
100
AcDbEntity
  8
Make2D$Visibile$Curve
 62
    18
420
        0
370
    -3
100
AcDbSpline
210
0.0
220
0.0
230
1.0
 70
    28
 71
     2
 72
     8
 73
     5
 74
     0
 42
0.0000000001
 43
0.0000000001
 40
18.94039453821616
 40
18.94039453821616
 40
18.94039453821616
 40
34.22515291448762
 40
34.22515291448762
 40
49.50991129075908
 40
49.50991129075908
 40
49.50991129075908
 10
342.0694305397139
 20
876.278084689809
 30
0.0
 41
1.0
 10
349.3673938858824
 20
876.278084689809
 30
0.0
 41
0.866026436847712
 10
356.665304998882
 20
876.278084689809
 30
0.0
 41
1.0
 10
363.9632161118819
 20
876.278084689809
 30
0.0
 41
0.866026436847712
 10
363.9632161118811
 20
876.278084689809
 30
0.0
 41
1.0
  0
SPLINE
  5
14B
330
1F
100
AcDbEntity
  8
Make2D$Visibile$Curve
 62
    18
420
        0
370
    -3
100
AcDbSpline
210
0.0
220
0.0
230
1.0
 70
    12
 71
     2
 72
     6
 73
     3
 74
     0
 42
0.0000000001
 43
0.0000000001
 40
-150.3897717846229
 40
-150.3897717846229
 40
-150.3897717846229
 40
-134.5813085159163
 40
-134.5813085159163
 40
-134.5813085159163
 10
341.8194412615112
 20
870.3076736079661
 30
0.0
 41
1.0
 10
334.2714023993067
 20
870.3034469327482
 30
0.0
 41
0.8660233245748746
 10
334.2713998086315
 20
870.2985577364525
 30
0.0
 41
1.0
  0
SPLINE
  5
14C
330
1F
100
AcDbEntity
  8
Make2D$Visibile$Curve
 62
    18
420
        0
370
    -3
100
AcDbSpline
210
0.0
220
0.0
230
1.0
 70
    12
 71
     2
 72
     6
 73
     3
 74
     0
 42
0.0000000001
 43
0.0000000001
 40
-134.5813085159163
 40
-134.5813085159163
 40
-134.5813085159163
 40
-130.8006513990317
 40
-130.8006513990317
 40
-130.8006513990317
 10
334.2713998086315
 20
870.2985577364525
 30
0.0
 41
1.0
 10
334.2713992437889
 20
870.2974917493179
 30
0.0
 41
0.9921699983969012
 10
334.7423500341465
 20
870.2965702110946
 30
0.0
 41
1.0
  0
SPLINE
  5
14D
330
1F
100
AcDbEntity
  8
Make2D$Visibile$Curve
 62
    18
420
        0
370
    -3
100
AcDbSpline
210
0.0
220
0.0
230
1.0
 70
     8
 71
     3
 72
    10
 73
     6
 74
     0
 42
0.0000000001
 43
0.0000000001
 40
0.0
 40
0.0
 40
0.0
 40
0.0
 40
0.566655028271186
 40
0.566655028271186
 40
0.8147497371444735
 40
0.8147497371444735
 40
0.8147497371444735
 40
0.8147497371444735
 10
334.2713627257135
 20
875.7780846898095
 30
0.0
 10
334.2713627257135
 20
875.9104771389748
 30
0.0
 10
334.3238880767515
 20
876.0377168220334
 30
0.0
 10
334.4589302395318
 20
876.1727589848138
 30
0.0
 10
334.7365326092063
 20
876.2780846898095
 30
0.0
 10
334.7713627257133
 20
876.2780846898095
 30
0.0
  0
SPLINE
  5
14E
330
1F
100
AcDbEntity
  8
Make2D$Visibile$Curve
 62
    18
420
        0
370
    -3
100
AcDbSpline
210
0.0
220
0.0
230
1.0
 70
    28
 71
     2
 72
     6
 73
     3
 74
     0
 42
0.0000000001
 43
0.0000000001
 40
3.65545521943021
 40
3.65545521943021
 40
3.65545521943021
 40
18.94039453821616
 40
18.94039453821616
 40
18.94039453821616
 10
334.7713627257133
 20
876.2780846898086
 30
0.0
 41
1.0
 10
334.7713627257132
 20
876.2780846898086
 30
0.0
 41
0.8660233376467826
 10
342.0694305397139
 20
876.278084689809
 30
0.0
 41
1.0
  0
SPLINE
  5
14F
330
1F
100
AcDbEntity
  8
Make2D$Visibile$Curve
 62
    18
420
        0
370
    -3
100
AcDbSpline
210
0.0
220
0.0
230
1.0
 70
    12
 71
     2
 72
     8
 73
     5
 74
     0
 42
0.0000000001
 43
0.0000000001
 40
-72.67458232956088
 40
-72.67458232956088
 40
-72.67458232956088
 40
-56.8663087957945
 40
-56.8663087957945
 40
-41.05803526202811
 40
-41.05803526202811
 40
-41.05803526202811
 10
364.4631130649332
 20
870.3081334996014
 30
0.0
 41
1.0
 10
364.4631130627126
 20
870.3077414133323
 30
0.0
 41
0.8660264667508246
 10
356.9152409902183
 20
870.3075881164968
 30
0.0
 41
1.0
 10
349.3673689177242
 20
870.3074348196616
 30
0.0
 41
0.8660264667508246
 10
341.8194412615112
 20
870.3076736079661
 30
0.0
 41
1.0
  0
SPLINE
  5
150
330
1F
100
AcDbEntity
  8
Make2D$Visibile$Curve
 62
    18
420
        0
370
    -3
100
AcDbSpline
210
0.0
220
0.0
230
1.0
 70
    12
 71
     2
 72
    10
 73
     7
 74
     0
 42
0.0000000001
 43
0.0000000001
 40
36.72540726136586
 40
36.72540726136586
 40
36.72540726136586
 40
51.52016787461
 40
51.52016787461
 40
68.27370126056667
 40
68.27370126056667
 40
83.94766556685721
 40
83.94766556685721
 40
83.94766556685721
 10
364.4623953499245
 20
-629.5816086146064
 30
0.0
 41
0.9690155273774721
 10
364.4623953440487
 20
-629.5811208248354
 30
0.0
 41
0.8674937175563947
 10
357.7178130601615
 20
-629.5809021279115
 30
0.0
 41
1.0
 10
349.9226302627167
 20
-629.580649364667
 30
0.0
 41
0.8499503652137049
 10
341.8187235465025
 20
-629.5809927133246
 30
0.0
 41
1.0
 10
334.2706824046244
 20
-629.5815487892011
 30
0.0
 41
0.837407959335407
 10
334.2706824123723
 20
-629.582192028695
 30
0.0
 41
0.9350074731357395
  0
SPLINE
  5
151
330
1F
100
AcDbEntity
  8
Make2D$Visibile$Curve
 62
    18
420
        0
370
    -3
100
AcDbSpline
210
0.0
220
0.0
230
1.0
 70
    12
 71
     2
 72
     6
 73
     3
 74
     0
 42
0.0000000001
 43
0.0000000001
 40
83.94766556685721
 40
83.94766556685721
 40
83.94766556685721
 40
87.8628216461579
 40
87.8628216461579
 40
87.8628216461579
 10
334.2706824123724
 20
-629.582192028695
 30
0.0
 41
0.9350074731357396
 10
334.2706824140614
 20
-629.5823322733672
 30
0.0
 41
0.959386585039089
 10
334.7416323191378
 20
-629.582453513907
 30
0.0
 41
1.0
  0
SPLINE
  5
152
330
1F
100
AcDbEntity
  8
Make2D$Visibile$Curve
 62
    18
420
        0
370
    -3
100
AcDbSpline
210
0.0
220
0.0
230
1.0
 70
    24
 71
     3
 72
    14
 73
    10
 74
     0
 42
0.0000000001
 43
0.0000000001
 40
59.44146679442819
 40
59.44146679442819
 40
59.44146679442819
 40
59.44146679442819
 40
75.11409042700397
 40
75.11409042700397
 40
75.11409042700397
 40
92.74125745240443
 40
92.74125745240443
 40
92.74125745240443
 40
109.7498936194146
 40
109.7498936194146
 40
109.7498936194146
 40
109.7498936194146
 10
364.4446617961867
 20
869.6362848722147
 30
0.0
 10
364.4456860285832
 20
869.6362848722147
 30
0.0
 10
361.9455371737317
 20
869.6362848722147
 30
0.0
 10
357.6997549561158
 20
869.6362848722147
 30
0.0
 10
352.9244783938532
 20
869.6362848722147
 30
0.0
 10
346.7650642013123
 20
869.6362848722147
 30
0.0
 10
341.8006654413659
 20
869.6362848722147
 30
0.0
 10
337.0515127856452
 20
869.6362848722147
 30
0.0
 10
334.2513410757435
 20
869.6362848722147
 30
0.0
 10
334.2513410757438
 20
869.6362848722147
 30
0.0
  0
SPLINE
  5
153
330
1F
100
AcDbEntity
  8
Make2D$Visibile$Curve
 62
    18
420
        0
370
    -3
100
AcDbSpline
210
0.0
220
0.0
230
1.0
 70
    28
 71
     2
 72
     8
 73
     5
 74
     0
 42
0.0000000001
 43
0.0000000001
 40
0.0
 40
0.0
 40
0.0
 40
219.9114857512855
 40
219.9114857512855
 40
439.822971502571
 40
439.822971502571
 40
439.822971502571
 10
455.028298363198
 20
-908.1479655956118
 30
0.0
 41
1.0
 10
455.0282983631982
 20
-908.1479655956119
 30
0.0
 41
0.7071067811865476
 10
315.028298363198
 20
-908.1479655956118
 30
0.0
 41
1.0
 10
175.0282983631982
 20
-908.1479655956119
 30
0.0
 41
0.7071067811865476
 10
175.028298363198
 20
-908.1479655956118
 30
0.0
 41
1.0
  0
ENDSEC
  0
SECTION
  2
OBJECTS
  0
DICTIONARY
  5
C
330
0
100
AcDbDictionary
281
     1
  3
ACAD_DETAILVIEWSTYLE
350
18F
  3
ACAD_GROUP
350
D
  3
ACAD_LAYOUT
350
1A
  3
ACAD_MATERIAL
350
43
  3
ACAD_MLEADERSTYLE
350
5B
  3
ACAD_MLINESTYLE
350
17
  3
ACAD_PLOTSETTINGS
350
19
  3
ACAD_PLOTSTYLENAME
350
E
  3
ACAD_SCALELIST
350
47
  3
ACAD_SECTIONVIEWSTYLE
350
190
  3
ACAD_TABLESTYLE
350
59
  3
ACAD_VISUALSTYLE
350
2A
  3
ACDB_RECOMPOSE_DATA
350
18C
  3
AcDbVariableDictionary
350
154
  0
SUN
  5
5D
330
29
100
AcDbSun
 90
        1
290
     0
 63
     7
421
 16777215
 40
1.0
291
     1
 91
  2455826
 92
 54000000
292
     0
 70
     2
 71
   256
280
     1
  0
DICTIONARY
  5
18F
102
{ACAD_REACTORS
330
C
102
}
330
C
100
AcDbDictionary
281
     1
  0
DICTIONARY
  5
D
102
{ACAD_REACTORS
330
C
102
}
330
C
100
AcDbDictionary
281
     1
  0
DICTIONARY
  5
1A
102
{ACAD_REACTORS
330
C
102
}
330
C
100
AcDbDictionary
281
     1
  3
Layout1
350
1E
  3
Layout2
350
26
  3
Model
350
22
  0
DICTIONARY
  5
43
102
{ACAD_REACTORS
330
C
102
}
330
C
100
AcDbDictionary
281
     1
  3
ByBlock
350
45
  3
ByLayer
350
44
  3
Global
350
46
  0
DICTIONARY
  5
5B
102
{ACAD_REACTORS
330
C
102
}
330
C
100
AcDbDictionary
281
     1
  3
Standard
350
5C
  0
DICTIONARY
  5
17
102
{ACAD_REACTORS
330
C
102
}
330
C
100
AcDbDictionary
281
     1
  3
Standard
350
18
  0
DICTIONARY
  5
19
102
{ACAD_REACTORS
330
C
102
}
330
C
100
AcDbDictionary
281
     1
  0
ACDBDICTIONARYWDFLT
  5
E
102
{ACAD_REACTORS
330
C
102
}
330
C
100
AcDbDictionary
281
     1
  3
Normal
350
F
100
AcDbDictionaryWithDefault
340
F
  0
DICTIONARY
  5
47
102
{ACAD_REACTORS
330
C
102
}
330
C
100
AcDbDictionary
281
     1
  3
A0
350
48
  3
A1
350
49
  3
A2
350
4A
  3
A3
350
4B
  3
A4
350
4C
  3
A5
350
4D
  3
A6
350
4E
  3
A7
350
4F
  3
A8
350
50
  3
A9
350
51
  3
B1
350
52
  3
B2
350
53
  3
B3
350
54
  3
B4
350
55
  3
B5
350
56
  3
B6
350
57
  3
B7
350
58
  0
DICTIONARY
  5
190
102
{ACAD_REACTORS
330
C
102
}
330
C
100
AcDbDictionary
281
     1
  0
DICTIONARY
  5
59
102
{ACAD_REACTORS
330
C
102
}
330
C
100
AcDbDictionary
281
     1
  3
Standard
350
5A
  0
DICTIONARY
  5
2A
102
{ACAD_REACTORS
330
C
102
}
330
C
100
AcDbDictionary
281
     1
  3
2dWireframe
350
2F
  3
Basic
350
32
  3
Brighten
350
36
  3
ColorChange
350
3A
  3
Conceptual
350
34
  3
Dim
350
35
  3
EdgeColorOff
350
3D
  3
Facepattern
350
39
  3
Flat
350
2B
  3
FlatWithEdges
350
2C
  3
Gouraud
350
2D
  3
GouraudWithEdges
350
2E
  3
Hidden
350
31
  3
JitterOff
350
3B
  3
Linepattern
350
38
  3
OverhangOff
350
3C
  3
Realistic
350
33
  3
Shaded
350
42
  3
Shaded with edges
350
41
  3
Shades of Gray
350
3E
  3
Sketchy
350
3F
  3
Thicken
350
37
  3
Wireframe
350
30
  3
X-Ray
350
40
  0
XRECORD
  5
18C
102
{ACAD_REACTORS
330
C
102
}
330
C
100
AcDbXrecord
280
     1
 90
        1
330
5A
  0
DICTIONARY
  5
154
102
{ACAD_REACTORS
330
C
102
}
330
C
100
AcDbDictionary
281
     1
  3
CANNOSCALE
350
155
  3
CMLEADERSTYLE
350
18E
  3
CTABLESTYLE
350
18D
  3
XCLIPFRAME
350
156
  0
LAYOUT
  5
1E
102
{ACAD_REACTORS
330
1A
102
}
330
1A
100
AcDbPlotSettings
  1

  2
none_device
  4

  6

 40
0.0
 41
0.0
 42
0.0
 43
0.0
 44
0.0
 45
0.0
 46
0.0
 47
0.0
 48
0.0
 49
0.0
140
0.0
141
0.0
142
1.0
143
1.0
 70
   688
 72
     0
 73
     0
 74
     5
  7

 75
    16
 76
     0
 77
     2
 78
   300
147
1.0
148
0.0
149
0.0
100
AcDbLayout
  1
Layout1
 70
     1
 71
     1
 10
0.0
 20
0.0
 11
12.0
 21
9.0
 12
0.0
 22
0.0
 32
0.0
 14
1.000000000000000E+20
 24
1.000000000000000E+20
 34
1.000000000000000E+20
 15
-1.000000000000000E+20
 25
-1.000000000000000E+20
 35
-1.000000000000000E+20
146
0.0
 13
0.0
 23
0.0
 33
0.0
 16
1.0
 26
0.0
 36
0.0
 17
0.0
 27
1.0
 37
0.0
 76
     0
330
1B
  0
LAYOUT
  5
26
102
{ACAD_REACTORS
330
1A
102
}
330
1A
100
AcDbPlotSettings
  1

  2
none_device
  4

  6

 40
0.0
 41
0.0
 42
0.0
 43
0.0
 44
0.0
 45
0.0
 46
0.0
 47
0.0
 48
0.0
 49
0.0
140
0.0
141
0.0
142
1.0
143
1.0
 70
   688
 72
     0
 73
     0
 74
     5
  7

 75
    16
 76
     0
 77
     2
 78
   300
147
1.0
148
0.0
149
0.0
100
AcDbLayout
  1
Layout2
 70
     1
 71
     2
 10
0.0
 20
0.0
 11
0.0
 21
0.0
 12
0.0
 22
0.0
 32
0.0
 14
0.0
 24
0.0
 34
0.0
 15
0.0
 25
0.0
 35
0.0
146
0.0
 13
0.0
 23
0.0
 33
0.0
 16
1.0
 26
0.0
 36
0.0
 17
0.0
 27
1.0
 37
0.0
 76
     0
330
23
  0
LAYOUT
  5
22
102
{ACAD_REACTORS
330
1A
102
}
330
1A
100
AcDbPlotSettings
  1

  2
none_device
  4
Letter_(8.50_x_11.00_Inches)
  6

 40
6.35
 41
6.35
 42
6.35000508
 43
6.35000508
 44
215.9
 45
279.4
 46
0.0
 47
0.0
 48
0.0
 49
0.0
140
0.0
141
0.0
142
1.0
143
1.0
 70
  1712
 72
     0
 73
     0
 74
     0
  7

 75
     0
 76
     0
 77
     2
 78
   300
147
1.0
148
0.0
149
0.0
100
AcDbLayout
  1
Model
 70
     1
 71
     0
 10
0.0
 20
0.0
 11
12.0
 21
9.0
 12
0.0
 22
0.0
 32
0.0
 14
-470.5386341249689
 24
-1569.714898083778
 34
0.0
 15
455.0282983631981
 25
1500.491537244765
 35
0.0
146
0.0
 13
0.0
 23
0.0
 33
0.0
 16
1.0
 26
0.0
 36
0.0
 17
0.0
 27
1.0
 37
0.0
 76
     0
330
1F
331
29
  0
MATERIAL
  5
45
102
{ACAD_REACTORS
330
43
102
}
330
43
100
AcDbMaterial
  1
ByBlock
 72
     1
 94
      127
  0
MATERIAL
  5
44
102
{ACAD_REACTORS
330
43
102
}
330
43
100
AcDbMaterial
  1
ByLayer
 72
     1
 94
      127
  0
MATERIAL
  5
46
102
{ACAD_REACTORS
330
43
102
}
330
43
100
AcDbMaterial
  1
Global
 72
     1
 94
      127
  0
MLEADERSTYLE
  5
5C
102
{ACAD_REACTORS
330
5B
102
}
102
{ACAD_XDICTIONARY
360
18A
102
}
330
5B
100
AcDbMLeaderStyle
170
     2
171
     1
172
     0
 90
        2
 40
0.0
 41
0.0
173
     1
 91
-1056964608
340
14
 92
       -2
290
     1
 42
0.09
291
     1
 43
0.36
  3
Standard
341
0
 44
0.18
300

342
11
174
     1
178
     6
175
     1
176
     0
 93
-1056964608
 45
0.18
292
     0
297
     0
 46
0.18
343
0
 94
-1056964608
 47
1.0
 49
1.0
140
1.0
293
     1
141
0.0
294
     1
177
     0
142
1.0
295
     0
296
     0
143
0.125
1001
ACAD_MLEADERVER
1070
     2
  0
MLINESTYLE
  5
18
102
{ACAD_REACTORS
330
17
102
}
330
17
100
AcDbMlineStyle
  2
Standard
 70
     0
  3

 62
   256
 51
90.0
 52
90.0
 71
     2
 49
0.5
 62
   256
  6
BYLAYER
 49
-0.5
 62
   256
  6
BYLAYER
  0
ACDBPLACEHOLDER
  5
F
102
{ACAD_REACTORS
330
E
102
}
330
E
  0
SCALE
  5
48
102
{ACAD_REACTORS
330
47
102
}
330
47
100
AcDbScale
 70
     0
300
1:1
140
1.0
141
1.0
290
     1
  0
SCALE
  5
49
102
{ACAD_REACTORS
330
47
102
}
330
47
100
AcDbScale
 70
     0
300
1/128" = 1'-0"
140
0.0078125
141
12.0
290
     0
  0
SCALE
  5
4A
102
{ACAD_REACTORS
330
47
102
}
330
47
100
AcDbScale
 70
     0
300
1/64" = 1'-0"
140
0.015625
141
12.0
290
     0
  0
SCALE
  5
4B
102
{ACAD_REACTORS
330
47
102
}
330
47
100
AcDbScale
 70
     0
300
1/32" = 1'-0"
140
0.03125
141
12.0
290
     0
  0
SCALE
  5
4C
102
{ACAD_REACTORS
330
47
102
}
330
47
100
AcDbScale
 70
     0
300
1/16" = 1'-0"
140
0.0625
141
12.0
290
     0
  0
SCALE
  5
4D
102
{ACAD_REACTORS
330
47
102
}
330
47
100
AcDbScale
 70
     0
300
3/32" = 1'-0"
140
0.09375
141
12.0
290
     0
  0
SCALE
  5
4E
102
{ACAD_REACTORS
330
47
102
}
330
47
100
AcDbScale
 70
     0
300
1/8" = 1'-0"
140
0.125
141
12.0
290
     0
  0
SCALE
  5
4F
102
{ACAD_REACTORS
330
47
102
}
330
47
100
AcDbScale
 70
     0
300
3/16" = 1'-0"
140
0.1875
141
12.0
290
     0
  0
SCALE
  5
50
102
{ACAD_REACTORS
330
47
102
}
330
47
100
AcDbScale
 70
     0
300
1/4" = 1'-0"
140
0.25
141
12.0
290
     0
  0
SCALE
  5
51
102
{ACAD_REACTORS
330
47
102
}
330
47
100
AcDbScale
 70
     0
300
3/8" = 1'-0"
140
0.375
141
12.0
290
     0
  0
SCALE
  5
52
102
{ACAD_REACTORS
330
47
102
}
330
47
100
AcDbScale
 70
     0
300
1/2" = 1'-0"
140
0.5
141
12.0
290
     0
  0
SCALE
  5
53
102
{ACAD_REACTORS
330
47
102
}
330
47
100
AcDbScale
 70
     0
300
3/4" = 1'-0"
140
0.75
141
12.0
290
     0
  0
SCALE
  5
54
102
{ACAD_REACTORS
330
47
102
}
330
47
100
AcDbScale
 70
     0
300
1" = 1'-0"
140
1.0
141
12.0
290
     0
  0
SCALE
  5
55
102
{ACAD_REACTORS
330
47
102
}
330
47
100
AcDbScale
 70
     0
300
1-1/2" = 1'-0"
140
1.5
141
12.0
290
     0
  0
SCALE
  5
56
102
{ACAD_REACTORS
330
47
102
}
330
47
100
AcDbScale
 70
     0
300
3" = 1'-0"
140
3.0
141
12.0
290
     0
  0
SCALE
  5
57
102
{ACAD_REACTORS
330
47
102
}
330
47
100
AcDbScale
 70
     0
300
6" = 1'-0"
140
6.0
141
12.0
290
     0
  0
SCALE
  5
58
102
{ACAD_REACTORS
330
47
102
}
330
47
100
AcDbScale
 70
     0
300
1'-0" = 1'-0"
140
12.0
141
12.0
290
     0
  0
TABLESTYLE
  5
5A
102
{ACAD_REACTORS
330
59
102
}
102
{ACAD_XDICTIONARY
360
187
102
}
330
59
100
AcDbTableStyle
  3
Standard
 70
     0
 71
     0
 40
0.06
 41
0.06
280
     0
281
     0
  7
Standard
140
0.18
170
     2
 62
     0
 63
   257
283
     0
 90
        4
 91
        0
  1

274
    -2
284
     1
 64
     0
275
    -2
285
     1
 65
     0
276
    -2
286
     1
 66
     0
277
    -2
287
     1
 67
     0
278
    -2
288
     1
 68
     0
279
    -2
289
     1
 69
     0
  7
Standard
140
0.25
170
     5
 62
     0
 63
   257
283
     0
 90
        4
 91
        0
  1

274
    -2
284
     1
 64
     0
275
    -2
285
     1
 65
     0
276
    -2
286
     1
 66
     0
277
    -2
287
     1
 67
     0
278
    -2
288
     1
 68
     0
279
    -2
289
     1
 69
     0
  7
Standard
140
0.18
170
     5
 62
     0
 63
   257
283
     0
 90
        4
 91
        0
  1

274
    -2
284
     1
 64
     0
275
    -2
285
     1
 65
     0
276
    -2
286
     1
 66
     0
277
    -2
287
     1
 67
     0
278
    -2
288
     1
 68
     0
279
    -2
289
     1
 69
     0
  0
VISUALSTYLE
  5
2F
102
{ACAD_REACTORS
330
2A
102
}
102
{ACAD_XDICTIONARY
360
15F
102
}
330
2A
100
AcDbVisualStyle
  2
2dWireframe
 70
     4
 71
     0
 72
     2
 73
     0
 90
        0
 40
0.6
 41
30.0
 62
     5
 63
     7
421
 16777215
 74
     1
 91
        4
 64
     7
 65
   257
 75
     1
175
     1
 42
1.0
 92
        0
 66
   257
 43
1.0
 76
     1
 77
     6
 78
     2
 67
     7
 79
     5
170
     0
171
     0
290
     0
174
     0
 93
        1
 44
0.0
173
     0
291
     0
 45
0.0
  0
VISUALSTYLE
  5
32
102
{ACAD_REACTORS
330
2A
102
}
102
{ACAD_XDICTIONARY
360
165
102
}
330
2A
100
AcDbVisualStyle
  2
Basic
 70
     7
 71
     1
 72
     0
 73
     1
 90
        0
 40
0.6
 41
30.0
 62
     5
 63
     7
421
 16777215
 74
     0
 91
        4
 64
     7
 65
   257
 75
     1
175
     1
 42
1.0
 92
        8
 66
     7
 43
1.0
 76
     1
 77
     6
 78
     2
 67
     7
 79
     5
170
     0
171
     0
290
     0
174
     0
 93
        1
 44
0.0
173
     0
291
     1
 45
0.0
  0
VISUALSTYLE
  5
36
102
{ACAD_REACTORS
330
2A
102
}
102
{ACAD_XDICTIONARY
360
16D
102
}
330
2A
100
AcDbVisualStyle
  2
Brighten
 70
    12
 71
     2
 72
     2
 73
     0
 90
        0
 40
0.6
 41
30.0
 62
     5
 63
     7
421
 16777215
 74
     1
 91
        4
 64
     7
 65
   257
 75
     1
175
     1
 42
1.0
 92
        8
 66
     7
 43
1.0
 76
     1
 77
     6
 78
     2
 67
     7
 79
     5
170
     0
171
     0
290
     0
174
     0
 93
        1
 44
50.0
173
     0
291
     1
 45
0.0
  0
VISUALSTYLE
  5
3A
102
{ACAD_REACTORS
330
2A
102
}
102
{ACAD_XDICTIONARY
360
175
102
}
330
2A
100
AcDbVisualStyle
  2
ColorChange
 70
    16
 71
     2
 72
     2
 73
     3
 90
        0
 40
0.6
 41
30.0
 62
     5
 63
     8
421
  8421504
 74
     1
 91
        4
 64
     7
 65
   257
 75
     1
175
     1
 42
1.0
 92
        8
 66
     8
424
  8421504
 43
1.0
 76
     1
 77
     6
 78
     2
 67
     7
 79
     5
170
     0
171
     0
290
     0
174
     0
 93
        1
 44
0.0
173
     0
291
     1
 45
0.0
  0
VISUALSTYLE
  5
34
102
{ACAD_REACTORS
330
2A
102
}
102
{ACAD_XDICTIONARY
360
169
102
}
330
2A
100
AcDbVisualStyle
  2
Conceptual
 70
     9
 71
     3
 72
     2
 73
     0
 90
        0
 40
0.6
 41
30.0
 62
     5
 63
     7
421
 16777215
 74
     2
 91
        2
 64
     7
 65
   257
 75
     1
175
     1
 42
179.0
 92
        8
 66
     7
 43
1.0
 76
     1
 77
     6
 78
     2
 67
     7
 79
     3
170
     0
171
     0
290
     0
174
     0
 93
        1
 44
0.0
173
     0
291
     0
 45
0.0
  0
VISUALSTYLE
  5
35
102
{ACAD_REACTORS
330
2A
102
}
102
{ACAD_XDICTIONARY
360
16B
102
}
330
2A
100
AcDbVisualStyle
  2
Dim
 70
    11
 71
     2
 72
     2
 73
     0
 90
        0
 40
0.6
 41
30.0
 62
     5
 63
     7
421
 16777215
 74
     1
 91
        4
 64
     7
 65
   257
 75
     1
175
     1
 42
1.0
 92
        8
 66
     7
 43
1.0
 76
     1
 77
     6
 78
     2
 67
     7
 79
     5
170
     0
171
     0
290
     0
174
     0
 93
        1
 44
-50.0
173
     0
291
     1
 45
0.0
  0
VISUALSTYLE
  5
3D
102
{ACAD_REACTORS
330
2A
102
}
102
{ACAD_XDICTIONARY
360
17B
102
}
330
2A
100
AcDbVisualStyle
  2
EdgeColorOff
 70
    22
 71
     2
 72
     2
 73
     0
 90
        0
 40
0.6
 41
30.0
 62
     5
 63
     7
421
 16777215
 74
     1
 91
        4
 64
     7
 65
   257
 75
     1
175
     1
 42
1.0
 92
        8
 66
     7
 43
1.0
 76
     1
 77
     6
 78
     2
 67
     7
 79
     5
170
     0
171
     0
290
     0
174
     0
 93
        1
 44
0.0
173
     0
291
     1
 45
0.0
  0
VISUALSTYLE
  5
39
102
{ACAD_REACTORS
330
2A
102
}
102
{ACAD_XDICTIONARY
360
173
102
}
330
2A
100
AcDbVisualStyle
  2
Facepattern
 70
    15
 71
     2
 72
     2
 73
     0
 90
        0
 40
0.6
 41
30.0
 62
     5
 63
     7
421
 16777215
 74
     1
 91
        4
 64
     7
 65
   257
 75
     1
175
     1
 42
1.0
 92
        8
 66
     7
 43
1.0
 76
     1
 77
     6
 78
     2
 67
     7
 79
     5
170
     0
171
     0
290
     0
174
     0
 93
        1
 44
0.0
173
     0
291
     1
 45
0.0
  0
VISUALSTYLE
  5
2B
102
{ACAD_REACTORS
330
2A
102
}
102
{ACAD_XDICTIONARY
360
157
102
}
330
2A
100
AcDbVisualStyle
  2
Flat
 70
     0
 71
     2
 72
     1
 73
     1
 90
        2
 40
0.6
 41
30.0
 62
     5
 63
     7
421
 16777215
 74
     0
 91
        0
 64
     7
 65
   257
 75
     1
175
     1
 42
1.0
 92
        8
 66
     7
 43
1.0
 76
     1
 77
     6
 78
     2
 67
     7
 79
     5
170
     0
171
     0
290
     0
174
     0
 93
       13
 44
0.0
173
     0
291
     1
 45
0.0
  0
VISUALSTYLE
  5
2C
102
{ACAD_REACTORS
330
2A
102
}
102
{ACAD_XDICTIONARY
360
159
102
}
330
2A
100
AcDbVisualStyle
  2
FlatWithEdges
 70
     1
 71
     2
 72
     1
 73
     1
 90
        2
 40
0.6
 41
30.0
 62
     5
 63
     7
421
 16777215
 74
     1
 91
        0
 64
     7
 65
   257
 75
     1
175
     1
 42
1.0
 92
        0
 66
   257
 43
1.0
 76
     1
 77
     6
 78
     2
 67
     7
 79
     5
170
     0
171
     0
290
     0
174
     0
 93
       13
 44
0.0
173
     0
291
     1
 45
0.0
  0
VISUALSTYLE
  5
2D
102
{ACAD_REACTORS
330
2A
102
}
102
{ACAD_XDICTIONARY
360
15B
102
}
330
2A
100
AcDbVisualStyle
  2
Gouraud
 70
     2
 71
     2
 72
     2
 73
     1
 90
        2
 40
0.6
 41
30.0
 62
     5
 63
     7
421
 16777215
 74
     0
 91
        0
 64
     7
 65
   257
 75
     1
175
     1
 42
1.0
 92
        0
 66
     7
 43
1.0
 76
     1
 77
     6
 78
     2
 67
     7
 79
     5
170
     0
171
     0
290
     0
174
     0
 93
       13
 44
0.0
173
     0
291
     1
 45
0.0
  0
VISUALSTYLE
  5
2E
102
{ACAD_REACTORS
330
2A
102
}
102
{ACAD_XDICTIONARY
360
15D
102
}
330
2A
100
AcDbVisualStyle
  2
GouraudWithEdges
 70
     3
 71
     2
 72
     2
 73
     1
 90
        2
 40
0.6
 41
30.0
 62
     5
 63
     7
421
 16777215
 74
     1
 91
        0
 64
     7
 65
   257
 75
     1
175
     1
 42
1.0
 92
        0
 66
   257
 43
1.0
 76
     1
 77
     6
 78
     2
 67
     7
 79
     5
170
     0
171
     0
290
     0
174
     0
 93
       13
 44
0.0
173
     0
291
     1
 45
0.0
  0
VISUALSTYLE
  5
31
102
{ACAD_REACTORS
330
2A
102
}
102
{ACAD_XDICTIONARY
360
163
102
}
330
2A
100
AcDbVisualStyle
  2
Hidden
 70
     6
 71
     1
 72
     2
 73
     2
 90
        0
 40
0.6
 41
30.0
 62
     5
 63
     7
421
 16777215
 74
     2
 91
        2
 64
     7
 65
   257
 75
     2
175
     1
 42
40.0
 92
        0
 66
   257
 43
1.0
 76
     1
 77
     6
 78
     2
 67
     7
 79
     3
170
     0
171
     0
290
     0
174
     0
 93
        1
 44
0.0
173
     0
291
     0
 45
0.0
  0
VISUALSTYLE
  5
3B
102
{ACAD_REACTORS
330
2A
102
}
102
{ACAD_XDICTIONARY
360
177
102
}
330
2A
100
AcDbVisualStyle
  2
JitterOff
 70
    20
 71
     2
 72
     2
 73
     0
 90
        0
 40
0.6
 41
30.0
 62
     5
 63
     7
421
 16777215
 74
     1
 91
        4
 64
     7
 65
   257
 75
     1
175
     1
 42
1.0
 92
       10
 66
     7
 43
1.0
 76
     1
 77
     6
 78
     2
 67
     7
 79
     5
170
     0
171
     0
290
     0
174
     0
 93
        1
 44
0.0
173
     0
291
     1
 45
0.0
  0
VISUALSTYLE
  5
38
102
{ACAD_REACTORS
330
2A
102
}
102
{ACAD_XDICTIONARY
360
171
102
}
330
2A
100
AcDbVisualStyle
  2
Linepattern
 70
    14
 71
     2
 72
     2
 73
     0
 90
        0
 40
0.6
 41
30.0
 62
     5
 63
     7
421
 16777215
 74
     1
 91
        4
 64
     7
 65
   257
 75
     7
175
     7
 42
1.0
 92
        8
 66
     7
 43
1.0
 76
     1
 77
     6
 78
     2
 67
     7
 79
     5
170
     0
171
     0
290
     0
174
     0
 93
        1
 44
0.0
173
     0
291
     1
 45
0.0
  0
VISUALSTYLE
  5
3C
102
{ACAD_REACTORS
330
2A
102
}
102
{ACAD_XDICTIONARY
360
179
102
}
330
2A
100
AcDbVisualStyle
  2
OverhangOff
 70
    21
 71
     2
 72
     2
 73
     0
 90
        0
 40
0.6
 41
30.0
 62
     5
 63
     7
421
 16777215
 74
     1
 91
        4
 64
     7
 65
   257
 75
     1
175
     1
 42
1.0
 92
        9
 66
     7
 43
1.0
 76
     1
 77
     6
 78
     2
 67
     7
 79
     5
170
     0
171
     0
290
     0
174
     0
 93
        1
 44
0.0
173
     0
291
     1
 45
0.0
  0
VISUALSTYLE
  5
33
102
{ACAD_REACTORS
330
2A
102
}
102
{ACAD_XDICTIONARY
360
167
102
}
330
2A
100
AcDbVisualStyle
  2
Realistic
 70
     8
 71
     2
 72
     3
 73
     0
 90
        2
 40
0.6
 41
30.0
 62
     5
 63
     7
421
 16777215
 74
     0
 91
        0
 64
     7
 65
   257
 75
     1
175
     1
 42
1.0
 92
        8
 66
   257
 43
1.0
 76
     1
 77
     6
 78
     2
 67
     7
 79
     3
170
     0
171
     0
290
     0
174
     0
 93
       13
 44
0.0
173
     0
291
     0
 45
0.0
  0
VISUALSTYLE
  5
42
102
{ACAD_REACTORS
330
2A
102
}
102
{ACAD_XDICTIONARY
360
185
102
}
330
2A
100
AcDbVisualStyle
  2
Shaded
 70
    27
 71
     2
 72
     2
 73
     1
 90
        2
 40
0.6
 41
30.0
 62
     5
 63
     7
421
 16777215
 74
     0
 91
        4
 64
     7
 65
   257
 75
     1
175
     1
 42
1.0
 92
        8
 66
   257
 43
1.0
 76
     1
 77
     6
 78
     2
 67
     8
425
  7895160
 79
     3
170
     0
171
     0
290
     0
174
     0
 93
        5
 44
0.0
173
     0
291
     0
 45
0.0
  0
VISUALSTYLE
  5
41
102
{ACAD_REACTORS
330
2A
102
}
102
{ACAD_XDICTIONARY
360
183
102
}
330
2A
100
AcDbVisualStyle
  2
Shaded with edges
 70
    26
 71
     2
 72
     2
 73
     1
 90
        2
 40
0.6
 41
30.0
 62
     5
 63
     7
421
 16777215
 74
     1
 91
       10
 64
     7
 65
   257
 75
     2
175
     1
 42
1.0
 92
        8
 66
   257
 43
1.0
 76
     1
 77
     6
 78
     2
 67
     7
 79
     3
170
     0
171
     0
290
     0
174
     0
 93
        5
 44
0.0
173
     0
291
     0
 45
0.0
  0
VISUALSTYLE
  5
3E
102
{ACAD_REACTORS
330
2A
102
}
102
{ACAD_XDICTIONARY
360
17D
102
}
330
2A
100
AcDbVisualStyle
  2
Shades of Gray
 70
    23
 71
     2
 72
     2
 73
     3
 90
        0
 40
0.6
 41
30.0
 62
     5
 63
     7
421
 16777215
 74
     2
 91
        2
 64
     7
 65
     7
 75
     1
175
     1
 42
40.0
 92
        8
 66
     7
 43
1.0
 76
     1
 77
     6
 78
     2
 67
     7
 79
     3
170
     0
171
     0
290
     0
174
     0
 93
        1
 44
0.0
173
     0
291
     0
 45
0.0
  0
VISUALSTYLE
  5
3F
102
{ACAD_REACTORS
330
2A
102
}
102
{ACAD_XDICTIONARY
360
17F
102
}
330
2A
100
AcDbVisualStyle
  2
Sketchy
 70
    24
 71
     1
 72
     2
 73
     2
 90
        0
 40
0.6
 41
30.0
 62
     5
 63
     7
421
 16777215
 74
     2
 91
        2
 64
     7
 65
     7
 75
     1
175
     1
 42
40.0
 92
       11
 66
     7
 43
1.0
 76
     1
 77
     6
 78
     2
 67
     7
 79
     6
170
     0
171
     0
290
     0
174
     0
 93
        1
 44
0.0
173
     0
291
     0
 45
0.0
  0
VISUALSTYLE
  5
37
102
{ACAD_REACTORS
330
2A
102
}
102
{ACAD_XDICTIONARY
360
16F
102
}
330
2A
100
AcDbVisualStyle
  2
Thicken
 70
    13
 71
     2
 72
     2
 73
     0
 90
        0
 40
0.6
 41
30.0
 62
     5
 63
     7
421
 16777215
 74
     1
 91
        4
 64
     7
 65
   257
 75
     1
175
     1
 42
1.0
 92
       12
 66
     7
 43
1.0
 76
     1
 77
     6
 78
     2
 67
     7
 79
     5
170
     0
171
     0
290
     0
174
     0
 93
        1
 44
0.0
173
     0
291
     1
 45
0.0
  0
VISUALSTYLE
  5
30
102
{ACAD_REACTORS
330
2A
102
}
102
{ACAD_XDICTIONARY
360
161
102
}
330
2A
100
AcDbVisualStyle
  2
Wireframe
 70
     5
 71
     0
 72
     2
 73
     0
 90
        0
 40
0.6
 41
30.0
 62
     5
 63
     7
421
 16777215
 74
     1
 91
        4
 64
     7
 65
   257
 75
     1
175
     1
 42
1.0
 92
        0
 66
   257
 43
1.0
 76
     1
 77
     6
 78
     2
 67
     7
 79
     3
170
     0
171
     0
290
     0
174
     0
 93
        1
 44
0.0
173
     0
291
     0
 45
0.0
  0
VISUALSTYLE
  5
40
102
{ACAD_REACTORS
330
2A
102
}
102
{ACAD_XDICTIONARY
360
181
102
}
330
2A
100
AcDbVisualStyle
  2
X-Ray
 70
    25
 71
     2
 72
     2
 73
     1
 90
        1
 40
0.5
 41
30.0
 62
     5
 63
     7
421
 16777215
 74
     1
 91
        0
 64
     7
 65
   257
 75
     1
175
     1
 42
1.0
 92
        8
 66
     7
 43
1.0
 76
     1
 77
     6
 78
     2
 67
     7
 79
     3
170
     0
171
     0
290
     0
174
     0
 93
       13
 44
0.0
173
     0
291
     0
 45
0.0
  0
DICTIONARYVAR
  5
155
102
{ACAD_REACTORS
330
154
102
}
330
154
100
DictionaryVariables
280
     0
  1
1:1
  0
DICTIONARYVAR
  5
18E
102
{ACAD_REACTORS
330
154
102
}
330
154
100
DictionaryVariables
280
     0
  1
Standard
  0
DICTIONARYVAR
  5
18D
102
{ACAD_REACTORS
330
154
102
}
330
154
100
DictionaryVariables
280
     0
  1
Standard
  0
DICTIONARYVAR
  5
156
102
{ACAD_REACTORS
330
154
102
}
330
154
100
DictionaryVariables
280
     0
  1
2
  0
DICTIONARY
  5
18A
330
5C
100
AcDbDictionary
280
     1
281
     1
  3
ACAD_XREC_ROUNDTRIP
360
18B
  0
DICTIONARY
  5
187
330
5A
100
AcDbDictionary
280
     1
281
     1
  3
ACAD_ROUNDTRIP_2008_TABLESTYLE_CELLSTYLEMAP
360
188
  0
DICTIONARY
  5
15F
330
2F
100
AcDbDictionary
280
     1
281
     1
  3
ACAD_XREC_ROUNDTRIP
360
160
  0
DICTIONARY
  5
165
330
32
100
AcDbDictionary
280
     1
281
     1
  3
ACAD_XREC_ROUNDTRIP
360
166
  0
DICTIONARY
  5
16D
330
36
100
AcDbDictionary
280
     1
281
     1
  3
ACAD_XREC_ROUNDTRIP
360
16E
  0
DICTIONARY
  5
175
330
3A
100
AcDbDictionary
280
     1
281
     1
  3
ACAD_XREC_ROUNDTRIP
360
176
  0
DICTIONARY
  5
169
330
34
100
AcDbDictionary
280
     1
281
     1
  3
ACAD_XREC_ROUNDTRIP
360
16A
  0
DICTIONARY
  5
16B
330
35
100
AcDbDictionary
280
     1
281
     1
  3
ACAD_XREC_ROUNDTRIP
360
16C
  0
DICTIONARY
  5
17B
330
3D
100
AcDbDictionary
280
     1
281
     1
  3
ACAD_XREC_ROUNDTRIP
360
17C
  0
DICTIONARY
  5
173
330
39
100
AcDbDictionary
280
     1
281
     1
  3
ACAD_XREC_ROUNDTRIP
360
174
  0
DICTIONARY
  5
157
330
2B
100
AcDbDictionary
280
     1
281
     1
  3
ACAD_XREC_ROUNDTRIP
360
158
  0
DICTIONARY
  5
159
330
2C
100
AcDbDictionary
280
     1
281
     1
  3
ACAD_XREC_ROUNDTRIP
360
15A
  0
DICTIONARY
  5
15B
330
2D
100
AcDbDictionary
280
     1
281
     1
  3
ACAD_XREC_ROUNDTRIP
360
15C
  0
DICTIONARY
  5
15D
330
2E
100
AcDbDictionary
280
     1
281
     1
  3
ACAD_XREC_ROUNDTRIP
360
15E
  0
DICTIONARY
  5
163
330
31
100
AcDbDictionary
280
     1
281
     1
  3
ACAD_XREC_ROUNDTRIP
360
164
  0
DICTIONARY
  5
177
330
3B
100
AcDbDictionary
280
     1
281
     1
  3
ACAD_XREC_ROUNDTRIP
360
178
  0
DICTIONARY
  5
171
330
38
100
AcDbDictionary
280
     1
281
     1
  3
ACAD_XREC_ROUNDTRIP
360
172
  0
DICTIONARY
  5
179
330
3C
100
AcDbDictionary
280
     1
281
     1
  3
ACAD_XREC_ROUNDTRIP
360
17A
  0
DICTIONARY
  5
167
330
33
100
AcDbDictionary
280
     1
281
     1
  3
ACAD_XREC_ROUNDTRIP
360
168
  0
DICTIONARY
  5
185
330
42
100
AcDbDictionary
280
     1
281
     1
  3
ACAD_XREC_ROUNDTRIP
360
186
  0
DICTIONARY
  5
183
330
41
100
AcDbDictionary
280
     1
281
     1
  3
ACAD_XREC_ROUNDTRIP
360
184
  0
DICTIONARY
  5
17D
330
3E
100
AcDbDictionary
280
     1
281
     1
  3
ACAD_XREC_ROUNDTRIP
360
17E
  0
DICTIONARY
  5
17F
330
3F
100
AcDbDictionary
280
     1
281
     1
  3
ACAD_XREC_ROUNDTRIP
360
180
  0
DICTIONARY
  5
16F
330
37
100
AcDbDictionary
280
     1
281
     1
  3
ACAD_XREC_ROUNDTRIP
360
170
  0
DICTIONARY
  5
161
330
30
100
AcDbDictionary
280
     1
281
     1
  3
ACAD_XREC_ROUNDTRIP
360
162
  0
DICTIONARY
  5
181
330
40
100
AcDbDictionary
280
     1
281
     1
  3
ACAD_XREC_ROUNDTRIP
360
182
  0
XRECORD
  5
18B
102
{ACAD_REACTORS
330
18A
102
}
330
18A
100
AcDbXrecord
280
     1
102
ACAD_ROUNDTRIP_2010_MLEADER_STYLE
  0
CELLSTYLEMAP
  5
188
102
{ACAD_REACTORS
330
187
102
}
330
187
100
AcDbCellStyleMap
 90
        3
300
CELLSTYLE
  1
TABLEFORMAT_BEGIN
 90
        5
170
     1
 91
        0
 92
    32768
 62
   257
 93
        1
300
CONTENTFORMAT
  1
CONTENTFORMAT_BEGIN
 90
        0
 91
        0
 92
        4
 93
        0
300

 40
0.0
140
1.0
 94
        5
 62
     0
340
11
144
0.25
309
CONTENTFORMAT_END
171
     1
301
MARGIN
  1
CELLMARGIN_BEGIN
 40
0.06
 40
0.06
 40
0.06
 40
0.06
 40
0.06
 40
0.06
309
CELLMARGIN_END
 94
        6
 95
        1
302
GRIDFORMAT
  1
GRIDFORMAT_BEGIN
 90
        0
 91
        1
 62
     0
 92
       -2
340
14
 93
        0
 40
0.045
309
GRIDFORMAT_END
 95
        2
302
GRIDFORMAT
  1
GRIDFORMAT_BEGIN
 90
        0
 91
        1
 62
     0
 92
       -2
340
14
 93
        0
 40
0.045
309
GRIDFORMAT_END
 95
        4
302
GRIDFORMAT
  1
GRIDFORMAT_BEGIN
 90
        0
 91
        1
 62
     0
 92
       -2
340
14
 93
        0
 40
0.045
309
GRIDFORMAT_END
 95
        8
302
GRIDFORMAT
  1
GRIDFORMAT_BEGIN
 90
        0
 91
        1
 62
     0
 92
       -2
340
14
 93
        0
 40
0.045
309
GRIDFORMAT_END
 95
       16
302
GRIDFORMAT
  1
GRIDFORMAT_BEGIN
 90
        0
 91
        1
 62
     0
 92
       -2
340
14
 93
        0
 40
0.045
309
GRIDFORMAT_END
 95
       32
302
GRIDFORMAT
  1
GRIDFORMAT_BEGIN
 90
        0
 91
        1
 62
     0
 92
       -2
340
14
 93
        0
 40
0.045
309
GRIDFORMAT_END
309
TABLEFORMAT_END
  1
CELLSTYLE_BEGIN
 90
        1
 91
        1
300
_TITLE
309
CELLSTYLE_END
300
CELLSTYLE
  1
TABLEFORMAT_BEGIN
 90
        5
170
     1
 91
        0
 92
        0
 62
   257
 93
        1
300
CONTENTFORMAT
  1
CONTENTFORMAT_BEGIN
 90
        0
 91
        0
 92
        4
 93
        0
300

 40
0.0
140
1.0
 94
        5
 62
     0
340
11
144
0.18
309
CONTENTFORMAT_END
171
     1
301
MARGIN
  1
CELLMARGIN_BEGIN
 40
0.06
 40
0.06
 40
0.06
 40
0.06
 40
0.06
 40
0.06
309
CELLMARGIN_END
 94
        6
 95
        1
302
GRIDFORMAT
  1
GRIDFORMAT_BEGIN
 90
        0
 91
        1
 62
     0
 92
       -2
340
14
 93
        0
 40
0.045
309
GRIDFORMAT_END
 95
        2
302
GRIDFORMAT
  1
GRIDFORMAT_BEGIN
 90
        0
 91
        1
 62
     0
 92
       -2
340
14
 93
        0
 40
0.045
309
GRIDFORMAT_END
 95
        4
302
GRIDFORMAT
  1
GRIDFORMAT_BEGIN
 90
        0
 91
        1
 62
     0
 92
       -2
340
14
 93
        0
 40
0.045
309
GRIDFORMAT_END
 95
        8
302
GRIDFORMAT
  1
GRIDFORMAT_BEGIN
 90
        0
 91
        1
 62
     0
 92
       -2
340
14
 93
        0
 40
0.045
309
GRIDFORMAT_END
 95
       16
302
GRIDFORMAT
  1
GRIDFORMAT_BEGIN
 90
        0
 91
        1
 62
     0
 92
       -2
340
14
 93
        0
 40
0.045
309
GRIDFORMAT_END
 95
       32
302
GRIDFORMAT
  1
GRIDFORMAT_BEGIN
 90
        0
 91
        1
 62
     0
 92
       -2
340
14
 93
        0
 40
0.045
309
GRIDFORMAT_END
309
TABLEFORMAT_END
  1
CELLSTYLE_BEGIN
 90
        2
 91
        1
300
_HEADER
309
CELLSTYLE_END
300
CELLSTYLE
  1
TABLEFORMAT_BEGIN
 90
        5
170
     1
 91
        0
 92
        0
 62
   257
 93
        1
300
CONTENTFORMAT
  1
CONTENTFORMAT_BEGIN
 90
        0
 91
        0
 92
        4
 93
        0
300

 40
0.0
140
1.0
 94
        2
 62
     0
340
11
144
0.18
309
CONTENTFORMAT_END
171
     1
301
MARGIN
  1
CELLMARGIN_BEGIN
 40
0.06
 40
0.06
 40
0.06
 40
0.06
 40
0.06
 40
0.06
309
CELLMARGIN_END
 94
        6
 95
        1
302
GRIDFORMAT
  1
GRIDFORMAT_BEGIN
 90
        0
 91
        1
 62
     0
 92
       -2
340
14
 93
        0
 40
0.045
309
GRIDFORMAT_END
 95
        2
302
GRIDFORMAT
  1
GRIDFORMAT_BEGIN
 90
        0
 91
        1
 62
     0
 92
       -2
340
14
 93
        0
 40
0.045
309
GRIDFORMAT_END
 95
        4
302
GRIDFORMAT
  1
GRIDFORMAT_BEGIN
 90
        0
 91
        1
 62
     0
 92
       -2
340
14
 93
        0
 40
0.045
309
GRIDFORMAT_END
 95
        8
302
GRIDFORMAT
  1
GRIDFORMAT_BEGIN
 90
        0
 91
        1
 62
     0
 92
       -2
340
14
 93
        0
 40
0.045
309
GRIDFORMAT_END
 95
       16
302
GRIDFORMAT
  1
GRIDFORMAT_BEGIN
 90
        0
 91
        1
 62
     0
 92
       -2
340
14
 93
        0
 40
0.045
309
GRIDFORMAT_END
 95
       32
302
GRIDFORMAT
  1
GRIDFORMAT_BEGIN
 90
        0
 91
        1
 62
     0
 92
       -2
340
14
 93
        0
 40
0.045
309
GRIDFORMAT_END
309
TABLEFORMAT_END
  1
CELLSTYLE_BEGIN
 90
        3
 91
        2
300
_DATA
309
CELLSTYLE_END
  0
XRECORD
  5
160
102
{ACAD_REACTORS
330
15F
102
}
330
15F
100
AcDbXrecord
280
     1
102
RTVSPropertyOp0
 70
     1
102
RTVSPropertyOp1
 70
     1
102
RTVSPropertyOp2
 70
     1
102
RTVSPropertyOp3
 70
     1
102
RTVSPropertyOp4
 70
     1
102
RTVSPropertyOp5
 70
     1
102
RTVSPropertyOp6
 70
     1
102
RTVSPropertyOp7
 70
     1
102
RTVSPropertyOp8
 70
     1
102
RTVSPropertyOp9
 70
     1
102
RTVSPropertyOp10
 70
     1
102
RTVSPropertyOp11
 70
     1
102
RTVSPropertyOp12
 70
     1
102
RTVSPropertyOp13
 70
     1
102
RTVSPropertyOp14
 70
     1
102
RTVSPropertyOp15
 70
     1
102
RTVSPropertyOp16
 70
     1
102
RTVSPropertyOp17
 70
     1
102
RTVSPropertyOp18
 70
     1
102
RTVSPropertyOp19
 70
     1
102
RTVSPropertyOp20
 70
     1
102
RTVSPropertyOp21
 70
     1
102
RTVSPropertyOp22
 70
     1
102
RTVSPropertyOp23
 70
     1
102
RTVSPropertyOp24
 70
     1
102
RTVSPropertyOp25
 70
     1
102
RTVSPropertyOp26
 70
     1
102
RTVSPropertyOp27
 70
     1
102
RTVSPropertyOp28
 70
     1
102
RTVSPropertyOp29
 70
     1
102
RTVSPropertyOp30
 70
     1
102
RTVSPropertyOp31
 70
     1
102
RTVSPropertyOp32
 70
     1
102
RTVSPropertyOp33
 70
     1
102
RTVSPropertyOp34
 70
     1
102
RTVSPropertyOp35
 70
     1
102
RTVSPropertyOp36
 70
     1
102
RTVSPropertyOp37
 70
     1
102
RTVSPropertyOp38
 70
     1
102
RTVSPropertyOp39
 70
     1
102
RTVSPropertyOp40
 70
     1
102
RTVSPropertyOp41
 70
     1
102
RTVSPropertyOp42
 70
     1
102
RTVSPropertyOp43
 70
     1
102
RTVSPropertyOp44
 70
     1
102
RTVSPropertyOp45
 70
     1
102
RTVSPropertyOp46
 70
     1
102
RTVSPropertyOp47
 70
     1
102
RTVSPropertyOp48
 70
     1
102
RTVSPropertyOp49
 70
     1
102
RTVSPropertyOp50
 70
     1
102
RTVSPropertyOp51
 70
     0
102
RTVSPropertyOp52
 70
     0
102
RTVSPropertyOp53
 70
     1
102
RTVSPropertyOp54
 70
     1
102
RTVSPropertyOp55
 70
     1
102
RTVSPropertyOp56
 70
     1
102
RTVSPropertyOp57
 70
     1
102
RTVSPost2010Prop28
280
     1
102
RTVSPost2010PropOp28
 70
     1
102
RTVSPost2010Prop29
280
     1
102
RTVSPost2010PropOp29
 70
     1
102
RTVSPost2010Prop30
280
     0
102
RTVSPost2010PropOp30
 70
     1
102
RTVSPost2010Prop31
280
     0
102
RTVSPost2010PropOp31
 70
     1
102
RTVSPost2010Prop32
280
     0
102
RTVSPost2010PropOp32
 70
     1
102
RTVSPost2010Prop33
280
     0
102
RTVSPost2010PropOp33
 70
     1
102
RTVSPost2010Prop34
280
     0
102
RTVSPost2010PropOp34
 70
     1
102
RTVSPost2010Prop35
280
     0
102
RTVSPost2010PropOp35
 70
     1
102
RTVSPost2010Prop36
280
     0
102
RTVSPost2010PropOp36
 70
     1
102
RTVSPost2010Prop37
 90
       50
102
RTVSPost2010PropOp37
 70
     1
102
RTVSPost2010Prop38
140
0.0
102
RTVSPost2010PropOp38
 70
     1
102
RTVSPost2010Prop39
140
1.0
102
RTVSPost2010PropOp39
 70
     1
102
RTVSPost2010Prop40
 90
        0
102
RTVSPost2010PropOp40
 70
     1
102
RTVSPost2010Prop41ColorIndex
 90
       18
102
RTVSPost2010Prop41ColorRGB
 90
        0
102
RTVSPost2010PropOp41
 70
     1
102
RTVSPost2010Prop42
 90
       50
102
RTVSPost2010PropOp42
 70
     1
102
RTVSPost2010Prop43
 90
        3
102
RTVSPost2010PropOp43
 70
     1
102
RTVSPost2010Prop44ColorIndex
 90
        5
102
RTVSPost2010Prop44ColorRGB
 90
      255
102
RTVSPost2010PropOp44
 70
     1
102
RTVSPost2010Prop45
280
     0
102
RTVSPost2010PropOp45
 70
     1
102
RTVSPost2010Prop46
 90
       50
102
RTVSPost2010PropOp46
 70
     1
102
RTVSPost2010Prop47
 90
       50
102
RTVSPost2010PropOp47
 70
     1
102
RTVSPost2010Prop48
 90
       50
102
RTVSPost2010PropOp48
 70
     1
102
RTVSPost2010Prop49
280
     0
102
RTVSPost2010PropOp49
 70
     1
102
RTVSPost2010Prop50
 90
       50
102
RTVSPost2010PropOp50
 70
     1
102
RTVSPost2010Prop51ColorIndex
 90
      256
102
RTVSPost2010Prop51ColorRGB
 90
-16777216
102
RTVSPost2010PropOp51
 70
     0
102
RTVSPost2010Prop52
140
1.0
102
RTVSPost2010PropOp52
 70
     0
102
RTVSPost2010Prop53
 90
        2
102
RTVSPost2010PropOp53
 70
     1
102
RTVSPost2010Prop54
  1
strokes_ogs.tif
102
RTVSPost2010PropOp54
 70
     1
102
RTVSPost2010Prop55
280
     0
102
RTVSPost2010PropOp55
 70
     1
102
RTVSPost2010Prop56
140
1.0
102
RTVSPost2010PropOp56
 70
     1
102
RTVSPost2010Prop57
140
1.0
102
RTVSPost2010PropOp57
 70
     1
  0
XRECORD
  5
166
102
{ACAD_REACTORS
330
165
102
}
330
165
100
AcDbXrecord
280
     1
102
RTVSPropertyOp0
 70
     1
102
RTVSPropertyOp1
 70
     1
102
RTVSPropertyOp2
 70
     1
102
RTVSPropertyOp3
 70
     1
102
RTVSPropertyOp4
 70
     1
102
RTVSPropertyOp5
 70
     1
102
RTVSPropertyOp6
 70
     1
102
RTVSPropertyOp7
 70
     1
102
RTVSPropertyOp8
 70
     1
102
RTVSPropertyOp9
 70
     1
102
RTVSPropertyOp10
 70
     1
102
RTVSPropertyOp11
 70
     1
102
RTVSPropertyOp12
 70
     1
102
RTVSPropertyOp13
 70
     1
102
RTVSPropertyOp14
 70
     1
102
RTVSPropertyOp15
 70
     1
102
RTVSPropertyOp16
 70
     1
102
RTVSPropertyOp17
 70
     1
102
RTVSPropertyOp18
 70
     1
102
RTVSPropertyOp19
 70
     1
102
RTVSPropertyOp20
 70
     1
102
RTVSPropertyOp21
 70
     1
102
RTVSPropertyOp22
 70
     1
102
RTVSPropertyOp23
 70
     1
102
RTVSPropertyOp24
 70
     1
102
RTVSPropertyOp25
 70
     1
102
RTVSPropertyOp26
 70
     1
102
RTVSPropertyOp27
 70
     1
102
RTVSPropertyOp28
 70
     1
102
RTVSPropertyOp29
 70
     1
102
RTVSPropertyOp30
 70
     1
102
RTVSPropertyOp31
 70
     1
102
RTVSPropertyOp32
 70
     1
102
RTVSPropertyOp33
 70
     1
102
RTVSPropertyOp34
 70
     1
102
RTVSPropertyOp35
 70
     1
102
RTVSPropertyOp36
 70
     1
102
RTVSPropertyOp37
 70
     1
102
RTVSPropertyOp38
 70
     1
102
RTVSPropertyOp39
 70
     1
102
RTVSPropertyOp40
 70
     1
102
RTVSPropertyOp41
 70
     1
102
RTVSPropertyOp42
 70
     1
102
RTVSPropertyOp43
 70
     1
102
RTVSPropertyOp44
 70
     1
102
RTVSPropertyOp45
 70
     1
102
RTVSPropertyOp46
 70
     1
102
RTVSPropertyOp47
 70
     1
102
RTVSPropertyOp48
 70
     1
102
RTVSPropertyOp49
 70
     1
102
RTVSPropertyOp50
 70
     1
102
RTVSPropertyOp51
 70
     0
102
RTVSPropertyOp52
 70
     0
102
RTVSPropertyOp53
 70
     1
102
RTVSPropertyOp54
 70
     1
102
RTVSPropertyOp55
 70
     1
102
RTVSPropertyOp56
 70
     1
102
RTVSPropertyOp57
 70
     1
102
RTVSPost2010Prop28
280
     0
102
RTVSPost2010PropOp28
 70
     1
102
RTVSPost2010Prop29
280
     1
102
RTVSPost2010PropOp29
 70
     1
102
RTVSPost2010Prop30
280
     1
102
RTVSPost2010PropOp30
 70
     1
102
RTVSPost2010Prop31
280
     0
102
RTVSPost2010PropOp31
 70
     1
102
RTVSPost2010Prop32
280
     0
102
RTVSPost2010PropOp32
 70
     1
102
RTVSPost2010Prop33
280
     0
102
RTVSPost2010PropOp33
 70
     1
102
RTVSPost2010Prop34
280
     0
102
RTVSPost2010PropOp34
 70
     1
102
RTVSPost2010Prop35
280
     0
102
RTVSPost2010PropOp35
 70
     1
102
RTVSPost2010Prop36
280
     0
102
RTVSPost2010PropOp36
 70
     1
102
RTVSPost2010Prop37
 90
       50
102
RTVSPost2010PropOp37
 70
     1
102
RTVSPost2010Prop38
140
0.0
102
RTVSPost2010PropOp38
 70
     1
102
RTVSPost2010Prop39
140
1.0
102
RTVSPost2010PropOp39
 70
     1
102
RTVSPost2010Prop40
 90
        0
102
RTVSPost2010PropOp40
 70
     1
102
RTVSPost2010Prop41ColorIndex
 90
       18
102
RTVSPost2010Prop41ColorRGB
 90
        0
102
RTVSPost2010PropOp41
 70
     1
102
RTVSPost2010Prop42
 90
       50
102
RTVSPost2010PropOp42
 70
     1
102
RTVSPost2010Prop43
 90
        3
102
RTVSPost2010PropOp43
 70
     1
102
RTVSPost2010Prop44ColorIndex
 90
        5
102
RTVSPost2010Prop44ColorRGB
 90
      255
102
RTVSPost2010PropOp44
 70
     1
102
RTVSPost2010Prop45
280
     0
102
RTVSPost2010PropOp45
 70
     1
102
RTVSPost2010Prop46
 90
       50
102
RTVSPost2010PropOp46
 70
     1
102
RTVSPost2010Prop47
 90
       50
102
RTVSPost2010PropOp47
 70
     1
102
RTVSPost2010Prop48
 90
       50
102
RTVSPost2010PropOp48
 70
     1
102
RTVSPost2010Prop49
280
     0
102
RTVSPost2010PropOp49
 70
     1
102
RTVSPost2010Prop50
 90
       50
102
RTVSPost2010PropOp50
 70
     1
102
RTVSPost2010Prop51ColorIndex
 90
      256
102
RTVSPost2010Prop51ColorRGB
 90
-16777216
102
RTVSPost2010PropOp51
 70
     0
102
RTVSPost2010Prop52
140
1.0
102
RTVSPost2010PropOp52
 70
     0
102
RTVSPost2010Prop53
 90
        2
102
RTVSPost2010PropOp53
 70
     1
102
RTVSPost2010Prop54
  1
strokes_ogs.tif
102
RTVSPost2010PropOp54
 70
     1
102
RTVSPost2010Prop55
280
     0
102
RTVSPost2010PropOp55
 70
     1
102
RTVSPost2010Prop56
140
1.0
102
RTVSPost2010PropOp56
 70
     1
102
RTVSPost2010Prop57
140
1.0
102
RTVSPost2010PropOp57
 70
     1
  0
XRECORD
  5
16E
102
{ACAD_REACTORS
330
16D
102
}
330
16D
100
AcDbXrecord
280
     1
102
RTVSPropertyOp0
 70
     1
102
RTVSPropertyOp1
 70
     1
102
RTVSPropertyOp2
 70
     1
102
RTVSPropertyOp3
 70
     1
102
RTVSPropertyOp4
 70
     1
102
RTVSPropertyOp5
 70
     1
102
RTVSPropertyOp6
 70
     1
102
RTVSPropertyOp7
 70
     1
102
RTVSPropertyOp8
 70
     1
102
RTVSPropertyOp9
 70
     1
102
RTVSPropertyOp10
 70
     1
102
RTVSPropertyOp11
 70
     1
102
RTVSPropertyOp12
 70
     1
102
RTVSPropertyOp13
 70
     1
102
RTVSPropertyOp14
 70
     1
102
RTVSPropertyOp15
 70
     1
102
RTVSPropertyOp16
 70
     1
102
RTVSPropertyOp17
 70
     1
102
RTVSPropertyOp18
 70
     1
102
RTVSPropertyOp19
 70
     1
102
RTVSPropertyOp20
 70
     1
102
RTVSPropertyOp21
 70
     1
102
RTVSPropertyOp22
 70
     1
102
RTVSPropertyOp23
 70
     1
102
RTVSPropertyOp24
 70
     1
102
RTVSPropertyOp25
 70
     1
102
RTVSPropertyOp26
 70
     1
102
RTVSPropertyOp27
 70
     1
102
RTVSPropertyOp28
 70
     1
102
RTVSPropertyOp29
 70
     1
102
RTVSPropertyOp30
 70
     1
102
RTVSPropertyOp31
 70
     1
102
RTVSPropertyOp32
 70
     1
102
RTVSPropertyOp33
 70
     1
102
RTVSPropertyOp34
 70
     1
102
RTVSPropertyOp35
 70
     1
102
RTVSPropertyOp36
 70
     1
102
RTVSPropertyOp37
 70
     1
102
RTVSPropertyOp38
 70
     1
102
RTVSPropertyOp39
 70
     1
102
RTVSPropertyOp40
 70
     1
102
RTVSPropertyOp41
 70
     1
102
RTVSPropertyOp42
 70
     1
102
RTVSPropertyOp43
 70
     1
102
RTVSPropertyOp44
 70
     1
102
RTVSPropertyOp45
 70
     1
102
RTVSPropertyOp46
 70
     1
102
RTVSPropertyOp47
 70
     1
102
RTVSPropertyOp48
 70
     1
102
RTVSPropertyOp49
 70
     1
102
RTVSPropertyOp50
 70
     1
102
RTVSPropertyOp51
 70
     0
102
RTVSPropertyOp52
 70
     0
102
RTVSPropertyOp53
 70
     1
102
RTVSPropertyOp54
 70
     1
102
RTVSPropertyOp55
 70
     1
102
RTVSPropertyOp56
 70
     1
102
RTVSPropertyOp57
 70
     1
102
RTVSPost2010Prop28
280
     0
102
RTVSPost2010PropOp28
 70
     1
102
RTVSPost2010Prop29
280
     1
102
RTVSPost2010PropOp29
 70
     1
102
RTVSPost2010Prop30
280
     1
102
RTVSPost2010PropOp30
 70
     1
102
RTVSPost2010Prop31
280
     0
102
RTVSPost2010PropOp31
 70
     1
102
RTVSPost2010Prop32
280
     0
102
RTVSPost2010PropOp32
 70
     1
102
RTVSPost2010Prop33
280
     0
102
RTVSPost2010PropOp33
 70
     1
102
RTVSPost2010Prop34
280
     0
102
RTVSPost2010PropOp34
 70
     1
102
RTVSPost2010Prop35
280
     0
102
RTVSPost2010PropOp35
 70
     1
102
RTVSPost2010Prop36
280
     0
102
RTVSPost2010PropOp36
 70
     1
102
RTVSPost2010Prop37
 90
       50
102
RTVSPost2010PropOp37
 70
     1
102
RTVSPost2010Prop38
140
0.0
102
RTVSPost2010PropOp38
 70
     1
102
RTVSPost2010Prop39
140
1.0
102
RTVSPost2010PropOp39
 70
     1
102
RTVSPost2010Prop40
 90
        0
102
RTVSPost2010PropOp40
 70
     1
102
RTVSPost2010Prop41ColorIndex
 90
       18
102
RTVSPost2010Prop41ColorRGB
 90
        0
102
RTVSPost2010PropOp41
 70
     1
102
RTVSPost2010Prop42
 90
       50
102
RTVSPost2010PropOp42
 70
     1
102
RTVSPost2010Prop43
 90
        3
102
RTVSPost2010PropOp43
 70
     1
102
RTVSPost2010Prop44ColorIndex
 90
        5
102
RTVSPost2010Prop44ColorRGB
 90
      255
102
RTVSPost2010PropOp44
 70
     1
102
RTVSPost2010Prop45
280
     0
102
RTVSPost2010PropOp45
 70
     1
102
RTVSPost2010Prop46
 90
       50
102
RTVSPost2010PropOp46
 70
     1
102
RTVSPost2010Prop47
 90
       50
102
RTVSPost2010PropOp47
 70
     1
102
RTVSPost2010Prop48
 90
       50
102
RTVSPost2010PropOp48
 70
     1
102
RTVSPost2010Prop49
280
     0
102
RTVSPost2010PropOp49
 70
     1
102
RTVSPost2010Prop50
 90
       50
102
RTVSPost2010PropOp50
 70
     1
102
RTVSPost2010Prop51ColorIndex
 90
      256
102
RTVSPost2010Prop51ColorRGB
 90
-16777216
102
RTVSPost2010PropOp51
 70
     0
102
RTVSPost2010Prop52
140
1.0
102
RTVSPost2010PropOp52
 70
     0
102
RTVSPost2010Prop53
 90
        2
102
RTVSPost2010PropOp53
 70
     1
102
RTVSPost2010Prop54
  1
strokes_ogs.tif
102
RTVSPost2010PropOp54
 70
     1
102
RTVSPost2010Prop55
280
     0
102
RTVSPost2010PropOp55
 70
     1
102
RTVSPost2010Prop56
140
1.0
102
RTVSPost2010PropOp56
 70
     1
102
RTVSPost2010Prop57
140
1.0
102
RTVSPost2010PropOp57
 70
     1
  0
XRECORD
  5
176
102
{ACAD_REACTORS
330
175
102
}
330
175
100
AcDbXrecord
280
     1
102
RTVSPropertyOp0
 70
     1
102
RTVSPropertyOp1
 70
     1
102
RTVSPropertyOp2
 70
     1
102
RTVSPropertyOp3
 70
     1
102
RTVSPropertyOp4
 70
     1
102
RTVSPropertyOp5
 70
     1
102
RTVSPropertyOp6
 70
     1
102
RTVSPropertyOp7
 70
     1
102
RTVSPropertyOp8
 70
     1
102
RTVSPropertyOp9
 70
     1
102
RTVSPropertyOp10
 70
     1
102
RTVSPropertyOp11
 70
     1
102
RTVSPropertyOp12
 70
     1
102
RTVSPropertyOp13
 70
     1
102
RTVSPropertyOp14
 70
     1
102
RTVSPropertyOp15
 70
     1
102
RTVSPropertyOp16
 70
     1
102
RTVSPropertyOp17
 70
     1
102
RTVSPropertyOp18
 70
     1
102
RTVSPropertyOp19
 70
     1
102
RTVSPropertyOp20
 70
     1
102
RTVSPropertyOp21
 70
     1
102
RTVSPropertyOp22
 70
     1
102
RTVSPropertyOp23
 70
     1
102
RTVSPropertyOp24
 70
     1
102
RTVSPropertyOp25
 70
     1
102
RTVSPropertyOp26
 70
     1
102
RTVSPropertyOp27
 70
     1
102
RTVSPropertyOp28
 70
     1
102
RTVSPropertyOp29
 70
     1
102
RTVSPropertyOp30
 70
     1
102
RTVSPropertyOp31
 70
     1
102
RTVSPropertyOp32
 70
     1
102
RTVSPropertyOp33
 70
     1
102
RTVSPropertyOp34
 70
     1
102
RTVSPropertyOp35
 70
     1
102
RTVSPropertyOp36
 70
     1
102
RTVSPropertyOp37
 70
     1
102
RTVSPropertyOp38
 70
     1
102
RTVSPropertyOp39
 70
     1
102
RTVSPropertyOp40
 70
     1
102
RTVSPropertyOp41
 70
     1
102
RTVSPropertyOp42
 70
     1
102
RTVSPropertyOp43
 70
     1
102
RTVSPropertyOp44
 70
     1
102
RTVSPropertyOp45
 70
     1
102
RTVSPropertyOp46
 70
     1
102
RTVSPropertyOp47
 70
     1
102
RTVSPropertyOp48
 70
     1
102
RTVSPropertyOp49
 70
     1
102
RTVSPropertyOp50
 70
     1
102
RTVSPropertyOp51
 70
     0
102
RTVSPropertyOp52
 70
     0
102
RTVSPropertyOp53
 70
     1
102
RTVSPropertyOp54
 70
     1
102
RTVSPropertyOp55
 70
     1
102
RTVSPropertyOp56
 70
     1
102
RTVSPropertyOp57
 70
     1
102
RTVSPost2010Prop28
280
     0
102
RTVSPost2010PropOp28
 70
     1
102
RTVSPost2010Prop29
280
     1
102
RTVSPost2010PropOp29
 70
     1
102
RTVSPost2010Prop30
280
     1
102
RTVSPost2010PropOp30
 70
     1
102
RTVSPost2010Prop31
280
     0
102
RTVSPost2010PropOp31
 70
     1
102
RTVSPost2010Prop32
280
     0
102
RTVSPost2010PropOp32
 70
     1
102
RTVSPost2010Prop33
280
     0
102
RTVSPost2010PropOp33
 70
     1
102
RTVSPost2010Prop34
280
     0
102
RTVSPost2010PropOp34
 70
     1
102
RTVSPost2010Prop35
280
     0
102
RTVSPost2010PropOp35
 70
     1
102
RTVSPost2010Prop36
280
     0
102
RTVSPost2010PropOp36
 70
     1
102
RTVSPost2010Prop37
 90
       50
102
RTVSPost2010PropOp37
 70
     1
102
RTVSPost2010Prop38
140
0.0
102
RTVSPost2010PropOp38
 70
     1
102
RTVSPost2010Prop39
140
1.0
102
RTVSPost2010PropOp39
 70
     1
102
RTVSPost2010Prop40
 90
        0
102
RTVSPost2010PropOp40
 70
     1
102
RTVSPost2010Prop41ColorIndex
 90
       18
102
RTVSPost2010Prop41ColorRGB
 90
        0
102
RTVSPost2010PropOp41
 70
     1
102
RTVSPost2010Prop42
 90
       50
102
RTVSPost2010PropOp42
 70
     1
102
RTVSPost2010Prop43
 90
        3
102
RTVSPost2010PropOp43
 70
     1
102
RTVSPost2010Prop44ColorIndex
 90
        5
102
RTVSPost2010Prop44ColorRGB
 90
      255
102
RTVSPost2010PropOp44
 70
     1
102
RTVSPost2010Prop45
280
     0
102
RTVSPost2010PropOp45
 70
     1
102
RTVSPost2010Prop46
 90
       50
102
RTVSPost2010PropOp46
 70
     1
102
RTVSPost2010Prop47
 90
       50
102
RTVSPost2010PropOp47
 70
     1
102
RTVSPost2010Prop48
 90
       50
102
RTVSPost2010PropOp48
 70
     1
102
RTVSPost2010Prop49
280
     0
102
RTVSPost2010PropOp49
 70
     1
102
RTVSPost2010Prop50
 90
       50
102
RTVSPost2010PropOp50
 70
     1
102
RTVSPost2010Prop51ColorIndex
 90
      256
102
RTVSPost2010Prop51ColorRGB
 90
-16777216
102
RTVSPost2010PropOp51
 70
     0
102
RTVSPost2010Prop52
140
1.0
102
RTVSPost2010PropOp52
 70
     0
102
RTVSPost2010Prop53
 90
        2
102
RTVSPost2010PropOp53
 70
     1
102
RTVSPost2010Prop54
  1
strokes_ogs.tif
102
RTVSPost2010PropOp54
 70
     1
102
RTVSPost2010Prop55
280
     0
102
RTVSPost2010PropOp55
 70
     1
102
RTVSPost2010Prop56
140
1.0
102
RTVSPost2010PropOp56
 70
     1
102
RTVSPost2010Prop57
140
1.0
102
RTVSPost2010PropOp57
 70
     1
  0
XRECORD
  5
16A
102
{ACAD_REACTORS
330
169
102
}
330
169
100
AcDbXrecord
280
     1
102
RTVSPropertyOp0
 70
     1
102
RTVSPropertyOp1
 70
     1
102
RTVSPropertyOp2
 70
     1
102
RTVSPropertyOp3
 70
     1
102
RTVSPropertyOp4
 70
     1
102
RTVSPropertyOp5
 70
     1
102
RTVSPropertyOp6
 70
     1
102
RTVSPropertyOp7
 70
     1
102
RTVSPropertyOp8
 70
     1
102
RTVSPropertyOp9
 70
     1
102
RTVSPropertyOp10
 70
     1
102
RTVSPropertyOp11
 70
     1
102
RTVSPropertyOp12
 70
     1
102
RTVSPropertyOp13
 70
     1
102
RTVSPropertyOp14
 70
     1
102
RTVSPropertyOp15
 70
     1
102
RTVSPropertyOp16
 70
     1
102
RTVSPropertyOp17
 70
     1
102
RTVSPropertyOp18
 70
     1
102
RTVSPropertyOp19
 70
     1
102
RTVSPropertyOp20
 70
     1
102
RTVSPropertyOp21
 70
     1
102
RTVSPropertyOp22
 70
     1
102
RTVSPropertyOp23
 70
     1
102
RTVSPropertyOp24
 70
     1
102
RTVSPropertyOp25
 70
     1
102
RTVSPropertyOp26
 70
     1
102
RTVSPropertyOp27
 70
     1
102
RTVSPropertyOp28
 70
     1
102
RTVSPropertyOp29
 70
     1
102
RTVSPropertyOp30
 70
     1
102
RTVSPropertyOp31
 70
     1
102
RTVSPropertyOp32
 70
     1
102
RTVSPropertyOp33
 70
     1
102
RTVSPropertyOp34
 70
     1
102
RTVSPropertyOp35
 70
     1
102
RTVSPropertyOp36
 70
     1
102
RTVSPropertyOp37
 70
     1
102
RTVSPropertyOp38
 70
     1
102
RTVSPropertyOp39
 70
     1
102
RTVSPropertyOp40
 70
     1
102
RTVSPropertyOp41
 70
     1
102
RTVSPropertyOp42
 70
     1
102
RTVSPropertyOp43
 70
     1
102
RTVSPropertyOp44
 70
     1
102
RTVSPropertyOp45
 70
     1
102
RTVSPropertyOp46
 70
     1
102
RTVSPropertyOp47
 70
     1
102
RTVSPropertyOp48
 70
     1
102
RTVSPropertyOp49
 70
     1
102
RTVSPropertyOp50
 70
     1
102
RTVSPropertyOp51
 70
     0
102
RTVSPropertyOp52
 70
     0
102
RTVSPropertyOp53
 70
     1
102
RTVSPropertyOp54
 70
     1
102
RTVSPropertyOp55
 70
     1
102
RTVSPropertyOp56
 70
     1
102
RTVSPropertyOp57
 70
     1
102
RTVSPost2010Prop28
280
     0
102
RTVSPost2010PropOp28
 70
     1
102
RTVSPost2010Prop29
280
     1
102
RTVSPost2010PropOp29
 70
     1
102
RTVSPost2010Prop30
280
     1
102
RTVSPost2010PropOp30
 70
     1
102
RTVSPost2010Prop31
280
     0
102
RTVSPost2010PropOp31
 70
     1
102
RTVSPost2010Prop32
280
     0
102
RTVSPost2010PropOp32
 70
     1
102
RTVSPost2010Prop33
280
     0
102
RTVSPost2010PropOp33
 70
     1
102
RTVSPost2010Prop34
280
     0
102
RTVSPost2010PropOp34
 70
     1
102
RTVSPost2010Prop35
280
     0
102
RTVSPost2010PropOp35
 70
     1
102
RTVSPost2010Prop36
280
     0
102
RTVSPost2010PropOp36
 70
     1
102
RTVSPost2010Prop37
 90
       50
102
RTVSPost2010PropOp37
 70
     1
102
RTVSPost2010Prop38
140
0.0
102
RTVSPost2010PropOp38
 70
     1
102
RTVSPost2010Prop39
140
1.0
102
RTVSPost2010PropOp39
 70
     1
102
RTVSPost2010Prop40
 90
        0
102
RTVSPost2010PropOp40
 70
     1
102
RTVSPost2010Prop41ColorIndex
 90
       18
102
RTVSPost2010Prop41ColorRGB
 90
        0
102
RTVSPost2010PropOp41
 70
     1
102
RTVSPost2010Prop42
 90
       50
102
RTVSPost2010PropOp42
 70
     1
102
RTVSPost2010Prop43
 90
        3
102
RTVSPost2010PropOp43
 70
     1
102
RTVSPost2010Prop44ColorIndex
 90
        5
102
RTVSPost2010Prop44ColorRGB
 90
      255
102
RTVSPost2010PropOp44
 70
     1
102
RTVSPost2010Prop45
280
     0
102
RTVSPost2010PropOp45
 70
     1
102
RTVSPost2010Prop46
 90
       50
102
RTVSPost2010PropOp46
 70
     1
102
RTVSPost2010Prop47
 90
       50
102
RTVSPost2010PropOp47
 70
     1
102
RTVSPost2010Prop48
 90
       50
102
RTVSPost2010PropOp48
 70
     1
102
RTVSPost2010Prop49
280
     0
102
RTVSPost2010PropOp49
 70
     1
102
RTVSPost2010Prop50
 90
       50
102
RTVSPost2010PropOp50
 70
     1
102
RTVSPost2010Prop51ColorIndex
 90
      256
102
RTVSPost2010Prop51ColorRGB
 90
-16777216
102
RTVSPost2010PropOp51
 70
     0
102
RTVSPost2010Prop52
140
1.0
102
RTVSPost2010PropOp52
 70
     0
102
RTVSPost2010Prop53
 90
        2
102
RTVSPost2010PropOp53
 70
     1
102
RTVSPost2010Prop54
  1
strokes_ogs.tif
102
RTVSPost2010PropOp54
 70
     1
102
RTVSPost2010Prop55
280
     0
102
RTVSPost2010PropOp55
 70
     1
102
RTVSPost2010Prop56
140
1.0
102
RTVSPost2010PropOp56
 70
     1
102
RTVSPost2010Prop57
140
1.0
102
RTVSPost2010PropOp57
 70
     1
  0
XRECORD
  5
16C
102
{ACAD_REACTORS
330
16B
102
}
330
16B
100
AcDbXrecord
280
     1
102
RTVSPropertyOp0
 70
     1
102
RTVSPropertyOp1
 70
     1
102
RTVSPropertyOp2
 70
     1
102
RTVSPropertyOp3
 70
     1
102
RTVSPropertyOp4
 70
     1
102
RTVSPropertyOp5
 70
     1
102
RTVSPropertyOp6
 70
     1
102
RTVSPropertyOp7
 70
     1
102
RTVSPropertyOp8
 70
     1
102
RTVSPropertyOp9
 70
     1
102
RTVSPropertyOp10
 70
     1
102
RTVSPropertyOp11
 70
     1
102
RTVSPropertyOp12
 70
     1
102
RTVSPropertyOp13
 70
     1
102
RTVSPropertyOp14
 70
     1
102
RTVSPropertyOp15
 70
     1
102
RTVSPropertyOp16
 70
     1
102
RTVSPropertyOp17
 70
     1
102
RTVSPropertyOp18
 70
     1
102
RTVSPropertyOp19
 70
     1
102
RTVSPropertyOp20
 70
     1
102
RTVSPropertyOp21
 70
     1
102
RTVSPropertyOp22
 70
     1
102
RTVSPropertyOp23
 70
     1
102
RTVSPropertyOp24
 70
     1
102
RTVSPropertyOp25
 70
     1
102
RTVSPropertyOp26
 70
     1
102
RTVSPropertyOp27
 70
     1
102
RTVSPropertyOp28
 70
     1
102
RTVSPropertyOp29
 70
     1
102
RTVSPropertyOp30
 70
     1
102
RTVSPropertyOp31
 70
     1
102
RTVSPropertyOp32
 70
     1
102
RTVSPropertyOp33
 70
     1
102
RTVSPropertyOp34
 70
     1
102
RTVSPropertyOp35
 70
     1
102
RTVSPropertyOp36
 70
     1
102
RTVSPropertyOp37
 70
     1
102
RTVSPropertyOp38
 70
     1
102
RTVSPropertyOp39
 70
     1
102
RTVSPropertyOp40
 70
     1
102
RTVSPropertyOp41
 70
     1
102
RTVSPropertyOp42
 70
     1
102
RTVSPropertyOp43
 70
     1
102
RTVSPropertyOp44
 70
     1
102
RTVSPropertyOp45
 70
     1
102
RTVSPropertyOp46
 70
     1
102
RTVSPropertyOp47
 70
     1
102
RTVSPropertyOp48
 70
     1
102
RTVSPropertyOp49
 70
     1
102
RTVSPropertyOp50
 70
     1
102
RTVSPropertyOp51
 70
     0
102
RTVSPropertyOp52
 70
     0
102
RTVSPropertyOp53
 70
     1
102
RTVSPropertyOp54
 70
     1
102
RTVSPropertyOp55
 70
     1
102
RTVSPropertyOp56
 70
     1
102
RTVSPropertyOp57
 70
     1
102
RTVSPost2010Prop28
280
     0
102
RTVSPost2010PropOp28
 70
     1
102
RTVSPost2010Prop29
280
     1
102
RTVSPost2010PropOp29
 70
     1
102
RTVSPost2010Prop30
280
     1
102
RTVSPost2010PropOp30
 70
     1
102
RTVSPost2010Prop31
280
     0
102
RTVSPost2010PropOp31
 70
     1
102
RTVSPost2010Prop32
280
     0
102
RTVSPost2010PropOp32
 70
     1
102
RTVSPost2010Prop33
280
     0
102
RTVSPost2010PropOp33
 70
     1
102
RTVSPost2010Prop34
280
     0
102
RTVSPost2010PropOp34
 70
     1
102
RTVSPost2010Prop35
280
     0
102
RTVSPost2010PropOp35
 70
     1
102
RTVSPost2010Prop36
280
     0
102
RTVSPost2010PropOp36
 70
     1
102
RTVSPost2010Prop37
 90
       50
102
RTVSPost2010PropOp37
 70
     1
102
RTVSPost2010Prop38
140
0.0
102
RTVSPost2010PropOp38
 70
     1
102
RTVSPost2010Prop39
140
1.0
102
RTVSPost2010PropOp39
 70
     1
102
RTVSPost2010Prop40
 90
        0
102
RTVSPost2010PropOp40
 70
     1
102
RTVSPost2010Prop41ColorIndex
 90
       18
102
RTVSPost2010Prop41ColorRGB
 90
        0
102
RTVSPost2010PropOp41
 70
     1
102
RTVSPost2010Prop42
 90
       50
102
RTVSPost2010PropOp42
 70
     1
102
RTVSPost2010Prop43
 90
        3
102
RTVSPost2010PropOp43
 70
     1
102
RTVSPost2010Prop44ColorIndex
 90
        5
102
RTVSPost2010Prop44ColorRGB
 90
      255
102
RTVSPost2010PropOp44
 70
     1
102
RTVSPost2010Prop45
280
     0
102
RTVSPost2010PropOp45
 70
     1
102
RTVSPost2010Prop46
 90
       50
102
RTVSPost2010PropOp46
 70
     1
102
RTVSPost2010Prop47
 90
       50
102
RTVSPost2010PropOp47
 70
     1
102
RTVSPost2010Prop48
 90
       50
102
RTVSPost2010PropOp48
 70
     1
102
RTVSPost2010Prop49
280
     0
102
RTVSPost2010PropOp49
 70
     1
102
RTVSPost2010Prop50
 90
       50
102
RTVSPost2010PropOp50
 70
     1
102
RTVSPost2010Prop51ColorIndex
 90
      256
102
RTVSPost2010Prop51ColorRGB
 90
-16777216
102
RTVSPost2010PropOp51
 70
     0
102
RTVSPost2010Prop52
140
1.0
102
RTVSPost2010PropOp52
 70
     0
102
RTVSPost2010Prop53
 90
        2
102
RTVSPost2010PropOp53
 70
     1
102
RTVSPost2010Prop54
  1
strokes_ogs.tif
102
RTVSPost2010PropOp54
 70
     1
102
RTVSPost2010Prop55
280
     0
102
RTVSPost2010PropOp55
 70
     1
102
RTVSPost2010Prop56
140
1.0
102
RTVSPost2010PropOp56
 70
     1
102
RTVSPost2010Prop57
140
1.0
102
RTVSPost2010PropOp57
 70
     1
  0
XRECORD
  5
17C
102
{ACAD_REACTORS
330
17B
102
}
330
17B
100
AcDbXrecord
280
     1
102
RTVSPropertyOp0
 70
     0
102
RTVSPropertyOp1
 70
     0
102
RTVSPropertyOp2
 70
     0
102
RTVSPropertyOp3
 70
     0
102
RTVSPropertyOp4
 70
     0
102
RTVSPropertyOp5
 70
     0
102
RTVSPropertyOp6
 70
     0
102
RTVSPropertyOp7
 70
     0
102
RTVSPropertyOp8
 70
     0
102
RTVSPropertyOp9
 70
     0
102
RTVSPropertyOp10
 70
     0
102
RTVSPropertyOp11
 70
     0
102
RTVSPropertyOp12
 70
     0
102
RTVSPropertyOp13
 70
     0
102
RTVSPropertyOp14
 70
     2
102
RTVSPropertyOp15
 70
     0
102
RTVSPropertyOp16
 70
     0
102
RTVSPropertyOp17
 70
     0
102
RTVSPropertyOp18
 70
     0
102
RTVSPropertyOp19
 70
     0
102
RTVSPropertyOp20
 70
     0
102
RTVSPropertyOp21
 70
     0
102
RTVSPropertyOp22
 70
     0
102
RTVSPropertyOp23
 70
     0
102
RTVSPropertyOp24
 70
     0
102
RTVSPropertyOp25
 70
     0
102
RTVSPropertyOp26
 70
     0
102
RTVSPropertyOp27
 70
     0
102
RTVSPropertyOp28
 70
     0
102
RTVSPropertyOp29
 70
     0
102
RTVSPropertyOp30
 70
     0
102
RTVSPropertyOp31
 70
     0
102
RTVSPropertyOp32
 70
     0
102
RTVSPropertyOp33
 70
     0
102
RTVSPropertyOp34
 70
     0
102
RTVSPropertyOp35
 70
     0
102
RTVSPropertyOp36
 70
     0
102
RTVSPropertyOp37
 70
     0
102
RTVSPropertyOp38
 70
     0
102
RTVSPropertyOp39
 70
     0
102
RTVSPropertyOp40
 70
     0
102
RTVSPropertyOp41
 70
     0
102
RTVSPropertyOp42
 70
     0
102
RTVSPropertyOp43
 70
     0
102
RTVSPropertyOp44
 70
     0
102
RTVSPropertyOp45
 70
     0
102
RTVSPropertyOp46
 70
     0
102
RTVSPropertyOp47
 70
     0
102
RTVSPropertyOp48
 70
     0
102
RTVSPropertyOp49
 70
     0
102
RTVSPropertyOp50
 70
     0
102
RTVSPropertyOp51
 70
     0
102
RTVSPropertyOp52
 70
     0
102
RTVSPropertyOp53
 70
     0
102
RTVSPropertyOp54
 70
     0
102
RTVSPropertyOp55
 70
     0
102
RTVSPropertyOp56
 70
     0
102
RTVSPropertyOp57
 70
     0
102
RTVSPost2010Prop28
280
     0
102
RTVSPost2010PropOp28
 70
     0
102
RTVSPost2010Prop29
280
     1
102
RTVSPost2010PropOp29
 70
     0
102
RTVSPost2010Prop30
280
     1
102
RTVSPost2010PropOp30
 70
     0
102
RTVSPost2010Prop31
280
     0
102
RTVSPost2010PropOp31
 70
     0
102
RTVSPost2010Prop32
280
     0
102
RTVSPost2010PropOp32
 70
     0
102
RTVSPost2010Prop33
280
     0
102
RTVSPost2010PropOp33
 70
     0
102
RTVSPost2010Prop34
280
     0
102
RTVSPost2010PropOp34
 70
     0
102
RTVSPost2010Prop35
280
     0
102
RTVSPost2010PropOp35
 70
     0
102
RTVSPost2010Prop36
280
     0
102
RTVSPost2010PropOp36
 70
     0
102
RTVSPost2010Prop37
 90
       50
102
RTVSPost2010PropOp37
 70
     0
102
RTVSPost2010Prop38
140
0.0
102
RTVSPost2010PropOp38
 70
     0
102
RTVSPost2010Prop39
140
1.0
102
RTVSPost2010PropOp39
 70
     0
102
RTVSPost2010Prop40
 90
        0
102
RTVSPost2010PropOp40
 70
     0
102
RTVSPost2010Prop41ColorIndex
 90
       18
102
RTVSPost2010Prop41ColorRGB
 90
        0
102
RTVSPost2010PropOp41
 70
     0
102
RTVSPost2010Prop42
 90
       50
102
RTVSPost2010PropOp42
 70
     0
102
RTVSPost2010Prop43
 90
        3
102
RTVSPost2010PropOp43
 70
     0
102
RTVSPost2010Prop44ColorIndex
 90
        5
102
RTVSPost2010Prop44ColorRGB
 90
      255
102
RTVSPost2010PropOp44
 70
     0
102
RTVSPost2010Prop45
280
     0
102
RTVSPost2010PropOp45
 70
     0
102
RTVSPost2010Prop46
 90
       50
102
RTVSPost2010PropOp46
 70
     0
102
RTVSPost2010Prop47
 90
       50
102
RTVSPost2010PropOp47
 70
     0
102
RTVSPost2010Prop48
 90
       50
102
RTVSPost2010PropOp48
 70
     0
102
RTVSPost2010Prop49
280
     0
102
RTVSPost2010PropOp49
 70
     0
102
RTVSPost2010Prop50
 90
       50
102
RTVSPost2010PropOp50
 70
     0
102
RTVSPost2010Prop51ColorIndex
 90
      256
102
RTVSPost2010Prop51ColorRGB
 90
-16777216
102
RTVSPost2010PropOp51
 70
     0
102
RTVSPost2010Prop52
140
1.0
102
RTVSPost2010PropOp52
 70
     0
102
RTVSPost2010Prop53
 90
        2
102
RTVSPost2010PropOp53
 70
     0
102
RTVSPost2010Prop54
  1
strokes_ogs.tif
102
RTVSPost2010PropOp54
 70
     0
102
RTVSPost2010Prop55
280
     0
102
RTVSPost2010PropOp55
 70
     0
102
RTVSPost2010Prop56
140
1.0
102
RTVSPost2010PropOp56
 70
     0
102
RTVSPost2010Prop57
140
1.0
102
RTVSPost2010PropOp57
 70
     0
  0
XRECORD
  5
174
102
{ACAD_REACTORS
330
173
102
}
330
173
100
AcDbXrecord
280
     1
102
RTVSPropertyOp0
 70
     1
102
RTVSPropertyOp1
 70
     1
102
RTVSPropertyOp2
 70
     1
102
RTVSPropertyOp3
 70
     1
102
RTVSPropertyOp4
 70
     1
102
RTVSPropertyOp5
 70
     1
102
RTVSPropertyOp6
 70
     1
102
RTVSPropertyOp7
 70
     1
102
RTVSPropertyOp8
 70
     1
102
RTVSPropertyOp9
 70
     1
102
RTVSPropertyOp10
 70
     1
102
RTVSPropertyOp11
 70
     1
102
RTVSPropertyOp12
 70
     1
102
RTVSPropertyOp13
 70
     1
102
RTVSPropertyOp14
 70
     1
102
RTVSPropertyOp15
 70
     1
102
RTVSPropertyOp16
 70
     1
102
RTVSPropertyOp17
 70
     1
102
RTVSPropertyOp18
 70
     1
102
RTVSPropertyOp19
 70
     1
102
RTVSPropertyOp20
 70
     1
102
RTVSPropertyOp21
 70
     1
102
RTVSPropertyOp22
 70
     1
102
RTVSPropertyOp23
 70
     1
102
RTVSPropertyOp24
 70
     1
102
RTVSPropertyOp25
 70
     1
102
RTVSPropertyOp26
 70
     1
102
RTVSPropertyOp27
 70
     1
102
RTVSPropertyOp28
 70
     1
102
RTVSPropertyOp29
 70
     1
102
RTVSPropertyOp30
 70
     1
102
RTVSPropertyOp31
 70
     1
102
RTVSPropertyOp32
 70
     1
102
RTVSPropertyOp33
 70
     1
102
RTVSPropertyOp34
 70
     1
102
RTVSPropertyOp35
 70
     1
102
RTVSPropertyOp36
 70
     1
102
RTVSPropertyOp37
 70
     1
102
RTVSPropertyOp38
 70
     1
102
RTVSPropertyOp39
 70
     1
102
RTVSPropertyOp40
 70
     1
102
RTVSPropertyOp41
 70
     1
102
RTVSPropertyOp42
 70
     1
102
RTVSPropertyOp43
 70
     1
102
RTVSPropertyOp44
 70
     1
102
RTVSPropertyOp45
 70
     1
102
RTVSPropertyOp46
 70
     1
102
RTVSPropertyOp47
 70
     1
102
RTVSPropertyOp48
 70
     1
102
RTVSPropertyOp49
 70
     1
102
RTVSPropertyOp50
 70
     1
102
RTVSPropertyOp51
 70
     0
102
RTVSPropertyOp52
 70
     0
102
RTVSPropertyOp53
 70
     1
102
RTVSPropertyOp54
 70
     1
102
RTVSPropertyOp55
 70
     1
102
RTVSPropertyOp56
 70
     1
102
RTVSPropertyOp57
 70
     1
102
RTVSPost2010Prop28
280
     0
102
RTVSPost2010PropOp28
 70
     1
102
RTVSPost2010Prop29
280
     1
102
RTVSPost2010PropOp29
 70
     1
102
RTVSPost2010Prop30
280
     1
102
RTVSPost2010PropOp30
 70
     1
102
RTVSPost2010Prop31
280
     0
102
RTVSPost2010PropOp31
 70
     1
102
RTVSPost2010Prop32
280
     0
102
RTVSPost2010PropOp32
 70
     1
102
RTVSPost2010Prop33
280
     0
102
RTVSPost2010PropOp33
 70
     1
102
RTVSPost2010Prop34
280
     0
102
RTVSPost2010PropOp34
 70
     1
102
RTVSPost2010Prop35
280
     0
102
RTVSPost2010PropOp35
 70
     1
102
RTVSPost2010Prop36
280
     0
102
RTVSPost2010PropOp36
 70
     1
102
RTVSPost2010Prop37
 90
       50
102
RTVSPost2010PropOp37
 70
     1
102
RTVSPost2010Prop38
140
0.0
102
RTVSPost2010PropOp38
 70
     1
102
RTVSPost2010Prop39
140
1.0
102
RTVSPost2010PropOp39
 70
     1
102
RTVSPost2010Prop40
 90
        0
102
RTVSPost2010PropOp40
 70
     1
102
RTVSPost2010Prop41ColorIndex
 90
       18
102
RTVSPost2010Prop41ColorRGB
 90
        0
102
RTVSPost2010PropOp41
 70
     1
102
RTVSPost2010Prop42
 90
       50
102
RTVSPost2010PropOp42
 70
     1
102
RTVSPost2010Prop43
 90
        3
102
RTVSPost2010PropOp43
 70
     1
102
RTVSPost2010Prop44ColorIndex
 90
        5
102
RTVSPost2010Prop44ColorRGB
 90
      255
102
RTVSPost2010PropOp44
 70
     1
102
RTVSPost2010Prop45
280
     0
102
RTVSPost2010PropOp45
 70
     1
102
RTVSPost2010Prop46
 90
       50
102
RTVSPost2010PropOp46
 70
     1
102
RTVSPost2010Prop47
 90
       50
102
RTVSPost2010PropOp47
 70
     1
102
RTVSPost2010Prop48
 90
       50
102
RTVSPost2010PropOp48
 70
     1
102
RTVSPost2010Prop49
280
     0
102
RTVSPost2010PropOp49
 70
     1
102
RTVSPost2010Prop50
 90
       50
102
RTVSPost2010PropOp50
 70
     1
102
RTVSPost2010Prop51ColorIndex
 90
      256
102
RTVSPost2010Prop51ColorRGB
 90
-16777216
102
RTVSPost2010PropOp51
 70
     0
102
RTVSPost2010Prop52
140
1.0
102
RTVSPost2010PropOp52
 70
     0
102
RTVSPost2010Prop53
 90
        2
102
RTVSPost2010PropOp53
 70
     1
102
RTVSPost2010Prop54
  1
strokes_ogs.tif
102
RTVSPost2010PropOp54
 70
     1
102
RTVSPost2010Prop55
280
     0
102
RTVSPost2010PropOp55
 70
     1
102
RTVSPost2010Prop56
140
1.0
102
RTVSPost2010PropOp56
 70
     1
102
RTVSPost2010Prop57
140
1.0
102
RTVSPost2010PropOp57
 70
     1
  0
XRECORD
  5
158
102
{ACAD_REACTORS
330
157
102
}
330
157
100
AcDbXrecord
280
     1
102
RTVSPropertyOp0
 70
     1
102
RTVSPropertyOp1
 70
     1
102
RTVSPropertyOp2
 70
     1
102
RTVSPropertyOp3
 70
     1
102
RTVSPropertyOp4
 70
     1
102
RTVSPropertyOp5
 70
     1
102
RTVSPropertyOp6
 70
     1
102
RTVSPropertyOp7
 70
     1
102
RTVSPropertyOp8
 70
     1
102
RTVSPropertyOp9
 70
     1
102
RTVSPropertyOp10
 70
     1
102
RTVSPropertyOp11
 70
     1
102
RTVSPropertyOp12
 70
     1
102
RTVSPropertyOp13
 70
     1
102
RTVSPropertyOp14
 70
     1
102
RTVSPropertyOp15
 70
     1
102
RTVSPropertyOp16
 70
     1
102
RTVSPropertyOp17
 70
     1
102
RTVSPropertyOp18
 70
     1
102
RTVSPropertyOp19
 70
     1
102
RTVSPropertyOp20
 70
     1
102
RTVSPropertyOp21
 70
     1
102
RTVSPropertyOp22
 70
     1
102
RTVSPropertyOp23
 70
     1
102
RTVSPropertyOp24
 70
     1
102
RTVSPropertyOp25
 70
     1
102
RTVSPropertyOp26
 70
     1
102
RTVSPropertyOp27
 70
     1
102
RTVSPropertyOp28
 70
     1
102
RTVSPropertyOp29
 70
     1
102
RTVSPropertyOp30
 70
     1
102
RTVSPropertyOp31
 70
     1
102
RTVSPropertyOp32
 70
     1
102
RTVSPropertyOp33
 70
     1
102
RTVSPropertyOp34
 70
     1
102
RTVSPropertyOp35
 70
     1
102
RTVSPropertyOp36
 70
     1
102
RTVSPropertyOp37
 70
     1
102
RTVSPropertyOp38
 70
     1
102
RTVSPropertyOp39
 70
     1
102
RTVSPropertyOp40
 70
     1
102
RTVSPropertyOp41
 70
     1
102
RTVSPropertyOp42
 70
     1
102
RTVSPropertyOp43
 70
     1
102
RTVSPropertyOp44
 70
     1
102
RTVSPropertyOp45
 70
     1
102
RTVSPropertyOp46
 70
     1
102
RTVSPropertyOp47
 70
     1
102
RTVSPropertyOp48
 70
     1
102
RTVSPropertyOp49
 70
     1
102
RTVSPropertyOp50
 70
     1
102
RTVSPropertyOp51
 70
     0
102
RTVSPropertyOp52
 70
     0
102
RTVSPropertyOp53
 70
     1
102
RTVSPropertyOp54
 70
     1
102
RTVSPropertyOp55
 70
     1
102
RTVSPropertyOp56
 70
     1
102
RTVSPropertyOp57
 70
     1
102
RTVSPost2010Prop28
280
     0
102
RTVSPost2010PropOp28
 70
     1
102
RTVSPost2010Prop29
280
     1
102
RTVSPost2010PropOp29
 70
     1
102
RTVSPost2010Prop30
280
     1
102
RTVSPost2010PropOp30
 70
     1
102
RTVSPost2010Prop31
280
     0
102
RTVSPost2010PropOp31
 70
     1
102
RTVSPost2010Prop32
280
     0
102
RTVSPost2010PropOp32
 70
     1
102
RTVSPost2010Prop33
280
     0
102
RTVSPost2010PropOp33
 70
     1
102
RTVSPost2010Prop34
280
     0
102
RTVSPost2010PropOp34
 70
     1
102
RTVSPost2010Prop35
280
     0
102
RTVSPost2010PropOp35
 70
     1
102
RTVSPost2010Prop36
280
     0
102
RTVSPost2010PropOp36
 70
     1
102
RTVSPost2010Prop37
 90
       50
102
RTVSPost2010PropOp37
 70
     1
102
RTVSPost2010Prop38
140
0.0
102
RTVSPost2010PropOp38
 70
     1
102
RTVSPost2010Prop39
140
1.0
102
RTVSPost2010PropOp39
 70
     1
102
RTVSPost2010Prop40
 90
        0
102
RTVSPost2010PropOp40
 70
     1
102
RTVSPost2010Prop41ColorIndex
 90
       18
102
RTVSPost2010Prop41ColorRGB
 90
        0
102
RTVSPost2010PropOp41
 70
     1
102
RTVSPost2010Prop42
 90
       50
102
RTVSPost2010PropOp42
 70
     1
102
RTVSPost2010Prop43
 90
        3
102
RTVSPost2010PropOp43
 70
     1
102
RTVSPost2010Prop44ColorIndex
 90
        5
102
RTVSPost2010Prop44ColorRGB
 90
      255
102
RTVSPost2010PropOp44
 70
     1
102
RTVSPost2010Prop45
280
     0
102
RTVSPost2010PropOp45
 70
     1
102
RTVSPost2010Prop46
 90
       50
102
RTVSPost2010PropOp46
 70
     1
102
RTVSPost2010Prop47
 90
       50
102
RTVSPost2010PropOp47
 70
     1
102
RTVSPost2010Prop48
 90
       50
102
RTVSPost2010PropOp48
 70
     1
102
RTVSPost2010Prop49
280
     0
102
RTVSPost2010PropOp49
 70
     1
102
RTVSPost2010Prop50
 90
       50
102
RTVSPost2010PropOp50
 70
     1
102
RTVSPost2010Prop51ColorIndex
 90
      256
102
RTVSPost2010Prop51ColorRGB
 90
-16777216
102
RTVSPost2010PropOp51
 70
     0
102
RTVSPost2010Prop52
140
1.0
102
RTVSPost2010PropOp52
 70
     0
102
RTVSPost2010Prop53
 90
        2
102
RTVSPost2010PropOp53
 70
     1
102
RTVSPost2010Prop54
  1
strokes_ogs.tif
102
RTVSPost2010PropOp54
 70
     1
102
RTVSPost2010Prop55
280
     0
102
RTVSPost2010PropOp55
 70
     1
102
RTVSPost2010Prop56
140
1.0
102
RTVSPost2010PropOp56
 70
     1
102
RTVSPost2010Prop57
140
1.0
102
RTVSPost2010PropOp57
 70
     1
  0
XRECORD
  5
15A
102
{ACAD_REACTORS
330
159
102
}
330
159
100
AcDbXrecord
280
     1
102
RTVSPropertyOp0
 70
     1
102
RTVSPropertyOp1
 70
     1
102
RTVSPropertyOp2
 70
     1
102
RTVSPropertyOp3
 70
     1
102
RTVSPropertyOp4
 70
     1
102
RTVSPropertyOp5
 70
     1
102
RTVSPropertyOp6
 70
     1
102
RTVSPropertyOp7
 70
     1
102
RTVSPropertyOp8
 70
     1
102
RTVSPropertyOp9
 70
     1
102
RTVSPropertyOp10
 70
     1
102
RTVSPropertyOp11
 70
     1
102
RTVSPropertyOp12
 70
     1
102
RTVSPropertyOp13
 70
     1
102
RTVSPropertyOp14
 70
     1
102
RTVSPropertyOp15
 70
     1
102
RTVSPropertyOp16
 70
     1
102
RTVSPropertyOp17
 70
     1
102
RTVSPropertyOp18
 70
     1
102
RTVSPropertyOp19
 70
     1
102
RTVSPropertyOp20
 70
     1
102
RTVSPropertyOp21
 70
     1
102
RTVSPropertyOp22
 70
     1
102
RTVSPropertyOp23
 70
     1
102
RTVSPropertyOp24
 70
     1
102
RTVSPropertyOp25
 70
     1
102
RTVSPropertyOp26
 70
     1
102
RTVSPropertyOp27
 70
     1
102
RTVSPropertyOp28
 70
     1
102
RTVSPropertyOp29
 70
     1
102
RTVSPropertyOp30
 70
     1
102
RTVSPropertyOp31
 70
     1
102
RTVSPropertyOp32
 70
     1
102
RTVSPropertyOp33
 70
     1
102
RTVSPropertyOp34
 70
     1
102
RTVSPropertyOp35
 70
     1
102
RTVSPropertyOp36
 70
     1
102
RTVSPropertyOp37
 70
     1
102
RTVSPropertyOp38
 70
     1
102
RTVSPropertyOp39
 70
     1
102
RTVSPropertyOp40
 70
     1
102
RTVSPropertyOp41
 70
     1
102
RTVSPropertyOp42
 70
     1
102
RTVSPropertyOp43
 70
     1
102
RTVSPropertyOp44
 70
     1
102
RTVSPropertyOp45
 70
     1
102
RTVSPropertyOp46
 70
     1
102
RTVSPropertyOp47
 70
     1
102
RTVSPropertyOp48
 70
     1
102
RTVSPropertyOp49
 70
     1
102
RTVSPropertyOp50
 70
     1
102
RTVSPropertyOp51
 70
     0
102
RTVSPropertyOp52
 70
     0
102
RTVSPropertyOp53
 70
     1
102
RTVSPropertyOp54
 70
     1
102
RTVSPropertyOp55
 70
     1
102
RTVSPropertyOp56
 70
     1
102
RTVSPropertyOp57
 70
     1
102
RTVSPost2010Prop28
280
     0
102
RTVSPost2010PropOp28
 70
     1
102
RTVSPost2010Prop29
280
     1
102
RTVSPost2010PropOp29
 70
     1
102
RTVSPost2010Prop30
280
     1
102
RTVSPost2010PropOp30
 70
     1
102
RTVSPost2010Prop31
280
     0
102
RTVSPost2010PropOp31
 70
     1
102
RTVSPost2010Prop32
280
     0
102
RTVSPost2010PropOp32
 70
     1
102
RTVSPost2010Prop33
280
     0
102
RTVSPost2010PropOp33
 70
     1
102
RTVSPost2010Prop34
280
     0
102
RTVSPost2010PropOp34
 70
     1
102
RTVSPost2010Prop35
280
     0
102
RTVSPost2010PropOp35
 70
     1
102
RTVSPost2010Prop36
280
     0
102
RTVSPost2010PropOp36
 70
     1
102
RTVSPost2010Prop37
 90
       50
102
RTVSPost2010PropOp37
 70
     1
102
RTVSPost2010Prop38
140
0.0
102
RTVSPost2010PropOp38
 70
     1
102
RTVSPost2010Prop39
140
1.0
102
RTVSPost2010PropOp39
 70
     1
102
RTVSPost2010Prop40
 90
        0
102
RTVSPost2010PropOp40
 70
     1
102
RTVSPost2010Prop41ColorIndex
 90
       18
102
RTVSPost2010Prop41ColorRGB
 90
        0
102
RTVSPost2010PropOp41
 70
     1
102
RTVSPost2010Prop42
 90
       50
102
RTVSPost2010PropOp42
 70
     1
102
RTVSPost2010Prop43
 90
        3
102
RTVSPost2010PropOp43
 70
     1
102
RTVSPost2010Prop44ColorIndex
 90
        5
102
RTVSPost2010Prop44ColorRGB
 90
      255
102
RTVSPost2010PropOp44
 70
     1
102
RTVSPost2010Prop45
280
     0
102
RTVSPost2010PropOp45
 70
     1
102
RTVSPost2010Prop46
 90
       50
102
RTVSPost2010PropOp46
 70
     1
102
RTVSPost2010Prop47
 90
       50
102
RTVSPost2010PropOp47
 70
     1
102
RTVSPost2010Prop48
 90
       50
102
RTVSPost2010PropOp48
 70
     1
102
RTVSPost2010Prop49
280
     0
102
RTVSPost2010PropOp49
 70
     1
102
RTVSPost2010Prop50
 90
       50
102
RTVSPost2010PropOp50
 70
     1
102
RTVSPost2010Prop51ColorIndex
 90
      256
102
RTVSPost2010Prop51ColorRGB
 90
-16777216
102
RTVSPost2010PropOp51
 70
     0
102
RTVSPost2010Prop52
140
1.0
102
RTVSPost2010PropOp52
 70
     0
102
RTVSPost2010Prop53
 90
        2
102
RTVSPost2010PropOp53
 70
     1
102
RTVSPost2010Prop54
  1
strokes_ogs.tif
102
RTVSPost2010PropOp54
 70
     1
102
RTVSPost2010Prop55
280
     0
102
RTVSPost2010PropOp55
 70
     1
102
RTVSPost2010Prop56
140
1.0
102
RTVSPost2010PropOp56
 70
     1
102
RTVSPost2010Prop57
140
1.0
102
RTVSPost2010PropOp57
 70
     1
  0
XRECORD
  5
15C
102
{ACAD_REACTORS
330
15B
102
}
330
15B
100
AcDbXrecord
280
     1
102
RTVSPropertyOp0
 70
     1
102
RTVSPropertyOp1
 70
     1
102
RTVSPropertyOp2
 70
     1
102
RTVSPropertyOp3
 70
     1
102
RTVSPropertyOp4
 70
     1
102
RTVSPropertyOp5
 70
     1
102
RTVSPropertyOp6
 70
     1
102
RTVSPropertyOp7
 70
     1
102
RTVSPropertyOp8
 70
     1
102
RTVSPropertyOp9
 70
     1
102
RTVSPropertyOp10
 70
     1
102
RTVSPropertyOp11
 70
     1
102
RTVSPropertyOp12
 70
     1
102
RTVSPropertyOp13
 70
     1
102
RTVSPropertyOp14
 70
     1
102
RTVSPropertyOp15
 70
     1
102
RTVSPropertyOp16
 70
     1
102
RTVSPropertyOp17
 70
     1
102
RTVSPropertyOp18
 70
     1
102
RTVSPropertyOp19
 70
     1
102
RTVSPropertyOp20
 70
     1
102
RTVSPropertyOp21
 70
     1
102
RTVSPropertyOp22
 70
     1
102
RTVSPropertyOp23
 70
     1
102
RTVSPropertyOp24
 70
     1
102
RTVSPropertyOp25
 70
     1
102
RTVSPropertyOp26
 70
     1
102
RTVSPropertyOp27
 70
     1
102
RTVSPropertyOp28
 70
     1
102
RTVSPropertyOp29
 70
     1
102
RTVSPropertyOp30
 70
     1
102
RTVSPropertyOp31
 70
     1
102
RTVSPropertyOp32
 70
     1
102
RTVSPropertyOp33
 70
     1
102
RTVSPropertyOp34
 70
     1
102
RTVSPropertyOp35
 70
     1
102
RTVSPropertyOp36
 70
     1
102
RTVSPropertyOp37
 70
     1
102
RTVSPropertyOp38
 70
     1
102
RTVSPropertyOp39
 70
     1
102
RTVSPropertyOp40
 70
     1
102
RTVSPropertyOp41
 70
     1
102
RTVSPropertyOp42
 70
     1
102
RTVSPropertyOp43
 70
     1
102
RTVSPropertyOp44
 70
     1
102
RTVSPropertyOp45
 70
     1
102
RTVSPropertyOp46
 70
     1
102
RTVSPropertyOp47
 70
     1
102
RTVSPropertyOp48
 70
     1
102
RTVSPropertyOp49
 70
     1
102
RTVSPropertyOp50
 70
     1
102
RTVSPropertyOp51
 70
     0
102
RTVSPropertyOp52
 70
     0
102
RTVSPropertyOp53
 70
     1
102
RTVSPropertyOp54
 70
     1
102
RTVSPropertyOp55
 70
     1
102
RTVSPropertyOp56
 70
     1
102
RTVSPropertyOp57
 70
     1
102
RTVSPost2010Prop28
280
     0
102
RTVSPost2010PropOp28
 70
     1
102
RTVSPost2010Prop29
280
     1
102
RTVSPost2010PropOp29
 70
     1
102
RTVSPost2010Prop30
280
     1
102
RTVSPost2010PropOp30
 70
     1
102
RTVSPost2010Prop31
280
     0
102
RTVSPost2010PropOp31
 70
     1
102
RTVSPost2010Prop32
280
     0
102
RTVSPost2010PropOp32
 70
     1
102
RTVSPost2010Prop33
280
     0
102
RTVSPost2010PropOp33
 70
     1
102
RTVSPost2010Prop34
280
     0
102
RTVSPost2010PropOp34
 70
     1
102
RTVSPost2010Prop35
280
     0
102
RTVSPost2010PropOp35
 70
     1
102
RTVSPost2010Prop36
280
     0
102
RTVSPost2010PropOp36
 70
     1
102
RTVSPost2010Prop37
 90
       50
102
RTVSPost2010PropOp37
 70
     1
102
RTVSPost2010Prop38
140
0.0
102
RTVSPost2010PropOp38
 70
     1
102
RTVSPost2010Prop39
140
1.0
102
RTVSPost2010PropOp39
 70
     1
102
RTVSPost2010Prop40
 90
        0
102
RTVSPost2010PropOp40
 70
     1
102
RTVSPost2010Prop41ColorIndex
 90
       18
102
RTVSPost2010Prop41ColorRGB
 90
        0
102
RTVSPost2010PropOp41
 70
     1
102
RTVSPost2010Prop42
 90
       50
102
RTVSPost2010PropOp42
 70
     1
102
RTVSPost2010Prop43
 90
        3
102
RTVSPost2010PropOp43
 70
     1
102
RTVSPost2010Prop44ColorIndex
 90
        5
102
RTVSPost2010Prop44ColorRGB
 90
      255
102
RTVSPost2010PropOp44
 70
     1
102
RTVSPost2010Prop45
280
     0
102
RTVSPost2010PropOp45
 70
     1
102
RTVSPost2010Prop46
 90
       50
102
RTVSPost2010PropOp46
 70
     1
102
RTVSPost2010Prop47
 90
       50
102
RTVSPost2010PropOp47
 70
     1
102
RTVSPost2010Prop48
 90
       50
102
RTVSPost2010PropOp48
 70
     1
102
RTVSPost2010Prop49
280
     0
102
RTVSPost2010PropOp49
 70
     1
102
RTVSPost2010Prop50
 90
       50
102
RTVSPost2010PropOp50
 70
     1
102
RTVSPost2010Prop51ColorIndex
 90
      256
102
RTVSPost2010Prop51ColorRGB
 90
-16777216
102
RTVSPost2010PropOp51
 70
     0
102
RTVSPost2010Prop52
140
1.0
102
RTVSPost2010PropOp52
 70
     0
102
RTVSPost2010Prop53
 90
        2
102
RTVSPost2010PropOp53
 70
     1
102
RTVSPost2010Prop54
  1
strokes_ogs.tif
102
RTVSPost2010PropOp54
 70
     1
102
RTVSPost2010Prop55
280
     0
102
RTVSPost2010PropOp55
 70
     1
102
RTVSPost2010Prop56
140
1.0
102
RTVSPost2010PropOp56
 70
     1
102
RTVSPost2010Prop57
140
1.0
102
RTVSPost2010PropOp57
 70
     1
  0
XRECORD
  5
15E
102
{ACAD_REACTORS
330
15D
102
}
330
15D
100
AcDbXrecord
280
     1
102
RTVSPropertyOp0
 70
     1
102
RTVSPropertyOp1
 70
     1
102
RTVSPropertyOp2
 70
     1
102
RTVSPropertyOp3
 70
     1
102
RTVSPropertyOp4
 70
     1
102
RTVSPropertyOp5
 70
     1
102
RTVSPropertyOp6
 70
     1
102
RTVSPropertyOp7
 70
     1
102
RTVSPropertyOp8
 70
     1
102
RTVSPropertyOp9
 70
     1
102
RTVSPropertyOp10
 70
     1
102
RTVSPropertyOp11
 70
     1
102
RTVSPropertyOp12
 70
     1
102
RTVSPropertyOp13
 70
     1
102
RTVSPropertyOp14
 70
     1
102
RTVSPropertyOp15
 70
     1
102
RTVSPropertyOp16
 70
     1
102
RTVSPropertyOp17
 70
     1
102
RTVSPropertyOp18
 70
     1
102
RTVSPropertyOp19
 70
     1
102
RTVSPropertyOp20
 70
     1
102
RTVSPropertyOp21
 70
     1
102
RTVSPropertyOp22
 70
     1
102
RTVSPropertyOp23
 70
     1
102
RTVSPropertyOp24
 70
     1
102
RTVSPropertyOp25
 70
     1
102
RTVSPropertyOp26
 70
     1
102
RTVSPropertyOp27
 70
     1
102
RTVSPropertyOp28
 70
     1
102
RTVSPropertyOp29
 70
     1
102
RTVSPropertyOp30
 70
     1
102
RTVSPropertyOp31
 70
     1
102
RTVSPropertyOp32
 70
     1
102
RTVSPropertyOp33
 70
     1
102
RTVSPropertyOp34
 70
     1
102
RTVSPropertyOp35
 70
     1
102
RTVSPropertyOp36
 70
     1
102
RTVSPropertyOp37
 70
     1
102
RTVSPropertyOp38
 70
     1
102
RTVSPropertyOp39
 70
     1
102
RTVSPropertyOp40
 70
     1
102
RTVSPropertyOp41
 70
     1
102
RTVSPropertyOp42
 70
     1
102
RTVSPropertyOp43
 70
     1
102
RTVSPropertyOp44
 70
     1
102
RTVSPropertyOp45
 70
     1
102
RTVSPropertyOp46
 70
     1
102
RTVSPropertyOp47
 70
     1
102
RTVSPropertyOp48
 70
     1
102
RTVSPropertyOp49
 70
     1
102
RTVSPropertyOp50
 70
     1
102
RTVSPropertyOp51
 70
     0
102
RTVSPropertyOp52
 70
     0
102
RTVSPropertyOp53
 70
     1
102
RTVSPropertyOp54
 70
     1
102
RTVSPropertyOp55
 70
     1
102
RTVSPropertyOp56
 70
     1
102
RTVSPropertyOp57
 70
     1
102
RTVSPost2010Prop28
280
     0
102
RTVSPost2010PropOp28
 70
     1
102
RTVSPost2010Prop29
280
     1
102
RTVSPost2010PropOp29
 70
     1
102
RTVSPost2010Prop30
280
     1
102
RTVSPost2010PropOp30
 70
     1
102
RTVSPost2010Prop31
280
     0
102
RTVSPost2010PropOp31
 70
     1
102
RTVSPost2010Prop32
280
     0
102
RTVSPost2010PropOp32
 70
     1
102
RTVSPost2010Prop33
280
     0
102
RTVSPost2010PropOp33
 70
     1
102
RTVSPost2010Prop34
280
     0
102
RTVSPost2010PropOp34
 70
     1
102
RTVSPost2010Prop35
280
     0
102
RTVSPost2010PropOp35
 70
     1
102
RTVSPost2010Prop36
280
     0
102
RTVSPost2010PropOp36
 70
     1
102
RTVSPost2010Prop37
 90
       50
102
RTVSPost2010PropOp37
 70
     1
102
RTVSPost2010Prop38
140
0.0
102
RTVSPost2010PropOp38
 70
     1
102
RTVSPost2010Prop39
140
1.0
102
RTVSPost2010PropOp39
 70
     1
102
RTVSPost2010Prop40
 90
        0
102
RTVSPost2010PropOp40
 70
     1
102
RTVSPost2010Prop41ColorIndex
 90
       18
102
RTVSPost2010Prop41ColorRGB
 90
        0
102
RTVSPost2010PropOp41
 70
     1
102
RTVSPost2010Prop42
 90
       50
102
RTVSPost2010PropOp42
 70
     1
102
RTVSPost2010Prop43
 90
        3
102
RTVSPost2010PropOp43
 70
     1
102
RTVSPost2010Prop44ColorIndex
 90
        5
102
RTVSPost2010Prop44ColorRGB
 90
      255
102
RTVSPost2010PropOp44
 70
     1
102
RTVSPost2010Prop45
280
     0
102
RTVSPost2010PropOp45
 70
     1
102
RTVSPost2010Prop46
 90
       50
102
RTVSPost2010PropOp46
 70
     1
102
RTVSPost2010Prop47
 90
       50
102
RTVSPost2010PropOp47
 70
     1
102
RTVSPost2010Prop48
 90
       50
102
RTVSPost2010PropOp48
 70
     1
102
RTVSPost2010Prop49
280
     0
102
RTVSPost2010PropOp49
 70
     1
102
RTVSPost2010Prop50
 90
       50
102
RTVSPost2010PropOp50
 70
     1
102
RTVSPost2010Prop51ColorIndex
 90
      256
102
RTVSPost2010Prop51ColorRGB
 90
-16777216
102
RTVSPost2010PropOp51
 70
     0
102
RTVSPost2010Prop52
140
1.0
102
RTVSPost2010PropOp52
 70
     0
102
RTVSPost2010Prop53
 90
        2
102
RTVSPost2010PropOp53
 70
     1
102
RTVSPost2010Prop54
  1
strokes_ogs.tif
102
RTVSPost2010PropOp54
 70
     1
102
RTVSPost2010Prop55
280
     0
102
RTVSPost2010PropOp55
 70
     1
102
RTVSPost2010Prop56
140
1.0
102
RTVSPost2010PropOp56
 70
     1
102
RTVSPost2010Prop57
140
1.0
102
RTVSPost2010PropOp57
 70
     1
  0
XRECORD
  5
164
102
{ACAD_REACTORS
330
163
102
}
330
163
100
AcDbXrecord
280
     1
102
RTVSPropertyOp0
 70
     1
102
RTVSPropertyOp1
 70
     1
102
RTVSPropertyOp2
 70
     1
102
RTVSPropertyOp3
 70
     1
102
RTVSPropertyOp4
 70
     1
102
RTVSPropertyOp5
 70
     1
102
RTVSPropertyOp6
 70
     1
102
RTVSPropertyOp7
 70
     1
102
RTVSPropertyOp8
 70
     1
102
RTVSPropertyOp9
 70
     1
102
RTVSPropertyOp10
 70
     1
102
RTVSPropertyOp11
 70
     1
102
RTVSPropertyOp12
 70
     1
102
RTVSPropertyOp13
 70
     1
102
RTVSPropertyOp14
 70
     1
102
RTVSPropertyOp15
 70
     1
102
RTVSPropertyOp16
 70
     1
102
RTVSPropertyOp17
 70
     1
102
RTVSPropertyOp18
 70
     1
102
RTVSPropertyOp19
 70
     1
102
RTVSPropertyOp20
 70
     1
102
RTVSPropertyOp21
 70
     1
102
RTVSPropertyOp22
 70
     1
102
RTVSPropertyOp23
 70
     1
102
RTVSPropertyOp24
 70
     1
102
RTVSPropertyOp25
 70
     1
102
RTVSPropertyOp26
 70
     1
102
RTVSPropertyOp27
 70
     1
102
RTVSPropertyOp28
 70
     1
102
RTVSPropertyOp29
 70
     1
102
RTVSPropertyOp30
 70
     1
102
RTVSPropertyOp31
 70
     1
102
RTVSPropertyOp32
 70
     1
102
RTVSPropertyOp33
 70
     1
102
RTVSPropertyOp34
 70
     1
102
RTVSPropertyOp35
 70
     1
102
RTVSPropertyOp36
 70
     1
102
RTVSPropertyOp37
 70
     1
102
RTVSPropertyOp38
 70
     1
102
RTVSPropertyOp39
 70
     1
102
RTVSPropertyOp40
 70
     1
102
RTVSPropertyOp41
 70
     1
102
RTVSPropertyOp42
 70
     1
102
RTVSPropertyOp43
 70
     1
102
RTVSPropertyOp44
 70
     1
102
RTVSPropertyOp45
 70
     1
102
RTVSPropertyOp46
 70
     1
102
RTVSPropertyOp47
 70
     1
102
RTVSPropertyOp48
 70
     1
102
RTVSPropertyOp49
 70
     1
102
RTVSPropertyOp50
 70
     1
102
RTVSPropertyOp51
 70
     0
102
RTVSPropertyOp52
 70
     0
102
RTVSPropertyOp53
 70
     1
102
RTVSPropertyOp54
 70
     1
102
RTVSPropertyOp55
 70
     1
102
RTVSPropertyOp56
 70
     1
102
RTVSPropertyOp57
 70
     1
102
RTVSPost2010Prop28
280
     0
102
RTVSPost2010PropOp28
 70
     1
102
RTVSPost2010Prop29
280
     1
102
RTVSPost2010PropOp29
 70
     1
102
RTVSPost2010Prop30
280
     1
102
RTVSPost2010PropOp30
 70
     1
102
RTVSPost2010Prop31
280
     0
102
RTVSPost2010PropOp31
 70
     1
102
RTVSPost2010Prop32
280
     0
102
RTVSPost2010PropOp32
 70
     1
102
RTVSPost2010Prop33
280
     0
102
RTVSPost2010PropOp33
 70
     1
102
RTVSPost2010Prop34
280
     0
102
RTVSPost2010PropOp34
 70
     1
102
RTVSPost2010Prop35
280
     0
102
RTVSPost2010PropOp35
 70
     1
102
RTVSPost2010Prop36
280
     0
102
RTVSPost2010PropOp36
 70
     1
102
RTVSPost2010Prop37
 90
       50
102
RTVSPost2010PropOp37
 70
     1
102
RTVSPost2010Prop38
140
0.0
102
RTVSPost2010PropOp38
 70
     1
102
RTVSPost2010Prop39
140
1.0
102
RTVSPost2010PropOp39
 70
     1
102
RTVSPost2010Prop40
 90
        0
102
RTVSPost2010PropOp40
 70
     1
102
RTVSPost2010Prop41ColorIndex
 90
       18
102
RTVSPost2010Prop41ColorRGB
 90
        0
102
RTVSPost2010PropOp41
 70
     1
102
RTVSPost2010Prop42
 90
       50
102
RTVSPost2010PropOp42
 70
     1
102
RTVSPost2010Prop43
 90
        3
102
RTVSPost2010PropOp43
 70
     1
102
RTVSPost2010Prop44ColorIndex
 90
        5
102
RTVSPost2010Prop44ColorRGB
 90
      255
102
RTVSPost2010PropOp44
 70
     1
102
RTVSPost2010Prop45
280
     0
102
RTVSPost2010PropOp45
 70
     1
102
RTVSPost2010Prop46
 90
       50
102
RTVSPost2010PropOp46
 70
     1
102
RTVSPost2010Prop47
 90
       50
102
RTVSPost2010PropOp47
 70
     1
102
RTVSPost2010Prop48
 90
       50
102
RTVSPost2010PropOp48
 70
     1
102
RTVSPost2010Prop49
280
     0
102
RTVSPost2010PropOp49
 70
     1
102
RTVSPost2010Prop50
 90
       50
102
RTVSPost2010PropOp50
 70
     1
102
RTVSPost2010Prop51ColorIndex
 90
      256
102
RTVSPost2010Prop51ColorRGB
 90
-16777216
102
RTVSPost2010PropOp51
 70
     0
102
RTVSPost2010Prop52
140
1.0
102
RTVSPost2010PropOp52
 70
     0
102
RTVSPost2010Prop53
 90
        2
102
RTVSPost2010PropOp53
 70
     1
102
RTVSPost2010Prop54
  1
strokes_ogs.tif
102
RTVSPost2010PropOp54
 70
     1
102
RTVSPost2010Prop55
280
     0
102
RTVSPost2010PropOp55
 70
     1
102
RTVSPost2010Prop56
140
1.0
102
RTVSPost2010PropOp56
 70
     1
102
RTVSPost2010Prop57
140
1.0
102
RTVSPost2010PropOp57
 70
     1
  0
XRECORD
  5
178
102
{ACAD_REACTORS
330
177
102
}
330
177
100
AcDbXrecord
280
     1
102
RTVSPropertyOp0
 70
     0
102
RTVSPropertyOp1
 70
     0
102
RTVSPropertyOp2
 70
     0
102
RTVSPropertyOp3
 70
     0
102
RTVSPropertyOp4
 70
     0
102
RTVSPropertyOp5
 70
     0
102
RTVSPropertyOp6
 70
     0
102
RTVSPropertyOp7
 70
     0
102
RTVSPropertyOp8
 70
     0
102
RTVSPropertyOp9
 70
     0
102
RTVSPropertyOp10
 70
     0
102
RTVSPropertyOp11
 70
     0
102
RTVSPropertyOp12
 70
     0
102
RTVSPropertyOp13
 70
     0
102
RTVSPropertyOp14
 70
     2
102
RTVSPropertyOp15
 70
     0
102
RTVSPropertyOp16
 70
     0
102
RTVSPropertyOp17
 70
     0
102
RTVSPropertyOp18
 70
     0
102
RTVSPropertyOp19
 70
     0
102
RTVSPropertyOp20
 70
     0
102
RTVSPropertyOp21
 70
     0
102
RTVSPropertyOp22
 70
     0
102
RTVSPropertyOp23
 70
     0
102
RTVSPropertyOp24
 70
     0
102
RTVSPropertyOp25
 70
     0
102
RTVSPropertyOp26
 70
     0
102
RTVSPropertyOp27
 70
     0
102
RTVSPropertyOp28
 70
     0
102
RTVSPropertyOp29
 70
     0
102
RTVSPropertyOp30
 70
     0
102
RTVSPropertyOp31
 70
     0
102
RTVSPropertyOp32
 70
     0
102
RTVSPropertyOp33
 70
     0
102
RTVSPropertyOp34
 70
     0
102
RTVSPropertyOp35
 70
     0
102
RTVSPropertyOp36
 70
     0
102
RTVSPropertyOp37
 70
     0
102
RTVSPropertyOp38
 70
     0
102
RTVSPropertyOp39
 70
     0
102
RTVSPropertyOp40
 70
     0
102
RTVSPropertyOp41
 70
     0
102
RTVSPropertyOp42
 70
     0
102
RTVSPropertyOp43
 70
     0
102
RTVSPropertyOp44
 70
     0
102
RTVSPropertyOp45
 70
     0
102
RTVSPropertyOp46
 70
     0
102
RTVSPropertyOp47
 70
     0
102
RTVSPropertyOp48
 70
     0
102
RTVSPropertyOp49
 70
     0
102
RTVSPropertyOp50
 70
     0
102
RTVSPropertyOp51
 70
     0
102
RTVSPropertyOp52
 70
     0
102
RTVSPropertyOp53
 70
     0
102
RTVSPropertyOp54
 70
     0
102
RTVSPropertyOp55
 70
     0
102
RTVSPropertyOp56
 70
     0
102
RTVSPropertyOp57
 70
     0
102
RTVSPost2010Prop28
280
     0
102
RTVSPost2010PropOp28
 70
     0
102
RTVSPost2010Prop29
280
     1
102
RTVSPost2010PropOp29
 70
     0
102
RTVSPost2010Prop30
280
     1
102
RTVSPost2010PropOp30
 70
     0
102
RTVSPost2010Prop31
280
     0
102
RTVSPost2010PropOp31
 70
     0
102
RTVSPost2010Prop32
280
     0
102
RTVSPost2010PropOp32
 70
     0
102
RTVSPost2010Prop33
280
     0
102
RTVSPost2010PropOp33
 70
     0
102
RTVSPost2010Prop34
280
     0
102
RTVSPost2010PropOp34
 70
     0
102
RTVSPost2010Prop35
280
     0
102
RTVSPost2010PropOp35
 70
     0
102
RTVSPost2010Prop36
280
     0
102
RTVSPost2010PropOp36
 70
     0
102
RTVSPost2010Prop37
 90
       50
102
RTVSPost2010PropOp37
 70
     0
102
RTVSPost2010Prop38
140
0.0
102
RTVSPost2010PropOp38
 70
     0
102
RTVSPost2010Prop39
140
1.0
102
RTVSPost2010PropOp39
 70
     0
102
RTVSPost2010Prop40
 90
        0
102
RTVSPost2010PropOp40
 70
     0
102
RTVSPost2010Prop41ColorIndex
 90
       18
102
RTVSPost2010Prop41ColorRGB
 90
        0
102
RTVSPost2010PropOp41
 70
     0
102
RTVSPost2010Prop42
 90
       50
102
RTVSPost2010PropOp42
 70
     0
102
RTVSPost2010Prop43
 90
        3
102
RTVSPost2010PropOp43
 70
     0
102
RTVSPost2010Prop44ColorIndex
 90
        5
102
RTVSPost2010Prop44ColorRGB
 90
      255
102
RTVSPost2010PropOp44
 70
     0
102
RTVSPost2010Prop45
280
     0
102
RTVSPost2010PropOp45
 70
     0
102
RTVSPost2010Prop46
 90
       50
102
RTVSPost2010PropOp46
 70
     0
102
RTVSPost2010Prop47
 90
       50
102
RTVSPost2010PropOp47
 70
     0
102
RTVSPost2010Prop48
 90
       50
102
RTVSPost2010PropOp48
 70
     0
102
RTVSPost2010Prop49
280
     0
102
RTVSPost2010PropOp49
 70
     0
102
RTVSPost2010Prop50
 90
       50
102
RTVSPost2010PropOp50
 70
     0
102
RTVSPost2010Prop51ColorIndex
 90
      256
102
RTVSPost2010Prop51ColorRGB
 90
-16777216
102
RTVSPost2010PropOp51
 70
     0
102
RTVSPost2010Prop52
140
1.0
102
RTVSPost2010PropOp52
 70
     0
102
RTVSPost2010Prop53
 90
        2
102
RTVSPost2010PropOp53
 70
     0
102
RTVSPost2010Prop54
  1
strokes_ogs.tif
102
RTVSPost2010PropOp54
 70
     0
102
RTVSPost2010Prop55
280
     0
102
RTVSPost2010PropOp55
 70
     0
102
RTVSPost2010Prop56
140
1.0
102
RTVSPost2010PropOp56
 70
     0
102
RTVSPost2010Prop57
140
1.0
102
RTVSPost2010PropOp57
 70
     0
  0
XRECORD
  5
172
102
{ACAD_REACTORS
330
171
102
}
330
171
100
AcDbXrecord
280
     1
102
RTVSPropertyOp0
 70
     1
102
RTVSPropertyOp1
 70
     1
102
RTVSPropertyOp2
 70
     1
102
RTVSPropertyOp3
 70
     1
102
RTVSPropertyOp4
 70
     1
102
RTVSPropertyOp5
 70
     1
102
RTVSPropertyOp6
 70
     1
102
RTVSPropertyOp7
 70
     1
102
RTVSPropertyOp8
 70
     1
102
RTVSPropertyOp9
 70
     1
102
RTVSPropertyOp10
 70
     1
102
RTVSPropertyOp11
 70
     1
102
RTVSPropertyOp12
 70
     1
102
RTVSPropertyOp13
 70
     1
102
RTVSPropertyOp14
 70
     1
102
RTVSPropertyOp15
 70
     1
102
RTVSPropertyOp16
 70
     1
102
RTVSPropertyOp17
 70
     1
102
RTVSPropertyOp18
 70
     1
102
RTVSPropertyOp19
 70
     1
102
RTVSPropertyOp20
 70
     1
102
RTVSPropertyOp21
 70
     1
102
RTVSPropertyOp22
 70
     1
102
RTVSPropertyOp23
 70
     1
102
RTVSPropertyOp24
 70
     1
102
RTVSPropertyOp25
 70
     1
102
RTVSPropertyOp26
 70
     1
102
RTVSPropertyOp27
 70
     1
102
RTVSPropertyOp28
 70
     1
102
RTVSPropertyOp29
 70
     1
102
RTVSPropertyOp30
 70
     1
102
RTVSPropertyOp31
 70
     1
102
RTVSPropertyOp32
 70
     1
102
RTVSPropertyOp33
 70
     1
102
RTVSPropertyOp34
 70
     1
102
RTVSPropertyOp35
 70
     1
102
RTVSPropertyOp36
 70
     1
102
RTVSPropertyOp37
 70
     1
102
RTVSPropertyOp38
 70
     1
102
RTVSPropertyOp39
 70
     1
102
RTVSPropertyOp40
 70
     1
102
RTVSPropertyOp41
 70
     1
102
RTVSPropertyOp42
 70
     1
102
RTVSPropertyOp43
 70
     1
102
RTVSPropertyOp44
 70
     1
102
RTVSPropertyOp45
 70
     1
102
RTVSPropertyOp46
 70
     1
102
RTVSPropertyOp47
 70
     1
102
RTVSPropertyOp48
 70
     1
102
RTVSPropertyOp49
 70
     1
102
RTVSPropertyOp50
 70
     1
102
RTVSPropertyOp51
 70
     0
102
RTVSPropertyOp52
 70
     0
102
RTVSPropertyOp53
 70
     1
102
RTVSPropertyOp54
 70
     1
102
RTVSPropertyOp55
 70
     1
102
RTVSPropertyOp56
 70
     1
102
RTVSPropertyOp57
 70
     1
102
RTVSPost2010Prop28
280
     0
102
RTVSPost2010PropOp28
 70
     1
102
RTVSPost2010Prop29
280
     1
102
RTVSPost2010PropOp29
 70
     1
102
RTVSPost2010Prop30
280
     1
102
RTVSPost2010PropOp30
 70
     1
102
RTVSPost2010Prop31
280
     0
102
RTVSPost2010PropOp31
 70
     1
102
RTVSPost2010Prop32
280
     0
102
RTVSPost2010PropOp32
 70
     1
102
RTVSPost2010Prop33
280
     0
102
RTVSPost2010PropOp33
 70
     1
102
RTVSPost2010Prop34
280
     0
102
RTVSPost2010PropOp34
 70
     1
102
RTVSPost2010Prop35
280
     0
102
RTVSPost2010PropOp35
 70
     1
102
RTVSPost2010Prop36
280
     0
102
RTVSPost2010PropOp36
 70
     1
102
RTVSPost2010Prop37
 90
       50
102
RTVSPost2010PropOp37
 70
     1
102
RTVSPost2010Prop38
140
0.0
102
RTVSPost2010PropOp38
 70
     1
102
RTVSPost2010Prop39
140
1.0
102
RTVSPost2010PropOp39
 70
     1
102
RTVSPost2010Prop40
 90
        0
102
RTVSPost2010PropOp40
 70
     1
102
RTVSPost2010Prop41ColorIndex
 90
       18
102
RTVSPost2010Prop41ColorRGB
 90
        0
102
RTVSPost2010PropOp41
 70
     1
102
RTVSPost2010Prop42
 90
       50
102
RTVSPost2010PropOp42
 70
     1
102
RTVSPost2010Prop43
 90
        3
102
RTVSPost2010PropOp43
 70
     1
102
RTVSPost2010Prop44ColorIndex
 90
        5
102
RTVSPost2010Prop44ColorRGB
 90
      255
102
RTVSPost2010PropOp44
 70
     1
102
RTVSPost2010Prop45
280
     0
102
RTVSPost2010PropOp45
 70
     1
102
RTVSPost2010Prop46
 90
       50
102
RTVSPost2010PropOp46
 70
     1
102
RTVSPost2010Prop47
 90
       50
102
RTVSPost2010PropOp47
 70
     1
102
RTVSPost2010Prop48
 90
       50
102
RTVSPost2010PropOp48
 70
     1
102
RTVSPost2010Prop49
280
     0
102
RTVSPost2010PropOp49
 70
     1
102
RTVSPost2010Prop50
 90
       50
102
RTVSPost2010PropOp50
 70
     1
102
RTVSPost2010Prop51ColorIndex
 90
      256
102
RTVSPost2010Prop51ColorRGB
 90
-16777216
102
RTVSPost2010PropOp51
 70
     0
102
RTVSPost2010Prop52
140
1.0
102
RTVSPost2010PropOp52
 70
     0
102
RTVSPost2010Prop53
 90
        2
102
RTVSPost2010PropOp53
 70
     1
102
RTVSPost2010Prop54
  1
strokes_ogs.tif
102
RTVSPost2010PropOp54
 70
     1
102
RTVSPost2010Prop55
280
     0
102
RTVSPost2010PropOp55
 70
     1
102
RTVSPost2010Prop56
140
1.0
102
RTVSPost2010PropOp56
 70
     1
102
RTVSPost2010Prop57
140
1.0
102
RTVSPost2010PropOp57
 70
     1
  0
XRECORD
  5
17A
102
{ACAD_REACTORS
330
179
102
}
330
179
100
AcDbXrecord
280
     1
102
RTVSPropertyOp0
 70
     0
102
RTVSPropertyOp1
 70
     0
102
RTVSPropertyOp2
 70
     0
102
RTVSPropertyOp3
 70
     0
102
RTVSPropertyOp4
 70
     0
102
RTVSPropertyOp5
 70
     0
102
RTVSPropertyOp6
 70
     0
102
RTVSPropertyOp7
 70
     0
102
RTVSPropertyOp8
 70
     0
102
RTVSPropertyOp9
 70
     0
102
RTVSPropertyOp10
 70
     0
102
RTVSPropertyOp11
 70
     0
102
RTVSPropertyOp12
 70
     0
102
RTVSPropertyOp13
 70
     0
102
RTVSPropertyOp14
 70
     2
102
RTVSPropertyOp15
 70
     0
102
RTVSPropertyOp16
 70
     0
102
RTVSPropertyOp17
 70
     0
102
RTVSPropertyOp18
 70
     0
102
RTVSPropertyOp19
 70
     0
102
RTVSPropertyOp20
 70
     0
102
RTVSPropertyOp21
 70
     0
102
RTVSPropertyOp22
 70
     0
102
RTVSPropertyOp23
 70
     0
102
RTVSPropertyOp24
 70
     0
102
RTVSPropertyOp25
 70
     0
102
RTVSPropertyOp26
 70
     0
102
RTVSPropertyOp27
 70
     0
102
RTVSPropertyOp28
 70
     0
102
RTVSPropertyOp29
 70
     0
102
RTVSPropertyOp30
 70
     0
102
RTVSPropertyOp31
 70
     0
102
RTVSPropertyOp32
 70
     0
102
RTVSPropertyOp33
 70
     0
102
RTVSPropertyOp34
 70
     0
102
RTVSPropertyOp35
 70
     0
102
RTVSPropertyOp36
 70
     0
102
RTVSPropertyOp37
 70
     0
102
RTVSPropertyOp38
 70
     0
102
RTVSPropertyOp39
 70
     0
102
RTVSPropertyOp40
 70
     0
102
RTVSPropertyOp41
 70
     0
102
RTVSPropertyOp42
 70
     0
102
RTVSPropertyOp43
 70
     0
102
RTVSPropertyOp44
 70
     0
102
RTVSPropertyOp45
 70
     0
102
RTVSPropertyOp46
 70
     0
102
RTVSPropertyOp47
 70
     0
102
RTVSPropertyOp48
 70
     0
102
RTVSPropertyOp49
 70
     0
102
RTVSPropertyOp50
 70
     0
102
RTVSPropertyOp51
 70
     0
102
RTVSPropertyOp52
 70
     0
102
RTVSPropertyOp53
 70
     0
102
RTVSPropertyOp54
 70
     0
102
RTVSPropertyOp55
 70
     0
102
RTVSPropertyOp56
 70
     0
102
RTVSPropertyOp57
 70
     0
102
RTVSPost2010Prop28
280
     0
102
RTVSPost2010PropOp28
 70
     0
102
RTVSPost2010Prop29
280
     1
102
RTVSPost2010PropOp29
 70
     0
102
RTVSPost2010Prop30
280
     1
102
RTVSPost2010PropOp30
 70
     0
102
RTVSPost2010Prop31
280
     0
102
RTVSPost2010PropOp31
 70
     0
102
RTVSPost2010Prop32
280
     0
102
RTVSPost2010PropOp32
 70
     0
102
RTVSPost2010Prop33
280
     0
102
RTVSPost2010PropOp33
 70
     0
102
RTVSPost2010Prop34
280
     0
102
RTVSPost2010PropOp34
 70
     0
102
RTVSPost2010Prop35
280
     0
102
RTVSPost2010PropOp35
 70
     0
102
RTVSPost2010Prop36
280
     0
102
RTVSPost2010PropOp36
 70
     0
102
RTVSPost2010Prop37
 90
       50
102
RTVSPost2010PropOp37
 70
     0
102
RTVSPost2010Prop38
140
0.0
102
RTVSPost2010PropOp38
 70
     0
102
RTVSPost2010Prop39
140
1.0
102
RTVSPost2010PropOp39
 70
     0
102
RTVSPost2010Prop40
 90
        0
102
RTVSPost2010PropOp40
 70
     0
102
RTVSPost2010Prop41ColorIndex
 90
       18
102
RTVSPost2010Prop41ColorRGB
 90
        0
102
RTVSPost2010PropOp41
 70
     0
102
RTVSPost2010Prop42
 90
       50
102
RTVSPost2010PropOp42
 70
     0
102
RTVSPost2010Prop43
 90
        3
102
RTVSPost2010PropOp43
 70
     0
102
RTVSPost2010Prop44ColorIndex
 90
        5
102
RTVSPost2010Prop44ColorRGB
 90
      255
102
RTVSPost2010PropOp44
 70
     0
102
RTVSPost2010Prop45
280
     0
102
RTVSPost2010PropOp45
 70
     0
102
RTVSPost2010Prop46
 90
       50
102
RTVSPost2010PropOp46
 70
     0
102
RTVSPost2010Prop47
 90
       50
102
RTVSPost2010PropOp47
 70
     0
102
RTVSPost2010Prop48
 90
       50
102
RTVSPost2010PropOp48
 70
     0
102
RTVSPost2010Prop49
280
     0
102
RTVSPost2010PropOp49
 70
     0
102
RTVSPost2010Prop50
 90
       50
102
RTVSPost2010PropOp50
 70
     0
102
RTVSPost2010Prop51ColorIndex
 90
      256
102
RTVSPost2010Prop51ColorRGB
 90
-16777216
102
RTVSPost2010PropOp51
 70
     0
102
RTVSPost2010Prop52
140
1.0
102
RTVSPost2010PropOp52
 70
     0
102
RTVSPost2010Prop53
 90
        2
102
RTVSPost2010PropOp53
 70
     0
102
RTVSPost2010Prop54
  1
strokes_ogs.tif
102
RTVSPost2010PropOp54
 70
     0
102
RTVSPost2010Prop55
280
     0
102
RTVSPost2010PropOp55
 70
     0
102
RTVSPost2010Prop56
140
1.0
102
RTVSPost2010PropOp56
 70
     0
102
RTVSPost2010Prop57
140
1.0
102
RTVSPost2010PropOp57
 70
     0
  0
XRECORD
  5
168
102
{ACAD_REACTORS
330
167
102
}
330
167
100
AcDbXrecord
280
     1
102
RTVSPropertyOp0
 70
     1
102
RTVSPropertyOp1
 70
     1
102
RTVSPropertyOp2
 70
     1
102
RTVSPropertyOp3
 70
     1
102
RTVSPropertyOp4
 70
     1
102
RTVSPropertyOp5
 70
     1
102
RTVSPropertyOp6
 70
     1
102
RTVSPropertyOp7
 70
     1
102
RTVSPropertyOp8
 70
     1
102
RTVSPropertyOp9
 70
     1
102
RTVSPropertyOp10
 70
     1
102
RTVSPropertyOp11
 70
     1
102
RTVSPropertyOp12
 70
     1
102
RTVSPropertyOp13
 70
     1
102
RTVSPropertyOp14
 70
     1
102
RTVSPropertyOp15
 70
     1
102
RTVSPropertyOp16
 70
     1
102
RTVSPropertyOp17
 70
     1
102
RTVSPropertyOp18
 70
     1
102
RTVSPropertyOp19
 70
     1
102
RTVSPropertyOp20
 70
     1
102
RTVSPropertyOp21
 70
     1
102
RTVSPropertyOp22
 70
     1
102
RTVSPropertyOp23
 70
     1
102
RTVSPropertyOp24
 70
     1
102
RTVSPropertyOp25
 70
     1
102
RTVSPropertyOp26
 70
     1
102
RTVSPropertyOp27
 70
     1
102
RTVSPropertyOp28
 70
     1
102
RTVSPropertyOp29
 70
     1
102
RTVSPropertyOp30
 70
     1
102
RTVSPropertyOp31
 70
     1
102
RTVSPropertyOp32
 70
     1
102
RTVSPropertyOp33
 70
     1
102
RTVSPropertyOp34
 70
     1
102
RTVSPropertyOp35
 70
     1
102
RTVSPropertyOp36
 70
     1
102
RTVSPropertyOp37
 70
     1
102
RTVSPropertyOp38
 70
     1
102
RTVSPropertyOp39
 70
     1
102
RTVSPropertyOp40
 70
     1
102
RTVSPropertyOp41
 70
     1
102
RTVSPropertyOp42
 70
     1
102
RTVSPropertyOp43
 70
     1
102
RTVSPropertyOp44
 70
     1
102
RTVSPropertyOp45
 70
     1
102
RTVSPropertyOp46
 70
     1
102
RTVSPropertyOp47
 70
     1
102
RTVSPropertyOp48
 70
     1
102
RTVSPropertyOp49
 70
     1
102
RTVSPropertyOp50
 70
     1
102
RTVSPropertyOp51
 70
     0
102
RTVSPropertyOp52
 70
     0
102
RTVSPropertyOp53
 70
     1
102
RTVSPropertyOp54
 70
     1
102
RTVSPropertyOp55
 70
     1
102
RTVSPropertyOp56
 70
     1
102
RTVSPropertyOp57
 70
     1
102
RTVSPost2010Prop28
280
     0
102
RTVSPost2010PropOp28
 70
     1
102
RTVSPost2010Prop29
280
     1
102
RTVSPost2010PropOp29
 70
     1
102
RTVSPost2010Prop30
280
     1
102
RTVSPost2010PropOp30
 70
     1
102
RTVSPost2010Prop31
280
     0
102
RTVSPost2010PropOp31
 70
     1
102
RTVSPost2010Prop32
280
     0
102
RTVSPost2010PropOp32
 70
     1
102
RTVSPost2010Prop33
280
     0
102
RTVSPost2010PropOp33
 70
     1
102
RTVSPost2010Prop34
280
     0
102
RTVSPost2010PropOp34
 70
     1
102
RTVSPost2010Prop35
280
     0
102
RTVSPost2010PropOp35
 70
     1
102
RTVSPost2010Prop36
280
     0
102
RTVSPost2010PropOp36
 70
     1
102
RTVSPost2010Prop37
 90
       50
102
RTVSPost2010PropOp37
 70
     1
102
RTVSPost2010Prop38
140
0.0
102
RTVSPost2010PropOp38
 70
     1
102
RTVSPost2010Prop39
140
1.0
102
RTVSPost2010PropOp39
 70
     1
102
RTVSPost2010Prop40
 90
        0
102
RTVSPost2010PropOp40
 70
     1
102
RTVSPost2010Prop41ColorIndex
 90
       18
102
RTVSPost2010Prop41ColorRGB
 90
        0
102
RTVSPost2010PropOp41
 70
     1
102
RTVSPost2010Prop42
 90
       50
102
RTVSPost2010PropOp42
 70
     1
102
RTVSPost2010Prop43
 90
        3
102
RTVSPost2010PropOp43
 70
     1
102
RTVSPost2010Prop44ColorIndex
 90
        5
102
RTVSPost2010Prop44ColorRGB
 90
      255
102
RTVSPost2010PropOp44
 70
     1
102
RTVSPost2010Prop45
280
     0
102
RTVSPost2010PropOp45
 70
     1
102
RTVSPost2010Prop46
 90
       50
102
RTVSPost2010PropOp46
 70
     1
102
RTVSPost2010Prop47
 90
       50
102
RTVSPost2010PropOp47
 70
     1
102
RTVSPost2010Prop48
 90
       50
102
RTVSPost2010PropOp48
 70
     1
102
RTVSPost2010Prop49
280
     0
102
RTVSPost2010PropOp49
 70
     1
102
RTVSPost2010Prop50
 90
       50
102
RTVSPost2010PropOp50
 70
     1
102
RTVSPost2010Prop51ColorIndex
 90
      256
102
RTVSPost2010Prop51ColorRGB
 90
-16777216
102
RTVSPost2010PropOp51
 70
     0
102
RTVSPost2010Prop52
140
1.0
102
RTVSPost2010PropOp52
 70
     0
102
RTVSPost2010Prop53
 90
        2
102
RTVSPost2010PropOp53
 70
     1
102
RTVSPost2010Prop54
  1
strokes_ogs.tif
102
RTVSPost2010PropOp54
 70
     1
102
RTVSPost2010Prop55
280
     0
102
RTVSPost2010PropOp55
 70
     1
102
RTVSPost2010Prop56
140
1.0
102
RTVSPost2010PropOp56
 70
     1
102
RTVSPost2010Prop57
140
1.0
102
RTVSPost2010PropOp57
 70
     1
  0
XRECORD
  5
186
102
{ACAD_REACTORS
330
185
102
}
330
185
100
AcDbXrecord
280
     1
102
RTVSPropertyOp0
 70
     1
102
RTVSPropertyOp1
 70
     1
102
RTVSPropertyOp2
 70
     1
102
RTVSPropertyOp3
 70
     1
102
RTVSPropertyOp4
 70
     1
102
RTVSPropertyOp5
 70
     1
102
RTVSPropertyOp6
 70
     1
102
RTVSPropertyOp7
 70
     1
102
RTVSPropertyOp8
 70
     1
102
RTVSPropertyOp9
 70
     1
102
RTVSPropertyOp10
 70
     1
102
RTVSPropertyOp11
 70
     1
102
RTVSPropertyOp12
 70
     1
102
RTVSPropertyOp13
 70
     1
102
RTVSPropertyOp14
 70
     1
102
RTVSPropertyOp15
 70
     1
102
RTVSPropertyOp16
 70
     1
102
RTVSPropertyOp17
 70
     1
102
RTVSPropertyOp18
 70
     1
102
RTVSPropertyOp19
 70
     1
102
RTVSPropertyOp20
 70
     1
102
RTVSPropertyOp21
 70
     1
102
RTVSPropertyOp22
 70
     1
102
RTVSPropertyOp23
 70
     1
102
RTVSPropertyOp24
 70
     1
102
RTVSPropertyOp25
 70
     1
102
RTVSPropertyOp26
 70
     1
102
RTVSPropertyOp27
 70
     1
102
RTVSPropertyOp28
 70
     1
102
RTVSPropertyOp29
 70
     1
102
RTVSPropertyOp30
 70
     1
102
RTVSPropertyOp31
 70
     1
102
RTVSPropertyOp32
 70
     1
102
RTVSPropertyOp33
 70
     1
102
RTVSPropertyOp34
 70
     1
102
RTVSPropertyOp35
 70
     1
102
RTVSPropertyOp36
 70
     1
102
RTVSPropertyOp37
 70
     1
102
RTVSPropertyOp38
 70
     1
102
RTVSPropertyOp39
 70
     1
102
RTVSPropertyOp40
 70
     1
102
RTVSPropertyOp41
 70
     1
102
RTVSPropertyOp42
 70
     1
102
RTVSPropertyOp43
 70
     1
102
RTVSPropertyOp44
 70
     1
102
RTVSPropertyOp45
 70
     1
102
RTVSPropertyOp46
 70
     1
102
RTVSPropertyOp47
 70
     1
102
RTVSPropertyOp48
 70
     1
102
RTVSPropertyOp49
 70
     1
102
RTVSPropertyOp50
 70
     1
102
RTVSPropertyOp51
 70
     0
102
RTVSPropertyOp52
 70
     0
102
RTVSPropertyOp53
 70
     1
102
RTVSPropertyOp54
 70
     1
102
RTVSPropertyOp55
 70
     1
102
RTVSPropertyOp56
 70
     1
102
RTVSPropertyOp57
 70
     1
102
RTVSPost2010Prop28
280
     0
102
RTVSPost2010PropOp28
 70
     1
102
RTVSPost2010Prop29
280
     1
102
RTVSPost2010PropOp29
 70
     1
102
RTVSPost2010Prop30
280
     1
102
RTVSPost2010PropOp30
 70
     1
102
RTVSPost2010Prop31
280
     0
102
RTVSPost2010PropOp31
 70
     1
102
RTVSPost2010Prop32
280
     0
102
RTVSPost2010PropOp32
 70
     1
102
RTVSPost2010Prop33
280
     0
102
RTVSPost2010PropOp33
 70
     1
102
RTVSPost2010Prop34
280
     0
102
RTVSPost2010PropOp34
 70
     1
102
RTVSPost2010Prop35
280
     0
102
RTVSPost2010PropOp35
 70
     1
102
RTVSPost2010Prop36
280
     0
102
RTVSPost2010PropOp36
 70
     1
102
RTVSPost2010Prop37
 90
       50
102
RTVSPost2010PropOp37
 70
     1
102
RTVSPost2010Prop38
140
0.0
102
RTVSPost2010PropOp38
 70
     1
102
RTVSPost2010Prop39
140
1.0
102
RTVSPost2010PropOp39
 70
     1
102
RTVSPost2010Prop40
 90
        0
102
RTVSPost2010PropOp40
 70
     1
102
RTVSPost2010Prop41ColorIndex
 90
       18
102
RTVSPost2010Prop41ColorRGB
 90
        0
102
RTVSPost2010PropOp41
 70
     1
102
RTVSPost2010Prop42
 90
       50
102
RTVSPost2010PropOp42
 70
     1
102
RTVSPost2010Prop43
 90
        3
102
RTVSPost2010PropOp43
 70
     1
102
RTVSPost2010Prop44ColorIndex
 90
        5
102
RTVSPost2010Prop44ColorRGB
 90
      255
102
RTVSPost2010PropOp44
 70
     1
102
RTVSPost2010Prop45
280
     0
102
RTVSPost2010PropOp45
 70
     1
102
RTVSPost2010Prop46
 90
       50
102
RTVSPost2010PropOp46
 70
     1
102
RTVSPost2010Prop47
 90
       50
102
RTVSPost2010PropOp47
 70
     1
102
RTVSPost2010Prop48
 90
       50
102
RTVSPost2010PropOp48
 70
     1
102
RTVSPost2010Prop49
280
     0
102
RTVSPost2010PropOp49
 70
     1
102
RTVSPost2010Prop50
 90
       50
102
RTVSPost2010PropOp50
 70
     1
102
RTVSPost2010Prop51ColorIndex
 90
      256
102
RTVSPost2010Prop51ColorRGB
 90
-16777216
102
RTVSPost2010PropOp51
 70
     0
102
RTVSPost2010Prop52
140
1.0
102
RTVSPost2010PropOp52
 70
     0
102
RTVSPost2010Prop53
 90
        2
102
RTVSPost2010PropOp53
 70
     1
102
RTVSPost2010Prop54
  1
strokes_ogs.tif
102
RTVSPost2010PropOp54
 70
     1
102
RTVSPost2010Prop55
280
     0
102
RTVSPost2010PropOp55
 70
     1
102
RTVSPost2010Prop56
140
1.0
102
RTVSPost2010PropOp56
 70
     1
102
RTVSPost2010Prop57
140
1.0
102
RTVSPost2010PropOp57
 70
     1
  0
XRECORD
  5
184
102
{ACAD_REACTORS
330
183
102
}
330
183
100
AcDbXrecord
280
     1
102
RTVSPropertyOp0
 70
     1
102
RTVSPropertyOp1
 70
     1
102
RTVSPropertyOp2
 70
     1
102
RTVSPropertyOp3
 70
     1
102
RTVSPropertyOp4
 70
     1
102
RTVSPropertyOp5
 70
     1
102
RTVSPropertyOp6
 70
     1
102
RTVSPropertyOp7
 70
     1
102
RTVSPropertyOp8
 70
     1
102
RTVSPropertyOp9
 70
     1
102
RTVSPropertyOp10
 70
     1
102
RTVSPropertyOp11
 70
     1
102
RTVSPropertyOp12
 70
     1
102
RTVSPropertyOp13
 70
     1
102
RTVSPropertyOp14
 70
     1
102
RTVSPropertyOp15
 70
     1
102
RTVSPropertyOp16
 70
     1
102
RTVSPropertyOp17
 70
     1
102
RTVSPropertyOp18
 70
     1
102
RTVSPropertyOp19
 70
     1
102
RTVSPropertyOp20
 70
     1
102
RTVSPropertyOp21
 70
     1
102
RTVSPropertyOp22
 70
     1
102
RTVSPropertyOp23
 70
     1
102
RTVSPropertyOp24
 70
     1
102
RTVSPropertyOp25
 70
     1
102
RTVSPropertyOp26
 70
     1
102
RTVSPropertyOp27
 70
     1
102
RTVSPropertyOp28
 70
     1
102
RTVSPropertyOp29
 70
     1
102
RTVSPropertyOp30
 70
     1
102
RTVSPropertyOp31
 70
     1
102
RTVSPropertyOp32
 70
     1
102
RTVSPropertyOp33
 70
     1
102
RTVSPropertyOp34
 70
     1
102
RTVSPropertyOp35
 70
     1
102
RTVSPropertyOp36
 70
     1
102
RTVSPropertyOp37
 70
     1
102
RTVSPropertyOp38
 70
     1
102
RTVSPropertyOp39
 70
     1
102
RTVSPropertyOp40
 70
     1
102
RTVSPropertyOp41
 70
     1
102
RTVSPropertyOp42
 70
     1
102
RTVSPropertyOp43
 70
     1
102
RTVSPropertyOp44
 70
     1
102
RTVSPropertyOp45
 70
     1
102
RTVSPropertyOp46
 70
     1
102
RTVSPropertyOp47
 70
     1
102
RTVSPropertyOp48
 70
     1
102
RTVSPropertyOp49
 70
     1
102
RTVSPropertyOp50
 70
     1
102
RTVSPropertyOp51
 70
     0
102
RTVSPropertyOp52
 70
     0
102
RTVSPropertyOp53
 70
     1
102
RTVSPropertyOp54
 70
     1
102
RTVSPropertyOp55
 70
     1
102
RTVSPropertyOp56
 70
     1
102
RTVSPropertyOp57
 70
     1
102
RTVSPost2010Prop28
280
     0
102
RTVSPost2010PropOp28
 70
     1
102
RTVSPost2010Prop29
280
     1
102
RTVSPost2010PropOp29
 70
     1
102
RTVSPost2010Prop30
280
     1
102
RTVSPost2010PropOp30
 70
     1
102
RTVSPost2010Prop31
280
     0
102
RTVSPost2010PropOp31
 70
     1
102
RTVSPost2010Prop32
280
     0
102
RTVSPost2010PropOp32
 70
     1
102
RTVSPost2010Prop33
280
     0
102
RTVSPost2010PropOp33
 70
     1
102
RTVSPost2010Prop34
280
     0
102
RTVSPost2010PropOp34
 70
     1
102
RTVSPost2010Prop35
280
     0
102
RTVSPost2010PropOp35
 70
     1
102
RTVSPost2010Prop36
280
     0
102
RTVSPost2010PropOp36
 70
     1
102
RTVSPost2010Prop37
 90
       50
102
RTVSPost2010PropOp37
 70
     1
102
RTVSPost2010Prop38
140
0.0
102
RTVSPost2010PropOp38
 70
     1
102
RTVSPost2010Prop39
140
1.0
102
RTVSPost2010PropOp39
 70
     1
102
RTVSPost2010Prop40
 90
        0
102
RTVSPost2010PropOp40
 70
     1
102
RTVSPost2010Prop41ColorIndex
 90
       18
102
RTVSPost2010Prop41ColorRGB
 90
        0
102
RTVSPost2010PropOp41
 70
     1
102
RTVSPost2010Prop42
 90
       50
102
RTVSPost2010PropOp42
 70
     1
102
RTVSPost2010Prop43
 90
        3
102
RTVSPost2010PropOp43
 70
     1
102
RTVSPost2010Prop44ColorIndex
 90
        5
102
RTVSPost2010Prop44ColorRGB
 90
      255
102
RTVSPost2010PropOp44
 70
     1
102
RTVSPost2010Prop45
280
     0
102
RTVSPost2010PropOp45
 70
     1
102
RTVSPost2010Prop46
 90
       50
102
RTVSPost2010PropOp46
 70
     1
102
RTVSPost2010Prop47
 90
       50
102
RTVSPost2010PropOp47
 70
     1
102
RTVSPost2010Prop48
 90
       50
102
RTVSPost2010PropOp48
 70
     1
102
RTVSPost2010Prop49
280
     0
102
RTVSPost2010PropOp49
 70
     1
102
RTVSPost2010Prop50
 90
       50
102
RTVSPost2010PropOp50
 70
     1
102
RTVSPost2010Prop51ColorIndex
 90
      256
102
RTVSPost2010Prop51ColorRGB
 90
-16777216
102
RTVSPost2010PropOp51
 70
     0
102
RTVSPost2010Prop52
140
1.0
102
RTVSPost2010PropOp52
 70
     0
102
RTVSPost2010Prop53
 90
        2
102
RTVSPost2010PropOp53
 70
     1
102
RTVSPost2010Prop54
  1
strokes_ogs.tif
102
RTVSPost2010PropOp54
 70
     1
102
RTVSPost2010Prop55
280
     0
102
RTVSPost2010PropOp55
 70
     1
102
RTVSPost2010Prop56
140
1.0
102
RTVSPost2010PropOp56
 70
     1
102
RTVSPost2010Prop57
140
1.0
102
RTVSPost2010PropOp57
 70
     1
  0
XRECORD
  5
17E
102
{ACAD_REACTORS
330
17D
102
}
330
17D
100
AcDbXrecord
280
     1
102
RTVSPropertyOp0
 70
     1
102
RTVSPropertyOp1
 70
     1
102
RTVSPropertyOp2
 70
     1
102
RTVSPropertyOp3
 70
     1
102
RTVSPropertyOp4
 70
     1
102
RTVSPropertyOp5
 70
     1
102
RTVSPropertyOp6
 70
     1
102
RTVSPropertyOp7
 70
     1
102
RTVSPropertyOp8
 70
     1
102
RTVSPropertyOp9
 70
     1
102
RTVSPropertyOp10
 70
     1
102
RTVSPropertyOp11
 70
     1
102
RTVSPropertyOp12
 70
     1
102
RTVSPropertyOp13
 70
     1
102
RTVSPropertyOp14
 70
     1
102
RTVSPropertyOp15
 70
     1
102
RTVSPropertyOp16
 70
     1
102
RTVSPropertyOp17
 70
     1
102
RTVSPropertyOp18
 70
     1
102
RTVSPropertyOp19
 70
     1
102
RTVSPropertyOp20
 70
     1
102
RTVSPropertyOp21
 70
     1
102
RTVSPropertyOp22
 70
     1
102
RTVSPropertyOp23
 70
     1
102
RTVSPropertyOp24
 70
     1
102
RTVSPropertyOp25
 70
     1
102
RTVSPropertyOp26
 70
     1
102
RTVSPropertyOp27
 70
     1
102
RTVSPropertyOp28
 70
     1
102
RTVSPropertyOp29
 70
     1
102
RTVSPropertyOp30
 70
     1
102
RTVSPropertyOp31
 70
     1
102
RTVSPropertyOp32
 70
     1
102
RTVSPropertyOp33
 70
     1
102
RTVSPropertyOp34
 70
     1
102
RTVSPropertyOp35
 70
     1
102
RTVSPropertyOp36
 70
     1
102
RTVSPropertyOp37
 70
     1
102
RTVSPropertyOp38
 70
     1
102
RTVSPropertyOp39
 70
     1
102
RTVSPropertyOp40
 70
     1
102
RTVSPropertyOp41
 70
     1
102
RTVSPropertyOp42
 70
     1
102
RTVSPropertyOp43
 70
     1
102
RTVSPropertyOp44
 70
     1
102
RTVSPropertyOp45
 70
     1
102
RTVSPropertyOp46
 70
     1
102
RTVSPropertyOp47
 70
     1
102
RTVSPropertyOp48
 70
     1
102
RTVSPropertyOp49
 70
     1
102
RTVSPropertyOp50
 70
     1
102
RTVSPropertyOp51
 70
     0
102
RTVSPropertyOp52
 70
     0
102
RTVSPropertyOp53
 70
     1
102
RTVSPropertyOp54
 70
     1
102
RTVSPropertyOp55
 70
     1
102
RTVSPropertyOp56
 70
     1
102
RTVSPropertyOp57
 70
     1
102
RTVSPost2010Prop28
280
     0
102
RTVSPost2010PropOp28
 70
     1
102
RTVSPost2010Prop29
280
     1
102
RTVSPost2010PropOp29
 70
     1
102
RTVSPost2010Prop30
280
     1
102
RTVSPost2010PropOp30
 70
     1
102
RTVSPost2010Prop31
280
     0
102
RTVSPost2010PropOp31
 70
     1
102
RTVSPost2010Prop32
280
     0
102
RTVSPost2010PropOp32
 70
     1
102
RTVSPost2010Prop33
280
     0
102
RTVSPost2010PropOp33
 70
     1
102
RTVSPost2010Prop34
280
     0
102
RTVSPost2010PropOp34
 70
     1
102
RTVSPost2010Prop35
280
     0
102
RTVSPost2010PropOp35
 70
     1
102
RTVSPost2010Prop36
280
     0
102
RTVSPost2010PropOp36
 70
     1
102
RTVSPost2010Prop37
 90
       50
102
RTVSPost2010PropOp37
 70
     1
102
RTVSPost2010Prop38
140
0.0
102
RTVSPost2010PropOp38
 70
     1
102
RTVSPost2010Prop39
140
1.0
102
RTVSPost2010PropOp39
 70
     1
102
RTVSPost2010Prop40
 90
        0
102
RTVSPost2010PropOp40
 70
     1
102
RTVSPost2010Prop41ColorIndex
 90
       18
102
RTVSPost2010Prop41ColorRGB
 90
        0
102
RTVSPost2010PropOp41
 70
     1
102
RTVSPost2010Prop42
 90
       50
102
RTVSPost2010PropOp42
 70
     1
102
RTVSPost2010Prop43
 90
        3
102
RTVSPost2010PropOp43
 70
     1
102
RTVSPost2010Prop44ColorIndex
 90
        5
102
RTVSPost2010Prop44ColorRGB
 90
      255
102
RTVSPost2010PropOp44
 70
     1
102
RTVSPost2010Prop45
280
     0
102
RTVSPost2010PropOp45
 70
     1
102
RTVSPost2010Prop46
 90
       50
102
RTVSPost2010PropOp46
 70
     1
102
RTVSPost2010Prop47
 90
       50
102
RTVSPost2010PropOp47
 70
     1
102
RTVSPost2010Prop48
 90
       50
102
RTVSPost2010PropOp48
 70
     1
102
RTVSPost2010Prop49
280
     0
102
RTVSPost2010PropOp49
 70
     1
102
RTVSPost2010Prop50
 90
       50
102
RTVSPost2010PropOp50
 70
     1
102
RTVSPost2010Prop51ColorIndex
 90
      256
102
RTVSPost2010Prop51ColorRGB
 90
-16777216
102
RTVSPost2010PropOp51
 70
     0
102
RTVSPost2010Prop52
140
1.0
102
RTVSPost2010PropOp52
 70
     0
102
RTVSPost2010Prop53
 90
        2
102
RTVSPost2010PropOp53
 70
     1
102
RTVSPost2010Prop54
  1
strokes_ogs.tif
102
RTVSPost2010PropOp54
 70
     1
102
RTVSPost2010Prop55
280
     0
102
RTVSPost2010PropOp55
 70
     1
102
RTVSPost2010Prop56
140
1.0
102
RTVSPost2010PropOp56
 70
     1
102
RTVSPost2010Prop57
140
1.0
102
RTVSPost2010PropOp57
 70
     1
  0
XRECORD
  5
180
102
{ACAD_REACTORS
330
17F
102
}
330
17F
100
AcDbXrecord
280
     1
102
RTVSPropertyOp0
 70
     1
102
RTVSPropertyOp1
 70
     1
102
RTVSPropertyOp2
 70
     1
102
RTVSPropertyOp3
 70
     1
102
RTVSPropertyOp4
 70
     1
102
RTVSPropertyOp5
 70
     1
102
RTVSPropertyOp6
 70
     1
102
RTVSPropertyOp7
 70
     1
102
RTVSPropertyOp8
 70
     1
102
RTVSPropertyOp9
 70
     1
102
RTVSPropertyOp10
 70
     1
102
RTVSPropertyOp11
 70
     1
102
RTVSPropertyOp12
 70
     1
102
RTVSPropertyOp13
 70
     1
102
RTVSPropertyOp14
 70
     1
102
RTVSPropertyOp15
 70
     1
102
RTVSPropertyOp16
 70
     1
102
RTVSPropertyOp17
 70
     1
102
RTVSPropertyOp18
 70
     1
102
RTVSPropertyOp19
 70
     1
102
RTVSPropertyOp20
 70
     1
102
RTVSPropertyOp21
 70
     1
102
RTVSPropertyOp22
 70
     1
102
RTVSPropertyOp23
 70
     1
102
RTVSPropertyOp24
 70
     1
102
RTVSPropertyOp25
 70
     1
102
RTVSPropertyOp26
 70
     1
102
RTVSPropertyOp27
 70
     1
102
RTVSPropertyOp28
 70
     1
102
RTVSPropertyOp29
 70
     1
102
RTVSPropertyOp30
 70
     1
102
RTVSPropertyOp31
 70
     1
102
RTVSPropertyOp32
 70
     1
102
RTVSPropertyOp33
 70
     1
102
RTVSPropertyOp34
 70
     1
102
RTVSPropertyOp35
 70
     1
102
RTVSPropertyOp36
 70
     1
102
RTVSPropertyOp37
 70
     1
102
RTVSPropertyOp38
 70
     1
102
RTVSPropertyOp39
 70
     1
102
RTVSPropertyOp40
 70
     1
102
RTVSPropertyOp41
 70
     1
102
RTVSPropertyOp42
 70
     1
102
RTVSPropertyOp43
 70
     1
102
RTVSPropertyOp44
 70
     1
102
RTVSPropertyOp45
 70
     1
102
RTVSPropertyOp46
 70
     1
102
RTVSPropertyOp47
 70
     1
102
RTVSPropertyOp48
 70
     1
102
RTVSPropertyOp49
 70
     1
102
RTVSPropertyOp50
 70
     1
102
RTVSPropertyOp51
 70
     0
102
RTVSPropertyOp52
 70
     0
102
RTVSPropertyOp53
 70
     1
102
RTVSPropertyOp54
 70
     1
102
RTVSPropertyOp55
 70
     1
102
RTVSPropertyOp56
 70
     1
102
RTVSPropertyOp57
 70
     1
102
RTVSPost2010Prop28
280
     0
102
RTVSPost2010PropOp28
 70
     1
102
RTVSPost2010Prop29
280
     1
102
RTVSPost2010PropOp29
 70
     1
102
RTVSPost2010Prop30
280
     1
102
RTVSPost2010PropOp30
 70
     1
102
RTVSPost2010Prop31
280
     0
102
RTVSPost2010PropOp31
 70
     1
102
RTVSPost2010Prop32
280
     0
102
RTVSPost2010PropOp32
 70
     1
102
RTVSPost2010Prop33
280
     0
102
RTVSPost2010PropOp33
 70
     1
102
RTVSPost2010Prop34
280
     0
102
RTVSPost2010PropOp34
 70
     1
102
RTVSPost2010Prop35
280
     0
102
RTVSPost2010PropOp35
 70
     1
102
RTVSPost2010Prop36
280
     0
102
RTVSPost2010PropOp36
 70
     1
102
RTVSPost2010Prop37
 90
       50
102
RTVSPost2010PropOp37
 70
     1
102
RTVSPost2010Prop38
140
0.0
102
RTVSPost2010PropOp38
 70
     1
102
RTVSPost2010Prop39
140
1.0
102
RTVSPost2010PropOp39
 70
     1
102
RTVSPost2010Prop40
 90
        0
102
RTVSPost2010PropOp40
 70
     1
102
RTVSPost2010Prop41ColorIndex
 90
       18
102
RTVSPost2010Prop41ColorRGB
 90
        0
102
RTVSPost2010PropOp41
 70
     1
102
RTVSPost2010Prop42
 90
       50
102
RTVSPost2010PropOp42
 70
     1
102
RTVSPost2010Prop43
 90
        3
102
RTVSPost2010PropOp43
 70
     1
102
RTVSPost2010Prop44ColorIndex
 90
        5
102
RTVSPost2010Prop44ColorRGB
 90
      255
102
RTVSPost2010PropOp44
 70
     1
102
RTVSPost2010Prop45
280
     0
102
RTVSPost2010PropOp45
 70
     1
102
RTVSPost2010Prop46
 90
       50
102
RTVSPost2010PropOp46
 70
     1
102
RTVSPost2010Prop47
 90
       50
102
RTVSPost2010PropOp47
 70
     1
102
RTVSPost2010Prop48
 90
       50
102
RTVSPost2010PropOp48
 70
     1
102
RTVSPost2010Prop49
280
     0
102
RTVSPost2010PropOp49
 70
     1
102
RTVSPost2010Prop50
 90
       50
102
RTVSPost2010PropOp50
 70
     1
102
RTVSPost2010Prop51ColorIndex
 90
      256
102
RTVSPost2010Prop51ColorRGB
 90
-16777216
102
RTVSPost2010PropOp51
 70
     0
102
RTVSPost2010Prop52
140
1.0
102
RTVSPost2010PropOp52
 70
     0
102
RTVSPost2010Prop53
 90
        2
102
RTVSPost2010PropOp53
 70
     1
102
RTVSPost2010Prop54
  1
strokes_ogs.tif
102
RTVSPost2010PropOp54
 70
     1
102
RTVSPost2010Prop55
280
     0
102
RTVSPost2010PropOp55
 70
     1
102
RTVSPost2010Prop56
140
1.0
102
RTVSPost2010PropOp56
 70
     1
102
RTVSPost2010Prop57
140
1.0
102
RTVSPost2010PropOp57
 70
     1
  0
XRECORD
  5
170
102
{ACAD_REACTORS
330
16F
102
}
330
16F
100
AcDbXrecord
280
     1
102
RTVSPropertyOp0
 70
     1
102
RTVSPropertyOp1
 70
     1
102
RTVSPropertyOp2
 70
     1
102
RTVSPropertyOp3
 70
     1
102
RTVSPropertyOp4
 70
     1
102
RTVSPropertyOp5
 70
     1
102
RTVSPropertyOp6
 70
     1
102
RTVSPropertyOp7
 70
     1
102
RTVSPropertyOp8
 70
     1
102
RTVSPropertyOp9
 70
     1
102
RTVSPropertyOp10
 70
     1
102
RTVSPropertyOp11
 70
     1
102
RTVSPropertyOp12
 70
     1
102
RTVSPropertyOp13
 70
     1
102
RTVSPropertyOp14
 70
     1
102
RTVSPropertyOp15
 70
     1
102
RTVSPropertyOp16
 70
     1
102
RTVSPropertyOp17
 70
     1
102
RTVSPropertyOp18
 70
     1
102
RTVSPropertyOp19
 70
     1
102
RTVSPropertyOp20
 70
     1
102
RTVSPropertyOp21
 70
     1
102
RTVSPropertyOp22
 70
     1
102
RTVSPropertyOp23
 70
     1
102
RTVSPropertyOp24
 70
     1
102
RTVSPropertyOp25
 70
     1
102
RTVSPropertyOp26
 70
     1
102
RTVSPropertyOp27
 70
     1
102
RTVSPropertyOp28
 70
     1
102
RTVSPropertyOp29
 70
     1
102
RTVSPropertyOp30
 70
     1
102
RTVSPropertyOp31
 70
     1
102
RTVSPropertyOp32
 70
     1
102
RTVSPropertyOp33
 70
     1
102
RTVSPropertyOp34
 70
     1
102
RTVSPropertyOp35
 70
     1
102
RTVSPropertyOp36
 70
     1
102
RTVSPropertyOp37
 70
     1
102
RTVSPropertyOp38
 70
     1
102
RTVSPropertyOp39
 70
     1
102
RTVSPropertyOp40
 70
     1
102
RTVSPropertyOp41
 70
     1
102
RTVSPropertyOp42
 70
     1
102
RTVSPropertyOp43
 70
     1
102
RTVSPropertyOp44
 70
     1
102
RTVSPropertyOp45
 70
     1
102
RTVSPropertyOp46
 70
     1
102
RTVSPropertyOp47
 70
     1
102
RTVSPropertyOp48
 70
     1
102
RTVSPropertyOp49
 70
     1
102
RTVSPropertyOp50
 70
     1
102
RTVSPropertyOp51
 70
     0
102
RTVSPropertyOp52
 70
     0
102
RTVSPropertyOp53
 70
     1
102
RTVSPropertyOp54
 70
     1
102
RTVSPropertyOp55
 70
     1
102
RTVSPropertyOp56
 70
     1
102
RTVSPropertyOp57
 70
     1
102
RTVSPost2010Prop28
280
     0
102
RTVSPost2010PropOp28
 70
     1
102
RTVSPost2010Prop29
280
     1
102
RTVSPost2010PropOp29
 70
     1
102
RTVSPost2010Prop30
280
     1
102
RTVSPost2010PropOp30
 70
     1
102
RTVSPost2010Prop31
280
     0
102
RTVSPost2010PropOp31
 70
     1
102
RTVSPost2010Prop32
280
     0
102
RTVSPost2010PropOp32
 70
     1
102
RTVSPost2010Prop33
280
     0
102
RTVSPost2010PropOp33
 70
     1
102
RTVSPost2010Prop34
280
     0
102
RTVSPost2010PropOp34
 70
     1
102
RTVSPost2010Prop35
280
     0
102
RTVSPost2010PropOp35
 70
     1
102
RTVSPost2010Prop36
280
     0
102
RTVSPost2010PropOp36
 70
     1
102
RTVSPost2010Prop37
 90
       50
102
RTVSPost2010PropOp37
 70
     1
102
RTVSPost2010Prop38
140
0.0
102
RTVSPost2010PropOp38
 70
     1
102
RTVSPost2010Prop39
140
1.0
102
RTVSPost2010PropOp39
 70
     1
102
RTVSPost2010Prop40
 90
        0
102
RTVSPost2010PropOp40
 70
     1
102
RTVSPost2010Prop41ColorIndex
 90
       18
102
RTVSPost2010Prop41ColorRGB
 90
        0
102
RTVSPost2010PropOp41
 70
     1
102
RTVSPost2010Prop42
 90
       50
102
RTVSPost2010PropOp42
 70
     1
102
RTVSPost2010Prop43
 90
        3
102
RTVSPost2010PropOp43
 70
     1
102
RTVSPost2010Prop44ColorIndex
 90
        5
102
RTVSPost2010Prop44ColorRGB
 90
      255
102
RTVSPost2010PropOp44
 70
     1
102
RTVSPost2010Prop45
280
     0
102
RTVSPost2010PropOp45
 70
     1
102
RTVSPost2010Prop46
 90
       50
102
RTVSPost2010PropOp46
 70
     1
102
RTVSPost2010Prop47
 90
       50
102
RTVSPost2010PropOp47
 70
     1
102
RTVSPost2010Prop48
 90
       50
102
RTVSPost2010PropOp48
 70
     1
102
RTVSPost2010Prop49
280
     0
102
RTVSPost2010PropOp49
 70
     1
102
RTVSPost2010Prop50
 90
       50
102
RTVSPost2010PropOp50
 70
     1
102
RTVSPost2010Prop51ColorIndex
 90
      256
102
RTVSPost2010Prop51ColorRGB
 90
-16777216
102
RTVSPost2010PropOp51
 70
     0
102
RTVSPost2010Prop52
140
1.0
102
RTVSPost2010PropOp52
 70
     0
102
RTVSPost2010Prop53
 90
        2
102
RTVSPost2010PropOp53
 70
     1
102
RTVSPost2010Prop54
  1
strokes_ogs.tif
102
RTVSPost2010PropOp54
 70
     1
102
RTVSPost2010Prop55
280
     0
102
RTVSPost2010PropOp55
 70
     1
102
RTVSPost2010Prop56
140
1.0
102
RTVSPost2010PropOp56
 70
     1
102
RTVSPost2010Prop57
140
1.0
102
RTVSPost2010PropOp57
 70
     1
  0
XRECORD
  5
162
102
{ACAD_REACTORS
330
161
102
}
330
161
100
AcDbXrecord
280
     1
102
RTVSPropertyOp0
 70
     1
102
RTVSPropertyOp1
 70
     1
102
RTVSPropertyOp2
 70
     1
102
RTVSPropertyOp3
 70
     1
102
RTVSPropertyOp4
 70
     1
102
RTVSPropertyOp5
 70
     1
102
RTVSPropertyOp6
 70
     1
102
RTVSPropertyOp7
 70
     1
102
RTVSPropertyOp8
 70
     1
102
RTVSPropertyOp9
 70
     1
102
RTVSPropertyOp10
 70
     1
102
RTVSPropertyOp11
 70
     1
102
RTVSPropertyOp12
 70
     1
102
RTVSPropertyOp13
 70
     1
102
RTVSPropertyOp14
 70
     1
102
RTVSPropertyOp15
 70
     1
102
RTVSPropertyOp16
 70
     1
102
RTVSPropertyOp17
 70
     1
102
RTVSPropertyOp18
 70
     1
102
RTVSPropertyOp19
 70
     1
102
RTVSPropertyOp20
 70
     1
102
RTVSPropertyOp21
 70
     1
102
RTVSPropertyOp22
 70
     1
102
RTVSPropertyOp23
 70
     1
102
RTVSPropertyOp24
 70
     1
102
RTVSPropertyOp25
 70
     1
102
RTVSPropertyOp26
 70
     1
102
RTVSPropertyOp27
 70
     1
102
RTVSPropertyOp28
 70
     1
102
RTVSPropertyOp29
 70
     1
102
RTVSPropertyOp30
 70
     1
102
RTVSPropertyOp31
 70
     1
102
RTVSPropertyOp32
 70
     1
102
RTVSPropertyOp33
 70
     1
102
RTVSPropertyOp34
 70
     1
102
RTVSPropertyOp35
 70
     1
102
RTVSPropertyOp36
 70
     1
102
RTVSPropertyOp37
 70
     1
102
RTVSPropertyOp38
 70
     1
102
RTVSPropertyOp39
 70
     1
102
RTVSPropertyOp40
 70
     1
102
RTVSPropertyOp41
 70
     1
102
RTVSPropertyOp42
 70
     1
102
RTVSPropertyOp43
 70
     1
102
RTVSPropertyOp44
 70
     1
102
RTVSPropertyOp45
 70
     1
102
RTVSPropertyOp46
 70
     1
102
RTVSPropertyOp47
 70
     1
102
RTVSPropertyOp48
 70
     1
102
RTVSPropertyOp49
 70
     1
102
RTVSPropertyOp50
 70
     1
102
RTVSPropertyOp51
 70
     0
102
RTVSPropertyOp52
 70
     0
102
RTVSPropertyOp53
 70
     1
102
RTVSPropertyOp54
 70
     1
102
RTVSPropertyOp55
 70
     1
102
RTVSPropertyOp56
 70
     1
102
RTVSPropertyOp57
 70
     1
102
RTVSPost2010Prop28
280
     0
102
RTVSPost2010PropOp28
 70
     1
102
RTVSPost2010Prop29
280
     1
102
RTVSPost2010PropOp29
 70
     1
102
RTVSPost2010Prop30
280
     1
102
RTVSPost2010PropOp30
 70
     1
102
RTVSPost2010Prop31
280
     0
102
RTVSPost2010PropOp31
 70
     1
102
RTVSPost2010Prop32
280
     0
102
RTVSPost2010PropOp32
 70
     1
102
RTVSPost2010Prop33
280
     0
102
RTVSPost2010PropOp33
 70
     1
102
RTVSPost2010Prop34
280
     0
102
RTVSPost2010PropOp34
 70
     1
102
RTVSPost2010Prop35
280
     0
102
RTVSPost2010PropOp35
 70
     1
102
RTVSPost2010Prop36
280
     0
102
RTVSPost2010PropOp36
 70
     1
102
RTVSPost2010Prop37
 90
       50
102
RTVSPost2010PropOp37
 70
     1
102
RTVSPost2010Prop38
140
0.0
102
RTVSPost2010PropOp38
 70
     1
102
RTVSPost2010Prop39
140
1.0
102
RTVSPost2010PropOp39
 70
     1
102
RTVSPost2010Prop40
 90
        0
102
RTVSPost2010PropOp40
 70
     1
102
RTVSPost2010Prop41ColorIndex
 90
       18
102
RTVSPost2010Prop41ColorRGB
 90
        0
102
RTVSPost2010PropOp41
 70
     1
102
RTVSPost2010Prop42
 90
       50
102
RTVSPost2010PropOp42
 70
     1
102
RTVSPost2010Prop43
 90
        3
102
RTVSPost2010PropOp43
 70
     1
102
RTVSPost2010Prop44ColorIndex
 90
        5
102
RTVSPost2010Prop44ColorRGB
 90
      255
102
RTVSPost2010PropOp44
 70
     1
102
RTVSPost2010Prop45
280
     0
102
RTVSPost2010PropOp45
 70
     1
102
RTVSPost2010Prop46
 90
       50
102
RTVSPost2010PropOp46
 70
     1
102
RTVSPost2010Prop47
 90
       50
102
RTVSPost2010PropOp47
 70
     1
102
RTVSPost2010Prop48
 90
       50
102
RTVSPost2010PropOp48
 70
     1
102
RTVSPost2010Prop49
280
     0
102
RTVSPost2010PropOp49
 70
     1
102
RTVSPost2010Prop50
 90
       50
102
RTVSPost2010PropOp50
 70
     1
102
RTVSPost2010Prop51ColorIndex
 90
      256
102
RTVSPost2010Prop51ColorRGB
 90
-16777216
102
RTVSPost2010PropOp51
 70
     0
102
RTVSPost2010Prop52
140
1.0
102
RTVSPost2010PropOp52
 70
     0
102
RTVSPost2010Prop53
 90
        2
102
RTVSPost2010PropOp53
 70
     1
102
RTVSPost2010Prop54
  1
strokes_ogs.tif
102
RTVSPost2010PropOp54
 70
     1
102
RTVSPost2010Prop55
280
     0
102
RTVSPost2010PropOp55
 70
     1
102
RTVSPost2010Prop56
140
1.0
102
RTVSPost2010PropOp56
 70
     1
102
RTVSPost2010Prop57
140
1.0
102
RTVSPost2010PropOp57
 70
     1
  0
XRECORD
  5
182
102
{ACAD_REACTORS
330
181
102
}
330
181
100
AcDbXrecord
280
     1
102
RTVSPropertyOp0
 70
     1
102
RTVSPropertyOp1
 70
     1
102
RTVSPropertyOp2
 70
     1
102
RTVSPropertyOp3
 70
     1
102
RTVSPropertyOp4
 70
     1
102
RTVSPropertyOp5
 70
     1
102
RTVSPropertyOp6
 70
     1
102
RTVSPropertyOp7
 70
     1
102
RTVSPropertyOp8
 70
     1
102
RTVSPropertyOp9
 70
     1
102
RTVSPropertyOp10
 70
     1
102
RTVSPropertyOp11
 70
     1
102
RTVSPropertyOp12
 70
     1
102
RTVSPropertyOp13
 70
     1
102
RTVSPropertyOp14
 70
     1
102
RTVSPropertyOp15
 70
     1
102
RTVSPropertyOp16
 70
     1
102
RTVSPropertyOp17
 70
     1
102
RTVSPropertyOp18
 70
     1
102
RTVSPropertyOp19
 70
     1
102
RTVSPropertyOp20
 70
     1
102
RTVSPropertyOp21
 70
     1
102
RTVSPropertyOp22
 70
     1
102
RTVSPropertyOp23
 70
     1
102
RTVSPropertyOp24
 70
     1
102
RTVSPropertyOp25
 70
     1
102
RTVSPropertyOp26
 70
     1
102
RTVSPropertyOp27
 70
     1
102
RTVSPropertyOp28
 70
     1
102
RTVSPropertyOp29
 70
     1
102
RTVSPropertyOp30
 70
     1
102
RTVSPropertyOp31
 70
     1
102
RTVSPropertyOp32
 70
     1
102
RTVSPropertyOp33
 70
     1
102
RTVSPropertyOp34
 70
     1
102
RTVSPropertyOp35
 70
     1
102
RTVSPropertyOp36
 70
     1
102
RTVSPropertyOp37
 70
     1
102
RTVSPropertyOp38
 70
     1
102
RTVSPropertyOp39
 70
     1
102
RTVSPropertyOp40
 70
     1
102
RTVSPropertyOp41
 70
     1
102
RTVSPropertyOp42
 70
     1
102
RTVSPropertyOp43
 70
     1
102
RTVSPropertyOp44
 70
     1
102
RTVSPropertyOp45
 70
     1
102
RTVSPropertyOp46
 70
     1
102
RTVSPropertyOp47
 70
     1
102
RTVSPropertyOp48
 70
     1
102
RTVSPropertyOp49
 70
     1
102
RTVSPropertyOp50
 70
     1
102
RTVSPropertyOp51
 70
     0
102
RTVSPropertyOp52
 70
     0
102
RTVSPropertyOp53
 70
     1
102
RTVSPropertyOp54
 70
     1
102
RTVSPropertyOp55
 70
     1
102
RTVSPropertyOp56
 70
     1
102
RTVSPropertyOp57
 70
     1
102
RTVSPost2010Prop28
280
     0
102
RTVSPost2010PropOp28
 70
     1
102
RTVSPost2010Prop29
280
     1
102
RTVSPost2010PropOp29
 70
     1
102
RTVSPost2010Prop30
280
     1
102
RTVSPost2010PropOp30
 70
     1
102
RTVSPost2010Prop31
280
     0
102
RTVSPost2010PropOp31
 70
     1
102
RTVSPost2010Prop32
280
     0
102
RTVSPost2010PropOp32
 70
     1
102
RTVSPost2010Prop33
280
     0
102
RTVSPost2010PropOp33
 70
     1
102
RTVSPost2010Prop34
280
     0
102
RTVSPost2010PropOp34
 70
     1
102
RTVSPost2010Prop35
280
     0
102
RTVSPost2010PropOp35
 70
     1
102
RTVSPost2010Prop36
280
     0
102
RTVSPost2010PropOp36
 70
     1
102
RTVSPost2010Prop37
 90
       50
102
RTVSPost2010PropOp37
 70
     1
102
RTVSPost2010Prop38
140
0.0
102
RTVSPost2010PropOp38
 70
     1
102
RTVSPost2010Prop39
140
1.0
102
RTVSPost2010PropOp39
 70
     1
102
RTVSPost2010Prop40
 90
        0
102
RTVSPost2010PropOp40
 70
     1
102
RTVSPost2010Prop41ColorIndex
 90
       18
102
RTVSPost2010Prop41ColorRGB
 90
        0
102
RTVSPost2010PropOp41
 70
     1
102
RTVSPost2010Prop42
 90
       50
102
RTVSPost2010PropOp42
 70
     1
102
RTVSPost2010Prop43
 90
        3
102
RTVSPost2010PropOp43
 70
     1
102
RTVSPost2010Prop44ColorIndex
 90
        5
102
RTVSPost2010Prop44ColorRGB
 90
      255
102
RTVSPost2010PropOp44
 70
     1
102
RTVSPost2010Prop45
280
     0
102
RTVSPost2010PropOp45
 70
     1
102
RTVSPost2010Prop46
 90
       50
102
RTVSPost2010PropOp46
 70
     1
102
RTVSPost2010Prop47
 90
       50
102
RTVSPost2010PropOp47
 70
     1
102
RTVSPost2010Prop48
 90
       50
102
RTVSPost2010PropOp48
 70
     1
102
RTVSPost2010Prop49
280
     0
102
RTVSPost2010PropOp49
 70
     1
102
RTVSPost2010Prop50
 90
       50
102
RTVSPost2010PropOp50
 70
     1
102
RTVSPost2010Prop51ColorIndex
 90
      256
102
RTVSPost2010Prop51ColorRGB
 90
-16777216
102
RTVSPost2010PropOp51
 70
     0
102
RTVSPost2010Prop52
140
1.0
102
RTVSPost2010PropOp52
 70
     0
102
RTVSPost2010Prop53
 90
        2
102
RTVSPost2010PropOp53
 70
     1
102
RTVSPost2010Prop54
  1
strokes_ogs.tif
102
RTVSPost2010PropOp54
 70
     1
102
RTVSPost2010Prop55
280
     0
102
RTVSPost2010PropOp55
 70
     1
102
RTVSPost2010Prop56
140
1.0
102
RTVSPost2010PropOp56
 70
     1
102
RTVSPost2010Prop57
140
1.0
102
RTVSPost2010PropOp57
 70
     1
  0
ENDSEC
  0
EOF
