  0
SECTION
  2
HEADER
  9
$ACADVER
  1
AC1021
  9
$ACADMAINTVER
 70
    25
  9
$DWGCODEPAGE
  3
ANSI_1252
  9
$LASTSAVEDBY
  1
noseda_d
  9
$INSBASE
 10
0.0
 20
0.0
 30
0.0
  9
$EXTMIN
 10
-184.0427797583403
 20
-137.3011771824764
 30
0.0
  9
$EXTMAX
 10
182.1715512208322
 20
111.897806181832
 30
0.0
  9
$LIMMIN
 10
0.0
 20
0.0
  9
$LIMMAX
 10
12.0
 20
9.0
  9
$ORTHOMODE
 70
     0
  9
$REGENMODE
 70
     1
  9
$FILLMODE
 70
     1
  9
$QTEXTMODE
 70
     0
  9
$MIRRTEXT
 70
     1
  9
$LTSCALE
 40
1.0
  9
$ATTMODE
 70
     1
  9
$TEXTSIZE
 40
0.2
  9
$TRACEWID
 40
0.05
  9
$TEXTSTYLE
  7
Standard
  9
$CLAYER
  8
0
  9
$CELTYPE
  6
ByLayer
  9
$CECOLOR
 62
   256
  9
$CELTSCALE
 40
1.0
  9
$DISPSILH
 70
     0
  9
$DIMSCALE
 40
1.0
  9
$DIMASZ
 40
0.18
  9
$DIMEXO
 40
0.0625
  9
$DIMDLI
 40
0.38
  9
$DIMRND
 40
0.0
  9
$DIMDLE
 40
0.0
  9
$DIMEXE
 40
0.18
  9
$DIMTP
 40
0.0
  9
$DIMTM
 40
0.0
  9
$DIMTXT
 40
0.18
  9
$DIMCEN
 40
0.09
  9
$DIMTSZ
 40
0.0
  9
$DIMTOL
 70
     0
  9
$DIMLIM
 70
     0
  9
$DIMTIH
 70
     1
  9
$DIMTOH
 70
     1
  9
$DIMSE1
 70
     0
  9
$DIMSE2
 70
     0
  9
$DIMTAD
 70
     0
  9
$DIMZIN
 70
     0
  9
$DIMBLK
  1

  9
$DIMASO
 70
     1
  9
$DIMSHO
 70
     1
  9
$DIMPOST
  1

  9
$DIMAPOST
  1

  9
$DIMALT
 70
     0
  9
$DIMALTD
 70
     2
  9
$DIMALTF
 40
25.4
  9
$DIMLFAC
 40
1.0
  9
$DIMTOFL
 70
     0
  9
$DIMTVP
 40
0.0
  9
$DIMTIX
 70
     0
  9
$DIMSOXD
 70
     0
  9
$DIMSAH
 70
     0
  9
$DIMBLK1
  1

  9
$DIMBLK2
  1

  9
$DIMSTYLE
  2
STANDARD_ACAD
  9
$DIMCLRD
 70
     0
  9
$DIMCLRE
 70
     0
  9
$DIMCLRT
 70
     0
  9
$DIMTFAC
 40
1.0
  9
$DIMGAP
 40
0.09
  9
$DIMJUST
 70
     0
  9
$DIMSD1
 70
     0
  9
$DIMSD2
 70
     0
  9
$DIMTOLJ
 70
     1
  9
$DIMTZIN
 70
     0
  9
$DIMALTZ
 70
     0
  9
$DIMALTTZ
 70
     0
  9
$DIMUPT
 70
     0
  9
$DIMDEC
 70
     4
  9
$DIMTDEC
 70
     4
  9
$DIMALTU
 70
     2
  9
$DIMALTTD
 70
     2
  9
$DIMTXSTY
  7
Standard
  9
$DIMAUNIT
 70
     0
  9
$DIMADEC
 70
     0
  9
$DIMALTRND
 40
0.0
  9
$DIMAZIN
 70
     0
  9
$DIMDSEP
 70
    46
  9
$DIMATFIT
 70
     3
  9
$DIMFRAC
 70
     0
  9
$DIMLDRBLK
  1

  9
$DIMLUNIT
 70
     2
  9
$DIMLWD
 70
    -2
  9
$DIMLWE
 70
    -2
  9
$DIMTMOVE
 70
     2
  9
$DIMFXL
 40
1.0
  9
$DIMFXLON
 70
     0
  9
$DIMJOGANG
 40
0.7853981633974483
  9
$DIMTFILL
 70
     0
  9
$DIMTFILLCLR
 70
     0
  9
$DIMARCSYM
 70
     0
  9
$DIMLTYPE
  6

  9
$DIMLTEX1
  6

  9
$DIMLTEX2
  6

  9
$LUNITS
 70
     2
  9
$LUPREC
 70
     3
  9
$SKETCHINC
 40
0.1
  9
$FILLETRAD
 40
0.0
  9
$AUNITS
 70
     0
  9
$AUPREC
 70
     0
  9
$MENU
  1
.
  9
$ELEVATION
 40
0.0
  9
$PELEVATION
 40
0.0
  9
$THICKNESS
 40
0.0
  9
$LIMCHECK
 70
     0
  9
$CHAMFERA
 40
0.0
  9
$CHAMFERB
 40
0.0
  9
$CHAMFERC
 40
0.0
  9
$CHAMFERD
 40
0.0
  9
$SKPOLY
 70
     0
  9
$TDCREATE
 40
2461123.458234503
  9
$TDUCREATE
 40
2461123.416567836
  9
$TDUPDATE
 40
2461123.458247419
  9
$TDUUPDATE
 40
2461123.416580753
  9
$TDINDWG
 40
0.0000000116
  9
$TDUSRTIMER
 40
0.0000000116
  9
$USRTIMER
 70
     1
  9
$ANGBASE
 50
0.0
  9
$ANGDIR
 70
     0
  9
$PDMODE
 70
     0
  9
$PDSIZE
 40
0.0
  9
$PLINEWID
 40
0.0
  9
$SPLFRAME
 70
     0
  9
$SPLINETYPE
 70
     6
  9
$SPLINESEGS
 70
     8
  9
$HANDSEED
  5
135
  9
$SURFTAB1
 70
     6
  9
$SURFTAB2
 70
     6
  9
$SURFTYPE
 70
     6
  9
$SURFU
 70
     6
  9
$SURFV
 70
     6
  9
$UCSBASE
  2

  9
$UCSNAME
  2

  9
$UCSORG
 10
0.0
 20
0.0
 30
0.0
  9
$UCSXDIR
 10
1.0
 20
0.0
 30
0.0
  9
$UCSYDIR
 10
0.0
 20
1.0
 30
0.0
  9
$UCSORTHOREF
  2

  9
$UCSORTHOVIEW
 70
     0
  9
$UCSORGTOP
 10
0.0
 20
0.0
 30
0.0
  9
$UCSORGBOTTOM
 10
0.0
 20
0.0
 30
0.0
  9
$UCSORGLEFT
 10
0.0
 20
0.0
 30
0.0
  9
$UCSORGRIGHT
 10
0.0
 20
0.0
 30
0.0
  9
$UCSORGFRONT
 10
0.0
 20
0.0
 30
0.0
  9
$UCSORGBACK
 10
0.0
 20
0.0
 30
0.0
  9
$PUCSBASE
  2

  9
$PUCSNAME
  2

  9
$PUCSORG
 10
0.0
 20
0.0
 30
0.0
  9
$PUCSXDIR
 10
1.0
 20
0.0
 30
0.0
  9
$PUCSYDIR
 10
0.0
 20
1.0
 30
0.0
  9
$PUCSORTHOREF
  2

  9
$PUCSORTHOVIEW
 70
     0
  9
$PUCSORGTOP
 10
0.0
 20
0.0
 30
0.0
  9
$PUCSORGBOTTOM
 10
0.0
 20
0.0
 30
0.0
  9
$PUCSORGLEFT
 10
0.0
 20
0.0
 30
0.0
  9
$PUCSORGRIGHT
 10
0.0
 20
0.0
 30
0.0
  9
$PUCSORGFRONT
 10
0.0
 20
0.0
 30
0.0
  9
$PUCSORGBACK
 10
0.0
 20
0.0
 30
0.0
  9
$USERI1
 70
     0
  9
$USERI2
 70
     0
  9
$USERI3
 70
     0
  9
$USERI4
 70
     0
  9
$USERI5
 70
     0
  9
$USERR1
 40
0.0
  9
$USERR2
 40
0.0
  9
$USERR3
 40
0.0
  9
$USERR4
 40
0.0
  9
$USERR5
 40
0.0
  9
$WORLDVIEW
 70
     1
  9
$SHADEDGE
 70
     3
  9
$SHADEDIF
 70
    70
  9
$TILEMODE
 70
     1
  9
$MAXACTVP
 70
    64
  9
$PINSBASE
 10
0.0
 20
0.0
 30
0.0
  9
$PLIMCHECK
 70
     0
  9
$PEXTMIN
 10
1.000000000000000E+20
 20
1.000000000000000E+20
 30
1.000000000000000E+20
  9
$PEXTMAX
 10
-1.000000000000000E+20
 20
-1.000000000000000E+20
 30
-1.000000000000000E+20
  9
$PLIMMIN
 10
0.0
 20
0.0
  9
$PLIMMAX
 10
12.0
 20
9.0
  9
$UNITMODE
 70
     0
  9
$VISRETAIN
 70
     1
  9
$PLINEGEN
 70
     0
  9
$PSLTSCALE
 70
     1
  9
$TREEDEPTH
 70
  3020
  9
$CMLSTYLE
  2
Standard
  9
$CMLJUST
 70
     0
  9
$CMLSCALE
 40
1.0
  9
$PROXYGRAPHICS
 70
     1
  9
$MEASUREMENT
 70
     1
  9
$CELWEIGHT
370
    -1
  9
$ENDCAPS
280
     0
  9
$JOINSTYLE
280
     0
  9
$LWDISPLAY
290
     0
  9
$INSUNITS
 70
     4
  9
$HYPERLINKBASE
  1

  9
$STYLESHEET
  1

  9
$XEDIT
290
     1
  9
$CEPSNTYPE
380
     0
  9
$PSTYLEMODE
290
     1
  9
$FINGERPRINTGUID
  2
{82d57987-9908-ce49-9964-79fb07a4904a}
  9
$VERSIONGUID
  2
{FAEB1C32-E019-11D5-929B-00C0DF256EC4}
  9
$EXTNAMES
290
     1
  9
$PSVPSCALE
 40
0.0
  9
$OLESTARTUP
290
     0
  9
$SORTENTS
280
   127
  9
$INDEXCTL
280
     0
  9
$HIDETEXT
280
     1
  9
$XCLIPFRAME
290
     0
  9
$HALOGAP
280
     0
  9
$OBSCOLOR
 70
   257
  9
$OBSLTYPE
280
     0
  9
$INTERSECTIONDISPLAY
280
     0
  9
$INTERSECTIONCOLOR
 70
   257
  9
$DIMASSOC
280
     2
  9
$PROJECTNAME
  1

  9
$CAMERADISPLAY
290
     0
  9
$LENSLENGTH
 40
50.0
  9
$CAMERAHEIGHT
 40
0.0
  9
$STEPSPERSEC
 40
2.0
  9
$STEPSIZE
 40
6.0
  9
$3DDWFPREC
 40
2.0
  9
$PSOLWIDTH
 40
0.25
  9
$PSOLHEIGHT
 40
4.0
  9
$LOFTANG1
 40
1.570796326794897
  9
$LOFTANG2
 40
1.570796326794897
  9
$LOFTMAG1
 40
0.0
  9
$LOFTMAG2
 40
0.0
  9
$LOFTPARAM
 70
     7
  9
$LOFTNORMALS
280
     1
  9
$LATITUDE
 40
37.795
  9
$LONGITUDE
 40
-122.394
  9
$NORTHDIRECTION
 40
0.0
  9
$TIMEZONE
 70
 -8000
  9
$LIGHTGLYPHDISPLAY
280
     1
  9
$TILEMODELIGHTSYNCH
280
     1
  9
$CMATERIAL
347
44
  9
$SOLIDHIST
280
     0
  9
$SHOWHIST
280
     1
  9
$DWFFRAME
280
     2
  9
$DGNFRAME
280
     2
  9
$REALWORLDSCALE
290
     1
  9
$INTERFERECOLOR
 62
   256
  9
$CSHADOW
280
     0
  9
$SHADOWPLANELOCATION
 40
0.0
  0
ENDSEC
  0
SECTION
  2
CLASSES
  0
CLASS
  1
ACDBDICTIONARYWDFLT
  2
AcDbDictionaryWithDefault
  3
ObjectDBX Classes
 90
        0
 91
        3
280
     0
281
     0
  0
CLASS
  1
VISUALSTYLE
  2
AcDbVisualStyle
  3
ObjectDBX Classes
 90
     4095
 91
        3
280
     0
281
     0
  0
CLASS
  1
MATERIAL
  2
AcDbMaterial
  3
ObjectDBX Classes
 90
     1153
 91
        3
280
     0
281
     0
  0
CLASS
  1
SCALE
  2
AcDbScale
  3
ObjectDBX Classes
 90
     1153
 91
        3
280
     0
281
     0
  0
CLASS
  1
TABLESTYLE
  2
AcDbTableStyle
  3
ObjectDBX Classes
 90
     4095
 91
        3
280
     0
281
     0
  0
CLASS
  1
MLEADERSTYLE
  2
AcDbMLeaderStyle
  3
ACDB_MLEADERSTYLE_CLASS
 90
     4095
 91
        3
280
     0
281
     0
  0
CLASS
  1
SUN
  2
AcDbSun
  3
SCENEOE
 90
     1153
 91
        3
280
     0
281
     0
  0
CLASS
  1
DICTIONARYVAR
  2
AcDbDictionaryVar
  3
ObjectDBX Classes
 90
        0
 91
        3
280
     0
281
     0
  0
CLASS
  1
CELLSTYLEMAP
  2
AcDbCellStyleMap
  3
ObjectDBX Classes
 90
     1152
 91
        3
280
     0
281
     0
  0
ENDSEC
  0
SECTION
  2
TABLES
  0
TABLE
  2
VPORT
  5
8
330
0
100
AcDbSymbolTable
 70
     1
  0
VPORT
  5
29
330
8
100
AcDbSymbolTableRecord
100
AcDbViewportTableRecord
  2
*Active
 70
     0
 10
0.0
 20
0.0
 11
1.0
 21
1.0
 12
10.42990654205607
 22
4.5
 13
0.0
 23
0.0
 14
0.5
 24
0.5
 15
0.5
 25
0.5
 16
0.0
 26
0.0
 36
1.0
 17
0.0
 27
0.0
 37
0.0
 40
9.0
 41
1.972972972850329
 42
50.0
 43
0.0
 44
0.0
 50
0.0
 51
0.0
 71
     0
 72
   100
 73
     1
 74
     3
 75
     0
 76
     0
 77
     0
 78
     0
281
     0
 65
     1
110
0.0
120
0.0
130
0.0
111
1.0
121
0.0
131
0.0
112
0.0
122
1.0
132
0.0
 79
     0
146
0.0
348
2F
 60
     3
 61
     5
292
     1
282
     1
141
0.0
142
0.0
 63
   250
361
5D
  0
ENDTAB
  0
TABLE
  2
LTYPE
  5
5
330
0
100
AcDbSymbolTable
 70
     1
  0
LTYPE
  5
14
330
5
100
AcDbSymbolTableRecord
100
AcDbLinetypeTableRecord
  2
ByBlock
 70
     0
  3

 72
    65
 73
     0
 40
0.0
  0
LTYPE
  5
15
330
5
100
AcDbSymbolTableRecord
100
AcDbLinetypeTableRecord
  2
ByLayer
 70
     0
  3

 72
    65
 73
     0
 40
0.0
  0
LTYPE
  5
16
330
5
100
AcDbSymbolTableRecord
100
AcDbLinetypeTableRecord
  2
Continuous
 70
     0
  3
Solid line
 72
    65
 73
     0
 40
0.0
  0
ENDTAB
  0
TABLE
  2
LAYER
  5
2
330
0
100
AcDbSymbolTable
 70
     2
  0
LAYER
  5
10
330
2
100
AcDbSymbolTableRecord
100
AcDbLayerTableRecord
  2
0
 70
     0
 62
     7
  6
Continuous
370
    -3
390
F
347
46
  0
LAYER
  5
5F
330
2
100
AcDbSymbolTableRecord
100
AcDbLayerTableRecord
  2
LINEE VISIBILI 2D
 70
     0
 62
    18
420
        0
  6
Continuous
370
    -3
390
F
347
46
  0
ENDTAB
  0
TABLE
  2
STYLE
  5
3
330
0
100
AcDbSymbolTable
 70
     1
  0
STYLE
  5
11
330
3
100
AcDbSymbolTableRecord
100
AcDbTextStyleTableRecord
  2
Standard
 70
     0
 40
0.0
 41
1.0
 50
0.0
 71
     0
 42
0.2
  3
txt
  4

  0
ENDTAB
  0
TABLE
  2
VIEW
  5
6
330
0
100
AcDbSymbolTable
 70
     0
  0
ENDTAB
  0
TABLE
  2
UCS
  5
7
330
0
100
AcDbSymbolTable
 70
     0
  0
ENDTAB
  0
TABLE
  2
APPID
  5
9
330
0
100
AcDbSymbolTable
 70
     3
  0
APPID
  5
12
330
9
100
AcDbSymbolTableRecord
100
AcDbRegAppTableRecord
  2
ACAD
 70
     0
  0
APPID
  5
5E
330
9
100
AcDbSymbolTableRecord
100
AcDbRegAppTableRecord
  2
Rhino
 70
     0
  0
APPID
  5
12D
330
9
100
AcDbSymbolTableRecord
100
AcDbRegAppTableRecord
  2
ACAD_MLEADERVER
 70
     0
  0
ENDTAB
  0
TABLE
  2
DIMSTYLE
  5
A
330
0
100
AcDbSymbolTable
 70
     1
100
AcDbDimStyleTable
  0
DIMSTYLE
105
27
330
A
100
AcDbSymbolTableRecord
100
AcDbDimStyleTableRecord
  2
STANDARD_ACAD
 70
     0
178
     0
340
11
  0
ENDTAB
  0
TABLE
  2
BLOCK_RECORD
  5
1
330
0
100
AcDbSymbolTable
 70
     1
  0
BLOCK_RECORD
  5
1F
330
1
100
AcDbSymbolTableRecord
100
AcDbBlockTableRecord
  2
*Model_Space
340
22
 70
     0
280
     1
281
     0
  0
BLOCK_RECORD
  5
1B
330
1
100
AcDbSymbolTableRecord
100
AcDbBlockTableRecord
  2
*Paper_Space
340
1E
 70
     0
280
     1
281
     0
  0
BLOCK_RECORD
  5
23
330
1
100
AcDbSymbolTableRecord
100
AcDbBlockTableRecord
  2
*Paper_Space0
340
26
 70
     0
280
     1
281
     0
  0
ENDTAB
  0
ENDSEC
  0
SECTION
  2
BLOCKS
  0
BLOCK
  5
20
330
1F
100
AcDbEntity
  8
0
100
AcDbBlockBegin
  2
*Model_Space
 70
     0
 10
0.0
 20
0.0
 30
0.0
  3
*Model_Space
  1

  0
ENDBLK
  5
21
330
1F
100
AcDbEntity
  8
0
100
AcDbBlockEnd
  0
BLOCK
  5
1C
330
1B
100
AcDbEntity
 67
     1
  8
0
100
AcDbBlockBegin
  2
*Paper_Space
 70
     0
 10
0.0
 20
0.0
 30
0.0
  3
*Paper_Space
  1

  0
ENDBLK
  5
1D
330
1B
100
AcDbEntity
 67
     1
  8
0
100
AcDbBlockEnd
  0
BLOCK
  5
24
330
23
100
AcDbEntity
  8
0
100
AcDbBlockBegin
  2
*Paper_Space0
 70
     0
 10
0.0
 20
0.0
 30
0.0
  3
*Paper_Space0
  1

  0
ENDBLK
  5
25
330
23
100
AcDbEntity
  8
0
100
AcDbBlockEnd
  0
ENDSEC
  0
SECTION
  2
ENTITIES
  0
SPLINE
  5
60
330
1F
100
AcDbEntity
  8
LINEE VISIBILI 2D
100
AcDbSpline
210
0.0
220
0.0
230
1.0
 70
    12
 71
     2
 72
     6
 73
     3
 74
     0
 42
0.0000000001
 43
0.0000000001
 40
0.0
 40
0.0
 40
0.0
 40
1.273285959749938
 40
1.273285959749938
 40
1.273285959749938
 10
-144.3221189912945
 20
-104.9458230197762
 30
0.0
 41
1.0
 10
-144.2809852549303
 20
-104.2972462993498
 30
0.0
 41
0.9697260216616429
 10
-143.937587767927
 20
-103.7455018725848
 30
0.0
 41
1.0
  0
SPLINE
  5
61
330
1F
100
AcDbEntity
  8
LINEE VISIBILI 2D
100
AcDbSpline
210
0.0
220
0.0
230
1.0
 70
    12
 71
     3
 72
    12
 73
     8
 74
     0
 42
0.0000000001
 43
0.0000000001
 40
-0.6409980185282246
 40
-0.6409980185282246
 40
-0.6409980185282246
 40
-0.6409980185282246
 40
-0.6247875780126457
 40
-0.6247875780126457
 40
-0.5627835416719471
 40
-0.5627835416719471
 40
-0.5
 40
-0.5
 40
-0.5
 40
-0.5
 10
-108.4263572742187
 20
-83.96864762969359
 30
0.0
 41
283.7807158842645
 10
-108.4280355232361
 20
-83.57907118282034
 30
0.0
 41
282.9118641385495
 10
-108.3297987768333
 20
-83.18243461661179
 30
0.0
 41
282.0327154263649
 10
-107.3395552854991
 20
-81.2122223729133
 30
0.0
 41
277.745469158264
 10
-105.0679929485125
 20
-79.74990981909679
 30
0.0
 41
274.6467614023986
 10
-99.02433766344781
 20
-77.37375301730577
 30
0.0
 41
269.7564074545586
 10
-95.20990733839469
 20
-76.46813014192072
 30
0.0
 41
267.9380781558975
 10
-91.08751776222964
 20
-75.91457530093417
 30
0.0
 41
266.8386602950287
  0
SPLINE
  5
62
330
1F
100
AcDbEntity
  8
LINEE VISIBILI 2D
100
AcDbSpline
210
0.0
220
0.0
230
1.0
 70
    12
 71
     5
 72
    12
 73
     6
 74
     0
 42
0.0000000001
 43
0.0000000001
 40
1240.734281822031
 40
1240.734281822031
 40
1240.734281822031
 40
1240.734281822031
 40
1240.734281822031
 40
1240.734281822031
 40
1329.75861271856
 40
1329.75861271856
 40
1329.75861271856
 40
1329.75861271856
 40
1329.75861271856
 40
1329.75861271856
 10
-140.5385632555717
 20
-100.6661836910302
 30
0.0
 41
326.7969298081842
 10
-141.2998183906807
 20
-101.1529077708083
 30
0.0
 41
328.2473068527986
 10
-141.9704353086582
 20
-101.6325245795909
 30
0.0
 41
329.6891538323902
 10
-142.5458831685168
 20
-102.1020142784585
 30
0.0
 41
331.1128776314673
 10
-143.0233047111759
 20
-102.5589029937444
 30
0.0
 41
332.5102446194523
 10
-143.4022463412273
 20
-103.0015850181065
 30
0.0
 41
333.875457443797
  0
SPLINE
  5
63
330
1F
100
AcDbEntity
  8
LINEE VISIBILI 2D
100
AcDbSpline
210
0.0
220
0.0
230
1.0
 70
    12
 71
     5
 72
    13
 73
     7
 74
     0
 42
0.0000000001
 43
0.0000000001
 40
773.9307959646875
 40
773.9307959646875
 40
773.9307959646875
 40
773.9307959646875
 40
773.9307959646875
 40
773.9307959646875
 40
886.505741812372
 40
990.9122064355093
 40
990.9122064355093
 40
990.9122064355093
 40
990.9122064355093
 40
990.9122064355093
 40
990.9122064355093
 10
-105.7051633327828
 20
-91.27821665731749
 30
0.0
 41
301.1328006426962
 10
-107.4625904507461
 20
-91.3143083090702
 30
0.0
 41
301.2237444160834
 10
-110.9538364193155
 20
-91.50959100352756
 30
0.0
 41
301.716772161202
 10
-114.6171923724397
 20
-91.95319874192597
 30
0.0
 41
302.8427626216361
 10
-118.3773690950504
 20
-92.64149580183302
 30
0.0
 41
304.6065706965298
 10
-122.0886485538449
 20
-93.52839189733267
 30
0.0
 41
306.9098242306122
 10
-123.8376739921981
 20
-93.9924426311675
 30
0.0
 41
308.1288913596663
  0
SPLINE
  5
64
330
1F
100
AcDbEntity
  8
LINEE VISIBILI 2D
100
AcDbSpline
210
0.0
220
0.0
230
1.0
 70
    12
 71
     2
 72
     6
 73
     3
 74
     0
 42
0.0000000001
 43
0.0000000001
 40
0.0
 40
0.0
 40
0.0
 40
0.9178114046844816
 40
0.9178114046844816
 40
0.9178114046844816
 10
-143.937587767927
 20
-103.7455018725848
 30
0.0
 41
1.0
 10
-143.7042420866543
 20
-103.3488422821268
 30
0.0
 41
0.9957690290035459
 10
-143.4022463412272
 20
-103.0015850181065
 30
0.0
 41
1.0
  0
SPLINE
  5
65
330
1F
100
AcDbEntity
  8
LINEE VISIBILI 2D
100
AcDbSpline
210
0.0
220
0.0
230
1.0
 70
    12
 71
     3
 72
    10
 73
     6
 74
     0
 42
0.0000000001
 43
0.0000000001
 40
-0.3576732949793554
 40
-0.3576732949793554
 40
-0.3576732949793554
 40
-0.3576732949793554
 40
-0.2980023758910813
 40
-0.2980023758910813
 40
0.0
 40
0.0
 40
0.0
 40
0.0
 10
-127.2958361695969
 20
-116.1188042416146
 30
0.0
 41
343.6460121521934
 10
-127.3235240255397
 20
-116.1076919659728
 30
0.0
 41
343.5984898280595
 10
-127.34325717349
 20
-116.0967258105765
 30
0.0
 41
343.5459659541695
 10
-127.4067213519579
 20
-116.0353728364429
 30
0.0
 41
343.2182994794052
 10
-127.1966232219357
 20
-116.0073554840116
 30
0.0
 41
342.8987369551686
 10
-126.8833431846284
 20
-116.0522098898861
 30
0.0
 41
342.9379780732276
  0
SPLINE
  5
66
330
1F
100
AcDbEntity
  8
LINEE VISIBILI 2D
100
AcDbSpline
210
0.0
220
0.0
230
1.0
 70
    12
 71
     3
 72
    10
 73
     6
 74
     0
 42
0.0000000001
 43
0.0000000001
 40
-1.0
 40
-1.0
 40
-1.0
 40
-1.0
 40
-0.7996368441467756
 40
-0.7996368441467756
 40
-0.6743752160783475
 40
-0.6743752160783475
 40
-0.6743752160783475
 40
-0.6743752160783475
 10
-126.8833431846284
 20
-116.0522098898861
 30
0.0
 41
342.9379780732276
 10
-126.6866208634392
 20
-116.0803759451351
 30
0.0
 41
342.962623889059
 10
-126.5470201230932
 20
-116.1235491955451
 30
0.0
 41
343.1171307595275
 10
-126.4855431140087
 20
-116.1807551393992
 30
0.0
 41
343.41585991107
 10
-126.5090344356611
 20
-116.1981581477184
 30
0.0
 41
343.5395926729113
 10
-126.5672195987196
 20
-116.2076773904488
 30
0.0
 41
343.641817273876
  0
SPLINE
  5
67
330
1F
100
AcDbEntity
  8
LINEE VISIBILI 2D
100
AcDbSpline
210
0.0
220
0.0
230
1.0
 70
     8
 71
     3
 72
    13
 73
     9
 74
     0
 42
0.0000000001
 43
0.0000000001
 40
0.0
 40
0.0
 40
0.0
 40
0.0
 40
2.432482068699668
 40
4.57460761516872
 40
8.145109014822935
 40
10.85062506161809
 40
11.99081076636315
 40
13.01206594898189
 40
13.01206594898189
 40
13.01206594898189
 40
13.01206594898189
 10
-113.8710858825278
 20
-122.555905831907
 30
0.0
 10
-114.6658727344826
 20
-122.3964316681999
 30
0.0
 10
-116.1579815084208
 20
-122.0779449654878
 30
0.0
 10
-118.7810868099558
 20
-121.3769917347848
 30
0.0
 10
-121.4337150882571
 20
-120.4424144463196
 30
0.0
 10
-123.5799429310875
 20
-119.1772573415537
 30
0.0
 10
-124.7189274271202
 20
-118.0031366062346
 30
0.0
 10
-125.096699872146
 20
-117.3867155897927
 30
0.0
 10
-125.2335841061621
 20
-117.0738708254731
 30
0.0
  0
SPLINE
  5
68
330
1F
100
AcDbEntity
  8
LINEE VISIBILI 2D
100
AcDbSpline
210
0.0
220
0.0
230
1.0
 70
    24
 71
     3
 72
     9
 73
     5
 74
     0
 42
0.0000000001
 43
0.0000000001
 40
0.0
 40
0.0
 40
0.0
 40
0.0
 40
0.0096393516074613
 40
17.3889606653612
 40
17.3889606653612
 40
17.3889606653612
 40
17.3889606653612
 10
107.1415660377232
 20
111.8978061818084
 30
0.0
 10
107.1573634158173
 20
111.8978061818084
 30
0.0
 10
101.361783874148
 20
111.897806181809
 30
0.0
 10
95.5647084955948
 20
111.8978061818131
 30
0.0
 10
89.77188407557708
 20
111.8978061818154
 30
0.0
  0
SPLINE
  5
69
330
1F
100
AcDbEntity
  8
LINEE VISIBILI 2D
100
AcDbSpline
210
0.0
220
0.0
230
1.0
 70
     8
 71
     3
 72
    13
 73
     9
 74
     0
 42
0.0000000001
 43
0.0000000001
 40
0.0
 40
0.0
 40
0.0
 40
0.0
 40
3.791851165502812
 40
8.235660507518766
 40
13.41785011349541
 40
19.04556737740132
 40
30.61036597942568
 40
43.08538945122656
 40
43.08538945122656
 40
43.08538945122656
 40
43.08538945122656
 10
-84.49967608024849
 20
-112.2582274614228
 30
0.0
 10
-85.55105994603599
 20
-112.9616115508526
 30
0.0
 10
-87.99464575926595
 20
-114.2318724882211
 30
0.0
 10
-92.22738111144145
 20
-115.7051992436076
 30
0.0
 10
-97.1825752520092
 20
-116.8627714232499
 30
0.0
 10
-104.5681097377424
 20
-117.9540626892396
 30
0.0
 10
-114.4757585923073
 20
-118.2661080476219
 30
0.0
 10
-122.466227363184
 20
-117.49465222308
 30
0.0
 10
-126.5781896792859
 20
-116.8782920574149
 30
0.0
  0
SPLINE
  5
6A
330
1F
100
AcDbEntity
  8
LINEE VISIBILI 2D
100
AcDbSpline
210
0.0
220
0.0
230
1.0
 70
     8
 71
     3
 72
    19
 73
    15
 74
     0
 42
0.0000000001
 43
0.0000000001
 40
0.0
 40
0.0
 40
0.0
 40
0.0
 40
5.112396643584447
 40
10.78352025872686
 40
14.39357162503075
 40
19.36763614114044
 40
25.21899437023249
 40
28.21712990824865
 40
35.41907373657087
 40
39.92115972908124
 40
43.50056422734385
 40
46.49180026013764
 40
48.01262004124015
 40
49.95690870176374
 40
49.95690870176374
 40
49.95690870176374
 40
49.95690870176374
 10
-66.23843619099625
 20
-103.9253882410177
 30
0.0
 10
-67.94111245629733
 20
-103.9053135122607
 30
0.0
 10
-71.53597487839409
 20
-103.6098416351762
 30
0.0
 10
-76.21752238553302
 20
-102.5264355142586
 30
0.0
 10
-80.77904157708963
 20
-101.1976069098164
 30
0.0
 10
-85.3833671328174
 20
-99.8029064380033
 30
0.0
 10
-89.81420448995391
 20
-98.52709725972178
 30
0.0
 10
-94.92602699380802
 20
-96.9643483653798
 30
0.0
 10
-99.5579779690533
 20
-95.31610658836655
 30
0.0
 10
-104.0299762643201
 20
-92.84641167824657
 30
0.0
 10
-106.8132512793304
 20
-90.35727752465877
 30
0.0
 10
-108.0675791355649
 20
-87.90986953107722
 30
0.0
 10
-108.4038497871366
 20
-85.76972115155826
 30
0.0
 10
-108.4312205060527
 20
-84.61958348357729
 30
0.0
 10
-108.4256954971829
 20
-83.96866633748238
 30
0.0
  0
SPLINE
  5
6B
330
1F
100
AcDbEntity
  8
LINEE VISIBILI 2D
100
AcDbSpline
210
0.0
220
0.0
230
1.0
 70
     8
 71
     3
 72
    12
 73
     8
 74
     0
 42
0.0000000001
 43
0.0000000001
 40
0.0
 40
0.0
 40
0.0
 40
0.0
 40
0.3371705014585666
 40
0.6942145057235213
 40
1.426707265255974
 40
2.257262824865346
 40
3.230652407472514
 40
3.230652407472514
 40
3.230652407472514
 40
3.230652407472514
 10
-124.8210889274222
 20
81.06491942784993
 30
0.0
 10
-124.8173514717012
 20
81.177398769484
 30
0.0
 10
-124.7867321164504
 20
81.40739306613858
 30
0.0
 10
-124.6328549871514
 20
81.86071495269209
 30
0.0
 10
-124.2586381297775
 20
82.39099351531189
 30
0.0
 10
-123.5838776392164
 20
82.91188500970708
 30
0.0
 10
-123.0368498429107
 20
83.16764602135032
 30
0.0
 10
-122.7341277513586
 20
83.28423417310273
 30
0.0
  0
SPLINE
  5
6C
330
1F
100
AcDbEntity
  8
LINEE VISIBILI 2D
100
AcDbSpline
210
0.0
220
0.0
230
1.0
 70
     8
 71
     3
 72
    16
 73
    12
 74
     0
 42
0.0000000001
 43
0.0000000001
 40
0.0
 40
0.0
 40
0.0
 40
0.0
 40
1.879516092229673
 40
3.337990556037739
 40
6.036724512792666
 40
8.941147541908135
 40
12.32848909516675
 40
16.70836670226583
 40
21.71101744509263
 40
26.99917388323738
 40
32.16356441614072
 40
32.16356441614072
 40
32.16356441614072
 40
32.16356441614072
 10
-42.10505664954235
 20
-88.93668364706872
 30
0.0
 10
-42.0514704962178
 20
-89.5601966147027
 30
0.0
 10
-41.97614291655464
 20
-90.67286578005564
 30
0.0
 10
-42.05762068660158
 20
-92.68519594045839
 30
0.0
 10
-42.7151972933151
 20
-94.9855714439235
 30
0.0
 10
-44.54838119343503
 20
-97.41183440068028
 30
0.0
 10
-47.41177829354024
 20
-99.55741503855182
 30
0.0
 10
-51.26835964833219
 20
-101.3968984497383
 30
0.0
 10
-55.95158285894195
 20
-102.8373418475108
 30
0.0
 10
-61.03171435253671
 20
-103.7480813648605
 30
0.0
 10
-64.51682068439436
 20
-103.9460863333593
 30
0.0
 10
-66.23843619099625
 20
-103.9253882410177
 30
0.0
  0
SPLINE
  5
6D
330
1F
100
AcDbEntity
  8
LINEE VISIBILI 2D
100
AcDbSpline
210
0.0
220
0.0
230
1.0
 70
    24
 71
     2
 72
     6
 73
     3
 74
     0
 42
0.0000000001
 43
0.0000000001
 40
0.0
 40
0.0
 40
0.0
 40
21.85811102547666
 40
21.85811102547666
 40
21.85811102547666
 10
61.99387803048569
 20
111.8978061818312
 30
0.0
 10
51.06482251774742
 20
111.8978061818312
 30
0.0
 10
40.13576700500903
 20
111.8978061818312
 30
0.0
  0
SPLINE
  5
6E
330
1F
100
AcDbEntity
  8
LINEE VISIBILI 2D
100
AcDbSpline
210
0.0
220
0.0
230
1.0
 70
     8
 71
     3
 72
    20
 73
    16
 74
     0
 42
0.0000000001
 43
0.0000000001
 40
0.0
 40
0.0
 40
0.0
 40
0.0
 40
0.9556702688773865
 40
1.105631532558146
 40
1.54148091564039
 40
2.469577175790505
 40
4.150191676660101
 40
4.941294311837558
 40
5.836934844100845
 40
7.920544501820295
 40
10.82173108600875
 40
14.6574579661262
 40
19.69452205677491
 40
22.88511054190086
 40
25.55350155296001
 40
25.55350155296001
 40
25.55350155296001
 40
25.55350155296001
 10
107.151231123651
 20
111.8974317821236
 30
0.0
 10
107.1382936877446
 20
111.5796893045283
 30
0.0
 10
107.1249438870078
 20
111.2099548711843
 30
0.0
 10
107.1043956306313
 20
110.6982524664125
 30
0.0
 10
107.0755809936635
 20
110.191157911482
 30
0.0
 10
106.9586706779613
 20
109.1896715370765
 30
0.0
 10
106.605353906987
 20
108.0846737904725
 30
0.0
 10
105.8877491470057
 20
107.2096400341652
 30
0.0
 10
104.8968011708663
 20
106.4238985332026
 30
0.0
 10
103.0813892533912
 20
105.6415889587739
 30
0.0
 10
100.1971205014058
 20
105.0369754396951
 30
0.0
 10
96.28591948852375
 20
104.6688226209093
 30
0.0
 10
92.26424434867363
 20
104.5836196210433
 30
0.0
 10
88.63240936568104
 20
104.6119443924083
 30
0.0
 10
86.67991950013686
 20
104.6658829200545
 30
0.0
 10
85.7914768999209
 20
104.708491840375
 30
0.0
  0
SPLINE
  5
6F
330
1F
100
AcDbEntity
  8
LINEE VISIBILI 2D
100
AcDbSpline
210
0.0
220
0.0
230
1.0
 70
     8
 71
     3
 72
    21
 73
    17
 74
     0
 42
0.0000000001
 43
0.0000000001
 40
0.0
 40
0.0
 40
0.0
 40
0.0
 40
4.806917150270382
 40
8.897383943988986
 40
15.99511726107031
 40
19.43696684004586
 40
22.51014900112983
 40
25.30334306713983
 40
27.90529443050339
 40
30.14664105762811
 40
32.55018820321204
 40
35.20417154187694
 40
38.37014946436576
 40
42.14671840764037
 40
46.47482673048979
 40
56.07535523277411
 40
56.07535523277411
 40
56.07535523277411
 40
56.07535523277411
 10
99.12901508256152
 20
-35.10201317658715
 30
0.0
 10
98.53306822136199
 20
-36.58924359573496
 30
0.0
 10
97.31634484308677
 20
-39.29787119481432
 30
0.0
 10
94.63432808084849
 20
-43.91432366910817
 30
0.0
 10
91.3042995260214
 20
-47.56718003513856
 30
0.0
 10
87.35254700089865
 20
-49.875269912725
 30
0.0
 10
84.35245308030358
 20
-50.75036239931671
 30
0.0
 10
81.49084526927902
 20
-50.73352752733092
 30
0.0
 10
79.06722737499751
 20
-49.81683932216475
 30
0.0
 10
77.24612529430294
 20
-48.17217871382559
 30
0.0
 10
76.06475107079109
 20
-46.01071553978881
 30
0.0
 10
75.48615230891835
 20
-43.30991513277149
 30
0.0
 10
75.4689959118565
 20
-40.1004950875041
 30
0.0
 10
75.97275375507672
 20
-36.37070775354397
 30
0.0
 10
77.40355758556382
 20
-30.63754075067806
 30
0.0
 10
79.13036094580468
 20
-26.30926889498153
 30
0.0
 10
80.52661061382958
 20
-23.43085962663173
 30
0.0
  0
SPLINE
  5
70
330
1F
100
AcDbEntity
  8
LINEE VISIBILI 2D
100
AcDbSpline
210
0.0
220
0.0
230
1.0
 70
     8
 71
     3
 72
    23
 73
    19
 74
     0
 42
0.0000000001
 43
0.0000000001
 40
0.0
 40
0.0
 40
0.0
 40
0.0
 40
0.8670645301808685
 40
1.032171317749161
 40
1.527657888593402
 40
2.038800510337352
 40
2.736145911554442
 40
4.002642031982021
 40
5.207044346871244
 40
6.488672653455945
 40
7.212621601816069
 40
8.197731607471997
 40
9.97912521220554
 40
11.6924575819851
 40
13.7198021750129
 40
18.60507712221458
 40
25.48844472360561
 40
31.69139475005832
 40
31.69139475005832
 40
31.69139475005832
 40
31.69139475005832
 10
-51.14248611422852
 20
111.8973670950911
 30
0.0
 10
-51.15898467071395
 20
111.6088156380247
 30
0.0
 10
-51.17767889130778
 20
111.2652692579748
 30
0.0
 10
-51.20753842262161
 20
110.7569200510474
 30
0.0
 10
-51.24551032003239
 20
110.3680266784543
 30
0.0
 10
-51.33033592463858
 20
109.8062005348457
 30
0.0
 10
-51.51081807910759
 20
109.0005496561046
 30
0.0
 10
-51.85998176311352
 20
108.000367463908
 30
0.0
 10
-52.46653971727039
 20
106.9006121409844
 30
0.0
 10
-53.16874949010389
 20
106.0835775631694
 30
0.0
 10
-53.95874289489734
 20
105.4708398830228
 30
0.0
 10
-54.97445271012441
 20
104.8982227068486
 30
0.0
 10
-56.3499703966437
 20
104.3113974772316
 30
0.0
 10
-58.12018118720994
 20
103.79719857907
 30
0.0
 10
-60.93485372476971
 20
103.1995198512757
 30
0.0
 10
-65.50670375818504
 20
102.667561390436
 30
0.0
 10
-71.49083226635139
 20
102.3506410566176
 30
0.0
 10
-75.85391272981485
 20
102.3195361863516
 30
0.0
 10
-77.92052503903449
 20
102.405484158395
 30
0.0
  0
SPLINE
  5
71
330
1F
100
AcDbEntity
  8
LINEE VISIBILI 2D
100
AcDbSpline
210
0.0
220
0.0
230
1.0
 70
    12
 71
     2
 72
     8
 73
     5
 74
     0
 42
0.0000000001
 43
0.0000000001
 40
0.0
 40
0.0
 40
0.0
 40
0.7431157236434275
 40
0.7431157236434275
 40
1.486231447286855
 40
1.486231447286855
 40
1.486231447286855
 10
85.64720005939978
 20
-70.67761249166574
 30
0.0
 41
1.0
 10
86.05442354153043
 20
-70.43898081352071
 30
0.0
 41
0.709356716430026
 10
85.81839231352001
 20
-70.03024458853349
 30
0.0
 41
1.0
 10
85.58236108550938
 20
-69.62150836354623
 30
0.0
 41
0.709356716430026
 10
85.17212872340986
 20
-69.85492955217131
 30
0.0
 41
1.0
  0
SPLINE
  5
72
330
1F
100
AcDbEntity
  8
LINEE VISIBILI 2D
100
AcDbSpline
210
0.0
220
0.0
230
1.0
 70
    12
 71
     2
 72
     8
 73
     5
 74
     0
 42
0.0000000001
 43
0.0000000001
 40
0.0
 40
0.0
 40
0.0
 40
0.7435258701938156
 40
0.7435258701938156
 40
1.487051740387631
 40
1.487051740387631
 40
1.487051740387631
 10
85.17212872340986
 20
-69.85492955217131
 30
0.0
 41
1.0
 10
84.76434426919178
 20
-70.09341275406454
 30
0.0
 41
0.7090494932234892
 10
85.00058008089115
 20
-70.5025032574473
 30
0.0
 41
1.0
 10
85.23681589259077
 20
-70.91159376083009
 30
0.0
 41
0.7090494932234892
 10
85.64720005939967
 20
-70.67761249166568
 30
0.0
 41
1.0
  0
SPLINE
  5
73
330
1F
100
AcDbEntity
  8
LINEE VISIBILI 2D
100
AcDbSpline
210
0.0
220
0.0
230
1.0
 70
     8
 71
     3
 72
    12
 73
     8
 74
     0
 42
0.0000000001
 43
0.0000000001
 40
0.0
 40
0.0
 40
0.0
 40
0.0
 40
0.4387061197874428
 40
0.9100356953507287
 40
1.985573529044044
 40
3.397618409991281
 40
5.188697601773125
 40
5.188697601773125
 40
5.188697601773125
 40
5.188697601773125
 10
-128.5988639504678
 20
-134.28865698706
 30
0.0
 10
-128.5865630499704
 20
-134.1422506206959
 30
0.0
 10
-128.5237585013838
 20
-133.8450383987398
 30
0.0
 10
-128.2254459961263
 20
-133.2447924226751
 30
0.0
 10
-127.5139695278921
 20
-132.5438664789638
 30
0.0
 10
-126.2763494957244
 20
-131.8237015407153
 30
0.0
 10
-125.2855815211329
 20
-131.4217396848997
 30
0.0
 10
-124.7225277228533
 20
-131.2228785539561
 30
0.0
  0
SPLINE
  5
74
330
1F
100
AcDbEntity
  8
LINEE VISIBILI 2D
100
AcDbSpline
210
0.0
220
0.0
230
1.0
 70
     8
 71
     3
 72
    13
 73
     9
 74
     0
 42
0.0000000001
 43
0.0000000001
 40
0.0
 40
0.0
 40
0.0
 40
0.0
 40
1.110101556217984
 40
2.412880047072009
 40
4.425041968830219
 40
6.925285511879911
 40
13.1896428287334
 40
19.79612320468239
 40
19.79612320468239
 40
19.79612320468239
 40
19.79612320468239
 10
-94.53517461170264
 20
-122.2093823973881
 30
0.0
 10
-94.76695344685606
 20
-122.494305768092
 30
0.0
 10
-95.4123752030066
 20
-123.0124858704989
 30
0.0
 10
-96.83024532869416
 20
-123.447840801538
 30
0.0
 10
-98.74951341687807
 20
-123.7411936240074
 30
0.0
 10
-102.3411804726832
 20
-123.9044546497561
 30
0.0
 10
-107.4661531922415
 20
-123.6327052768036
 30
0.0
 10
-111.7116835737721
 20
-122.9905155515034
 30
0.0
 10
-113.8710858825278
 20
-122.555905831907
 30
0.0
  0
SPLINE
  5
75
330
1F
100
AcDbEntity
  8
LINEE VISIBILI 2D
100
AcDbSpline
210
0.0
220
0.0
230
1.0
 70
     8
 71
     3
 72
    16
 73
    12
 74
     0
 42
0.0000000001
 43
0.0000000001
 40
0.0
 40
0.0
 40
0.0
 40
0.0
 40
1.283677145657079
 40
2.62641023049684
 40
5.912669063640393
 40
7.973917957944082
 40
9.602684035247634
 40
10.15971714337251
 40
10.60911625471046
 40
10.89819832213251
 40
11.07497276758122
 40
11.07497276758122
 40
11.07497276758122
 40
11.07497276758122
 10
-118.0559103826017
 20
-131.6709547145044
 30
0.0
 10
-118.4835138759898
 20
-131.661813297359
 30
0.0
 10
-119.3600890530364
 20
-131.6744367267983
 30
0.0
 10
-121.3212900868005
 20
-131.8839718898008
 30
0.0
 10
-123.5078208454482
 20
-132.3413365737677
 30
0.0
 10
-125.7469551055574
 20
-132.9679424901873
 30
0.0
 10
-127.0885875253929
 20
-133.4238377913904
 30
0.0
 10
-127.898167032867
 20
-133.7656185192052
 30
0.0
 10
-128.2782830802547
 20
-133.9718696684292
 30
0.0
 10
-128.5237383002395
 20
-134.1564433814054
 30
0.0
 10
-128.6034981598707
 20
-134.2962577926125
 30
0.0
 10
-128.6030517551488
 20
-134.3568647611742
 30
0.0
  0
SPLINE
  5
76
330
1F
100
AcDbEntity
  8
LINEE VISIBILI 2D
100
AcDbSpline
210
0.0
220
0.0
230
1.0
 70
     8
 71
     3
 72
    22
 73
    18
 74
     0
 42
0.0000000001
 43
0.0000000001
 40
0.0
 40
0.0
 40
0.0
 40
0.0
 40
4.96682343026652
 40
9.738271920770059
 40
17.79977363891771
 40
21.51870630389869
 40
24.75970736358883
 40
27.56495241573116
 40
28.79804708686245
 40
29.93393483201785
 40
31.77497402244016
 40
33.94002401358236
 40
35.20757937375716
 40
36.80075177197893
 40
41.05076765509506
 40
49.78930284872602
 40
59.99655919681906
 40
59.99655919681906
 40
59.99655919681906
 40
59.99655919681906
 10
80.52661061382958
 20
-23.43085962663167
 30
0.0
 10
81.25043495329385
 20
-21.94212161426452
 30
0.0
 10
82.79140472130086
 20
-19.08099855782575
 30
0.0
 10
86.04902016521385
 20
-14.11740480468421
 30
0.0
 10
89.7833712483158
 20
-9.998589931801007
 30
0.0
 10
93.97320548543553
 20
-7.198604336908943
 30
0.0
 10
96.9910319356793
 20
-5.943976565138314
 30
0.0
 10
99.42951017906762
 20
-5.619516422140237
 30
0.0
 10
101.1423645557603
 20
-5.912542721309705
 30
0.0
 10
102.4462565272072
 20
-6.468889854241411
 30
0.0
 10
103.6549254223399
 20
-7.757785844529053
 30
0.0
 10
104.1498260801922
 20
-9.486014743096348
 30
0.0
 10
104.332819003463
 20
-11.14207364924539
 30
0.0
 10
104.3310519326689
 20
-13.51901054535938
 30
0.0
 10
104.0297970296762
 20
-18.37329331869472
 30
0.0
 10
102.4983728937967
 20
-25.97697108034703
 30
0.0
 10
100.3955598976978
 20
-31.9449770085194
 30
0.0
 10
99.12901508256152
 20
-35.10201317658698
 30
0.0
  0
SPLINE
  5
77
330
1F
100
AcDbEntity
  8
LINEE VISIBILI 2D
100
AcDbSpline
210
0.0
220
0.0
230
1.0
 70
    12
 71
     2
 72
     6
 73
     3
 74
     0
 42
0.0000000001
 43
0.0000000001
 40
0.0
 40
0.0
 40
0.0
 40
0.4954221430826188
 40
0.4954221430826188
 40
0.4954221430826188
 10
-117.5566132474194
 20
-130.1911463086987
 30
0.0
 41
1.0
 10
-117.3108689172316
 20
-130.2228309474428
 30
0.0
 41
0.9995917654207929
 10
-117.0673355754881
 20
-130.2685004516128
 30
0.0
 41
1.0
  0
SPLINE
  5
78
330
1F
100
AcDbEntity
  8
LINEE VISIBILI 2D
100
AcDbSpline
210
0.0
220
0.0
230
1.0
 70
     8
 71
     3
 72
    12
 73
     8
 74
     0
 42
0.0000000001
 43
0.0000000001
 40
0.0
 40
0.0
 40
0.0
 40
0.0
 40
0.8909708385495684
 40
1.450460333411569
 40
2.67708647952079
 40
5.291290073732607
 40
11.21088565425085
 40
11.21088565425085
 40
11.21088565425085
 40
11.21088565425085
 10
-66.12421126941786
 20
-110.0408752731671
 30
0.0
 10
-66.12298476093679
 20
-110.3367804232674
 30
0.0
 10
-66.0983402032773
 20
-110.8226961041207
 30
0.0
 10
-66.12804525880506
 20
-111.7113930442713
 30
0.0
 10
-66.28390443521516
 20
-113.1786249291317
 30
0.0
 10
-67.3464814843968
 20
-116.2791687774165
 30
0.0
 10
-69.19696101551995
 20
-118.541569148839
 30
0.0
 10
-70.72342165580187
 20
-119.7847604189369
 30
0.0
  0
SPLINE
  5
79
330
1F
100
AcDbEntity
  8
LINEE VISIBILI 2D
100
AcDbSpline
210
0.0
220
0.0
230
1.0
 70
     8
 71
     3
 72
    21
 73
    17
 74
     0
 42
0.0000000001
 43
0.0000000001
 40
0.0
 40
0.0
 40
0.0
 40
0.0
 40
6.443601951484845
 40
13.06172811876819
 40
16.44253864723911
 40
19.46359012077291
 40
23.67312990348514
 40
25.09580400999374
 40
26.18906340546097
 40
28.2406321626097
 40
29.31524992772989
 40
30.20285431476174
 40
30.86990175211315
 40
31.0547859173987
 40
31.10248079332686
 40
32.02191936696148
 40
32.02191936696148
 40
32.02191936696148
 40
32.02191936696148
 10
-146.7167623337966
 20
-100.4019346227248
 30
0.0
 10
-148.857649935545
 20
-100.2288949737641
 30
0.0
 10
-153.1894470759291
 20
-99.77956052276267
 30
0.0
 10
-158.6109701842479
 20
-98.96594892673951
 30
0.0
 10
-162.880653284853
 20
-98.18697301658199
 30
0.0
 10
-166.3460272087347
 20
-97.47759325619649
 30
0.0
 10
-169.1410445679621
 20
-96.75252392625944
 30
0.0
 10
-171.2414175031423
 20
-95.95907241474663
 30
0.0
 10
-172.6029617603904
 20
-95.27495071408367
 30
0.0
 10
-173.711015976164
 20
-94.37702172732281
 30
0.0
 10
-174.4699753647005
 20
-93.26428630572232
 30
0.0
 10
-174.8441032821249
 20
-92.46996397261103
 30
0.0
 10
-174.9467937783633
 20
-91.89153018478163
 30
0.0
 10
-174.9486834166902
 20
-91.5923405024547
 30
0.0
 10
-174.9353085069166
 20
-91.20847224388834
 30
0.0
 10
-174.9242870536476
 20
-90.886281353117
 30
0.0
 10
-174.9137899328159
 20
-90.57998224081115
 30
0.0
  0
SPLINE
  5
7A
330
1F
100
AcDbEntity
  8
LINEE VISIBILI 2D
100
AcDbSpline
210
0.0
220
0.0
230
1.0
 70
     8
 71
     3
 72
    12
 73
     8
 74
     0
 42
0.0000000001
 43
0.0000000001
 40
0.0
 40
0.0
 40
0.0
 40
0.0
 40
1.911888333418947
 40
3.45551434949092
 40
6.312147913679133
 40
9.23504185657419
 40
12.48075107731083
 40
12.48075107731083
 40
12.48075107731083
 40
12.48075107731083
 10
-79.47261410149031
 20
-101.575417400506
 30
0.0
 10
-79.44722277234496
 20
-102.2115393869204
 30
0.0
 10
-79.42005097124343
 20
-103.3656896861511
 30
0.0
 10
-79.58679810618253
 20
-105.4638445344629
 30
0.0
 10
-80.26596533258032
 20
-107.8396143124239
 30
0.0
 10
-81.99567993747229
 20
-110.3469845551691
 30
0.0
 10
-83.60209771642303
 20
-111.6553677390027
 30
0.0
 10
-84.49967608025065
 20
-112.2582274614242
 30
0.0
  0
SPLINE
  5
7B
330
1F
100
AcDbEntity
  8
LINEE VISIBILI 2D
100
AcDbSpline
210
0.0
220
0.0
230
1.0
 70
    12
 71
     2
 72
     6
 73
     3
 74
     0
 42
0.0000000001
 43
0.0000000001
 40
0.0
 40
0.0
 40
0.0
 40
0.1863911376700687
 40
0.1863911376700687
 40
0.1863911376700687
 10
-121.1429016447621
 20
83.3047625542539
 30
0.0
 41
1.0
 10
-121.0643625434422
 20
83.35500368894475
 30
0.0
 41
0.9993832530773172
 10
-120.9824908067901
 20
83.39960840605772
 30
0.0
 41
1.0
  0
SPLINE
  5
7C
330
1F
100
AcDbEntity
  8
LINEE VISIBILI 2D
100
AcDbSpline
210
0.0
220
0.0
230
1.0
 70
    12
 71
     2
 72
     6
 73
     3
 74
     0
 42
0.0000000001
 43
0.0000000001
 40
0.0
 40
0.0
 40
0.0
 40
0.0709682769282626
 40
0.0709682769282626
 40
0.0709682769282626
 10
-121.2112954585231
 20
83.28865013716018
 30
0.0
 41
1.0
 10
-121.1750927504588
 20
83.2881921425426
 30
0.0
 41
0.9703758922768808
 10
-121.1429016447621
 20
83.3047625542539
 30
0.0
 41
1.0
  0
SPLINE
  5
7D
330
1F
100
AcDbEntity
  8
LINEE VISIBILI 2D
100
AcDbSpline
210
0.0
220
0.0
230
1.0
 70
    12
 71
     3
 72
     8
 73
     4
 74
     0
 42
0.0000000001
 43
0.0000000001
 40
-1.0
 40
-1.0
 40
-1.0
 40
-1.0
 40
0.0
 40
0.0
 40
0.0
 40
0.0
 10
-121.2342100438385
 20
83.30486274656585
 30
0.0
 41
1.0
 10
-121.245177560519
 20
83.2976916915369
 30
0.0
 41
1.0
 10
-121.244748898844
 20
83.28867807916401
 30
0.0
 41
1.0
 10
-121.215525075808
 20
83.28865482255605
 30
0.0
 41
1.0
  0
SPLINE
  5
7E
330
1F
100
AcDbEntity
  8
LINEE VISIBILI 2D
100
AcDbSpline
210
0.0
220
0.0
230
1.0
 70
    12
 71
     2
 72
     6
 73
     3
 74
     0
 42
0.0000000001
 43
0.0000000001
 40
0.0
 40
0.0
 40
0.0
 40
0.184001543292147
 40
0.184001543292147
 40
0.184001543292147
 10
-121.0766041253249
 20
83.39974158810753
 30
0.0
 41
1.0
 10
-121.1571345029409
 20
83.35517163067269
 30
0.0
 41
0.9993377000924568
 10
-121.2342100438385
 20
83.30486274656585
 30
0.0
 41
1.0
  0
SPLINE
  5
7F
330
1F
100
AcDbEntity
  8
LINEE VISIBILI 2D
100
AcDbSpline
210
0.0
220
0.0
230
1.0
 70
    12
 71
     3
 72
    10
 73
     6
 74
     0
 42
0.0000000001
 43
0.0000000001
 40
0.725857780795765
 40
0.725857780795765
 40
0.725857780795765
 40
0.725857780795765
 40
0.7566370246156061
 40
0.7566370246156061
 40
0.7594767265806235
 40
0.7594767265806235
 40
0.7594767265806235
 40
0.7594767265806235
 10
-124.0888064693021
 20
81.1523149065888
 30
0.0
 41
1.0
 10
-124.3554240789177
 20
81.13647909764848
 30
0.0
 41
1.0
 10
-124.7143576353119
 20
81.10867384908272
 30
0.0
 41
1.0
 10
-124.8076979827166
 20
81.0711871164259
 30
0.0
 41
1.0
 10
-124.8132967020513
 20
81.06798763729398
 30
0.0
 41
1.0
 10
-124.8166174138245
 20
81.06476963926991
 30
0.0
 41
1.0
  0
SPLINE
  5
80
330
1F
100
AcDbEntity
  8
LINEE VISIBILI 2D
100
AcDbSpline
210
0.0
220
0.0
230
1.0
 70
    12
 71
     2
 72
     6
 73
     3
 74
     0
 42
0.0000000001
 43
0.0000000001
 40
0.0
 40
0.0
 40
0.0
 40
3.189067027459945
 40
3.189067027459945
 40
3.189067027459945
 10
-120.9006800672902
 20
81.18816146990241
 30
0.0
 41
1.0
 10
-122.4954119683206
 20
81.22971111970321
 30
0.0
 41
0.9993047443594048
 10
-124.0888064693021
 20
81.1523149065888
 30
0.0
 41
1.0
  0
SPLINE
  5
81
330
1F
100
AcDbEntity
  8
LINEE VISIBILI 2D
100
AcDbSpline
210
0.0
220
0.0
230
1.0
 70
     8
 71
     3
 72
    18
 73
    14
 74
     0
 42
0.0000000001
 43
0.0000000001
 40
0.0
 40
0.0
 40
0.0
 40
0.0
 40
1.635873116146574
 40
2.041511523507409
 40
2.809644475372944
 40
4.393077960548643
 40
4.867222814092249
 40
7.149934489643625
 40
10.08400259645074
 40
14.11592367370829
 40
19.08904134349603
 40
24.93097707251861
 40
31.71182774566841
 40
31.71182774566841
 40
31.71182774566841
 40
31.71182774566841
 10
182.1701783860821
 20
111.8978061818312
 30
0.0
 10
182.1693903193428
 20
111.3534446575906
 30
0.0
 10
182.1714179510398
 20
110.6703663471077
 30
0.0
 10
182.0943947886869
 20
109.7385898310613
 30
0.0
 10
181.9688234230538
 20
108.823397943322
 30
0.0
 10
181.6607029416374
 20
107.9284775866814
 30
0.0
 10
180.8971769169796
 20
106.6870681902195
 30
0.0
 10
179.4517646719559
 20
105.4153307334025
 30
0.0
 10
176.6403402002417
 20
104.1075424923835
 30
0.0
 10
172.7946187177735
 20
103.0551173366849
 30
0.0
 10
167.8998773084901
 20
102.2853630425168
 30
0.0
 10
162.0506931037943
 20
101.8206685937098
 30
0.0
 10
157.8420601133679
 20
101.7316351874442
 30
0.0
 10
155.582010710786
 20
101.7312676926975
 30
0.0
  0
SPLINE
  5
82
330
1F
100
AcDbEntity
  8
LINEE VISIBILI 2D
100
AcDbSpline
210
0.0
220
0.0
230
1.0
 70
     8
 71
     3
 72
    13
 73
     9
 74
     0
 42
0.0000000001
 43
0.0000000001
 40
0.0
 40
0.0
 40
0.0
 40
0.0
 40
0.0198585043159913
 40
0.0637523127386528
 40
0.2380556951298662
 40
0.9232558262713975
 40
3.212558142130807
 40
10.7957971135486
 40
10.7957971135486
 40
10.7957971135486
 40
10.7957971135486
 10
-110.1236152580028
 20
81.0593573717399
 30
0.0
 10
-110.1233552978414
 20
81.05191045517194
 30
0.0
 10
-110.1419056951602
 20
81.03956008320745
 30
0.0
 10
-110.2185350859513
 20
81.01854961331799
 30
0.0
 10
-110.5179174386708
 20
80.98209958269217
 30
0.0
 10
-111.5666533769138
 20
80.93606538853305
 30
0.0
 10
-115.086965869353
 20
80.93684672150533
 30
0.0
 10
-118.3740897449829
 20
81.11491898535729
 30
0.0
 10
-120.9006800672902
 20
81.18816146990247
 30
0.0
  0
SPLINE
  5
83
330
1F
100
AcDbEntity
  8
LINEE VISIBILI 2D
100
AcDbSpline
210
0.0
220
0.0
230
1.0
 70
    12
 71
     3
 72
    27
 73
    23
 74
     0
 42
0.0000000001
 43
0.0000000001
 40
0.0
 40
0.0
 40
0.0
 40
0.0
 40
1.9405691854223
 40
1.9405691854223
 40
1.9405691854223
 40
3.028189451144386
 40
3.028189451144386
 40
3.028189451144386
 40
4.693870057955441
 40
6.324511014705233
 40
9.614155918485928
 40
12.54506647227517
 40
14.62144583202347
 40
14.62144583202347
 40
14.62144583202347
 40
15.00151429643311
 40
15.00151429643311
 40
15.00151429643311
 40
15.28252310467496
 40
15.28252310467496
 40
15.28252310467496
 40
15.3344873591941
 40
15.3344873591941
 40
15.3344873591941
 40
15.3344873591941
 10
98.85601369384415
 20
81.04785535612689
 30
0.0
 41
1.0
 10
98.20972119153697
 20
81.02083007661022
 30
0.0
 41
0.999997207771445
 10
97.56335317827946
 20
80.99567544069163
 30
0.0
 41
0.9999972077714445
 10
96.91691506849145
 20
80.97239165908331
 30
0.0
 41
1.0
 10
96.55460714653411
 20
80.9594086372697
 30
0.0
 41
0.9999979203086324
 10
96.19226792566228
 20
80.94733063300221
 30
0.0
 41
0.9999979203086325
 10
95.82989966653838
 20
80.936157721636
 30
0.0
 41
1.0
 10
95.27493580256908
 20
80.9192695542663
 30
0.0
 41
1.0
 10
94.17652078985418
 20
80.89021291869096
 30
0.0
 41
1.0
 10
91.98157852698739
 20
80.84974968952804
 30
0.0
 41
1.0
 10
89.36444354237949
 20
80.8324759690064
 30
0.0
 41
1.0
 10
86.59888170710735
 20
80.8588149560959
 30
0.0
 41
1.0
 10
84.93034122730376
 20
80.90958754064206
 30
0.0
 41
1.0
 10
84.23943101816008
 20
80.95129785812065
 30
0.0
 41
1.0
 10
84.11297809802024
 20
80.95910442178986
 30
0.0
 41
0.9999341464800588
 10
83.98664739234701
 20
80.96868754510261
 30
0.0
 41
0.9999341464800601
 10
83.86046385910606
 20
80.98004533481242
 30
0.0
 41
1.0
 10
83.76700126478394
 20
80.98696669555049
 30
0.0
 41
0.9989564284013697
 10
83.67407209069056
 20
80.99910466796422
 30
0.0
 41
0.9989564284013693
 10
83.58196727156724
 20
81.01642125152341
 30
0.0
 41
1.0
 10
83.56438877258036
 20
81.01771687157186
 30
0.0
 41
0.965893284137219
 10
83.54811869263744
 20
81.02449675037528
 30
0.0
 41
0.9658932841372184
 10
83.53482178871911
 20
81.03606716973388
 30
0.0
 41
1.0
  0
SPLINE
  5
84
330
1F
100
AcDbEntity
  8
LINEE VISIBILI 2D
100
AcDbSpline
210
0.0
220
0.0
230
1.0
 70
     8
 71
     3
 72
    21
 73
    17
 74
     0
 42
0.0000000001
 43
0.0000000001
 40
0.0
 40
0.0
 40
0.0
 40
0.0
 40
9.384814008935356
 40
13.89175417202858
 40
18.35061078397525
 40
27.5534090362707
 40
31.96352731567064
 40
36.10771761212504
 40
39.57480970801827
 40
42.80019871594972
 40
46.10067786138129
 40
49.57866790690215
 40
53.43566979463483
 40
57.76816777171787
 40
62.67321333155817
 40
68.0781301077719
 40
68.0781301077719
 40
68.0781301077719
 40
68.0781301077719
 10
109.9535994278885
 20
-39.66154589803932
 30
0.0
 10
107.992012401402
 20
-37.22814406895952
 30
0.0
 10
105.673182690395
 20
-33.13074639868728
 30
0.0
 10
104.2739276638805
 20
-27.1438986834994
 30
0.0
 10
104.0358925564923
 20
-21.06730884049728
 30
0.0
 10
105.5434181837262
 20
-15.11501695360505
 30
0.0
 10
108.6208639228009
 20
-10.02278767343023
 30
0.0
 10
111.4302725045787
 20
-7.12199339494714
 30
0.0
 10
114.5439527470141
 20
-5.23059033232721
 30
0.0
 10
117.7875845961545
 20
-4.334015659427564
 30
0.0
 10
121.1557812156187
 20
-4.401434273604707
 30
0.0
 10
124.5785018921434
 20
-5.425731590899545
 30
0.0
 10
127.9804645759514
 20
-7.348495432419099
 30
0.0
 10
131.3630842208735
 20
-10.12624325844723
 30
0.0
 10
134.6959568515205
 20
-13.70393101460922
 30
0.0
 10
136.7520213820204
 20
-16.46305854237926
 30
0.0
 10
137.7601830703555
 20
-17.95622444140344
 30
0.0
  0
SPLINE
  5
85
330
1F
100
AcDbEntity
  8
LINEE VISIBILI 2D
100
AcDbSpline
210
0.0
220
0.0
230
1.0
 70
    12
 71
     3
 72
    10
 73
     6
 74
     0
 42
0.0000000001
 43
0.0000000001
 40
-0.3045800384707877
 40
-0.3045800384707877
 40
-0.3045800384707877
 40
-0.3045800384707877
 40
-0.1604085411333294
 40
-0.1604085411333294
 40
0.0
 40
0.0
 40
0.0
 40
0.0
 10
-122.7340070495125
 20
83.28392009860022
 30
0.0
 41
1.0
 10
-122.7382308686098
 20
83.27750503089106
 30
0.0
 41
1.0
 10
-122.5603438081861
 20
83.29626461394741
 30
0.0
 41
1.0
 10
-121.9753515289012
 20
83.35820162108394
 30
0.0
 41
1.0
 10
-121.5417051722587
 20
83.39837213265696
 30
0.0
 41
1.0
 10
-121.0766041253249
 20
83.39974158810753
 30
0.0
 41
1.0
  0
SPLINE
  5
86
330
1F
100
AcDbEntity
  8
LINEE VISIBILI 2D
100
AcDbSpline
210
0.0
220
0.0
230
1.0
 70
    12
 71
     2
 72
     6
 73
     3
 74
     0
 42
0.0000000001
 43
0.0000000001
 40
0.0
 40
0.0
 40
0.0
 40
0.0933069240389398
 40
0.0933069240389398
 40
0.0933069240389398
 10
-121.0760321317584
 20
83.34616144963627
 30
0.0
 41
1.0
 10
-121.1226854316022
 20
83.346033811646
 30
0.0
 41
0.9999996005034872
 10
-121.1693384287126
 20
83.34582277048179
 30
0.0
 41
1.0
  0
SPLINE
  5
87
330
1F
100
AcDbEntity
  8
LINEE VISIBILI 2D
100
AcDbSpline
210
0.0
220
0.0
230
1.0
 70
    12
 71
     2
 72
     6
 73
     3
 74
     0
 42
0.0000000001
 43
0.0000000001
 40
0.0
 40
0.0
 40
0.0
 40
1.58135542343821
 40
1.58135542343821
 40
1.58135542343821
 10
-117.9438673457743
 20
83.29427130992622
 30
0.0
 41
1.0
 10
-118.734228816506
 20
83.31680705472776
 30
0.0
 41
0.9999905582209931
 10
-119.5247562945255
 20
83.3324729638008
 30
0.0
 41
1.0
  0
SPLINE
  5
88
330
1F
100
AcDbEntity
  8
LINEE VISIBILI 2D
100
AcDbSpline
210
0.0
220
0.0
230
1.0
 70
    12
 71
     2
 72
     6
 73
     3
 74
     0
 42
0.0000000001
 43
0.0000000001
 40
0.0
 40
0.0
 40
0.0
 40
0.2311605670232945
 40
0.2311605670232945
 40
0.2311605670232945
 10
-117.2017972830898
 20
83.34727535349714
 30
0.0
 41
1.0
 10
-117.3137547137429
 20
83.318135309587
 30
0.0
 41
0.9986098113208335
 10
-117.428157737733
 20
83.30094355169444
 30
0.0
 41
1.0
  0
SPLINE
  5
89
330
1F
100
AcDbEntity
  8
LINEE VISIBILI 2D
100
AcDbSpline
210
0.0
220
0.0
230
1.0
 70
    12
 71
     3
 72
     8
 73
     4
 74
     0
 42
0.0000000001
 43
0.0000000001
 40
-1.0
 40
-1.0
 40
-1.0
 40
-1.0
 40
0.0
 40
0.0
 40
0.0
 40
0.0
 10
-116.04796141834
 20
83.34328923772432
 30
0.0
 41
1.0
 10
-116.2265735713904
 20
83.43710152753732
 30
0.0
 41
1.0
 10
-116.7067357565477
 20
83.47563449102279
 30
0.0
 41
1.0
 10
-117.2017972830898
 20
83.34727535349714
 30
0.0
 41
1.0
  0
SPLINE
  5
8A
330
1F
100
AcDbEntity
  8
LINEE VISIBILI 2D
100
AcDbSpline
210
0.0
220
0.0
230
1.0
 70
    12
 71
     2
 72
     6
 73
     3
 74
     0
 42
0.0000000001
 43
0.0000000001
 40
0.0
 40
0.0
 40
0.0
 40
0.045603775100923
 40
0.045603775100923
 40
0.045603775100923
 10
-116.0059185508165
 20
83.3257386523328
 30
0.0
 41
1.0
 10
-116.0276146650726
 20
83.33289773098147
 30
0.0
 41
0.997057456456289
 10
-116.04796141834
 20
83.34328923772432
 30
0.0
 41
1.0
  0
SPLINE
  5
8B
330
1F
100
AcDbEntity
  8
LINEE VISIBILI 2D
100
AcDbSpline
210
0.0
220
0.0
230
1.0
 70
    12
 71
     2
 72
     6
 73
     3
 74
     0
 42
0.0000000001
 43
0.0000000001
 40
0.0
 40
0.0
 40
0.0
 40
0.5703311663016527
 40
0.5703311663016527
 40
0.5703311663016527
 10
-113.8992811452551
 20
83.37355869494547
 30
0.0
 41
1.0
 10
-114.1844886083998
 20
83.37093214025987
 30
0.0
 41
0.9997161687775369
 10
-114.4692471999297
 20
83.35472287214293
 30
0.0
 41
1.0
  0
SPLINE
  5
8C
330
1F
100
AcDbEntity
  8
LINEE VISIBILI 2D
100
AcDbSpline
210
0.0
220
0.0
230
1.0
 70
    12
 71
     2
 72
     6
 73
     3
 74
     0
 42
0.0000000001
 43
0.0000000001
 40
0.0
 40
0.0
 40
0.0
 40
0.0582063370567482
 40
0.0582063370567482
 40
0.0582063370567482
 10
-113.8490723104164
 20
83.34411527608694
 30
0.0
 41
1.0
 10
-113.8740153658713
 20
83.3591121504439
 30
0.0
 41
0.9999399356563099
 10
-113.8992811452551
 20
83.37355869494547
 30
0.0
 41
1.0
  0
SPLINE
  5
8D
330
1F
100
AcDbEntity
  8
LINEE VISIBILI 2D
100
AcDbSpline
210
0.0
220
0.0
230
1.0
 70
     8
 71
     3
 72
    21
 73
    17
 74
     0
 42
0.0000000001
 43
0.0000000001
 40
0.0
 40
0.0
 40
0.0
 40
0.0
 40
9.384814008935088
 40
13.89175417202807
 40
18.3506107839752
 40
27.55340903627054
 40
31.96352731567067
 40
36.10771761212471
 40
39.57480970801794
 40
42.80019871594978
 40
46.10067786138111
 40
49.57866790690173
 40
53.43566979463445
 40
57.76816777171715
 40
62.67321333155779
 40
68.07813010777141
 40
68.07813010777141
 40
68.07813010777141
 40
68.07813010777141
 10
75.34529498165341
 20
-100.3690849337597
 30
0.0
 10
75.58359624850652
 20
-103.4855702346177
 30
0.0
 10
75.1738129446992
 20
-108.1757425705686
 30
0.0
 10
72.9359877712094
 20
-113.9022073340134
 30
0.0
 10
69.69034035070808
 20
-119.0449087305773
 30
0.0
 10
65.0765337525529
 20
-123.0964764392981
 30
0.0
 10
59.65605970077718
 20
-125.5500314871496
 30
0.0
 10
55.69772454262375
 20
-126.3493854770614
 30
0.0
 10
52.06035662063323
 20
-126.1445323651031
 30
0.0
 10
48.87936918090747
 20
-125.0462097234526
 30
0.0
 10
46.1417364619349
 20
-123.0828807054551
 30
0.0
 10
43.90115110505303
 20
-120.3000801229026
 30
0.0
 10
42.18656999658265
 20
-116.7885872046766
 30
0.0
 10
40.97219825432205
 20
-112.5834356118304
 30
0.0
 10
40.25191529492349
 20
-107.7472095923907
 30
0.0
 10
40.12024571004201
 20
-104.3087725654122
 30
0.0
 10
40.1351317382904
 20
-102.5071863759674
 30
0.0
  0
SPLINE
  5
8E
330
1F
100
AcDbEntity
  8
LINEE VISIBILI 2D
100
AcDbSpline
210
0.0
220
0.0
230
1.0
 70
     8
 71
     3
 72
    13
 73
     9
 74
     0
 42
0.0000000001
 43
0.0000000001
 40
0.0
 40
0.0
 40
0.0
 40
0.0
 40
1.02574656374362
 40
1.718131452165725
 40
2.42607214360151
 40
2.57030748735349
 40
2.605666167273262
 40
2.621964456565856
 40
2.621964456565856
 40
2.621964456565856
 40
2.621964456565856
 10
98.85612224332397
 20
81.04785986447342
 30
0.0
 10
99.19772828016733
 20
81.0628670213556
 30
0.0
 10
99.77000598968823
 20
81.08371258697224
 30
0.0
 10
100.5784161499354
 20
81.10911792039894
 30
0.0
 10
101.0932390135432
 20
81.09595636462348
 30
0.0
 10
101.3884297578659
 20
81.0724608429424
 30
0.0
 10
101.4516803938751
 20
81.05476239577814
 30
0.0
 10
101.4658939555306
 20
81.04324547864718
 30
0.0
 10
101.4632688222999
 20
81.0369896178155
 30
0.0
  0
SPLINE
  5
8F
330
1F
100
AcDbEntity
  8
LINEE VISIBILI 2D
100
AcDbSpline
210
0.0
220
0.0
230
1.0
 70
    12
 71
     2
 72
     6
 73
     3
 74
     0
 42
0.0000000001
 43
0.0000000001
 40
0.0
 40
0.0
 40
0.0
 40
0.0162173492538557
 40
0.0162173492538557
 40
0.0162173492538557
 10
85.11859807658004
 20
82.69402973632998
 30
0.0
 41
1.0
 10
85.12620705532683
 20
82.69683263924567
 30
0.0
 41
0.9999746993449716
 10
85.13377538862142
 20
82.69974350740893
 30
0.0
 41
1.0
  0
SPLINE
  5
90
330
1F
100
AcDbEntity
  8
LINEE VISIBILI 2D
100
AcDbSpline
210
0.0
220
0.0
230
1.0
 70
     8
 71
     3
 72
    16
 73
    12
 74
     0
 42
0.0000000001
 43
0.0000000001
 40
0.0
 40
0.0
 40
0.0
 40
0.0
 40
2.53330312907954
 40
4.777566946756626
 40
9.21714326037624
 40
13.46286471381506
 40
14.91047824048159
 40
15.29834916501818
 40
15.38519557447204
 40
15.40655435442202
 40
15.41629597078318
 40
15.41629597078318
 40
15.41629597078318
 40
15.41629597078318
 10
98.93193837447438
 20
81.15232030330327
 30
0.0
 10
98.08823738081128
 20
81.1170164131446
 30
0.0
 10
96.49697389373728
 20
81.05381834827176
 30
0.0
 10
93.42573048096165
 20
80.96645912394285
 30
0.0
 10
89.78262814574873
 20
80.92716741645484
 30
0.0
 10
86.40482069096834
 20
80.95722900946862
 30
0.0
 10
84.3790028311829
 20
81.03536570407164
 30
0.0
 10
83.74016216107566
 20
81.08782149399906
 30
0.0
 10
83.57663962319657
 20
81.11306748139475
 30
0.0
 10
83.53945180265862
 20
81.1274209050249
 30
0.0
 10
83.53333120560899
 20
81.13668628796273
 30
0.0
 10
83.53592832610241
 20
81.14006860814334
 30
0.0
  0
SPLINE
  5
91
330
1F
100
AcDbEntity
  8
LINEE VISIBILI 2D
100
AcDbSpline
210
0.0
220
0.0
230
1.0
 70
     8
 71
     3
 72
    10
 73
     6
 74
     0
 42
0.0000000001
 43
0.0000000001
 40
0.0
 40
0.0
 40
0.0
 40
0.0
 40
0.3520661743125406
 40
0.9033807779518369
 40
2.238551307873562
 40
2.238551307873562
 40
2.238551307873562
 40
2.238551307873562
 10
101.1690867635524
 20
81.18816686661688
 30
0.0
 10
101.0519780275031
 20
81.19888045164475
 30
0.0
 10
100.7510030657784
 20
81.20307000274914
 30
0.0
 10
100.0048515117759
 20
81.20512925862408
 30
0.0
 10
99.3767820146935
 20
81.16328038509744
 30
0.0
 10
98.9319383744745
 20
81.15232030330333
 30
0.0
  0
SPLINE
  5
92
330
1F
100
AcDbEntity
  8
LINEE VISIBILI 2D
100
AcDbSpline
210
0.0
220
0.0
230
1.0
 70
    12
 71
     3
 72
    22
 73
    18
 74
     0
 42
0.0000000001
 43
0.0000000001
 40
0.0
 40
0.0
 40
0.0
 40
0.0
 40
1.967514473857515
 40
1.967514473857515
 40
1.967514473857515
 40
2.937227333378029
 40
2.937227333378029
 40
2.937227333378029
 40
4.095770761253484
 40
5.295949725905027
 40
7.913961488579305
 40
9.842006648801009
 40
10.47822550752875
 40
10.8406966577012
 40
10.8406966577012
 40
10.8406966577012
 40
10.94383374338537
 40
10.94383374338537
 40
10.94383374338537
 40
10.94383374338537
 10
-118.1432533340397
 20
-131.7638238290992
 30
0.0
 41
1.0
 10
-118.7994251339055
 20
-131.7524533797806
 30
0.0
 41
0.9986837035069704
 10
-119.4550155272257
 20
-131.7823189827912
 30
0.0
 41
0.99868370350697
 10
-120.1074356599934
 20
-131.8533027021657
 30
0.0
 41
1.0
 10
-120.4288964375252
 20
-131.887424441661
 30
0.0
 41
0.9998204308676529
 10
-120.7494787137422
 20
-131.9289976153809
 30
0.0
 41
0.9998204308676525
 10
-121.0690097886007
 20
-131.9779998275489
 30
0.0
 41
1.0
 10
-121.4508880753823
 20
-132.0360547454098
 30
0.0
 41
1.0
 10
-122.2249029521801
 20
-132.1741156009371
 30
0.0
 41
1.0
 10
-123.8452067341127
 20
-132.5327060474291
 30
0.0
 41
1.0
 10
-125.6932098971697
 20
-133.0375456544067
 30
0.0
 41
1.0
 10
-127.3299452595836
 20
-133.5960987044706
 30
0.0
 41
1.0
 10
-128.2141964561714
 20
-134.011526552446
 30
0.0
 41
1.0
 10
-128.4823752490317
 20
-134.215245668087
 30
0.0
 41
1.0
 10
-128.5541365637962
 20
-134.3132833473497
 30
0.0
 41
1.0
 10
-128.5741029334444
 20
-134.3415185241209
 30
0.0
 41
0.9883440574083735
 10
-128.5884634521895
 20
-134.3729773325155
 30
0.0
 41
0.9883440574083736
 10
-128.5967159638852
 20
-134.4065597263394
 30
0.0
 41
1.0
  0
SPLINE
  5
93
330
1F
100
AcDbEntity
  8
LINEE VISIBILI 2D
100
AcDbSpline
210
0.0
220
0.0
230
1.0
 70
    12
 71
     3
 72
    10
 73
     6
 74
     0
 42
0.0000000001
 43
0.0000000001
 40
0.4723094112616421
 40
0.4723094112616421
 40
0.4723094112616421
 40
0.4723094112616421
 40
0.481108716682715
 40
0.481108716682715
 40
0.5
 40
0.5
 40
0.5
 40
0.5
 10
101.4618810986429
 20
81.13428152921551
 30
0.0
 41
1.0
 10
101.4646361056581
 20
81.1409529135592
 30
0.0
 41
1.0
 10
101.4555657801101
 20
81.14779454623533
 30
0.0
 41
1.0
 10
101.3845360537954
 20
81.1686132456947
 30
0.0
 41
1.0
 10
101.2754282109069
 20
81.18083595893597
 30
0.0
 41
1.0
 10
101.1690867635524
 20
81.18816686661688
 30
0.0
 41
1.0
  0
SPLINE
  5
94
330
1F
100
AcDbEntity
  8
LINEE VISIBILI 2D
100
AcDbSpline
210
0.0
220
0.0
230
1.0
 70
     8
 71
     3
 72
    14
 73
    10
 74
     0
 42
0.0000000001
 43
0.0000000001
 40
0.0
 40
0.0
 40
0.0
 40
0.0
 40
1.100485668738387
 40
2.231564532748911
 40
3.597809497689691
 40
5.27320634536697
 40
7.302613498488184
 40
9.706530063550032
 40
15.50986492387169
 40
15.50986492387169
 40
15.50986492387169
 40
15.50986492387169
 10
-66.12432925828216
 20
-110.0351848206332
 30
0.0
 10
-66.1306137758603
 20
-109.6701764489425
 30
0.0
 10
-66.30998800537577
 20
-108.9225351858211
 30
0.0
 10
-67.11407164729883
 20
-107.9978788804154
 30
0.0
 10
-68.3446205760489
 20
-107.3215794937136
 30
0.0
 10
-69.97280953611312
 20
-106.8466036174298
 30
0.0
 10
-71.99304317937367
 20
-106.563186075968
 30
0.0
 10
-75.40641160221958
 20
-106.4397038911495
 30
0.0
 10
-78.13978039587334
 20
-106.671134398069
 30
0.0
 10
-80.05727705174172
 20
-106.9191327049136
 30
0.0
  0
SPLINE
  5
95
330
1F
100
AcDbEntity
  8
LINEE VISIBILI 2D
100
AcDbSpline
210
0.0
220
0.0
230
1.0
 70
     8
 71
     3
 72
    16
 73
    12
 74
     0
 42
0.0000000001
 43
0.0000000001
 40
0.0
 40
0.0
 40
0.0
 40
0.0
 40
4.170783824137374
 40
8.580391744842606
 40
13.14197016674034
 40
17.92341803212702
 40
22.24318290112472
 40
24.14110252702959
 40
25.81104349739964
 40
28.64851304074477
 40
31.72453553967519
 40
31.72453553967519
 40
31.72453553967519
 40
31.72453553967519
 10
-70.72342165580221
 20
-119.7847604189372
 30
0.0
 10
-71.80489294448034
 20
-120.6600913705997
 30
0.0
 10
-74.25735502319208
 20
-122.1621236018801
 30
0.0
 10
-78.39147848100924
 20
-123.6751749234701
 30
0.0
 10
-82.9449562379562
 20
-124.3675726477459
 30
0.0
 10
-87.50921798844553
 20
-124.2964737597923
 30
0.0
 10
-91.13585207961034
 20
-123.6397103477175
 30
0.0
 10
-93.60619762709558
 20
-122.7252198683637
 30
0.0
 10
-95.49701995388642
 20
-121.7152666306391
 30
0.0
 10
-97.31175335340589
 20
-119.8797086858308
 30
0.0
 10
-97.96828261150733
 20
-117.9628989142602
 30
0.0
 10
-98.17397672526675
 20
-116.9675789048908
 30
0.0
  0
SPLINE
  5
96
330
1F
100
AcDbEntity
  8
LINEE VISIBILI 2D
100
AcDbSpline
210
0.0
220
0.0
230
1.0
 70
     8
 71
     3
 72
    11
 73
     7
 74
     0
 42
0.0000000001
 43
0.0000000001
 40
0.0
 40
0.0
 40
0.0
 40
0.0
 40
0.296907338469912
 40
0.6143487252028311
 40
1.53868920953663
 40
3.165325619957987
 40
3.165325619957987
 40
3.165325619957987
 40
3.165325619957987
 10
-114.9326721298196
 20
-132.1323789318544
 30
0.0
 10
-115.0278938852284
 20
-132.1064830686765
 30
0.0
 10
-115.2236156538829
 20
-132.04329446009
 30
0.0
 10
-115.7248497742813
 20
-131.9362154319116
 30
0.0
 10
-116.664360232884
 20
-131.7546473673811
 30
0.0
 10
-117.5144515101974
 20
-131.6919970835871
 30
0.0
 10
-118.0559103826017
 20
-131.6709547145044
 30
0.0
  0
SPLINE
  5
97
330
1F
100
AcDbEntity
  8
LINEE VISIBILI 2D
100
AcDbSpline
210
0.0
220
0.0
230
1.0
 70
    12
 71
     3
 72
    10
 73
     6
 74
     0
 42
0.0000000001
 43
0.0000000001
 40
570.6951822835335
 40
570.6951822835335
 40
570.6951822835335
 40
570.6951822835335
 40
613.828959764722
 40
657.673885462202
 40
678.137409930755
 40
678.137409930755
 40
678.137409930755
 40
678.137409930755
 10
-145.0060724431415
 20
-103.9348692928109
 30
0.0
 41
336.7907188597322
 10
-144.9754884533048
 20
-103.4768692993617
 30
0.0
 41
335.3537488716008
 10
-145.092466130012
 20
-102.5342761919001
 30
0.0
 41
332.4346243461331
 10
-145.7098541901333
 20
-101.3504755628483
 30
0.0
 41
328.8397143220335
 10
-146.306863880369
 20
-100.6428096194181
 30
0.0
 41
326.7276004616509
 10
-146.5212455732334
 20
-100.4177572477791
 30
0.0
 41
326.0615793580072
  0
SPLINE
  5
98
330
1F
100
AcDbEntity
  8
LINEE VISIBILI 2D
100
AcDbSpline
210
0.0
220
0.0
230
1.0
 70
     8
 71
     3
 72
    15
 73
    11
 74
     0
 42
0.0000000001
 43
0.0000000001
 40
0.0
 40
0.0
 40
0.0
 40
0.0
 40
2.20198195098621
 40
4.141160009198966
 40
5.899486837081495
 40
7.355432415683461
 40
8.569719331180117
 40
9.586278615779714
 40
10.3881086166063
 40
11.12863600909712
 40
11.12863600909712
 40
11.12863600909712
 40
11.12863600909712
 10
-174.2149016178776
 20
-93.6220357765157
 30
0.0
 10
-174.9484406815506
 20
-93.64775849202417
 30
0.0
 10
-176.3270013530531
 20
-93.72667788977424
 30
0.0
 10
-178.2820656037728
 20
-93.94655820862201
 30
0.0
 10
-179.9732110783995
 20
-94.25526024300675
 30
0.0
 10
-181.3971556806004
 20
-94.65241474122843
 30
0.0
 10
-182.5324935488312
 20
-95.13137052412728
 30
0.0
 10
-183.3786136469942
 20
-95.6972860093642
 30
0.0
 10
-183.9202110579155
 20
-96.37531940753414
 30
0.0
 10
-184.0420525268849
 20
-96.89031605015407
 30
0.0
 10
-184.0410011503679
 20
-97.13674163973229
 30
0.0
  0
SPLINE
  5
99
330
1F
100
AcDbEntity
  8
LINEE VISIBILI 2D
100
AcDbSpline
210
0.0
220
0.0
230
1.0
 70
     8
 71
     3
 72
    16
 73
    12
 74
     0
 42
0.0000000001
 43
0.0000000001
 40
0.0
 40
0.0
 40
0.0
 40
0.0
 40
0.4380312940210991
 40
0.9759915844538872
 40
1.640138277520548
 40
2.495158696710055
 40
4.63658411753207
 40
7.583420328035253
 40
11.53992957840186
 40
16.05687986206821
 40
26.36174156496286
 40
26.36174156496286
 40
26.36174156496286
 40
26.36174156496286
 10
-123.7239546788131
 20
-92.24126542099361
 30
0.0
 10
-123.7151961905571
 20
-92.09530713333618
 30
0.0
 10
-123.7886379829654
 20
-91.76836892983505
 30
0.0
 10
-124.1259811578581
 20
-91.32799792390952
 30
0.0
 10
-124.6698250746055
 20
-90.90593860253932
 30
0.0
 10
-125.7518100675788
 20
-90.3327171316688
 30
0.0
 10
-127.635990635101
 20
-89.70481478628705
 30
0.0
 10
-130.5785556346694
 20
-89.04139718281604
 30
0.0
 10
-134.3384592598782
 20
-88.43607150730182
 30
0.0
 10
-140.5565100953867
 20
-87.71022393579449
 30
0.0
 10
-145.4894192810233
 20
-87.38869050785223
 30
0.0
 10
-148.9214101730094
 20
-87.25257945743004
 30
0.0
  0
SPLINE
  5
9A
330
1F
100
AcDbEntity
  8
LINEE VISIBILI 2D
100
AcDbSpline
210
0.0
220
0.0
230
1.0
 70
     8
 71
     3
 72
    16
 73
    12
 74
     0
 42
0.0000000001
 43
0.0000000001
 40
0.0
 40
0.0
 40
0.0
 40
0.0
 40
5.168678974568309
 40
9.977277394351296
 40
17.94791827100481
 40
21.3098793609036
 40
23.94914161222329
 40
24.94173599965504
 40
25.76007734754516
 40
26.35386838102146
 40
26.8111248846011
 40
26.8111248846011
 40
26.8111248846011
 40
26.8111248846011
 10
-148.9214101730095
 20
-87.25257945743004
 30
0.0
 10
-150.6425636662781
 20
-87.18633746855551
 30
0.0
 10
-153.9689059596793
 20
-87.10188245897584
 30
0.0
 10
-159.950257700997
 20
-87.14192038304418
 30
0.0
 10
-165.3286358582061
 20
-87.45047038611276
 30
0.0
 10
-169.9336861799527
 20
-88.17492773560087
 30
0.0
 10
-172.1969559916773
 20
-88.74854512377004
 30
0.0
 10
-173.5805024384585
 20
-89.2920532284254
 30
0.0
 10
-174.2819754773598
 20
-89.6837158833996
 30
0.0
 10
-174.7570289629863
 20
-90.09692633558092
 30
0.0
 10
-174.9097323566564
 20
-90.42551021857139
 30
0.0
 10
-174.9137899330049
 20
-90.57998224678965
 30
0.0
  0
SPLINE
  5
9B
330
1F
100
AcDbEntity
  8
LINEE VISIBILI 2D
100
AcDbSpline
210
0.0
220
0.0
230
1.0
 70
    24
 71
     2
 72
     6
 73
     3
 74
     0
 42
0.0000000001
 43
0.0000000001
 40
0.0
 40
0.0
 40
0.0
 40
19.7217560379018
 40
19.7217560379018
 40
19.7217560379018
 10
126.86332207663
 20
111.8978061818312
 30
0.0
 10
117.0024440576791
 20
111.8978061818312
 30
0.0
 10
107.1415660387282
 20
111.8978061818312
 30
0.0
  0
SPLINE
  5
9C
330
1F
100
AcDbEntity
  8
LINEE VISIBILI 2D
100
AcDbSpline
210
0.0
220
0.0
230
1.0
 70
     8
 71
     3
 72
    20
 73
    16
 74
     0
 42
0.0000000001
 43
0.0000000001
 40
0.0
 40
0.0
 40
0.0
 40
0.0
 40
1.573476766816345
 40
2.002985296367018
 40
2.036653375144486
 40
2.512172199336881
 40
3.159170611426904
 40
4.156393951993449
 40
8.88026253488803
 40
11.34917835736612
 40
13.18353904203937
 40
13.80143999564699
 40
13.96195257733448
 40
14.00998542720405
 40
14.03374937968595
 40
14.03374937968595
 40
14.03374937968595
 40
14.03374937968595
 10
-124.1418818287823
 20
81.04785446775895
 30
0.0
 10
-123.6182428093032
 20
81.0781613070796
 30
0.0
 10
-122.9506233627648
 20
81.09531671833952
 30
0.0
 10
-122.2718215857673
 20
81.10185568264603
 30
0.0
 10
-121.9589618446487
 20
81.10385172373373
 30
0.0
 10
-121.5736359711646
 20
81.09744319191475
 30
0.0
 10
-120.866956848447
 20
81.09234765489782
 30
0.0
 10
-118.7454557066458
 20
81.02264240038119
 30
0.0
 10
-116.0180497773213
 20
80.89916510625403
 30
0.0
 10
-113.0095340560701
 20
80.83485237974014
 30
0.0
 10
-111.3688875379269
 20
80.84203377350991
 30
0.0
 10
-110.4988904364841
 20
80.88937558423686
 30
0.0
 10
-110.2251332409971
 20
80.921405012543
 30
0.0
 10
-110.1497418110032
 20
80.93983013733276
 30
0.0
 10
-110.1276320130642
 20
80.94986225132504
 30
0.0
 10
-110.123232552081
 20
80.95682849160903
 30
0.0
  0
SPLINE
  5
9D
330
1F
100
AcDbEntity
  8
LINEE VISIBILI 2D
100
AcDbSpline
210
0.0
220
0.0
230
1.0
 70
     8
 71
     3
 72
    21
 73
    17
 74
     0
 42
0.0000000001
 43
0.0000000001
 40
0.0
 40
0.0
 40
0.0
 40
0.0
 40
5.750559801049977
 40
11.3218031545228
 40
16.7065176352469
 40
21.48184964809953
 40
25.42350913687074
 40
28.8484828426778
 40
31.91331318556077
 40
34.83753681267522
 40
38.18750774270377
 40
42.08620621725321
 40
46.48098165908054
 40
51.37154463284135
 40
61.89994474087561
 40
71.90977020481631
 40
71.90977020481631
 40
71.90977020481631
 40
71.90977020481631
 10
137.7601830703555
 20
-17.95622444140355
 30
0.0
 10
138.8324779218159
 20
-19.54520487458171
 30
0.0
 10
140.7875514477745
 20
-22.77807763303923
 30
0.0
 10
143.2204243101281
 20
-27.79397798206139
 30
0.0
 10
145.0375002231897
 20
-32.72063441837361
 30
0.0
 10
146.1377347329098
 20
-37.30108403508717
 30
0.0
 10
146.4891956064329
 20
-41.34733252735248
 30
0.0
 10
146.0867067724505
 20
-44.82556108131308
 30
0.0
 10
144.8693568837426
 20
-47.76055092071647
 30
0.0
 10
142.7407063129998
 20
-50.10033528385787
 30
0.0
 10
139.6718878134326
 20
-51.66095288351636
 30
0.0
 10
135.8123660210439
 20
-52.3046832337281
 30
0.0
 10
131.4039431153557
 20
-52.05118515662667
 30
0.0
 10
124.9575968369955
 20
-50.53045732101668
 30
0.0
 10
117.2334323319933
 20
-46.83852919220317
 30
0.0
 10
112.0468243719207
 20
-42.26685364899532
 30
0.0
 10
109.9535994278885
 20
-39.66154589803926
 30
0.0
  0
SPLINE
  5
9E
330
1F
100
AcDbEntity
  8
LINEE VISIBILI 2D
100
AcDbSpline
210
0.0
220
0.0
230
1.0
 70
     8
 71
     3
 72
    21
 73
    17
 74
     0
 42
0.0000000001
 43
0.0000000001
 40
0.0
 40
0.0
 40
0.0
 40
0.0
 40
4.806917150270117
 40
8.897383943988903
 40
15.99511726107057
 40
19.43696684004588
 40
22.51014900113039
 40
25.30334306714013
 40
27.90529443050374
 40
30.14664105762879
 40
32.55018820321231
 40
35.20417154187738
 40
38.37014946436582
 40
42.14671840763968
 40
46.47482673048979
 40
56.07535523277397
 40
56.07535523277397
 40
56.07535523277397
 40
56.07535523277397
 10
81.939222172918
 20
-111.2262483478069
 30
0.0
 10
83.31020410750511
 20
-110.3971430975236
 30
0.0
 10
85.91201538455084
 20
-108.966179321471
 30
0.0
 10
90.83221966211306
 20
-106.8933944249142
 30
0.0
 10
95.69004255396419
 20
-105.9801548297205
 30
0.0
 10
100.2350956105622
 20
-106.5150563304978
 30
0.0
 10
103.1577209541057
 20
-107.6216779884107
 30
0.0
 10
105.4329710889441
 20
-109.3572814860305
 30
0.0
 10
106.8168816686881
 20
-111.5479508974756
 30
0.0
 10
107.2814969956675
 20
-113.9574018521271
 30
0.0
 10
106.9241833910914
 20
-116.3945918522463
 30
0.0
 10
105.7608906489151
 20
-118.8997563901123
 30
0.0
 10
103.8431151579867
 20
-121.4732381824159
 30
0.0
 10
101.1961542051871
 20
-124.1488097541597
 30
0.0
 10
96.603157425684
 20
-127.8664412673103
 30
0.0
 10
92.61925191628211
 20
-130.283936664184
 30
0.0
 10
89.7718874100326
 20
-131.7424524920496
 30
0.0
  0
SPLINE
  5
9F
330
1F
100
AcDbEntity
  8
LINEE VISIBILI 2D
100
AcDbSpline
210
0.0
220
0.0
230
1.0
 70
     8
 71
     3
 72
    22
 73
    18
 74
     0
 42
0.0000000001
 43
0.0000000001
 40
0.0
 40
0.0
 40
0.0
 40
0.0
 40
4.966823430266675
 40
9.738271920770389
 40
17.79977363891811
 40
21.51870630389862
 40
24.75970736358908
 40
27.56495241573133
 40
28.79804708686296
 40
29.9339348320178
 40
31.77497402244021
 40
33.94002401358249
 40
35.20757937375724
 40
36.8007517719796
 40
41.05076765509508
 40
49.78930284872694
 40
59.99655919681918
 40
59.99655919681918
 40
59.99655919681918
 40
59.99655919681918
 10
89.77188741003249
 20
-131.7424524920496
 30
0.0
 10
88.29787068811993
 20
-132.4958031722708
 30
0.0
 10
85.34533067302948
 20
-133.8534188871486
 30
0.0
 10
79.75651801197591
 20
-135.857039202056
 30
0.0
 10
74.29536796194509
 20
-136.899082435318
 30
0.0
 10
69.2641441633532
 20
-136.6137451706036
 30
0.0
 10
66.09894695551361
 20
-135.7995621660084
 30
0.0
 10
63.95622665139547
 20
-134.591174717302
 30
0.0
 10
62.76462795164809
 20
-133.3263320130418
 30
0.0
 10
62.05811158467122
 20
-132.0973116597852
 30
0.0
 10
61.86850265536293
 20
-130.340558454077
 30
0.0
 10
62.51333153065968
 20
-128.6624948353275
 30
0.0
 10
63.36382801299396
 20
-127.229779495792
 30
0.0
 10
64.79571559164458
 20
-125.3325367351642
 30
0.0
 10
67.95768875437227
 20
-121.6370338629873
 30
0.0
 10
73.75674595839826
 20
-116.4861008473647
 30
0.0
 10
79.02776271390678
 20
-112.9853438408853
 30
0.0
 10
81.93922217291777
 20
-111.226248347807
 30
0.0
  0
SPLINE
  5
A0
330
1F
100
AcDbEntity
  8
LINEE VISIBILI 2D
100
AcDbSpline
210
0.0
220
0.0
230
1.0
 70
     8
 71
     3
 72
    22
 73
    18
 74
     0
 42
0.0000000001
 43
0.0000000001
 40
0.0
 40
0.0
 40
0.0
 40
0.0
 40
5.675922284930277
 40
11.96005441517159
 40
18.25799765792521
 40
25.17784389535811
 40
39.65995013875174
 40
47.22667201940669
 40
54.16400587437533
 40
61.07258888685837
 40
67.03397199524031
 40
73.02324452927385
 40
78.66027112079772
 40
84.32974623137585
 40
90.35148140794884
 40
95.691974052002
 40
100.7148624527265
 40
100.7148624527265
 40
100.7148624527265
 40
100.7148624527265
 10
147.8190234807226
 20
-137.2823850207807
 30
0.0
 10
149.7095047172833
 20
-137.2055571056683
 30
0.0
 10
153.6723474415131
 20
-136.5838171951232
 30
0.0
 10
159.3688658075872
 20
-134.3440654285895
 30
0.0
 10
164.8594671306323
 20
-130.8146510867647
 30
0.0
 10
171.6632365062877
 20
-124.5237821179615
 30
0.0
 10
177.0876995206555
 20
-116.4019598552578
 30
0.0
 10
180.6172752840934
 20
-107.3846756585874
 30
0.0
 10
182.1101709560065
 20
-100.3741153800201
 30
0.0
 10
182.3149335765369
 20
-93.74690162960724
 30
0.0
 10
181.2263612337671
 20
-87.51834251682871
 30
0.0
 10
178.9819624274743
 20
-82.06269844192809
 30
0.0
 10
175.5798848922617
 20
-77.35592020276147
 30
0.0
 10
171.1451436118576
 20
-73.58729629376353
 30
0.0
 10
165.9350544504292
 20
-71.1760618454112
 30
0.0
 10
160.4359680605538
 20
-70.51850519776843
 30
0.0
 10
157.0203261729924
 20
-71.3414141849417
 30
0.0
 10
155.4904566003491
 20
-72.01894608308658
 30
0.0
  0
SPLINE
  5
A1
330
1F
100
AcDbEntity
  8
LINEE VISIBILI 2D
100
AcDbSpline
210
0.0
220
0.0
230
1.0
 70
     8
 71
     3
 72
    23
 73
    19
 74
     0
 42
0.0000000001
 43
0.0000000001
 40
0.0
 40
0.0
 40
0.0
 40
0.0
 40
3.306206778512756
 40
7.116207358132038
 40
11.4753775279029
 40
16.43020554380659
 40
20.27480948326793
 40
30.0244413535436
 40
38.68231906631244
 40
44.86042695308559
 40
50.84409676250284
 40
55.53131514910309
 40
59.39474737481272
 40
62.89426847134007
 40
66.73981864002288
 40
70.5697026848439
 40
78.77034181297337
 40
87.51520375805174
 40
87.51520375805174
 40
87.51520375805174
 40
87.51520375805174
 10
155.4904566003491
 20
-72.01894608308658
 30
0.0
 10
154.4813128375362
 20
-72.46217220472704
 30
0.0
 10
152.4224776778739
 20
-73.66741789247396
 30
0.0
 10
149.5664393269618
 20
-76.23696700498647
 30
0.0
 10
146.8239162606991
 20
-79.65740102578783
 30
0.0
 10
144.4410999660389
 20
-83.34317928701057
 30
0.0
 10
141.3448413047838
 20
-88.69560276989023
 30
0.0
 10
137.784360027916
 20
-95.20311647026136
 30
0.0
 10
133.6769255778332
 20
-102.2951476866262
 30
0.0
 10
130.35170245098
 20
-108.387289559255
 30
0.0
 10
128.0617284124362
 20
-113.5276130326032
 30
0.0
 10
126.8646011768459
 20
-118.2482585898974
 30
0.0
 10
126.7922134093836
 20
-122.2951634970168
 30
0.0
 10
127.6605974729416
 20
-125.9588316182746
 30
0.0
 10
129.4501740858549
 20
-129.2635514077255
 30
0.0
 10
133.0478188577314
 20
-133.1965635387136
 30
0.0
 10
139.2167468304946
 20
-136.6304815128786
 30
0.0
 10
144.9062999873851
 20
-137.4030300642722
 30
0.0
 10
147.8190234807226
 20
-137.2823850207807
 30
0.0
  0
SPLINE
  5
A2
330
1F
100
AcDbEntity
  8
LINEE VISIBILI 2D
100
AcDbSpline
210
0.0
220
0.0
230
1.0
 70
    12
 71
     5
 72
    14
 73
     8
 74
     0
 42
0.0000000001
 43
0.0000000001
 40
0.0
 40
0.0
 40
0.0
 40
0.0
 40
0.0
 40
0.0
 40
443.252870906186
 40
886.505741812372
 40
1329.75861271856
 40
1329.75861271856
 40
1329.75861271856
 40
1329.75861271856
 40
1329.75861271856
 40
1329.75861271856
 10
133.8925200964405
 20
-58.90001968512667
 30
0.0
 41
1.0
 10
138.1863782497202
 20
-64.06054417771611
 30
0.0
 41
1.0
 10
143.2174622564715
 20
-76.32791056691065
 30
0.0
 41
1.0
 10
138.3349390496522
 20
-98.19501228436772
 30
0.0
 41
1.0
 10
131.4152753336433
 20
-118.8327898686232
 30
0.0
 41
1.0
 10
95.09288021534792
 20
-106.3298635091823
 30
0.0
 41
1.0
 10
79.48039804147322
 20
-95.06314806769112
 30
0.0
 41
1.0
 10
74.38511820982603
 20
-89.29496781343266
 30
0.0
 41
1.0
  0
SPLINE
  5
A3
330
1F
100
AcDbEntity
  8
LINEE VISIBILI 2D
100
AcDbSpline
210
0.0
220
0.0
230
1.0
 70
     8
 71
     3
 72
    15
 73
    11
 74
     0
 42
0.0000000001
 43
0.0000000001
 40
0.0
 40
0.0
 40
0.0
 40
0.0
 40
6.396460155564175
 40
14.39324399597486
 40
23.37865614854551
 40
30.63924040783068
 40
35.94670679205944
 40
40.33742114568285
 40
43.95035062636622
 40
46.85902188143667
 40
46.85902188143667
 40
46.85902188143667
 40
46.85902188143667
 10
118.858953269809
 20
99.14346642525766
 30
0.0
 10
116.7268794217817
 20
99.12084473577545
 30
0.0
 10
111.9287442182662
 20
99.20221210312343
 30
0.0
 10
104.1454235557304
 20
99.59768459007927
 30
0.0
 10
96.08207108774297
 20
100.1344310581343
 30
0.0
 10
88.92798728583591
 20
100.8063751421147
 30
0.0
 10
83.32424203432413
 20
101.5610519825901
 30
0.0
 10
78.96246789034342
 20
102.3859282386761
 30
0.0
 10
75.44688956084747
 20
103.3345971695687
 30
0.0
 10
73.42270996155492
 20
104.1409785218527
 30
0.0
 10
72.56092825704297
 20
104.5866114656261
 30
0.0
  0
SPLINE
  5
A4
330
1F
100
AcDbEntity
  8
LINEE VISIBILI 2D
100
AcDbSpline
210
0.0
220
0.0
230
1.0
 70
    24
 71
     2
 72
     6
 73
     3
 74
     0
 42
0.0000000001
 43
0.0000000001
 40
0.0
 40
0.0
 40
0.0
 40
15.86919284198385
 40
15.86919284198385
 40
15.86919284198385
 10
-117.4057854656904
 20
83.30438198989361
 30
0.0
 10
-117.4057854656904
 20
91.23897841088552
 30
0.0
 10
-117.4057854656904
 20
99.17357483187743
 30
0.0
  0
SPLINE
  5
A5
330
1F
100
AcDbEntity
  8
LINEE VISIBILI 2D
100
AcDbSpline
210
0.0
220
0.0
230
1.0
 70
    12
 71
     2
 72
     6
 73
     3
 74
     0
 42
0.0000000001
 43
0.0000000001
 40
0.0
 40
0.0
 40
0.0
 40
0.0940159635826805
 40
0.0940159635826805
 40
0.0940159635826805
 10
-110.1199957807923
 20
81.05078884254004
 30
0.0
 41
1.0
 10
-110.122288322567
 20
81.00383647648236
 30
0.0
 41
0.9999897928366641
 10
-110.1241564937627
 20
80.95686531125739
 30
0.0
 41
1.0
  0
SPLINE
  5
A6
330
1F
100
AcDbEntity
  8
LINEE VISIBILI 2D
100
AcDbSpline
210
0.0
220
0.0
230
1.0
 70
     8
 71
     3
 72
    12
 73
     8
 74
     0
 42
0.0000000001
 43
0.0000000001
 40
0.0
 40
0.0
 40
0.0
 40
0.0
 40
0.5040883420754404
 40
0.9621662920591262
 40
1.780983470618159
 40
2.499958314061875
 40
3.189660302964282
 40
3.189660302964282
 40
3.189660302964282
 40
3.189660302964282
 10
-112.167077020541
 20
83.2682995748977
 30
0.0
 10
-112.0107927905372
 20
83.20693049089562
 30
0.0
 10
-111.7162761905544
 20
83.07830529815169
 30
0.0
 10
-111.1973055147022
 20
82.7896640725391
 30
0.0
 10
-110.6701500388008
 20
82.3749502116101
 30
0.0
 10
-110.2405509423298
 20
81.75674083420171
 30
0.0
 10
-110.1287608387894
 20
81.29088683897271
 30
0.0
 10
-110.1218990474919
 20
81.06119887435068
 30
0.0
  0
SPLINE
  5
A7
330
1F
100
AcDbEntity
  8
LINEE VISIBILI 2D
100
AcDbSpline
210
0.0
220
0.0
230
1.0
 70
    12
 71
     2
 72
     6
 73
     3
 74
     0
 42
0.0000000001
 43
0.0000000001
 40
0.0
 40
0.0
 40
0.0
 40
0.0920888219049946
 40
0.0920888219049946
 40
0.0920888219049946
 10
-124.8191585324141
 20
80.96287886604694
 30
0.0
 41
1.0
 10
-124.8206335698875
 20
81.00890216402652
 30
0.0
 41
0.9999179676302437
 10
-124.8232870067018
 20
81.05487257805044
 30
0.0
 41
1.0
  0
SPLINE
  5
A8
330
1F
100
AcDbEntity
  8
LINEE VISIBILI 2D
100
AcDbSpline
210
0.0
220
0.0
230
1.0
 70
     8
 71
     3
 72
    18
 73
    14
 74
     0
 42
0.0000000001
 43
0.0000000001
 40
0.0
 40
0.0
 40
0.0
 40
0.0
 40
4.853072794541967
 40
9.552771489766924
 40
13.67034972269083
 40
15.38181797021315
 40
16.84345566549921
 40
19.2173477157471
 40
21.34126187750187
 40
23.25092903341622
 40
24.04411211426557
 40
24.33866658112899
 40
25.35252705623273
 40
25.35252705623273
 40
25.35252705623273
 40
25.35252705623273
 10
-77.9205250390346
 20
102.405484158395
 30
0.0
 10
-79.53689543018174
 20
102.4712822407413
 30
0.0
 10
-82.71398620580658
 20
102.7081958596154
 30
0.0
 10
-87.23008211125307
 20
103.3326721847519
 30
0.0
 10
-90.66519249612281
 20
104.0681461976546
 30
0.0
 10
-92.99317561965171
 20
104.7711436048933
 30
0.0
 10
-94.72098043613948
 20
105.432983186077
 30
0.0
 10
-96.46015446153592
 20
106.419663456321
 30
0.0
 10
-97.97582526503766
 20
107.9622204861263
 30
0.0
 10
-98.68219394858198
 20
109.4335281132073
 30
0.0
 10
-98.84889971301163
 20
110.425617636782
 30
0.0
 10
-98.89414228876075
 20
111.1227819922545
 30
0.0
 10
-98.89892514784219
 20
111.5605919734927
 30
0.0
 10
-98.91499405229354
 20
111.8975984667914
 30
0.0
  0
SPLINE
  5
A9
330
1F
100
AcDbEntity
  8
LINEE VISIBILI 2D
100
AcDbSpline
210
0.0
220
0.0
230
1.0
 70
    24
 71
     2
 72
     6
 73
     3
 74
     0
 42
0.0000000001
 43
0.0000000001
 40
0.0
 40
0.0
 40
0.0
 40
15.7704189571073
 40
15.7704189571073
 40
15.7704189571073
 10
-116.6057854656905
 20
99.19940097945369
 30
0.0
 10
-116.6057854656905
 20
91.3141915009
 30
0.0
 10
-116.6057854656905
 20
83.42898202234636
 30
0.0
  0
SPLINE
  5
AA
330
1F
100
AcDbEntity
  8
LINEE VISIBILI 2D
100
AcDbSpline
210
0.0
220
0.0
230
1.0
 70
    12
 71
     2
 72
     8
 73
     5
 74
     0
 42
0.0000000001
 43
0.0000000001
 40
0.0
 40
0.0
 40
0.0
 40
0.1510705535262058
 40
0.1510705535262058
 40
0.1724421343861073
 40
0.1724421343861073
 40
0.1724421343861073
 10
-124.6511620188994
 20
81.00333169976284
 30
0.0
 41
1.0
 10
-124.726610126883
 20
80.99578316385758
 30
0.0
 41
0.9942827269838846
 10
-124.7987348965075
 20
80.97238626236884
 30
0.0
 41
1.0
 10
-124.8090586011902
 20
80.96894246459416
 30
0.0
 41
0.9730455393092928
 10
-124.8167386717641
 20
80.9612317488386
 30
0.0
 41
1.0
  0
SPLINE
  5
AB
330
1F
100
AcDbEntity
  8
LINEE VISIBILI 2D
100
AcDbSpline
210
0.0
220
0.0
230
1.0
 70
    24
 71
     2
 72
     6
 73
     3
 74
     0
 42
0.0000000001
 43
0.0000000001
 40
0.0
 40
0.0
 40
0.0
 40
34.21377954476894
 40
34.21377954476894
 40
34.21377954476894
 10
-64.69575948221143
 20
111.8978007851167
 30
0.0
 10
-81.8026492545959
 20
111.8978007851167
 30
0.0
 10
-98.90953902698038
 20
111.8978007851168
 30
0.0
  0
SPLINE
  5
AC
330
1F
100
AcDbEntity
  8
LINEE VISIBILI 2D
100
AcDbSpline
210
0.0
220
0.0
230
1.0
 70
     8
 71
     3
 72
    17
 73
    13
 74
     0
 42
0.0000000001
 43
0.0000000001
 40
0.0
 40
0.0
 40
0.0
 40
0.0
 40
7.977844088089189
 40
14.93099079201978
 40
20.87618806360028
 40
25.68379366416837
 40
29.13969316302974
 40
31.6985493899876
 40
32.72448721335549
 40
33.76836725336632
 40
34.92616654367919
 40
36.5708598266249
 40
36.5708598266249
 40
36.5708598266249
 40
36.5708598266249
 10
-152.2381487524376
 20
101.7312623197931
 30
0.0
 10
-154.8974332313077
 20
101.7318618870654
 30
0.0
 10
-159.874725570238
 20
101.8250661437556
 30
0.0
 10
-166.8196451895334
 20
102.3073548754403
 30
0.0
 10
-172.6722476163056
 20
103.0983787526559
 30
0.0
 10
-177.2945735738845
 20
104.1661789768325
 30
0.0
 10
-180.6740209841356
 20
105.4619278234147
 30
0.0
 10
-182.619860828135
 20
106.8290478184938
 30
0.0
 10
-183.5027574920368
 20
108.1237252808023
 30
0.0
 10
-183.8644121187522
 20
109.1382942890409
 30
0.0
 10
-184.0461944337643
 20
110.4157188270265
 30
0.0
 10
-184.0411648712442
 20
111.3488957754082
 30
0.0
 10
-184.0427797583403
 20
111.8978007851167
 30
0.0
  0
SPLINE
  5
AD
330
1F
100
AcDbEntity
  8
LINEE VISIBILI 2D
100
AcDbSpline
210
0.0
220
0.0
230
1.0
 70
    12
 71
     2
 72
     6
 73
     3
 74
     0
 42
0.0000000001
 43
0.0000000001
 40
0.0
 40
0.0
 40
0.0
 40
0.4917154947550977
 40
0.4917154947550977
 40
0.4917154947550977
 10
-124.1418818287823
 20
81.04785446775895
 30
0.0
 41
1.0
 10
-124.387477731673
 20
81.03479500859983
 30
0.0
 41
0.999480899004503
 10
-124.6317227752693
 20
81.0059461668746
 30
0.0
 41
1.0
  0
SPLINE
  5
AE
330
1F
100
AcDbEntity
  8
LINEE VISIBILI 2D
100
AcDbSpline
210
0.0
220
0.0
230
1.0
 70
     8
 71
     3
 72
    13
 73
     9
 74
     0
 42
0.0000000001
 43
0.0000000001
 40
0.0
 40
0.0
 40
0.0
 40
0.0
 40
2.250810193196801
 40
4.774493075064297
 40
7.632229087579881
 40
10.84566644537854
 40
18.44731897446966
 40
27.52897534342231
 40
27.52897534342231
 40
27.52897534342231
 40
27.52897534342231
 10
-94.9620581241835
 20
105.6074093007131
 30
0.0
 10
-95.45808997723606
 20
105.0440533792874
 30
0.0
 10
-96.65249328078642
 20
103.9798076228279
 30
0.0
 10
-98.84014405801878
 20
102.6640849084068
 30
0.0
 10
-101.4847136592819
 20
101.5496328384255
 30
0.0
 10
-105.8671564488398
 20
100.2694202763595
 30
0.0
 10
-112.4451331662788
 20
99.2972158508112
 30
0.0
 10
-118.008510562884
 20
99.11392994540847
 30
0.0
 10
-121.035878458716
 20
99.1412369820111
 30
0.0
  0
SPLINE
  5
AF
330
1F
100
AcDbEntity
  8
LINEE VISIBILI 2D
100
AcDbSpline
210
0.0
220
0.0
230
1.0
 70
    24
 71
     3
 72
     9
 73
     5
 74
     0
 42
0.0000000001
 43
0.0000000001
 40
0.0
 40
0.0
 40
0.0
 40
0.0
 40
0.0077037050300817
 40
13.56099709003722
 40
13.56099709003722
 40
13.56099709003722
 40
13.56099709003722
 10
-51.15016980223425
 20
111.8978007851167
 30
0.0
 10
-51.13755131542257
 20
111.8978007851172
 30
0.0
 10
-55.65729941466202
 20
111.8978007851166
 30
0.0
 10
-60.17820704222493
 20
111.8978007851172
 30
0.0
 10
-64.69575948221132
 20
111.8978007851167
 30
0.0
  0
SPLINE
  5
B0
330
1F
100
AcDbEntity
  8
LINEE VISIBILI 2D
100
AcDbSpline
210
0.0
220
0.0
230
1.0
 70
     8
 71
     3
 72
    11
 73
     7
 74
     0
 42
0.0000000001
 43
0.0000000001
 40
0.0
 40
0.0
 40
0.0
 40
0.0
 40
0.2989126593604678
 40
0.5906619302656735
 40
1.186081053451699
 40
2.553500460740234
 40
2.553500460740234
 40
2.553500460740234
 40
2.553500460740234
 10
83.53388764844419
 20
81.14235663588329
 30
0.0
 10
83.53563600566565
 20
81.24149663604743
 30
0.0
 10
83.55894376682033
 20
81.4392751511445
 30
0.0
 10
83.65653896213473
 20
81.82079895903166
 30
0.0
 10
84.03003004127197
 20
82.49100038565348
 30
0.0
 10
84.59966367225195
 20
82.86008577177057
 30
0.0
 10
85.0096967249192
 20
83.05139534245473
 30
0.0
  0
SPLINE
  5
B1
330
1F
100
AcDbEntity
  8
LINEE VISIBILI 2D
100
AcDbSpline
210
0.0
220
0.0
230
1.0
 70
     8
 71
     3
 72
    22
 73
    18
 74
     0
 42
0.0000000001
 43
0.0000000001
 40
0.0
 40
0.0
 40
0.0
 40
0.0
 40
1.500461579807402
 40
4.691508412109682
 40
7.185650234154614
 40
12.23400066703594
 40
16.48473585943213
 40
19.721644072719
 40
20.8933513002891
 40
21.81753195914482
 40
23.4567350057914
 40
24.40732850891187
 40
25.22661697613264
 40
25.78729997738543
 40
26.03105667000593
 40
26.12483077166464
 40
26.92105998336527
 40
26.92105998336527
 40
26.92105998336527
 40
26.92105998336527
 10
85.79147689992271
 20
104.7084918403749
 30
0.0
 10
85.29178001402886
 20
104.7301670283184
 30
0.0
 10
83.73020252729145
 20
104.8141797114096
 30
0.0
 10
81.33866106526796
 20
104.9469621429351
 30
0.0
 10
77.76742877173331
 20
105.1641076798184
 30
0.0
 10
73.84997199365569
 20
105.5005308188966
 30
0.0
 10
69.7057582849975
 20
106.0481029390304
 30
0.0
 10
66.88012907847974
 20
106.6576232589622
 30
0.0
 10
65.19216091874921
 20
107.220115727421
 30
0.0
 10
64.0457661256396
 20
107.712866981188
 30
0.0
 10
63.12456541995084
 20
108.4721597104615
 30
0.0
 10
62.49687110172431
 20
109.4255346380456
 30
0.0
 10
62.15739668891581
 20
110.1259245756596
 30
0.0
 10
62.03908012577938
 20
110.6596612548988
 30
0.0
 10
62.0243188035862
 20
110.958188171866
 30
0.0
 10
62.01040110916597
 20
111.3359449545769
 30
0.0
 10
62.00009801890678
 20
111.6324441305652
 30
0.0
 10
61.98968406989366
 20
111.8976466139874
 30
0.0
  0
SPLINE
  5
B2
330
1F
100
AcDbEntity
  8
LINEE VISIBILI 2D
100
AcDbSpline
210
0.0
220
0.0
230
1.0
 70
     8
 71
     3
 72
    17
 73
    13
 74
     0
 42
0.0000000001
 43
0.0000000001
 40
0.0
 40
0.0
 40
0.0
 40
0.0
 40
7.17504501325109
 40
13.41552264471885
 40
18.70170078030229
 40
23.00243542740535
 40
26.09701266211161
 40
28.46847228416961
 40
29.46347743347537
 40
30.51180468930608
 40
31.6837868571525
 40
33.32797622555722
 40
33.32797622555722
 40
33.32797622555722
 40
33.32797622555722
 10
155.2000962086935
 20
101.7316759880448
 30
0.0
 10
152.8085437559293
 20
101.73725399879
 30
0.0
 10
148.3362155771989
 20
101.8350012184255
 30
0.0
 10
142.1179055657361
 20
102.3100805301019
 30
0.0
 10
136.8946449006289
 20
103.0867286409656
 30
0.0
 10
132.7926223038544
 20
104.1397172917318
 30
0.0
 10
129.7912509035926
 20
105.4396732375199
 30
0.0
 10
128.0942673366688
 20
106.8176358062008
 30
0.0
 10
127.337972693777
 20
108.1038485454373
 30
0.0
 10
127.0156495045279
 20
109.1259697037169
 30
0.0
 10
126.8575897441561
 20
110.4117823687476
 30
0.0
 10
126.8593637324549
 20
111.3489232868229
 30
0.0
 10
126.8588197482235
 20
111.8978061818312
 30
0.0
  0
SPLINE
  5
B3
330
1F
100
AcDbEntity
  8
LINEE VISIBILI 2D
100
AcDbSpline
210
0.0
220
0.0
230
1.0
 70
    12
 71
     3
 72
     8
 73
     4
 74
     0
 42
0.0000000001
 43
0.0000000001
 40
-1.0
 40
-1.0
 40
-1.0
 40
-1.0
 40
0.0
 40
0.0
 40
0.0
 40
0.0
 10
86.47145849796391
 20
83.34728075021161
 30
0.0
 41
1.0
 10
86.44280601764342
 20
83.30912891480762
 30
0.0
 41
1.0
 10
86.48144998129817
 20
83.28239034972916
 30
0.0
 41
1.0
 10
86.58614737860341
 20
83.28575304344946
 30
0.0
 41
1.0
  0
SPLINE
  5
B4
330
1F
100
AcDbEntity
  8
LINEE VISIBILI 2D
100
AcDbSpline
210
0.0
220
0.0
230
1.0
 70
    12
 71
     3
 72
     8
 73
     4
 74
     0
 42
0.0000000001
 43
0.0000000001
 40
-0.999446211153308
 40
-0.999446211153308
 40
-0.999446211153308
 40
-0.999446211153308
 40
0.0
 40
0.0
 40
0.0
 40
0.0
 10
85.90786311881504
 20
83.3434504401597
 30
0.0
 41
1.0
 10
86.25925884004289
 20
83.43714955131975
 30
0.0
 41
1.0
 10
86.56781253296344
 20
83.47556880387856
 30
0.0
 41
1.0
 10
86.47145849796391
 20
83.34728075021161
 30
0.0
 41
1.0
  0
SPLINE
  5
B5
330
1F
100
AcDbEntity
  8
LINEE VISIBILI 2D
100
AcDbSpline
210
0.0
220
0.0
230
1.0
 70
    12
 71
     2
 72
     6
 73
     3
 74
     0
 42
0.0000000001
 43
0.0000000001
 40
0.0
 40
0.0
 40
0.0
 40
0.1007701556061829
 40
0.1007701556061829
 40
0.1007701556061829
 10
85.80969672498543
 20
83.31815374325356
 30
0.0
 41
1.0
 10
85.85859959104289
 20
83.33029044409483
 30
0.0
 41
0.999960487800238
 10
85.90727895884322
 20
83.34329463443885
 30
0.0
 41
1.0
  0
SPLINE
  5
B6
330
1F
100
AcDbEntity
  8
LINEE VISIBILI 2D
100
AcDbSpline
210
0.0
220
0.0
230
1.0
 70
    12
 71
     2
 72
     6
 73
     3
 74
     0
 42
0.0000000001
 43
0.0000000001
 40
0.0
 40
0.0
 40
0.0
 40
0.0972992942106493
 40
0.0972992942106493
 40
0.0972992942106493
 10
85.906012883279
 20
83.35309001460018
 30
0.0
 41
1.0
 10
85.85770648335296
 20
83.34725778058362
 30
0.0
 41
0.9997671396639477
 10
85.80969672527795
 20
83.33934662662125
 30
0.0
 41
1.0
  0
SPLINE
  5
B7
330
1F
100
AcDbEntity
  8
LINEE VISIBILI 2D
100
AcDbSpline
210
0.0
220
0.0
230
1.0
 70
    12
 71
     3
 72
     8
 73
     4
 74
     0
 42
0.0000000001
 43
0.0000000001
 40
-0.2603458740691537
 40
-0.2603458740691537
 40
-0.2603458740691537
 40
-0.2603458740691537
 40
-0.129993230834527
 40
-0.129993230834527
 40
-0.129993230834527
 40
-0.129993230834527
 10
85.00969672500435
 20
82.86786052773743
 30
0.0
 41
1.0
 10
84.92543089737853
 20
82.7966349773468
 30
0.0
 41
1.0
 10
84.8701663554674
 20
82.72287342378058
 30
0.0
 41
1.0
 10
84.89819588672265
 20
82.68052163352064
 30
0.0
 41
1.0
  0
SPLINE
  5
B8
330
1F
100
AcDbEntity
  8
LINEE VISIBILI 2D
100
AcDbSpline
210
0.0
220
0.0
230
1.0
 70
    12
 71
     2
 72
     6
 73
     3
 74
     0
 42
0.0000000001
 43
0.0000000001
 40
0.0
 40
0.0
 40
0.0
 40
0.0786205071042979
 40
0.0786205071042979
 40
0.0786205071042979
 10
85.88639409758969
 20
83.2066314003153
 30
0.0
 41
1.0
 10
85.84958612032658
 20
83.22414298246944
 30
0.0
 41
0.9474479118905568
 10
85.80969672491904
 20
83.21575734988937
 30
0.0
 41
1.0
  0
SPLINE
  5
B9
330
1F
100
AcDbEntity
  8
LINEE VISIBILI 2D
100
AcDbSpline
210
0.0
220
0.0
230
1.0
 70
    12
 71
     2
 72
     6
 73
     3
 74
     0
 42
0.0000000001
 43
0.0000000001
 40
0.0
 40
0.0
 40
0.0
 40
0.0568513246326739
 40
0.0568513246326739
 40
0.0568513246326739
 10
85.87560144934662
 20
83.15646084279842
 30
0.0
 41
1.0
 10
85.90560397123365
 20
83.1762528569366
 30
0.0
 41
0.7138908978040494
 10
85.88639409758969
 20
83.20663140031536
 30
0.0
 41
1.0
  0
SPLINE
  5
BA
330
1F
100
AcDbEntity
  8
LINEE VISIBILI 2D
100
AcDbSpline
210
0.0
220
0.0
230
1.0
 70
    12
 71
     3
 72
    10
 73
     6
 74
     0
 42
0.0000000001
 43
0.0000000001
 40
-1.0
 40
-1.0
 40
-1.0
 40
-1.0
 40
-0.8463679768279718
 40
-0.8463679768279718
 40
-0.69311235764313
 40
-0.69311235764313
 40
-0.69311235764313
 40
-0.69311235764313
 10
85.13377538862142
 20
82.69974350740893
 30
0.0
 41
1.0
 10
85.2593920969465
 20
82.7480490341116
 30
0.0
 41
1.0
 10
85.41962932921263
 20
82.83449594791352
 30
0.0
 41
1.0
 10
85.70662712488786
 20
83.01028654902763
 30
0.0
 41
1.0
 10
85.83251018429337
 20
83.09855766961903
 30
0.0
 41
1.0
 10
85.87560144934662
 20
83.15646084279842
 30
0.0
 41
1.0
  0
SPLINE
  5
BB
330
1F
100
AcDbEntity
  8
LINEE VISIBILI 2D
100
AcDbSpline
210
0.0
220
0.0
230
1.0
 70
    12
 71
     2
 72
     8
 73
     5
 74
     0
 42
0.0000000001
 43
0.0000000001
 40
0.0
 40
0.0
 40
0.0
 40
0.1570796326795851
 40
0.1570796326795851
 40
0.3141592653591703
 40
0.3141592653591703
 40
0.3141592653591703
 10
91.47263198387441
 20
-101.5208758148981
 30
0.0
 41
1.0
 10
91.52263198387982
 20
-101.6074783552736
 30
0.0
 41
0.7071067811861426
 10
91.43602944350425
 20
-101.6574783552789
 30
0.0
 41
1.0
 10
91.3494269031289
 20
-101.7074783552842
 30
0.0
 41
0.7071067811861426
 10
91.29942690312362
 20
-101.6208758149086
 30
0.0
 41
1.0
  0
SPLINE
  5
BC
330
1F
100
AcDbEntity
  8
LINEE VISIBILI 2D
100
AcDbSpline
210
0.0
220
0.0
230
1.0
 70
    12
 71
     3
 72
     8
 73
     4
 74
     0
 42
0.0000000001
 43
0.0000000001
 40
-0.0902296038032193
 40
-0.0902296038032193
 40
-0.0902296038032193
 40
-0.0902296038032193
 40
0.0
 40
0.0
 40
0.0
 40
0.0
 10
84.89819588672265
 20
82.68052163352064
 30
0.0
 41
1.0
 10
84.92197985152563
 20
82.64492054087395
 30
0.0
 41
1.0
 10
85.01344688406596
 20
82.65530344465247
 30
0.0
 41
1.0
 10
85.11859807658004
 20
82.69402973632998
 30
0.0
 41
1.0
  0
SPLINE
  5
BD
330
1F
100
AcDbEntity
  8
LINEE VISIBILI 2D
100
AcDbSpline
210
0.0
220
0.0
230
1.0
 70
    12
 71
     2
 72
     6
 73
     3
 74
     0
 42
0.0000000001
 43
0.0000000001
 40
0.0
 40
0.0
 40
0.0
 40
0.1570796326793151
 40
0.1570796326793151
 40
0.1570796326793151
 10
91.33602944349389
 20
-101.484273274528
 30
0.0
 41
1.0
 10
91.42263198386924
 20
-101.434273274523
 30
0.0
 41
0.7071067811872388
 10
91.4726319838743
 20
-101.5208758148981
 30
0.0
 41
1.0
  0
SPLINE
  5
BE
330
1F
100
AcDbEntity
  8
LINEE VISIBILI 2D
100
AcDbSpline
210
0.0
220
0.0
230
1.0
 70
    12
 71
     2
 72
     6
 73
     3
 74
     0
 42
0.0000000001
 43
0.0000000001
 40
0.0
 40
0.0
 40
0.0
 40
0.157079632679545
 40
0.157079632679545
 40
0.157079632679545
 10
91.29942690312362
 20
-101.6208758149086
 30
0.0
 41
1.0
 10
91.24942690311818
 20
-101.5342732745331
 30
0.0
 41
0.7071067811844468
 10
91.33602944349389
 20
-101.4842732745281
 30
0.0
 41
1.0
  0
SPLINE
  5
BF
330
1F
100
AcDbEntity
  8
LINEE VISIBILI 2D
100
AcDbSpline
210
0.0
220
0.0
230
1.0
 70
     8
 71
     3
 72
    17
 73
    13
 74
     0
 42
0.0000000001
 43
0.0000000001
 40
0.0
 40
0.0
 40
0.0
 40
0.0
 40
0.6895808834700766
 40
1.449172564114281
 40
3.285009061958942
 40
5.72967477061509
 40
8.70119589528084
 40
11.65868986378461
 40
14.0949994517787
 40
15.91670931177903
 40
16.66378982136427
 40
17.36218006770667
 40
17.36218006770667
 40
17.36218006770667
 40
17.36218006770667
 10
-110.1219572953482
 20
80.94945964069291
 30
0.0
 10
-110.1317280341629
 20
80.71853427892995
 30
0.0
 10
-110.2384807487035
 20
80.24322428144194
 30
0.0
 10
-110.8686737571185
 20
79.31600912440155
 30
0.0
 10
-112.3402923989752
 20
78.44032067710054
 30
0.0
 10
-114.699602215665
 20
77.86037161188852
 30
0.0
 10
-117.4917033497049
 20
77.66268685246541
 30
0.0
 10
-120.2803262726997
 20
77.86633626276489
 30
0.0
 10
-122.6265947992425
 20
78.45040975924223
 30
0.0
 10
-124.0835450559215
 20
79.3263208313378
 30
0.0
 10
-124.7075563359843
 20
80.25093182713431
 30
0.0
 10
-124.8122012727675
 20
80.72467372243813
 30
0.0
 10
-124.8214054410489
 20
80.95900797452884
 30
0.0
  0
SPLINE
  5
C0
330
1F
100
AcDbEntity
  8
LINEE VISIBILI 2D
100
AcDbSpline
210
0.0
220
0.0
230
1.0
 70
    12
 71
     2
 72
     6
 73
     3
 74
     0
 42
0.0000000001
 43
0.0000000001
 40
0.0
 40
0.0
 40
0.0
 40
0.0932164710449494
 40
0.0932164710449494
 40
0.0932164710449494
 10
83.5342464285983
 20
81.03851468807619
 30
0.0
 41
1.0
 10
83.53456610350557
 20
81.08512182980122
 30
0.0
 41
0.9999999194518627
 10
83.53484836508312
 20
81.13172921312423
 30
0.0
 41
1.0
  0
SPLINE
  5
C1
330
1F
100
AcDbEntity
  8
LINEE VISIBILI 2D
100
AcDbSpline
210
0.0
220
0.0
230
1.0
 70
    12
 71
     2
 72
     6
 73
     3
 74
     0
 42
0.0000000001
 43
0.0000000001
 40
0.0
 40
0.0
 40
0.0
 40
0.6447491076250563
 40
0.6447491076250563
 40
0.6447491076250563
 10
87.12474891628597
 20
83.30611316475142
 30
0.0
 41
1.0
 10
86.80384237745943
 20
83.33686479100577
 30
0.0
 41
0.9999905012346515
 10
86.4826799655807
 20
83.36481786552298
 30
0.0
 41
1.0
  0
SPLINE
  5
C2
330
1F
100
AcDbEntity
  8
LINEE VISIBILI 2D
100
AcDbSpline
210
0.0
220
0.0
230
1.0
 70
    12
 71
     2
 72
     6
 73
     3
 74
     0
 42
0.0000000001
 43
0.0000000001
 40
0.0
 40
0.0
 40
0.0
 40
4.322797322554096
 40
4.322797322554096
 40
4.322797322554096
 10
97.57085802774066
 20
83.31590918147236
 30
0.0
 41
1.0
 10
95.40975328606872
 20
83.36007826260932
 30
0.0
 41
0.9998907757213765
 10
93.24828721300617
 20
83.34035449000288
 30
0.0
 41
1.0
  0
SPLINE
  5
C3
330
1F
100
AcDbEntity
  8
LINEE VISIBILI 2D
100
AcDbSpline
210
0.0
220
0.0
230
1.0
 70
     8
 71
     3
 72
    30
 73
    26
 74
     0
 42
0.0000000001
 43
0.0000000001
 40
0.0
 40
0.0
 40
0.0
 40
0.0
 40
0.8246222652702393
 40
1.728901286038819
 40
3.923171568994701
 40
6.434451825506395
 40
9.381020836669094
 40
16.7221500300794
 40
19.53988393382137
 40
22.06997582411518
 40
25.61572855412901
 40
28.0350511650167
 40
30.12106016759315
 40
31.25161902321506
 40
31.80320222969222
 40
32.37826368711941
 40
33.02443266990544
 40
34.58634335993892
 40
35.90158797579193
 40
36.55749842565974
 40
37.52510886341422
 40
38.24046552792434
 40
38.51099039882546
 40
38.587671083395
 40
39.46733150526334
 40
39.46733150526334
 40
39.46733150526334
 40
39.46733150526334
 10
73.7128287071979
 20
105.5501391002522
 30
0.0
 10
73.53192643245472
 20
105.343218719356
 30
0.0
 10
73.11319245818368
 20
104.9435548888395
 30
0.0
 10
72.02005135137756
 20
104.2191258072198
 30
0.0
 10
70.30054431823305
 20
103.4629983688193
 30
0.0
 10
67.82154218996334
 20
102.8368241755665
 30
0.0
 10
63.58493312664609
 20
102.2841798571542
 30
0.0
 10
59.20396585556773
 20
102.3218091041365
 30
0.0
 10
54.98646575899943
 20
102.5978186311171
 30
0.0
 10
52.02783932066518
 20
102.8134281563122
 30
0.0
 10
49.22178463912269
 20
103.2069089057709
 30
0.0
 10
46.59981572886875
 20
103.7902333477456
 30
0.0
 10
44.80258020411611
 20
104.342619690623
 30
0.0
 10
43.64305977171182
 20
104.8300591145202
 30
0.0
 10
42.97185774842319
 20
105.1703718756755
 30
0.0
 10
42.47521798102798
 20
105.492895749628
 30
0.0
 10
41.77089575761181
 20
106.1013126868054
 30
0.0
 10
41.07449530044187
 20
107.0625648012964
 30
0.0
 10
40.62985710743533
 20
108.1589355638117
 30
0.0
 10
40.37478650914011
 20
109.1049862884755
 30
0.0
 10
40.24314126963509
 20
109.8748765609282
 30
0.0
 10
40.18445889016289
 20
110.5233817224949
 30
0.0
 10
40.16988715418643
 20
110.8774521909193
 30
0.0
 10
40.15511621419978
 20
111.286105133069
 30
0.0
 10
40.1438445806084
 20
111.6046867182439
 30
0.0
 10
40.13321374033353
 20
111.8977139119118
 30
0.0
  0
SPLINE
  5
C4
330
1F
100
AcDbEntity
  8
LINEE VISIBILI 2D
100
AcDbSpline
210
0.0
220
0.0
230
1.0
 70
    12
 71
     2
 72
     6
 73
     3
 74
     0
 42
0.0000000001
 43
0.0000000001
 40
0.0
 40
0.0
 40
0.0
 40
0.2904817894854714
 40
0.2904817894854714
 40
0.2904817894854714
 10
98.97922598146272
 20
83.30476795096837
 30
0.0
 41
1.0
 10
98.84316031470361
 20
83.35566034557814
 30
0.0
 41
0.9996807193528962
 10
98.70469734095082
 20
83.3996138027722
 30
0.0
 41
1.0
  0
SPLINE
  5
C5
330
1F
100
AcDbEntity
  8
LINEE VISIBILI 2D
100
AcDbSpline
210
0.0
220
0.0
230
1.0
 70
    12
 71
     3
 72
     8
 73
     4
 74
     0
 42
0.0000000001
 43
0.0000000001
 40
-1.0
 40
-1.0
 40
-1.0
 40
-1.0
 40
0.0
 40
0.0
 40
0.0
 40
0.0
 10
98.99714028581752
 20
83.28865553387465
 30
0.0
 41
1.0
 10
99.0140196342985
 20
83.28861409093793
 30
0.0
 41
1.0
 10
98.99835108024683
 20
83.2975954017806
 30
0.0
 41
1.0
 10
98.97922598146272
 20
83.30476795096837
 30
0.0
 41
1.0
  0
SPLINE
  5
C6
330
1F
100
AcDbEntity
  8
LINEE VISIBILI 2D
100
AcDbSpline
210
0.0
220
0.0
230
1.0
 70
    12
 71
     2
 72
     6
 73
     3
 74
     0
 42
0.0000000001
 43
0.0000000001
 40
0.0
 40
0.0
 40
0.0
 40
0.070307211596555
 40
0.070307211596555
 40
0.070307211596555
 10
98.9265110720902
 20
83.30486814328032
 30
0.0
 41
1.0
 10
98.9594866019383
 20
83.29206016996942
 30
0.0
 41
0.9906154745427652
 10
98.99469839093501
 20
83.28866021927058
 30
0.0
 41
1.0
  0
SPLINE
  5
C7
330
1F
100
AcDbEntity
  8
LINEE VISIBILI 2D
100
AcDbSpline
210
0.0
220
0.0
230
1.0
 70
    12
 71
     2
 72
     6
 73
     3
 74
     0
 42
0.0000000001
 43
0.0000000001
 40
0.0
 40
0.0
 40
0.0
 40
0.2921607305895118
 40
0.2921607305895118
 40
0.2921607305895118
 10
98.65021738100381
 20
83.399746984822
 30
0.0
 41
1.0
 10
98.78954754486459
 20
83.35575346811596
 30
0.0
 41
0.9996890490982236
 10
98.9265110720902
 20
83.30486814328032
 30
0.0
 41
1.0
  0
SPLINE
  5
C8
330
1F
100
AcDbEntity
  8
LINEE VISIBILI 2D
100
AcDbSpline
210
0.0
220
0.0
230
1.0
 70
     8
 71
     3
 72
    15
 73
    11
 74
     0
 42
0.0000000001
 43
0.0000000001
 40
0.0
 40
0.0
 40
0.0
 40
0.0
 40
2.126081881422264
 40
4.378851270225868
 40
6.241109566941477
 40
9.146005152606763
 40
10.09389219663155
 40
10.88629528521954
 40
11.77373292894633
 40
12.069385367992
 40
12.069385367992
 40
12.069385367992
 40
12.069385367992
 10
86.58614737860341
 20
83.28575304344946
 30
0.0
 10
87.29449460934677
 20
83.30775128929531
 30
0.0
 10
88.75384763879094
 20
83.33908041245155
 30
0.0
 10
90.83422979415582
 20
83.34930743798986
 30
0.0
 10
93.17420625064722
 20
83.3399810468452
 30
0.0
 10
95.07889011150053
 20
83.29695057373453
 30
0.0
 10
96.62705023679393
 20
83.27819978754235
 30
0.0
 10
97.50327037675163
 20
83.29941396230788
 30
0.0
 10
98.15830876321911
 20
83.37164491720989
 30
0.0
 10
98.55144560944302
 20
83.40100910472506
 30
0.0
 10
98.65021738100393
 20
83.39974698482206
 30
0.0
  0
SPLINE
  5
C9
330
1F
100
AcDbEntity
  8
LINEE VISIBILI 2D
100
AcDbSpline
210
0.0
220
0.0
230
1.0
 70
     8
 71
     3
 72
    18
 73
    14
 74
     0
 42
0.0000000001
 43
0.0000000001
 40
0.0
 40
0.0
 40
0.0
 40
0.0
 40
1.620359644554917
 40
2.779065394689522
 40
3.84600830769035
 40
4.92195595843069
 40
6.163255738362365
 40
7.615669329685828
 40
11.33583144204481
 40
16.57825912131727
 40
23.0507523356201
 40
30.69353932966139
 40
39.32626866713422
 40
39.32626866713422
 40
39.32626866713422
 40
39.32626866713422
 10
-117.544562022796
 20
111.8978007851167
 30
0.0
 10
-117.5451084612588
 20
111.3581081150921
 30
0.0
 10
-117.54299452342
 20
110.429779247647
 30
0.0
 10
-117.7315926956107
 20
109.1573295534876
 30
0.0
 10
-118.1328745255529
 20
108.1220154910174
 30
0.0
 10
-118.8095472553933
 20
107.2084436589038
 30
0.0
 10
-119.7702455614493
 20
106.3891700878107
 30
0.0
 10
-121.6265068908218
 20
105.3126611029626
 30
0.0
 10
-124.9145289146044
 20
104.1567451771065
 30
0.0
 10
-129.9534615017243
 20
103.093225468851
 30
0.0
 10
-136.362218770694
 20
102.3010438855433
 30
0.0
 10
-143.9316068673919
 20
101.824248672741
 30
0.0
 10
-149.3576258660439
 20
101.7315183788845
 30
0.0
 10
-152.235009226465
 20
101.731262295983
 30
0.0
  0
SPLINE
  5
CA
330
1F
100
AcDbEntity
  8
LINEE VISIBILI 2D
100
AcDbSpline
210
0.0
220
0.0
230
1.0
 70
    12
 71
     2
 72
     6
 73
     3
 74
     0
 42
0.0000000001
 43
0.0000000001
 40
0.0
 40
0.0
 40
0.0
 40
0.802069491083976
 40
0.802069491083976
 40
0.802069491083976
 10
-113.0041489329598
 20
83.33519961298794
 30
0.0
 41
1.0
 10
-113.4038934942822
 20
83.3696827258112
 30
0.0
 41
0.9992735213413078
 10
-113.8051032993754
 20
83.37361867220159
 30
0.0
 41
1.0
  0
SPLINE
  5
CB
330
1F
100
AcDbEntity
  8
LINEE VISIBILI 2D
100
AcDbSpline
210
0.0
220
0.0
230
1.0
 70
    12
 71
     2
 72
     6
 73
     3
 74
     0
 42
0.0000000001
 43
0.0000000001
 40
0.0
 40
0.0
 40
0.0
 40
0.0598002176535595
 40
0.0598002176535595
 40
0.0598002176535595
 10
-113.8051032993754
 20
83.37361867220159
 30
0.0
 41
1.0
 10
-113.7792511151111
 20
83.35859321528368
 30
0.0
 41
0.9999301427212037
 10
-113.7537613279749
 20
83.3429608597803
 30
0.0
 41
1.0
  0
SPLINE
  5
CC
330
1F
100
AcDbEntity
  8
LINEE VISIBILI 2D
100
AcDbSpline
210
0.0
220
0.0
230
1.0
 70
    12
 71
     2
 72
     6
 73
     3
 74
     0
 42
0.0000000001
 43
0.0000000001
 40
0.0
 40
0.0
 40
0.0
 40
0.5310353007915908
 40
0.5310353007915908
 40
0.5310353007915908
 10
98.70469734095082
 20
83.3996138027722
 30
0.0
 41
1.0
 10
98.97166878724501
 20
83.40443930036629
 30
0.0
 41
0.991609288664376
 10
99.23095463051743
 20
83.34065928749465
 30
0.0
 41
1.0
  0
SPLINE
  5
CD
330
1F
100
AcDbEntity
  8
LINEE VISIBILI 2D
100
AcDbSpline
210
0.0
220
0.0
230
1.0
 70
     8
 71
     3
 72
    16
 73
    12
 74
     0
 42
0.0000000001
 43
0.0000000001
 40
0.0
 40
0.0
 40
0.0
 40
0.0
 40
0.5092140906949384
 40
1.744956493576967
 40
2.39616211008798
 40
3.041594865447884
 40
6.706452435402573
 40
8.122649437552486
 40
8.57116426771491
 40
8.72438975797294
 40
8.819940093920765
 40
8.819940093920765
 40
8.819940093920765
 40
8.819940093920765
 10
-120.9824908067901
 20
83.39960840605772
 30
0.0
 10
-120.812801781714
 20
83.39903176983097
 30
0.0
 10
-120.2310815276327
 20
83.38094977362437
 30
0.0
 10
-119.4353944990369
 20
83.31090018956763
 30
0.0
 10
-118.5914367025652
 20
83.2788080974297
 30
0.0
 10
-116.9377341599458
 20
83.29531031680062
 30
0.0
 10
-115.0295883690558
 20
83.36558401844883
 30
0.0
 10
-113.1861504604803
 20
83.33608804666773
 30
0.0
 10
-112.5141158581953
 20
83.30786170296744
 30
0.0
 10
-112.2824842577193
 20
83.28765896042921
 30
0.0
 10
-112.2002221080479
 20
83.27666671078885
 30
0.0
 10
-112.1692843991384
 20
83.26900037141172
 30
0.0
  0
SPLINE
  5
CE
330
1F
100
AcDbEntity
  8
LINEE VISIBILI 2D
100
AcDbSpline
210
0.0
220
0.0
230
1.0
 70
    24
 71
     2
 72
     6
 73
     3
 74
     0
 42
0.0000000001
 43
0.0000000001
 40
0.0
 40
0.0
 40
0.0
 40
16.03280981530932
 40
16.03280981530932
 40
16.03280981530932
 10
-126.5658998554066
 20
-116.1269998679006
 30
0.0
 10
-126.6970166523829
 20
-124.1423324267543
 30
0.0
 10
-126.8281334493593
 20
-132.157664985608
 30
0.0
  0
SPLINE
  5
CF
330
1F
100
AcDbEntity
  8
LINEE VISIBILI 2D
100
AcDbSpline
210
0.0
220
0.0
230
1.0
 70
    12
 71
     2
 72
     6
 73
     3
 74
     0
 42
0.0000000001
 43
0.0000000001
 40
0.0
 40
0.0
 40
0.0
 40
0.0165924557937014
 40
0.0165924557937014
 40
0.0165924557937014
 10
-113.8875993648927
 20
-132.8641586632209
 30
0.0
 41
1.0
 10
-113.8879573818225
 20
-132.8724471981176
 30
0.0
 41
0.9999935759430788
 10
-113.8882559707403
 20
-132.8807380865811
 30
0.0
 41
1.0
  0
SPLINE
  5
D0
330
1F
100
AcDbEntity
  8
LINEE VISIBILI 2D
100
AcDbSpline
210
0.0
220
0.0
230
1.0
 70
     8
 71
     3
 72
    12
 73
     8
 74
     0
 42
0.0000000001
 43
0.0000000001
 40
0.0
 40
0.0
 40
0.0
 40
0.0
 40
0.6791164021239939
 40
1.310529529436997
 40
2.406382179954283
 40
3.34895653832804
 40
4.240345040478924
 40
4.240345040478924
 40
4.240345040478924
 40
4.240345040478924
 10
-116.9377339113065
 20
-130.2939440824469
 30
0.0
 10
-116.7162775639142
 20
-130.339476552546
 30
0.0
 10
-116.2910826983323
 20
-130.4449179655412
 30
0.0
 10
-115.5359936000015
 20
-130.7150129560205
 30
0.0
 10
-114.7503479670029
 20
-131.1514871850403
 30
0.0
 10
-114.088594478209
 20
-131.8938218488668
 30
0.0
 10
-113.9048375466902
 20
-132.4946660760768
 30
0.0
 10
-113.8894456580611
 20
-132.7912215311744
 30
0.0
  0
SPLINE
  5
D1
330
1F
100
AcDbEntity
  8
LINEE VISIBILI 2D
100
AcDbSpline
210
0.0
220
0.0
230
1.0
 70
    12
 71
     2
 72
     6
 73
     3
 74
     0
 42
0.0000000001
 43
0.0000000001
 40
0.0
 40
0.0
 40
0.0
 40
0.0929758030867481
 40
0.0929758030867481
 40
0.0929758030867481
 10
-128.6012953500544
 20
-134.449851609933
 30
0.0
 41
1.0
 10
-128.6019999170815
 20
-134.4033690064204
 30
0.0
 41
0.9999986624731253
 10
-128.6028565301801
 20
-134.356888956313
 30
0.0
 41
1.0
  0
SPLINE
  5
D2
330
1F
100
AcDbEntity
  8
LINEE VISIBILI 2D
100
AcDbSpline
210
0.0
220
0.0
230
1.0
 70
     8
 71
     3
 72
    17
 73
    13
 74
     0
 42
0.0000000001
 43
0.0000000001
 40
0.0
 40
0.0
 40
0.0
 40
0.0
 40
1.173711289382896
 40
1.939864558567828
 40
3.550976397707066
 40
6.735082542197399
 40
10.15148901389712
 40
14.17566458798695
 40
18.93916595961412
 40
24.33435134607386
 40
30.72453257124959
 40
36.91572367779533
 40
36.91572367779533
 40
36.91572367779533
 40
36.91572367779533
 10
-145.0060724428097
 20
-103.9348692888769
 30
0.0
 10
-145.0373722194411
 20
-104.3245408670439
 30
0.0
 10
-145.061005084431
 20
-104.971997826671
 30
0.0
 10
-145.2184379705914
 20
-106.1455228584916
 30
0.0
 10
-145.6711871095807
 20
-107.9507284042278
 30
0.0
 10
-147.160183359226
 20
-110.3263816013134
 30
0.0
 10
-150.1813078871613
 20
-112.3040178120024
 30
0.0
 10
-154.1502379211549
 20
-113.3330786827747
 30
0.0
 10
-158.897429188186
 20
-113.4867218917174
 30
0.0
 10
-164.3771066519342
 20
-112.7327974900706
 30
0.0
 10
-170.1571301249144
 20
-111.1112754766095
 30
0.0
 10
-174.0688949907552
 20
-109.5871523989345
 30
0.0
 10
-175.9250439359822
 20
-108.6814391629943
 30
0.0
  0
SPLINE
  5
D3
330
1F
100
AcDbEntity
  8
LINEE VISIBILI 2D
100
AcDbSpline
210
0.0
220
0.0
230
1.0
 70
    12
 71
     2
 72
     8
 73
     5
 74
     0
 42
0.0000000001
 43
0.0000000001
 40
0.0
 40
0.0
 40
0.0
 40
0.6283185307179184
 40
0.6283185307179184
 40
1.256637061435879
 40
1.256637061435879
 40
1.256637061435879
 10
85.60970005939578
 20
-70.6126605863841
 30
0.0
 41
1.0
 10
85.26328989789421
 20
-70.81266058640514
 30
0.0
 41
0.7071067811867454
 10
85.063289897873
 20
-70.4662504249037
 30
0.0
 41
1.0
 10
84.86328989785196
 20
-70.11984026340215
 30
0.0
 41
0.7071067811865926
 10
85.20970005935351
 20
-69.91984026338105
 30
0.0
 41
1.0
  0
SPLINE
  5
D4
330
1F
100
AcDbEntity
  8
LINEE VISIBILI 2D
100
AcDbSpline
210
0.0
220
0.0
230
1.0
 70
    12
 71
     2
 72
     8
 73
     5
 74
     0
 42
0.0000000001
 43
0.0000000001
 40
0.0
 40
0.0
 40
0.0
 40
0.6283185307180176
 40
0.6283185307180176
 40
1.256637061435907
 40
1.256637061435907
 40
1.256637061435907
 10
85.20970005935351
 20
-69.91984026338105
 30
0.0
 41
1.0
 10
85.55611022085512
 20
-69.71984026335984
 30
0.0
 41
0.707106781186504
 10
85.75611022087617
 20
-70.0662504248615
 30
0.0
 41
1.0
 10
85.95611022089751
 20
-70.41266058636315
 30
0.0
 41
0.7071067811862357
 10
85.60970005939578
 20
-70.6126605863841
 30
0.0
 41
1.0
  0
SPLINE
  5
D5
330
1F
100
AcDbEntity
  8
LINEE VISIBILI 2D
100
AcDbSpline
210
0.0
220
0.0
230
1.0
 70
     8
 71
     3
 72
    21
 73
    17
 74
     0
 42
0.0000000001
 43
0.0000000001
 40
0.0
 40
0.0
 40
0.0
 40
0.0
 40
5.750559801049984
 40
11.32180315452327
 40
16.70651763524713
 40
21.48184964809974
 40
25.42350913687072
 40
28.84848284267806
 40
31.91331318556061
 40
34.83753681267468
 40
38.18750774270348
 40
42.08620621725296
 40
46.48098165908086
 40
51.37154463284116
 40
61.89994474087633
 40
71.90977020481672
 40
71.90977020481672
 40
71.90977020481672
 40
71.90977020481672
 10
40.1351317382904
 20
-102.5071863759672
 30
0.0
 10
40.15143389698062
 20
-100.5903114960876
 30
0.0
 10
40.37132589713224
 20
-96.81865055261028
 30
0.0
 10
41.2073688991585
 20
-91.30692135258067
 30
0.0
 10
42.50035798520162
 20
-86.2175316309482
 30
0.0
 10
44.18802114294385
 20
-81.8194834577659
 30
0.0
 10
46.19019341496391
 20
-78.2857944788193
 30
0.0
 10
48.4919853500902
 20
-75.64726742334761
 30
0.0
 10
51.15763182443823
 20
-73.91798000283961
 30
0.0
 10
54.23717696255608
 20
-73.19538339294957
 30
0.0
 10
57.65021419807806
 20
-73.64743549678985
 30
0.0
 10
61.19556006800087
 20
-75.30297767152746
 30
0.0
 10
64.68507394318158
 20
-78.00885030441589
 30
0.0
 10
69.13632700134838
 20
-82.91337267694865
 30
0.0
 10
73.41088213670889
 20
-90.3310022850807
 30
0.0
 10
75.09587604584942
 20
-97.03636692319077
 30
0.0
 10
75.34529498165341
 20
-100.3690849337598
 30
0.0
  0
SPLINE
  5
D6
330
1F
100
AcDbEntity
  8
LINEE VISIBILI 2D
100
AcDbSpline
210
0.0
220
0.0
230
1.0
 70
    12
 71
     2
 72
     6
 73
     3
 74
     0
 42
0.0000000001
 43
0.0000000001
 40
0.0
 40
0.0
 40
0.0
 40
2.591041599246113
 40
2.591041599246113
 40
2.591041599246113
 10
72.74808616198106
 20
-87.2875061327097
 30
0.0
 41
1.0
 10
73.52564989883456
 20
-88.32463248293723
 30
0.0
 41
0.9991687149065658
 10
74.38511820982603
 20
-89.29496781343266
 30
0.0
 41
1.0
  0
SPLINE
  5
D7
330
1F
100
AcDbEntity
  8
LINEE VISIBILI 2D
100
AcDbSpline
210
0.0
220
0.0
230
1.0
 70
    24
 71
     2
 72
     6
 73
     3
 74
     0
 42
0.0000000001
 43
0.0000000001
 40
0.0
 40
0.0
 40
0.0
 40
27.77800605687753
 40
27.77800605687753
 40
27.77800605687753
 10
89.77188407557685
 20
111.8978061818154
 30
0.0
 10
75.88288104713808
 20
111.8978061818237
 30
0.0
 10
61.99387801869943
 20
111.897806181832
 30
0.0
  0
SPLINE
  5
D8
330
1F
100
AcDbEntity
  8
LINEE VISIBILI 2D
100
AcDbSpline
210
0.0
220
0.0
230
1.0
 70
    24
 71
     3
 72
     9
 73
     5
 74
     0
 42
0.0000000001
 43
0.0000000001
 40
0.0
 40
0.0
 40
0.0
 40
0.0
 40
0.0026153191813592
 40
20.95739988543801
 40
20.95739988543801
 40
20.95739988543801
 40
20.95739988543801
 10
126.8633219995116
 20
111.8978061818312
 30
0.0
 10
126.8624703327695
 20
111.8978061818314
 30
0.0
 10
133.8483362979777
 20
111.8978061818311
 30
0.0
 10
140.8340653936037
 20
111.8978061818312
 30
0.0
 10
147.819020146267
 20
111.8978061818312
 30
0.0
  0
SPLINE
  5
D9
330
1F
100
AcDbEntity
  8
LINEE VISIBILI 2D
100
AcDbSpline
210
0.0
220
0.0
230
1.0
 70
    24
 71
     2
 72
     6
 73
     3
 74
     0
 42
0.0000000001
 43
0.0000000001
 40
0.0
 40
0.0
 40
0.0
 40
16.62523235300515
 40
16.62523235300515
 40
16.62523235300515
 10
-127.5798564493009
 20
-132.6610011186596
 30
0.0
 10
-127.4371545062357
 20
-124.3496099082004
 30
0.0
 10
-127.2944525631705
 20
-116.0382186977413
 30
0.0
  0
SPLINE
  5
DA
330
1F
100
AcDbEntity
  8
LINEE VISIBILI 2D
100
AcDbSpline
210
0.0
220
0.0
230
1.0
 70
    24
 71
     2
 72
     6
 73
     3
 74
     0
 42
0.0000000001
 43
0.0000000001
 40
0.0
 40
0.0
 40
0.0
 40
34.35253107456498
 40
34.35253107456498
 40
34.35253107456498
 10
147.8190201462671
 20
111.8978061818312
 30
0.0
 10
164.9952856835497
 20
111.8978061818312
 30
0.0
 10
182.1715512208322
 20
111.8978061818312
 30
0.0
  0
SPLINE
  5
DB
330
1F
100
AcDbEntity
  8
LINEE VISIBILI 2D
100
AcDbSpline
210
0.0
220
0.0
230
1.0
 70
    24
 71
     2
 72
     6
 73
     3
 74
     0
 42
0.0000000001
 43
0.0000000001
 40
0.0
 40
0.0
 40
0.0
 40
66.47392740739296
 40
66.47392740739296
 40
66.47392740739296
 10
-184.0206439829255
 20
111.8978007851167
 30
0.0
 10
-150.7836802792291
 20
111.8978007851168
 30
0.0
 10
-117.5467165755326
 20
111.8978007851168
 30
0.0
  0
SPLINE
  5
DC
330
1F
100
AcDbEntity
  8
LINEE VISIBILI 2D
100
AcDbSpline
210
0.0
220
0.0
230
1.0
 70
    28
 71
     3
 72
     8
 73
     4
 74
     0
 42
0.0000000001
 43
0.0000000001
 40
-0.5078479427089934
 40
-0.5078479427089934
 40
-0.5078479427089934
 40
-0.5078479427089934
 40
-0.5
 40
-0.5
 40
-0.5
 40
-0.5
 10
-184.0401120991967
 20
111.8978007851167
 30
0.0
 41
1.0
 10
-184.0467262193879
 20
111.8978007851167
 30
0.0
 41
1.0
 10
-184.0406281302803
 20
111.8978007851167
 30
0.0
 41
1.0
 10
-184.0219200615886
 20
111.8978007851167
 30
0.0
 41
1.0
  0
SPLINE
  5
DD
330
1F
100
AcDbEntity
  8
LINEE VISIBILI 2D
100
AcDbSpline
210
0.0
220
0.0
230
1.0
 70
    24
 71
     2
 72
     6
 73
     3
 74
     0
 42
0.0000000001
 43
0.0000000001
 40
0.0
 40
0.0
 40
0.0
 40
11.90716183577419
 40
11.90716183577419
 40
11.90716183577419
 10
-105.6395547259345
 20
111.8978007851168
 30
0.0
 10
-111.5931356438217
 20
111.8978007851168
 30
0.0
 10
-117.5467165617088
 20
111.8978007851168
 30
0.0
  0
SPLINE
  5
DE
330
1F
100
AcDbEntity
  8
LINEE VISIBILI 2D
100
AcDbSpline
210
0.0
220
0.0
230
1.0
 70
    24
 71
     2
 72
     6
 73
     3
 74
     0
 42
0.0000000001
 43
0.0000000001
 40
0.0
 40
0.0
 40
0.0
 40
18.68479576817762
 40
18.68479576817762
 40
18.68479576817762
 10
85.00969672491908
 20
82.66348379489989
 30
0.0
 10
85.00969672491908
 20
92.00588167898866
 30
0.0
 10
85.00969672491908
 20
101.3482795630775
 30
0.0
  0
SPLINE
  5
DF
330
1F
100
AcDbEntity
  8
LINEE VISIBILI 2D
100
AcDbSpline
210
0.0
220
0.0
230
1.0
 70
     8
 71
     3
 72
    21
 73
    17
 74
     0
 42
0.0000000001
 43
0.0000000001
 40
0.0
 40
0.0
 40
0.0
 40
0.0
 40
0.7749263065034426
 40
1.569003073247716
 40
2.46638950362056
 40
3.550417783257422
 40
4.893149317666295
 40
6.487160287300159
 40
10.30529074413955
 40
14.12362862514501
 40
15.71814773432967
 40
17.06791231836494
 40
18.15463877507928
 40
19.05606552360658
 40
19.84778594368169
 40
20.62438048415496
 40
20.62438048415496
 40
20.62438048415496
 40
20.62438048415496
 10
101.4634421094089
 20
81.0347010791599
 30
0.0
 10
101.4560848662101
 20
80.777117267194
 30
0.0
 10
101.339847498402
 20
80.25571874151785
 30
0.0
 10
100.8649919778987
 20
79.56885564546394
 30
0.0
 10
100.1149862270055
 20
79.01170142988349
 30
0.0
 10
99.09991616229092
 20
78.5589383160189
 30
0.0
 10
97.80551566260885
 20
78.19982568755086
 30
0.0
 10
95.58307115296327
 20
77.82670611397157
 30
0.0
 10
92.50359059695222
 20
77.6707279434504
 30
0.0
 10
89.42680531315773
 20
77.82558138571994
 30
0.0
 10
87.19948865283357
 20
78.1963006052627
 30
0.0
 10
85.90291559969512
 20
78.55636008833733
 30
0.0
 10
84.88236442929758
 20
79.00987561289696
 30
0.0
 10
84.13189562096625
 20
79.56844817853272
 30
0.0
 10
83.65694433153624
 20
80.25669729887147
 30
0.0
 10
83.54094955846756
 20
80.77774280886825
 30
0.0
 10
83.53386083351177
 20
81.03604151140723
 30
0.0
  0
SPLINE
  5
E0
330
1F
100
AcDbEntity
  8
LINEE VISIBILI 2D
100
AcDbSpline
210
0.0
220
0.0
230
1.0
 70
    24
 71
     2
 72
     6
 73
     3
 74
     0
 42
0.0000000001
 43
0.0000000001
 40
0.0
 40
0.0
 40
0.0
 40
6.73001569895321
 40
6.73001569895321
 40
6.73001569895321
 10
-105.6395547259345
 20
111.8978007851168
 30
0.0
 10
-102.274546876458
 20
111.8978007851168
 30
0.0
 10
-98.90953902698135
 20
111.8978007851168
 30
0.0
  0
SPLINE
  5
E1
330
1F
100
AcDbEntity
  8
LINEE VISIBILI 2D
100
AcDbSpline
210
0.0
220
0.0
230
1.0
 70
    24
 71
     2
 72
     6
 73
     3
 74
     0
 42
0.0000000001
 43
0.0000000001
 40
0.0
 40
0.0
 40
0.0
 40
18.14483916950081
 40
18.14483916950081
 40
18.14483916950081
 10
85.80969672491904
 20
101.2363637197179
 30
0.0
 10
85.80969672491904
 20
92.16394413496744
 30
0.0
 10
85.80969672491904
 20
83.09152455021706
 30
0.0
  0
SPLINE
  5
E2
330
1F
100
AcDbEntity
  8
LINEE VISIBILI 2D
100
AcDbSpline
210
0.0
220
0.0
230
1.0
 70
    12
 71
     2
 72
     6
 73
     3
 74
     0
 42
0.0000000001
 43
0.0000000001
 40
0.0
 40
0.0
 40
0.0
 40
0.0878752741136429
 40
0.0878752741136429
 40
0.0878752741136429
 10
101.4624158834212
 20
81.13281334904701
 30
0.0
 41
1.0
 10
101.4623686260967
 20
81.0888748329066
 30
0.0
 41
0.9999691220323232
 10
101.4630119291265
 20
81.04494100089664
 30
0.0
 41
1.0
  0
SPLINE
  5
E3
330
1F
100
AcDbEntity
  8
LINEE VISIBILI 2D
100
AcDbSpline
210
0.0
220
0.0
230
1.0
 70
     8
 71
     3
 72
    12
 73
     8
 74
     0
 42
0.0000000001
 43
0.0000000001
 40
0.0
 40
0.0
 40
0.0
 40
0.0
 40
0.5467325005853342
 40
1.040665715235619
 40
1.886574180548693
 40
2.626806399953617
 40
3.362234732987794
 40
3.362234732987794
 40
3.362234732987794
 40
3.362234732987794
 10
99.23027138850955
 20
83.33846164534316
 30
0.0
 10
99.40392991125884
 20
83.28428796513549
 30
0.0
 10
99.73272519128489
 20
83.16992865180623
 30
0.0
 10
100.3036932736151
 20
82.90803764253769
 30
0.0
 10
100.8858688028032
 20
82.51739088287144
 30
0.0
 10
101.3503185083786
 20
81.88065778902103
 30
0.0
 10
101.4558208261266
 20
81.3875659184232
 30
0.0
 10
101.4634008101021
 20
81.14377855022224
 30
0.0
  0
SPLINE
  5
E4
330
1F
100
AcDbEntity
  8
LINEE VISIBILI 2D
100
AcDbSpline
210
0.0
220
0.0
230
1.0
 70
     8
 71
     3
 72
    15
 73
    11
 74
     0
 42
0.0000000001
 43
0.0000000001
 40
0.0
 40
0.0
 40
0.0
 40
0.0
 40
2.316915160903
 40
4.355648954558439
 40
6.307247602200629
 40
8.14460438654972
 40
11.51191660180011
 40
13.20317521432369
 40
13.97968864520474
 40
15.08702006949712
 40
15.08702006949712
 40
15.08702006949712
 40
15.08702006949712
 10
-175.9250439359823
 20
-108.6814391629943
 30
0.0
 10
-176.6197028208923
 20
-108.342086025195
 30
0.0
 10
-177.8995609916535
 20
-107.6585333524401
 30
0.0
 10
-179.6472420525155
 20
-106.4775354625677
 30
0.0
 10
-181.0953717031268
 20
-105.1813216075829
 30
0.0
 10
-182.6652135474865
 20
-103.3692809432179
 30
0.0
 10
-183.6299044435866
 20
-101.2432191397044
 30
0.0
 10
-183.9764343347158
 20
-99.32417647148861
 30
0.0
 10
-184.0565156337079
 20
-98.13420579778861
 30
0.0
 10
-184.0373908972543
 20
-97.50562671716594
 30
0.0
 10
-184.0410011504296
 20
-97.13674163841875
 30
0.0
  0
SPLINE
  5
E5
330
1F
100
AcDbEntity
  8
LINEE VISIBILI 2D
100
AcDbSpline
210
0.0
220
0.0
230
1.0
 70
     8
 71
     3
 72
    16
 73
    12
 74
     0
 42
0.0000000001
 43
0.0000000001
 40
0.0
 40
0.0
 40
0.0
 40
0.0
 40
1.564076501313789
 40
2.566723571754977
 40
4.454532331715959
 40
6.517110380270787
 40
9.125726362304222
 40
12.88333448398568
 40
17.36841194638754
 40
22.0910899748162
 40
27.40007021310971
 40
27.40007021310971
 40
27.40007021310971
 40
27.40007021310971
 10
-123.723954672814
 20
-92.2412653312914
 30
0.0
 10
-123.7523954958129
 20
-92.75876578227582
 30
0.0
 10
-123.7771511652238
 20
-93.62229427839304
 30
0.0
 10
-123.9865720346989
 20
-95.0845782976082
 30
0.0
 10
-124.6466918002635
 20
-96.65177701614385
 30
0.0
 10
-126.3665865691845
 20
-98.07016654284368
 30
0.0
 10
-128.9528637340275
 20
-99.19491588922105
 30
0.0
 10
-132.4766419157457
 20
-100.0552243749324
 30
0.0
 10
-136.7700955306326
 20
-100.5874691970478
 30
0.0
 10
-141.6120635562095
 20
-100.7336383588344
 30
0.0
 10
-144.9531007570994
 20
-100.545287321891
 30
0.0
 10
-146.7167623337967
 20
-100.4019346227248
 30
0.0
  0
SPLINE
  5
E6
330
1F
100
AcDbEntity
  8
LINEE VISIBILI 2D
100
AcDbSpline
210
0.0
220
0.0
230
1.0
 70
     8
 71
     3
 72
    15
 73
    11
 74
     0
 42
0.0000000001
 43
0.0000000001
 40
0.0
 40
0.0
 40
0.0
 40
0.0
 40
4.628069735133645
 40
8.494078222664474
 40
11.69674598618919
 40
14.35881096998967
 40
16.60431497570545
 40
18.64761322935527
 40
20.65798890581176
 40
23.10124294270918
 40
23.10124294270918
 40
23.10124294270918
 40
23.10124294270918
 10
-127.3069217147953
 20
-116.7644596653886
 30
0.0
 10
-128.8301004718928
 20
-116.5201001692519
 30
0.0
 10
-131.6157707921906
 20
-116.0067491705365
 30
0.0
 10
-135.3965436202188
 20
-115.0422045031149
 30
0.0
 10
-138.4505365016056
 20
-113.9327913612269
 30
0.0
 10
-140.8396213080313
 20
-112.646849926774
 30
0.0
 10
-142.6210960588051
 20
-111.1384472467564
 30
0.0
 10
-143.7944863549531
 20
-109.3664558552232
 30
0.0
 10
-144.3723739005634
 20
-107.2528689515286
 30
0.0
 10
-144.3527862574997
 20
-105.7581387959396
 30
0.0
 10
-144.3185486019432
 20
-104.945942879788
 30
0.0
  0
SPLINE
  5
E7
330
1F
100
AcDbEntity
  8
LINEE VISIBILI 2D
100
AcDbSpline
210
0.0
220
0.0
230
1.0
 70
    12
 71
     2
 72
     6
 73
     3
 74
     0
 42
0.0000000001
 43
0.0000000001
 40
0.0
 40
0.0
 40
0.0
 40
0.06806657759818
 40
0.06806657759818
 40
0.06806657759818
 10
-117.0267169714784
 20
-130.2765046128796
 30
0.0
 41
1.0
 10
-116.9933851252771
 20
-130.2833800824957
 30
0.0
 41
0.9999874984307883
 10
-116.9599861879298
 20
-130.2899218741233
 30
0.0
 41
1.0
  0
SPLINE
  5
E8
330
1F
100
AcDbEntity
  8
LINEE VISIBILI 2D
100
AcDbSpline
210
0.0
220
0.0
230
1.0
 70
     8
 71
     3
 72
    12
 73
     8
 74
     0
 42
0.0000000001
 43
0.0000000001
 40
0.0
 40
0.0
 40
0.0
 40
0.0
 40
3.595872705184358
 40
8.470432986082086
 40
15.76912858062816
 40
21.42463337041441
 40
25.91831117237607
 40
25.91831117237607
 40
25.91831117237607
 40
25.91831117237607
 10
-121.035878458716
 20
99.1412369820111
 30
0.0
 10
-122.2345566133744
 20
99.15100095813256
 30
0.0
 10
-125.0567964786192
 20
99.23922805650693
 30
0.0
 10
-130.3076506095473
 20
99.48168028738587
 30
0.0
 10
-136.2367467631827
 20
99.90474560723624
 30
0.0
 10
-142.0092836256061
 20
100.6422038026681
 30
0.0
 10
-145.3188905889784
 20
101.3649843081804
 30
0.0
 10
-146.7540199896948
 20
101.796285518439
 30
0.0
  0
SPLINE
  5
E9
330
1F
100
AcDbEntity
  8
LINEE VISIBILI 2D
100
AcDbSpline
210
0.0
220
0.0
230
1.0
 70
     8
 71
     3
 72
    12
 73
     8
 74
     0
 42
0.0000000001
 43
0.0000000001
 40
0.0
 40
0.0
 40
0.0
 40
0.0
 40
1.558599035740995
 40
3.300612027900579
 40
7.488874758326797
 40
12.82635463065186
 40
19.37972799157036
 40
19.37972799157036
 40
19.37972799157036
 40
19.37972799157036
 10
137.532014981918
 20
103.0480756822049
 30
0.0
 10
137.132247699651
 20
102.7155988777682
 30
0.0
 10
136.2244186705724
 20
102.0895794104753
 30
0.0
 10
133.9671566246471
 20
101.0033785290852
 30
0.0
 10
130.3284496893234
 20
100.0120841749174
 30
0.0
 10
125.0072051239209
 20
99.32500088782137
 30
0.0
 10
121.0428132139158
 20
99.16802635514944
 30
0.0
 10
118.858953269808
 20
99.14346642525766
 30
0.0
  0
SPLINE
  5
EA
330
1F
100
AcDbEntity
  8
LINEE VISIBILI 2D
100
AcDbSpline
210
0.0
220
0.0
230
1.0
 70
    12
 71
     2
 72
     6
 73
     3
 74
     0
 42
0.0000000001
 43
0.0000000001
 40
0.0
 40
0.0
 40
0.0
 40
0.0413737080040806
 40
0.0413737080040806
 40
0.0413737080040806
 10
-117.0673089579819
 20
-130.2685027675467
 30
0.0
 41
1.0
 10
-117.0469775053399
 20
-130.272323810819
 30
0.0
 41
0.999960727673248
 10
-117.0267169714784
 20
-130.2765046128796
 30
0.0
 41
1.0
  0
SPLINE
  5
EB
330
1F
100
AcDbEntity
  8
LINEE VISIBILI 2D
100
AcDbSpline
210
0.0
220
0.0
230
1.0
 70
     8
 71
     3
 72
    16
 73
    12
 74
     0
 42
0.0000000001
 43
0.0000000001
 40
0.0
 40
0.0
 40
0.0
 40
0.0
 40
0.8214952224524477
 40
1.572238887854842
 40
1.943523850824074
 40
2.197144954250691
 40
2.258911063112012
 40
3.150914860963225
 40
4.072922825871633
 40
4.376843563583735
 40
4.599940886755709
 40
4.599940886755709
 40
4.599940886755709
 40
4.599940886755709
 10
-118.1432533340397
 20
-131.7638238290992
 30
0.0
 10
-117.8696055643813
 20
-131.7707440705009
 30
0.0
 10
-117.3456922773989
 20
-131.7969042469876
 30
0.0
 10
-116.7018538071248
 20
-131.86821570019
 30
0.0
 10
-116.2479989284768
 20
-131.9365401655568
 30
0.0
 10
-116.0229915244327
 20
-131.9757540687817
 30
0.0
 10
-115.6260653212985
 20
-132.0474547922643
 30
0.0
 10
-115.0197334562885
 20
-132.1897753892966
 30
0.0
 10
-114.3402155440978
 20
-132.4053895616984
 30
0.0
 10
-113.9518849846467
 20
-132.7061838594096
 30
0.0
 10
-113.8824003324524
 20
-132.877493351074
 30
0.0
 10
-113.8867708372208
 20
-132.9524091382875
 30
0.0
  0
SPLINE
  5
EC
330
1F
100
AcDbEntity
  8
LINEE VISIBILI 2D
100
AcDbSpline
210
0.0
220
0.0
230
1.0
 70
     8
 71
     3
 72
    17
 73
    13
 74
     0
 42
0.0000000001
 43
0.0000000001
 40
0.0
 40
0.0
 40
0.0
 40
0.0
 40
8.120503875662703
 40
16.20124636028586
 40
24.49491999659735
 40
31.91297964862012
 40
38.98217452509777
 40
45.25392536082318
 40
47.82812600112936
 40
50.03538239266281
 40
51.91316378075161
 40
53.35078683362362
 40
53.35078683362362
 40
53.35078683362362
 40
53.35078683362362
 10
-91.08751776222971
 20
-75.91457530093419
 30
0.0
 10
-88.40423710507832
 20
-75.55465012300533
 30
0.0
 10
-83.01169067432784
 20
-75.15561001187979
 30
0.0
 10
-74.83964566872623
 20
-75.34735888777288
 30
0.0
 10
-66.95378494814486
 20
-76.2593679035536
 30
0.0
 10
-59.51176625548294
 20
-77.81566430483193
 30
0.0
 10
-52.90710149222207
 20
-79.90744648361931
 30
0.0
 10
-48.08253634838479
 20
-82.16056697862189
 30
0.0
 10
-45.04895097207282
 20
-84.27078142324171
 30
0.0
 10
-43.44745385075589
 20
-85.8200340678033
 30
0.0
 10
-42.42992598635999
 20
-87.37475160068769
 30
0.0
 10
-42.1419994109541
 20
-88.45947162323708
 30
0.0
 10
-42.1045402893867
 20
-88.93664268682278
 30
0.0
  0
SPLINE
  5
ED
330
1F
100
AcDbEntity
  8
LINEE VISIBILI 2D
100
AcDbSpline
210
0.0
220
0.0
230
1.0
 70
    12
 71
     2
 72
     6
 73
     3
 74
     0
 42
0.0000000001
 43
0.0000000001
 40
0.0
 40
0.0
 40
0.0
 40
0.0188864143907721
 40
0.0188864143907721
 40
0.0188864143907721
 10
-116.9563310598984
 20
-130.2906352943424
 30
0.0
 41
1.0
 10
-116.947081736743
 20
-130.2925440386165
 30
0.0
 41
0.999839212920858
 10
-116.9377699184835
 20
-130.2941198952839
 30
0.0
 41
1.0
  0
SPLINE
  5
EE
330
1F
100
AcDbEntity
  8
LINEE VISIBILI 2D
100
AcDbSpline
210
0.0
220
0.0
230
1.0
 70
     8
 71
     3
 72
    12
 73
     8
 74
     0
 42
0.0000000001
 43
0.0000000001
 40
0.0
 40
0.0
 40
0.0
 40
0.0
 40
0.9873058518217075
 40
1.990471347586236
 40
3.911989225668482
 40
5.831876780499338
 40
7.291560257508601
 40
7.291560257508601
 40
7.291560257508601
 40
7.291560257508601
 10
-124.7225014088318
 20
-131.2229502395228
 30
0.0
 10
-124.4120896293956
 20
-131.1136772120846
 30
0.0
 10
-123.7791641330799
 20
-130.9135563353954
 30
0.0
 10
-122.5185064220368
 20
-130.5794730760343
 30
0.0
 10
-120.9302924199038
 20
-130.275968817144
 30
0.0
 10
-119.1684750817815
 20
-130.1171817316428
 30
0.0
 10
-118.039889246996
 20
-130.1288460216406
 30
0.0
 10
-117.5566109435076
 20
-130.1911284532939
 30
0.0
  0
SPLINE
  5
EF
330
1F
100
AcDbEntity
  8
LINEE VISIBILI 2D
100
AcDbSpline
210
0.0
220
0.0
230
1.0
 70
    12
 71
     3
 72
    12
 73
     8
 74
     0
 42
0.0000000001
 43
0.0000000001
 40
0.4440958013490933
 40
0.4440958013490933
 40
0.4440958013490933
 40
0.4440958013490933
 40
0.46221743336543
 40
0.46221743336543
 40
0.481108716682715
 40
0.481108716682715
 40
0.5
 40
0.5
 40
0.5
 40
0.5
 10
-113.885937190057
 20
-132.8595198027504
 30
0.0
 41
330.5029361874672
 10
-113.8819695491367
 20
-132.7918114158978
 30
0.0
 41
330.2552988515346
 10
-113.9004593338209
 20
-132.7241983056264
 30
0.0
 41
330.008190844807
 10
-114.0296021162501
 20
-132.5523352828283
 30
0.0
 41
329.3863313662839
 10
-114.1548169976253
 20
-132.4540721728595
 30
0.0
 41
329.0379096060386
 10
-114.5091083475542
 20
-132.2733608360029
 30
0.0
 41
328.4009823772873
 10
-114.737267961757
 20
-132.1915149286278
 30
0.0
 41
328.1107610840011
 10
-114.9326721298196
 20
-132.1323789318544
 30
0.0
 41
327.895112762451
  0
SPLINE
  5
F0
330
1F
100
AcDbEntity
  8
LINEE VISIBILI 2D
100
AcDbSpline
210
0.0
220
0.0
230
1.0
 70
     8
 71
     3
 72
    18
 73
    14
 74
     0
 42
0.0000000001
 43
0.0000000001
 40
0.0
 40
0.0
 40
0.0
 40
0.0
 40
0.7340672357260121
 40
1.541229869169334
 40
2.474297652427583
 40
3.587853333525945
 40
6.42794993401052
 40
9.496624069026968
 40
12.13743142056761
 40
14.46914631073624
 40
16.2169683125028
 40
16.9609388456417
 40
17.65850249802007
 40
17.65850249802007
 40
17.65850249802007
 40
17.65850249802007
 10
-113.8876641591347
 20
-132.9523785797926
 30
0.0
 10
-113.8951604039448
 20
-133.196804105003
 30
0.0
 10
-114.0136188694015
 20
-133.7062711402846
 30
0.0
 10
-114.467909460161
 20
-134.4059070120268
 30
0.0
 10
-115.1721224549635
 20
-135.052061053504
 30
0.0
 10
-116.5621918992491
 20
-135.9150503079909
 30
0.0
 10
-118.7660107899602
 20
-136.734190394057
 30
0.0
 10
-121.5676798543629
 20
-137.3045259365388
 30
0.0
 10
-124.2614242119422
 20
-137.3401746789273
 30
0.0
 10
-126.4712301184064
 20
-136.8814412311661
 30
0.0
 10
-127.8953191597506
 20
-136.0696563756136
 30
0.0
 10
-128.5004121668444
 20
-135.1543309676173
 30
0.0
 10
-128.5985783310781
 20
-134.6863464518055
 30
0.0
 10
-128.6044297686438
 20
-134.4500328404601
 30
0.0
  0
SPLINE
  5
F1
330
1F
100
AcDbEntity
  8
LINEE VISIBILI 2D
100
AcDbSpline
210
0.0
220
0.0
230
1.0
 70
    12
 71
     2
 72
     6
 73
     3
 74
     0
 42
0.0000000001
 43
0.0000000001
 40
0.0
 40
0.0
 40
0.0
 40
0.4953614749904268
 40
0.4953614749904268
 40
0.4953614749904268
 10
86.18692121049435
 20
-64.03285115349627
 30
0.0
 41
1.0
 10
85.97993481328096
 20
-64.16947005495182
 30
0.0
 41
0.9980203104060215
 10
85.79173644305638
 20
-64.33099239492702
 30
0.0
 41
1.0
  0
SPLINE
  5
F2
330
1F
100
AcDbEntity
  8
LINEE VISIBILI 2D
100
AcDbSpline
210
0.0
220
0.0
230
1.0
 70
     8
 71
     3
 72
    23
 73
    19
 74
     0
 42
0.0000000001
 43
0.0000000001
 40
0.0
 40
0.0
 40
0.0
 40
0.0
 40
6.016381023090859
 40
12.00856185484549
 40
24.61994477024077
 40
36.93474202695528
 40
42.62515364294375
 40
48.65258320169771
 40
55.23788801048185
 40
62.46598178099691
 40
69.66455977229032
 40
75.98924643801425
 40
78.68452277738675
 40
81.09318303593662
 40
83.49816574661969
 40
85.75518352851994
 40
90.73889073828597
 40
96.10255579857629
 40
96.10255579857629
 40
96.10255579857629
 40
96.10255579857629
 10
133.8925200854212
 20
-58.9000196900929
 30
0.0
 10
132.6093068516599
 20
-57.35827235122542
 30
0.0
 10
129.7219617038753
 20
-54.5583109703166
 30
0.0
 10
122.8653971493321
 20
-49.9939974043275
 30
0.0
 10
113.0635601295378
 20
-46.44053556885342
 30
0.0
 10
102.764404531778
 20
-45.85228301909365
 30
0.0
 10
94.85856025721193
 20
-47.36161483214664
 30
0.0
 10
89.1275605548716
 20
-49.50316299517374
 30
0.0
 10
83.39664765952932
 20
-52.85893406908269
 30
0.0
 10
78.01787978192272
 20
-57.37920384908097
 30
0.0
 10
73.44331143621832
 20
-62.5949907867182
 30
0.0
 10
70.62645539469781
 20
-67.24167651377513
 30
0.0
 10
69.26559510728976
 20
-70.81147337888558
 30
0.0
 10
68.69912812110624
 20
-73.25419197874226
 30
0.0
 10
68.47524391695583
 20
-75.60587747646383
 30
0.0
 10
68.65449533414449
 20
-78.82802722738825
 30
0.0
 10
69.85688122301917
 20
-82.89874208233618
 30
0.0
 10
71.67522692330783
 20
-85.85862554789998
 30
0.0
 10
72.74808615096174
 20
-87.28750613767602
 30
0.0
  0
SPLINE
  5
F3
330
1F
100
AcDbEntity
  8
LINEE VISIBILI 2D
100
AcDbSpline
210
0.0
220
0.0
230
1.0
 70
    12
 71
     2
 72
     6
 73
     3
 74
     0
 42
0.0000000001
 43
0.0000000001
 40
0.0
 40
0.0
 40
0.0
 40
2.591041599246102
 40
2.591041599246102
 40
2.591041599246102
 10
72.74808615096174
 20
-87.28750613767599
 30
0.0
 41
1.0
 10
73.52564988781522
 20
-88.32463248790346
 30
0.0
 41
0.9991687149065667
 10
74.38511819880671
 20
-89.29496781839896
 30
0.0
 41
1.0
  0
SPLINE
  5
F4
330
1F
100
AcDbEntity
  8
LINEE VISIBILI 2D
100
AcDbSpline
210
0.0
220
0.0
230
1.0
 70
     8
 71
     3
 72
    19
 73
    15
 74
     0
 42
0.0000000001
 43
0.0000000001
 40
0.0
 40
0.0
 40
0.0
 40
0.0
 40
1.787734319846896
 40
2.413408427430455
 40
3.084671704267044
 40
4.072069997606856
 40
4.856886807969616
 40
5.642396123893784
 40
7.202522796715905
 40
9.115677954645802
 40
11.46068578637048
 40
14.25688124369738
 40
15.79907604946886
 40
17.33900941038323
 40
17.33900941038323
 40
17.33900941038323
 40
17.33900941038323
 10
98.85612556676028
 20
-77.40234679294076
 30
0.0
 10
99.34749117062074
 20
-77.06222934320024
 30
0.0
 10
99.90369647070054
 20
-76.46699209511203
 30
0.0
 10
100.4606636750318
 20
-75.6026216480168
 30
0.0
 10
100.8380786525287
 20
-74.94113773748552
 30
0.0
 10
101.1783501337477
 20
-74.19863025891743
 30
0.0
 10
101.412755614553
 20
-73.37743494580468
 30
0.0
 10
101.5217105064322
 20
-72.33161031541471
 30
0.0
 10
101.1883261068077
 20
-70.92209679718883
 30
0.0
 10
100.0815534571467
 20
-69.30212340520211
 30
0.0
 10
98.3634634964285
 20
-67.68998511871246
 30
0.0
 10
96.53472207049037
 20
-66.40593135889759
 30
0.0
 10
94.84825015171498
 20
-65.4105527962156
 30
0.0
 10
93.93030858558734
 20
-64.9455704729283
 30
0.0
 10
93.46511564457512
 20
-64.72942876931666
 30
0.0
  0
SPLINE
  5
F5
330
1F
100
AcDbEntity
  8
LINEE VISIBILI 2D
100
AcDbSpline
210
0.0
220
0.0
230
1.0
 70
    12
 71
     3
 72
    52
 73
    48
 74
     0
 42
0.0000000001
 43
0.0000000001
 40
0.0
 40
0.0
 40
0.0
 40
0.0
 40
2.070307630601472
 40
2.070307630601472
 40
2.070307630601472
 40
3.158793796847732
 40
3.158793796847732
 40
3.158793796847732
 40
4.574688291066973
 40
6.303212270635854
 40
10.26576223368943
 40
14.02406657711611
 40
15.66987469402613
 40
16.98938711298139
 40
16.98938711298139
 40
16.98938711298139
 40
17.81365602288713
 40
17.81365602288713
 40
17.81365602288713
 40
18.80119628664302
 40
18.80119628664302
 40
18.80119628664302
 40
19.84958785812546
 40
19.84958785812546
 40
19.84958785812546
 40
20.7633501847765
 40
20.7633501847765
 40
20.7633501847765
 40
21.90627050626344
 40
21.90627050626344
 40
21.90627050626344
 40
22.02730318156705
 40
22.02730318156705
 40
22.02730318156705
 40
22.13010651351397
 40
22.13010651351397
 40
22.13010651351397
 40
22.21024645331696
 40
22.21024645331696
 40
22.21024645331696
 40
22.31436994565539
 40
22.31436994565539
 40
22.31436994565539
 40
22.78546557287691
 40
22.78546557287691
 40
22.78546557287691
 40
24.57152288403484
 40
24.57152288403484
 40
24.57152288403484
 40
24.57152288403484
 10
98.85612556676028
 20
-77.40234679294076
 30
0.0
 41
1.0
 10
98.27411403217022
 20
-77.78741556370738
 30
0.0
 41
0.9779508481571784
 10
97.61313767243921
 20
-78.01130311693943
 30
0.0
 41
0.9779508481571786
 10
96.91691839192777
 20
-78.05919986066593
 30
0.0
 41
1.0
 10
96.55480146855749
 20
-78.08859995032682
 30
0.0
 41
0.9973618905194546
 10
96.19150458428523
 20
-78.08570075369097
 30
0.0
 41
0.9973618905194545
 10
95.8299029899747
 20
-78.05052521595286
 30
0.0
 41
1.0
 10
95.35943067414394
 20
-78.00727762471027
 30
0.0
 41
1.0
 10
94.32759643770225
 20
-77.81113104728541
 30
0.0
 41
1.0
 10
92.0765398881839
 20
-77.05607470841912
 30
0.0
 41
1.0
 10
89.25800681230965
 20
-75.62999177130712
 30
0.0
 41
1.0
 10
86.68801809082663
 20
-73.84056582035385
 30
0.0
 41
1.0
 10
85.06711274045574
 20
-72.28320223487293
 30
0.0
 41
1.0
 10
84.47026011239916
 20
-71.49133588541508
 30
0.0
 41
1.0
 10
84.23943434159617
 20
-71.11683703834626
 30
0.0
 41
1.0
 10
84.09516434935786
 20
-70.88271014519843
 30
0.0
 41
0.9981730783684948
 10
83.9686107595161
 20
-70.63855154581346
 30
0.0
 41
0.998173078368495
 10
83.86046718254238
 20
-70.38569941607193
 30
0.0
 41
1.0
 10
83.72990991376986
 20
-70.08265099941107
 30
0.0
 41
0.9951908703017518
 10
83.63662911848053
 20
-69.7661352233427
 30
0.0
 41
0.9951908703017519
 10
83.58197059500344
 20
-69.44071858412258
 30
0.0
 41
1.0
 10
83.52637415221275
 20
-69.09456408828378
 30
0.0
 41
0.9935877598146041
 10
83.51920729036196
 20
-68.74404656299897
 30
0.0
 41
0.9935877598146032
 10
83.56060787637068
 20
-68.39590881595251
 30
0.0
 41
1.0
 10
83.59721322911709
 20
-68.09301831384168
 30
0.0
 41
0.9966809663944312
 10
83.66382271049689
 20
-67.79528389341144
 30
0.0
 41
0.9966809663944312
 10
83.75977308318807
 20
-67.50567012630245
 30
0.0
 41
1.0
 10
83.88075924998238
 20
-67.14395615150117
 30
0.0
 41
0.9977056149785279
 10
84.03131272345479
 20
-66.79351599434496
 30
0.0
 41
0.9977056149785285
 10
84.2103972207019
 20
-66.45676178877682
 30
0.0
 41
1.0
 10
84.22907191029714
 20
-66.42099971417096
 30
0.0
 41
0.9999916982216928
 10
84.24792483829685
 20
-66.38533128110456
 30
0.0
 41
0.9999916982216925
 10
84.26695553516299
 20
-66.34975737791149
 30
0.0
 41
1.0
 10
84.28312028894848
 20
-66.31954166914413
 30
0.0
 41
0.9999933925078186
 10
84.29941940989538
 20
-66.28939822910125
 30
0.0
 41
0.9999933925078182
 10
84.31585257491554
 20
-66.25932765530081
 30
0.0
 41
1.0
 10
84.32866327109939
 20
-66.23588644659152
 30
0.0
 41
0.9999956604336151
 10
84.3415584630001
 20
-66.2124916132234
 30
0.0
 41
0.9999956604336142
 10
84.35453798273886
 20
-66.18914345976714
 30
0.0
 41
1.0
 10
84.3714014928141
 20
-66.15880758874574
 30
0.0
 41
0.9999920928798204
 10
84.38841255202259
 20
-66.12855421030142
 30
0.0
 41
0.9999920928798204
 10
84.40557075683853
 20
-66.09838404208551
 30
0.0
 41
1.0
 10
84.48311150779104
 20
-65.9618136467686
 30
0.0
 41
0.9997960276339567
 10
84.56400661222266
 20
-65.82720301192026
 30
0.0
 41
0.9997960276339568
 10
84.64820656903612
 20
-65.69463450808951
 30
0.0
 41
1.0
 10
84.96108309236162
 20
-65.18560385703455
 30
0.0
 41
0.9928385940354811
 10
85.34500916751949
 20
-64.72777780778058
 30
0.0
 41
0.9928385940354816
 10
85.79173644305638
 20
-64.33099239492702
 30
0.0
 41
1.0
  0
SPLINE
  5
F6
330
1F
100
AcDbEntity
  8
LINEE VISIBILI 2D
100
AcDbSpline
210
0.0
220
0.0
230
1.0
 70
     8
 71
     3
 72
    12
 73
     8
 74
     0
 42
0.0000000001
 43
0.0000000001
 40
0.0
 40
0.0
 40
0.0
 40
0.0
 40
1.319046898674486
 40
2.421763415439877
 40
4.45648956173268
 40
6.040292884195435
 40
7.513827861530053
 40
7.513827861530053
 40
7.513827861530053
 40
7.513827861530053
 10
93.36826101550707
 20
-64.68492660559082
 30
0.0
 10
92.96808963991123
 20
-64.50287017297723
 30
0.0
 10
92.22430418312331
 20
-64.18774189177344
 30
0.0
 10
90.81955902095535
 20
-63.70279193438188
 30
0.0
 10
89.27884571367701
 20
-63.35303403068986
 30
0.0
 10
87.563018090009
 20
-63.3786540324972
 30
0.0
 10
86.59619514698886
 20
-63.76177906832277
 30
0.0
 10
86.18692121049423
 20
-64.03285115349627
 30
0.0
  0
SPLINE
  5
F7
330
1F
100
AcDbEntity
  8
LINEE VISIBILI 2D
100
AcDbSpline
210
0.0
220
0.0
230
1.0
 70
    12
 71
     2
 72
     6
 73
     3
 74
     0
 42
0.0000000001
 43
0.0000000001
 40
0.0
 40
0.0
 40
0.0
 40
0.1065841126673617
 40
0.1065841126673617
 40
0.1065841126673617
 10
93.36783007230724
 20
-64.68587075747575
 30
0.0
 41
1.0
 10
93.41628011783848
 20
-64.70806643362457
 30
0.0
 41
0.9999969146521165
 10
93.46461929380632
 20
-64.7305025433235
 30
0.0
 41
1.0
  0
ENDSEC
  0
SECTION
  2
OBJECTS
  0
DICTIONARY
  5
C
330
0
100
AcDbDictionary
281
     1
  3
ACAD_DETAILVIEWSTYLE
350
133
  3
ACAD_GROUP
350
D
  3
ACAD_LAYOUT
350
1A
  3
ACAD_MATERIAL
350
43
  3
ACAD_MLEADERSTYLE
350
5B
  3
ACAD_MLINESTYLE
350
17
  3
ACAD_PLOTSETTINGS
350
19
  3
ACAD_PLOTSTYLENAME
350
E
  3
ACAD_SCALELIST
350
47
  3
ACAD_SECTIONVIEWSTYLE
350
134
  3
ACAD_TABLESTYLE
350
59
  3
ACAD_VISUALSTYLE
350
2A
  3
AcDbVariableDictionary
350
F8
  3
ACDB_RECOMPOSE_DATA
350
130
  0
SUN
  5
5D
330
29
100
AcDbSun
 90
        1
290
     0
 63
     7
421
 16777215
 40
1.0
291
     1
 91
  2455826
 92
 54000000
292
     0
 70
     2
 71
   256
280
     1
  0
DICTIONARY
  5
133
102
{ACAD_REACTORS
330
C
102
}
330
C
100
AcDbDictionary
281
     1
  0
DICTIONARY
  5
D
102
{ACAD_REACTORS
330
C
102
}
330
C
100
AcDbDictionary
281
     1
  0
DICTIONARY
  5
1A
102
{ACAD_REACTORS
330
C
102
}
330
C
100
AcDbDictionary
281
     1
  3
Layout1
350
1E
  3
Layout2
350
26
  3
Model
350
22
  0
DICTIONARY
  5
43
102
{ACAD_REACTORS
330
C
102
}
330
C
100
AcDbDictionary
281
     1
  3
ByBlock
350
45
  3
ByLayer
350
44
  3
Global
350
46
  0
DICTIONARY
  5
5B
102
{ACAD_REACTORS
330
C
102
}
330
C
100
AcDbDictionary
281
     1
  3
Standard
350
5C
  0
DICTIONARY
  5
17
102
{ACAD_REACTORS
330
C
102
}
330
C
100
AcDbDictionary
281
     1
  3
Standard
350
18
  0
DICTIONARY
  5
19
102
{ACAD_REACTORS
330
C
102
}
330
C
100
AcDbDictionary
281
     1
  0
ACDBDICTIONARYWDFLT
  5
E
102
{ACAD_REACTORS
330
C
102
}
330
C
100
AcDbDictionary
281
     1
  3
Normal
350
F
100
AcDbDictionaryWithDefault
340
F
  0
DICTIONARY
  5
47
102
{ACAD_REACTORS
330
C
102
}
330
C
100
AcDbDictionary
281
     1
  3
A0
350
48
  3
A1
350
49
  3
A2
350
4A
  3
A3
350
4B
  3
A4
350
4C
  3
A5
350
4D
  3
A6
350
4E
  3
A7
350
4F
  3
A8
350
50
  3
A9
350
51
  3
B1
350
52
  3
B2
350
53
  3
B3
350
54
  3
B4
350
55
  3
B5
350
56
  3
B6
350
57
  3
B7
350
58
  0
DICTIONARY
  5
134
102
{ACAD_REACTORS
330
C
102
}
330
C
100
AcDbDictionary
281
     1
  0
DICTIONARY
  5
59
102
{ACAD_REACTORS
330
C
102
}
330
C
100
AcDbDictionary
281
     1
  3
Standard
350
5A
  0
DICTIONARY
  5
2A
102
{ACAD_REACTORS
330
C
102
}
330
C
100
AcDbDictionary
281
     1
  3
2dWireframe
350
2F
  3
Basic
350
32
  3
Brighten
350
36
  3
ColorChange
350
3A
  3
Conceptual
350
34
  3
Dim
350
35
  3
EdgeColorOff
350
3D
  3
Facepattern
350
39
  3
Flat
350
2B
  3
FlatWithEdges
350
2C
  3
Gouraud
350
2D
  3
GouraudWithEdges
350
2E
  3
Hidden
350
31
  3
JitterOff
350
3B
  3
Linepattern
350
38
  3
OverhangOff
350
3C
  3
Realistic
350
33
  3
Shaded
350
42
  3
Shaded with edges
350
41
  3
Shades of Gray
350
3E
  3
Sketchy
350
3F
  3
Thicken
350
37
  3
Wireframe
350
30
  3
X-Ray
350
40
  0
DICTIONARY
  5
F8
102
{ACAD_REACTORS
330
C
102
}
330
C
100
AcDbDictionary
281
     1
  3
CANNOSCALE
350
F9
  3
CMLEADERSTYLE
350
132
  3
CTABLESTYLE
350
131
  3
XCLIPFRAME
350
FA
  0
XRECORD
  5
130
102
{ACAD_REACTORS
330
C
102
}
330
C
100
AcDbXrecord
280
     1
 90
        1
330
5A
  0
LAYOUT
  5
1E
102
{ACAD_REACTORS
330
1A
102
}
330
1A
100
AcDbPlotSettings
  1

  2
none_device
  4

  6

 40
0.0
 41
0.0
 42
0.0
 43
0.0
 44
0.0
 45
0.0
 46
0.0
 47
0.0
 48
0.0
 49
0.0
140
0.0
141
0.0
142
1.0
143
1.0
 70
   688
 72
     0
 73
     0
 74
     5
  7

 75
    16
 76
     0
 77
     2
 78
   300
147
1.0
148
0.0
149
0.0
100
AcDbLayout
  1
Layout1
 70
     1
 71
     1
 10
0.0
 20
0.0
 11
12.0
 21
9.0
 12
0.0
 22
0.0
 32
0.0
 14
1.000000000000000E+20
 24
1.000000000000000E+20
 34
1.000000000000000E+20
 15
-1.000000000000000E+20
 25
-1.000000000000000E+20
 35
-1.000000000000000E+20
146
0.0
 13
0.0
 23
0.0
 33
0.0
 16
1.0
 26
0.0
 36
0.0
 17
0.0
 27
1.0
 37
0.0
 76
     0
330
1B
  0
LAYOUT
  5
26
102
{ACAD_REACTORS
330
1A
102
}
330
1A
100
AcDbPlotSettings
  1

  2
none_device
  4

  6

 40
0.0
 41
0.0
 42
0.0
 43
0.0
 44
0.0
 45
0.0
 46
0.0
 47
0.0
 48
0.0
 49
0.0
140
0.0
141
0.0
142
1.0
143
1.0
 70
   688
 72
     0
 73
     0
 74
     5
  7

 75
    16
 76
     0
 77
     2
 78
   300
147
1.0
148
0.0
149
0.0
100
AcDbLayout
  1
Layout2
 70
     1
 71
     2
 10
0.0
 20
0.0
 11
0.0
 21
0.0
 12
0.0
 22
0.0
 32
0.0
 14
0.0
 24
0.0
 34
0.0
 15
0.0
 25
0.0
 35
0.0
146
0.0
 13
0.0
 23
0.0
 33
0.0
 16
1.0
 26
0.0
 36
0.0
 17
0.0
 27
1.0
 37
0.0
 76
     0
330
23
  0
LAYOUT
  5
22
102
{ACAD_REACTORS
330
1A
102
}
330
1A
100
AcDbPlotSettings
  1

  2
none_device
  4
Letter_(8.50_x_11.00_Inches)
  6

 40
6.35
 41
6.35
 42
6.35000508
 43
6.35000508
 44
215.9
 45
279.4
 46
0.0
 47
0.0
 48
0.0
 49
0.0
140
0.0
141
0.0
142
1.0
143
1.0
 70
  1712
 72
     0
 73
     0
 74
     0
  7

 75
     0
 76
     0
 77
     2
 78
   300
147
1.0
148
0.0
149
0.0
100
AcDbLayout
  1
Model
 70
     1
 71
     0
 10
0.0
 20
0.0
 11
12.0
 21
9.0
 12
0.0
 22
0.0
 32
0.0
 14
-184.0427797583403
 24
-137.3011771824764
 34
0.0
 15
182.1715512208322
 25
111.897806181832
 35
0.0
146
0.0
 13
0.0
 23
0.0
 33
0.0
 16
1.0
 26
0.0
 36
0.0
 17
0.0
 27
1.0
 37
0.0
 76
     0
330
1F
331
29
  0
MATERIAL
  5
45
102
{ACAD_REACTORS
330
43
102
}
330
43
100
AcDbMaterial
  1
ByBlock
 72
     1
 94
      127
  0
MATERIAL
  5
44
102
{ACAD_REACTORS
330
43
102
}
330
43
100
AcDbMaterial
  1
ByLayer
 72
     1
 94
      127
  0
MATERIAL
  5
46
102
{ACAD_REACTORS
330
43
102
}
330
43
100
AcDbMaterial
  1
Global
 72
     1
 94
      127
  0
MLEADERSTYLE
  5
5C
102
{ACAD_REACTORS
330
5B
102
}
102
{ACAD_XDICTIONARY
360
12E
102
}
330
5B
100
AcDbMLeaderStyle
170
     2
171
     1
172
     0
 90
        2
 40
0.0
 41
0.0
173
     1
 91
-1056964608
340
14
 92
       -2
290
     1
 42
0.09
291
     1
 43
0.36
  3
Standard
341
0
 44
0.18
300

342
11
174
     1
178
     6
175
     1
176
     0
 93
-1056964608
 45
0.18
292
     0
297
     0
 46
0.18
343
0
 94
-1056964608
 47
1.0
 49
1.0
140
1.0
293
     1
141
0.0
294
     1
177
     0
142
1.0
295
     0
296
     0
143
0.125
1001
ACAD_MLEADERVER
1070
     2
  0
MLINESTYLE
  5
18
102
{ACAD_REACTORS
330
17
102
}
330
17
100
AcDbMlineStyle
  2
Standard
 70
     0
  3

 62
   256
 51
90.0
 52
90.0
 71
     2
 49
0.5
 62
   256
  6
BYLAYER
 49
-0.5
 62
   256
  6
BYLAYER
  0
ACDBPLACEHOLDER
  5
F
102
{ACAD_REACTORS
330
E
102
}
330
E
  0
SCALE
  5
48
102
{ACAD_REACTORS
330
47
102
}
330
47
100
AcDbScale
 70
     0
300
1:1
140
1.0
141
1.0
290
     1
  0
SCALE
  5
49
102
{ACAD_REACTORS
330
47
102
}
330
47
100
AcDbScale
 70
     0
300
1/128" = 1'-0"
140
0.0078125
141
12.0
290
     0
  0
SCALE
  5
4A
102
{ACAD_REACTORS
330
47
102
}
330
47
100
AcDbScale
 70
     0
300
1/64" = 1'-0"
140
0.015625
141
12.0
290
     0
  0
SCALE
  5
4B
102
{ACAD_REACTORS
330
47
102
}
330
47
100
AcDbScale
 70
     0
300
1/32" = 1'-0"
140
0.03125
141
12.0
290
     0
  0
SCALE
  5
4C
102
{ACAD_REACTORS
330
47
102
}
330
47
100
AcDbScale
 70
     0
300
1/16" = 1'-0"
140
0.0625
141
12.0
290
     0
  0
SCALE
  5
4D
102
{ACAD_REACTORS
330
47
102
}
330
47
100
AcDbScale
 70
     0
300
3/32" = 1'-0"
140
0.09375
141
12.0
290
     0
  0
SCALE
  5
4E
102
{ACAD_REACTORS
330
47
102
}
330
47
100
AcDbScale
 70
     0
300
1/8" = 1'-0"
140
0.125
141
12.0
290
     0
  0
SCALE
  5
4F
102
{ACAD_REACTORS
330
47
102
}
330
47
100
AcDbScale
 70
     0
300
3/16" = 1'-0"
140
0.1875
141
12.0
290
     0
  0
SCALE
  5
50
102
{ACAD_REACTORS
330
47
102
}
330
47
100
AcDbScale
 70
     0
300
1/4" = 1'-0"
140
0.25
141
12.0
290
     0
  0
SCALE
  5
51
102
{ACAD_REACTORS
330
47
102
}
330
47
100
AcDbScale
 70
     0
300
3/8" = 1'-0"
140
0.375
141
12.0
290
     0
  0
SCALE
  5
52
102
{ACAD_REACTORS
330
47
102
}
330
47
100
AcDbScale
 70
     0
300
1/2" = 1'-0"
140
0.5
141
12.0
290
     0
  0
SCALE
  5
53
102
{ACAD_REACTORS
330
47
102
}
330
47
100
AcDbScale
 70
     0
300
3/4" = 1'-0"
140
0.75
141
12.0
290
     0
  0
SCALE
  5
54
102
{ACAD_REACTORS
330
47
102
}
330
47
100
AcDbScale
 70
     0
300
1" = 1'-0"
140
1.0
141
12.0
290
     0
  0
SCALE
  5
55
102
{ACAD_REACTORS
330
47
102
}
330
47
100
AcDbScale
 70
     0
300
1-1/2" = 1'-0"
140
1.5
141
12.0
290
     0
  0
SCALE
  5
56
102
{ACAD_REACTORS
330
47
102
}
330
47
100
AcDbScale
 70
     0
300
3" = 1'-0"
140
3.0
141
12.0
290
     0
  0
SCALE
  5
57
102
{ACAD_REACTORS
330
47
102
}
330
47
100
AcDbScale
 70
     0
300
6" = 1'-0"
140
6.0
141
12.0
290
     0
  0
SCALE
  5
58
102
{ACAD_REACTORS
330
47
102
}
330
47
100
AcDbScale
 70
     0
300
1'-0" = 1'-0"
140
12.0
141
12.0
290
     0
  0
TABLESTYLE
  5
5A
102
{ACAD_REACTORS
330
59
102
}
102
{ACAD_XDICTIONARY
360
12B
102
}
330
59
100
AcDbTableStyle
  3
Standard
 70
     0
 71
     0
 40
0.06
 41
0.06
280
     0
281
     0
  7
Standard
140
0.18
170
     2
 62
     0
 63
   257
283
     0
 90
        4
 91
        0
  1

274
    -2
284
     1
 64
     0
275
    -2
285
     1
 65
     0
276
    -2
286
     1
 66
     0
277
    -2
287
     1
 67
     0
278
    -2
288
     1
 68
     0
279
    -2
289
     1
 69
     0
  7
Standard
140
0.25
170
     5
 62
     0
 63
   257
283
     0
 90
        4
 91
        0
  1

274
    -2
284
     1
 64
     0
275
    -2
285
     1
 65
     0
276
    -2
286
     1
 66
     0
277
    -2
287
     1
 67
     0
278
    -2
288
     1
 68
     0
279
    -2
289
     1
 69
     0
  7
Standard
140
0.18
170
     5
 62
     0
 63
   257
283
     0
 90
        4
 91
        0
  1

274
    -2
284
     1
 64
     0
275
    -2
285
     1
 65
     0
276
    -2
286
     1
 66
     0
277
    -2
287
     1
 67
     0
278
    -2
288
     1
 68
     0
279
    -2
289
     1
 69
     0
  0
VISUALSTYLE
  5
2F
102
{ACAD_REACTORS
330
2A
102
}
102
{ACAD_XDICTIONARY
360
103
102
}
330
2A
100
AcDbVisualStyle
  2
2dWireframe
 70
     4
 71
     0
 72
     2
 73
     0
 90
        0
 40
0.6
 41
30.0
 62
     5
 63
     7
421
 16777215
 74
     1
 91
        4
 64
     7
 65
   257
 75
     1
175
     1
 42
1.0
 92
        0
 66
   257
 43
1.0
 76
     1
 77
     6
 78
     2
 67
     7
 79
     5
170
     0
171
     0
290
     0
174
     0
 93
        1
 44
0.0
173
     0
291
     0
 45
0.0
  0
VISUALSTYLE
  5
32
102
{ACAD_REACTORS
330
2A
102
}
102
{ACAD_XDICTIONARY
360
109
102
}
330
2A
100
AcDbVisualStyle
  2
Basic
 70
     7
 71
     1
 72
     0
 73
     1
 90
        0
 40
0.6
 41
30.0
 62
     5
 63
     7
421
 16777215
 74
     0
 91
        4
 64
     7
 65
   257
 75
     1
175
     1
 42
1.0
 92
        8
 66
     7
 43
1.0
 76
     1
 77
     6
 78
     2
 67
     7
 79
     5
170
     0
171
     0
290
     0
174
     0
 93
        1
 44
0.0
173
     0
291
     1
 45
0.0
  0
VISUALSTYLE
  5
36
102
{ACAD_REACTORS
330
2A
102
}
102
{ACAD_XDICTIONARY
360
111
102
}
330
2A
100
AcDbVisualStyle
  2
Brighten
 70
    12
 71
     2
 72
     2
 73
     0
 90
        0
 40
0.6
 41
30.0
 62
     5
 63
     7
421
 16777215
 74
     1
 91
        4
 64
     7
 65
   257
 75
     1
175
     1
 42
1.0
 92
        8
 66
     7
 43
1.0
 76
     1
 77
     6
 78
     2
 67
     7
 79
     5
170
     0
171
     0
290
     0
174
     0
 93
        1
 44
50.0
173
     0
291
     1
 45
0.0
  0
VISUALSTYLE
  5
3A
102
{ACAD_REACTORS
330
2A
102
}
102
{ACAD_XDICTIONARY
360
119
102
}
330
2A
100
AcDbVisualStyle
  2
ColorChange
 70
    16
 71
     2
 72
     2
 73
     3
 90
        0
 40
0.6
 41
30.0
 62
     5
 63
     8
421
  8421504
 74
     1
 91
        4
 64
     7
 65
   257
 75
     1
175
     1
 42
1.0
 92
        8
 66
     8
424
  8421504
 43
1.0
 76
     1
 77
     6
 78
     2
 67
     7
 79
     5
170
     0
171
     0
290
     0
174
     0
 93
        1
 44
0.0
173
     0
291
     1
 45
0.0
  0
VISUALSTYLE
  5
34
102
{ACAD_REACTORS
330
2A
102
}
102
{ACAD_XDICTIONARY
360
10D
102
}
330
2A
100
AcDbVisualStyle
  2
Conceptual
 70
     9
 71
     3
 72
     2
 73
     0
 90
        0
 40
0.6
 41
30.0
 62
     5
 63
     7
421
 16777215
 74
     2
 91
        2
 64
     7
 65
   257
 75
     1
175
     1
 42
179.0
 92
        8
 66
     7
 43
1.0
 76
     1
 77
     6
 78
     2
 67
     7
 79
     3
170
     0
171
     0
290
     0
174
     0
 93
        1
 44
0.0
173
     0
291
     0
 45
0.0
  0
VISUALSTYLE
  5
35
102
{ACAD_REACTORS
330
2A
102
}
102
{ACAD_XDICTIONARY
360
10F
102
}
330
2A
100
AcDbVisualStyle
  2
Dim
 70
    11
 71
     2
 72
     2
 73
     0
 90
        0
 40
0.6
 41
30.0
 62
     5
 63
     7
421
 16777215
 74
     1
 91
        4
 64
     7
 65
   257
 75
     1
175
     1
 42
1.0
 92
        8
 66
     7
 43
1.0
 76
     1
 77
     6
 78
     2
 67
     7
 79
     5
170
     0
171
     0
290
     0
174
     0
 93
        1
 44
-50.0
173
     0
291
     1
 45
0.0
  0
VISUALSTYLE
  5
3D
102
{ACAD_REACTORS
330
2A
102
}
102
{ACAD_XDICTIONARY
360
11F
102
}
330
2A
100
AcDbVisualStyle
  2
EdgeColorOff
 70
    22
 71
     2
 72
     2
 73
     0
 90
        0
 40
0.6
 41
30.0
 62
     5
 63
     7
421
 16777215
 74
     1
 91
        4
 64
     7
 65
   257
 75
     1
175
     1
 42
1.0
 92
        8
 66
     7
 43
1.0
 76
     1
 77
     6
 78
     2
 67
     7
 79
     5
170
     0
171
     0
290
     0
174
     0
 93
        1
 44
0.0
173
     0
291
     1
 45
0.0
  0
VISUALSTYLE
  5
39
102
{ACAD_REACTORS
330
2A
102
}
102
{ACAD_XDICTIONARY
360
117
102
}
330
2A
100
AcDbVisualStyle
  2
Facepattern
 70
    15
 71
     2
 72
     2
 73
     0
 90
        0
 40
0.6
 41
30.0
 62
     5
 63
     7
421
 16777215
 74
     1
 91
        4
 64
     7
 65
   257
 75
     1
175
     1
 42
1.0
 92
        8
 66
     7
 43
1.0
 76
     1
 77
     6
 78
     2
 67
     7
 79
     5
170
     0
171
     0
290
     0
174
     0
 93
        1
 44
0.0
173
     0
291
     1
 45
0.0
  0
VISUALSTYLE
  5
2B
102
{ACAD_REACTORS
330
2A
102
}
102
{ACAD_XDICTIONARY
360
FB
102
}
330
2A
100
AcDbVisualStyle
  2
Flat
 70
     0
 71
     2
 72
     1
 73
     1
 90
        2
 40
0.6
 41
30.0
 62
     5
 63
     7
421
 16777215
 74
     0
 91
        0
 64
     7
 65
   257
 75
     1
175
     1
 42
1.0
 92
        8
 66
     7
 43
1.0
 76
     1
 77
     6
 78
     2
 67
     7
 79
     5
170
     0
171
     0
290
     0
174
     0
 93
       13
 44
0.0
173
     0
291
     1
 45
0.0
  0
VISUALSTYLE
  5
2C
102
{ACAD_REACTORS
330
2A
102
}
102
{ACAD_XDICTIONARY
360
FD
102
}
330
2A
100
AcDbVisualStyle
  2
FlatWithEdges
 70
     1
 71
     2
 72
     1
 73
     1
 90
        2
 40
0.6
 41
30.0
 62
     5
 63
     7
421
 16777215
 74
     1
 91
        0
 64
     7
 65
   257
 75
     1
175
     1
 42
1.0
 92
        0
 66
   257
 43
1.0
 76
     1
 77
     6
 78
     2
 67
     7
 79
     5
170
     0
171
     0
290
     0
174
     0
 93
       13
 44
0.0
173
     0
291
     1
 45
0.0
  0
VISUALSTYLE
  5
2D
102
{ACAD_REACTORS
330
2A
102
}
102
{ACAD_XDICTIONARY
360
FF
102
}
330
2A
100
AcDbVisualStyle
  2
Gouraud
 70
     2
 71
     2
 72
     2
 73
     1
 90
        2
 40
0.6
 41
30.0
 62
     5
 63
     7
421
 16777215
 74
     0
 91
        0
 64
     7
 65
   257
 75
     1
175
     1
 42
1.0
 92
        0
 66
     7
 43
1.0
 76
     1
 77
     6
 78
     2
 67
     7
 79
     5
170
     0
171
     0
290
     0
174
     0
 93
       13
 44
0.0
173
     0
291
     1
 45
0.0
  0
VISUALSTYLE
  5
2E
102
{ACAD_REACTORS
330
2A
102
}
102
{ACAD_XDICTIONARY
360
101
102
}
330
2A
100
AcDbVisualStyle
  2
GouraudWithEdges
 70
     3
 71
     2
 72
     2
 73
     1
 90
        2
 40
0.6
 41
30.0
 62
     5
 63
     7
421
 16777215
 74
     1
 91
        0
 64
     7
 65
   257
 75
     1
175
     1
 42
1.0
 92
        0
 66
   257
 43
1.0
 76
     1
 77
     6
 78
     2
 67
     7
 79
     5
170
     0
171
     0
290
     0
174
     0
 93
       13
 44
0.0
173
     0
291
     1
 45
0.0
  0
VISUALSTYLE
  5
31
102
{ACAD_REACTORS
330
2A
102
}
102
{ACAD_XDICTIONARY
360
107
102
}
330
2A
100
AcDbVisualStyle
  2
Hidden
 70
     6
 71
     1
 72
     2
 73
     2
 90
        0
 40
0.6
 41
30.0
 62
     5
 63
     7
421
 16777215
 74
     2
 91
        2
 64
     7
 65
   257
 75
     2
175
     1
 42
40.0
 92
        0
 66
   257
 43
1.0
 76
     1
 77
     6
 78
     2
 67
     7
 79
     3
170
     0
171
     0
290
     0
174
     0
 93
        1
 44
0.0
173
     0
291
     0
 45
0.0
  0
VISUALSTYLE
  5
3B
102
{ACAD_REACTORS
330
2A
102
}
102
{ACAD_XDICTIONARY
360
11B
102
}
330
2A
100
AcDbVisualStyle
  2
JitterOff
 70
    20
 71
     2
 72
     2
 73
     0
 90
        0
 40
0.6
 41
30.0
 62
     5
 63
     7
421
 16777215
 74
     1
 91
        4
 64
     7
 65
   257
 75
     1
175
     1
 42
1.0
 92
       10
 66
     7
 43
1.0
 76
     1
 77
     6
 78
     2
 67
     7
 79
     5
170
     0
171
     0
290
     0
174
     0
 93
        1
 44
0.0
173
     0
291
     1
 45
0.0
  0
VISUALSTYLE
  5
38
102
{ACAD_REACTORS
330
2A
102
}
102
{ACAD_XDICTIONARY
360
115
102
}
330
2A
100
AcDbVisualStyle
  2
Linepattern
 70
    14
 71
     2
 72
     2
 73
     0
 90
        0
 40
0.6
 41
30.0
 62
     5
 63
     7
421
 16777215
 74
     1
 91
        4
 64
     7
 65
   257
 75
     7
175
     7
 42
1.0
 92
        8
 66
     7
 43
1.0
 76
     1
 77
     6
 78
     2
 67
     7
 79
     5
170
     0
171
     0
290
     0
174
     0
 93
        1
 44
0.0
173
     0
291
     1
 45
0.0
  0
VISUALSTYLE
  5
3C
102
{ACAD_REACTORS
330
2A
102
}
102
{ACAD_XDICTIONARY
360
11D
102
}
330
2A
100
AcDbVisualStyle
  2
OverhangOff
 70
    21
 71
     2
 72
     2
 73
     0
 90
        0
 40
0.6
 41
30.0
 62
     5
 63
     7
421
 16777215
 74
     1
 91
        4
 64
     7
 65
   257
 75
     1
175
     1
 42
1.0
 92
        9
 66
     7
 43
1.0
 76
     1
 77
     6
 78
     2
 67
     7
 79
     5
170
     0
171
     0
290
     0
174
     0
 93
        1
 44
0.0
173
     0
291
     1
 45
0.0
  0
VISUALSTYLE
  5
33
102
{ACAD_REACTORS
330
2A
102
}
102
{ACAD_XDICTIONARY
360
10B
102
}
330
2A
100
AcDbVisualStyle
  2
Realistic
 70
     8
 71
     2
 72
     3
 73
     0
 90
        2
 40
0.6
 41
30.0
 62
     5
 63
     7
421
 16777215
 74
     0
 91
        0
 64
     7
 65
   257
 75
     1
175
     1
 42
1.0
 92
        8
 66
   257
 43
1.0
 76
     1
 77
     6
 78
     2
 67
     7
 79
     3
170
     0
171
     0
290
     0
174
     0
 93
       13
 44
0.0
173
     0
291
     0
 45
0.0
  0
VISUALSTYLE
  5
42
102
{ACAD_REACTORS
330
2A
102
}
102
{ACAD_XDICTIONARY
360
129
102
}
330
2A
100
AcDbVisualStyle
  2
Shaded
 70
    27
 71
     2
 72
     2
 73
     1
 90
        2
 40
0.6
 41
30.0
 62
     5
 63
     7
421
 16777215
 74
     0
 91
        4
 64
     7
 65
   257
 75
     1
175
     1
 42
1.0
 92
        8
 66
   257
 43
1.0
 76
     1
 77
     6
 78
     2
 67
     8
425
  7895160
 79
     3
170
     0
171
     0
290
     0
174
     0
 93
        5
 44
0.0
173
     0
291
     0
 45
0.0
  0
VISUALSTYLE
  5
41
102
{ACAD_REACTORS
330
2A
102
}
102
{ACAD_XDICTIONARY
360
127
102
}
330
2A
100
AcDbVisualStyle
  2
Shaded with edges
 70
    26
 71
     2
 72
     2
 73
     1
 90
        2
 40
0.6
 41
30.0
 62
     5
 63
     7
421
 16777215
 74
     1
 91
       10
 64
     7
 65
   257
 75
     2
175
     1
 42
1.0
 92
        8
 66
   257
 43
1.0
 76
     1
 77
     6
 78
     2
 67
     7
 79
     3
170
     0
171
     0
290
     0
174
     0
 93
        5
 44
0.0
173
     0
291
     0
 45
0.0
  0
VISUALSTYLE
  5
3E
102
{ACAD_REACTORS
330
2A
102
}
102
{ACAD_XDICTIONARY
360
121
102
}
330
2A
100
AcDbVisualStyle
  2
Shades of Gray
 70
    23
 71
     2
 72
     2
 73
     3
 90
        0
 40
0.6
 41
30.0
 62
     5
 63
     7
421
 16777215
 74
     2
 91
        2
 64
     7
 65
     7
 75
     1
175
     1
 42
40.0
 92
        8
 66
     7
 43
1.0
 76
     1
 77
     6
 78
     2
 67
     7
 79
     3
170
     0
171
     0
290
     0
174
     0
 93
        1
 44
0.0
173
     0
291
     0
 45
0.0
  0
VISUALSTYLE
  5
3F
102
{ACAD_REACTORS
330
2A
102
}
102
{ACAD_XDICTIONARY
360
123
102
}
330
2A
100
AcDbVisualStyle
  2
Sketchy
 70
    24
 71
     1
 72
     2
 73
     2
 90
        0
 40
0.6
 41
30.0
 62
     5
 63
     7
421
 16777215
 74
     2
 91
        2
 64
     7
 65
     7
 75
     1
175
     1
 42
40.0
 92
       11
 66
     7
 43
1.0
 76
     1
 77
     6
 78
     2
 67
     7
 79
     6
170
     0
171
     0
290
     0
174
     0
 93
        1
 44
0.0
173
     0
291
     0
 45
0.0
  0
VISUALSTYLE
  5
37
102
{ACAD_REACTORS
330
2A
102
}
102
{ACAD_XDICTIONARY
360
113
102
}
330
2A
100
AcDbVisualStyle
  2
Thicken
 70
    13
 71
     2
 72
     2
 73
     0
 90
        0
 40
0.6
 41
30.0
 62
     5
 63
     7
421
 16777215
 74
     1
 91
        4
 64
     7
 65
   257
 75
     1
175
     1
 42
1.0
 92
       12
 66
     7
 43
1.0
 76
     1
 77
     6
 78
     2
 67
     7
 79
     5
170
     0
171
     0
290
     0
174
     0
 93
        1
 44
0.0
173
     0
291
     1
 45
0.0
  0
VISUALSTYLE
  5
30
102
{ACAD_REACTORS
330
2A
102
}
102
{ACAD_XDICTIONARY
360
105
102
}
330
2A
100
AcDbVisualStyle
  2
Wireframe
 70
     5
 71
     0
 72
     2
 73
     0
 90
        0
 40
0.6
 41
30.0
 62
     5
 63
     7
421
 16777215
 74
     1
 91
        4
 64
     7
 65
   257
 75
     1
175
     1
 42
1.0
 92
        0
 66
   257
 43
1.0
 76
     1
 77
     6
 78
     2
 67
     7
 79
     3
170
     0
171
     0
290
     0
174
     0
 93
        1
 44
0.0
173
     0
291
     0
 45
0.0
  0
VISUALSTYLE
  5
40
102
{ACAD_REACTORS
330
2A
102
}
102
{ACAD_XDICTIONARY
360
125
102
}
330
2A
100
AcDbVisualStyle
  2
X-Ray
 70
    25
 71
     2
 72
     2
 73
     1
 90
        1
 40
0.5
 41
30.0
 62
     5
 63
     7
421
 16777215
 74
     1
 91
        0
 64
     7
 65
   257
 75
     1
175
     1
 42
1.0
 92
        8
 66
     7
 43
1.0
 76
     1
 77
     6
 78
     2
 67
     7
 79
     3
170
     0
171
     0
290
     0
174
     0
 93
       13
 44
0.0
173
     0
291
     0
 45
0.0
  0
DICTIONARYVAR
  5
F9
102
{ACAD_REACTORS
330
F8
102
}
330
F8
100
DictionaryVariables
280
     0
  1
1:1
  0
DICTIONARYVAR
  5
132
102
{ACAD_REACTORS
330
F8
102
}
330
F8
100
DictionaryVariables
280
     0
  1
Standard
  0
DICTIONARYVAR
  5
131
102
{ACAD_REACTORS
330
F8
102
}
330
F8
100
DictionaryVariables
280
     0
  1
Standard
  0
DICTIONARYVAR
  5
FA
102
{ACAD_REACTORS
330
F8
102
}
330
F8
100
DictionaryVariables
280
     0
  1
2
  0
DICTIONARY
  5
12E
330
5C
100
AcDbDictionary
280
     1
281
     1
  3
ACAD_XREC_ROUNDTRIP
360
12F
  0
DICTIONARY
  5
12B
330
5A
100
AcDbDictionary
280
     1
281
     1
  3
ACAD_ROUNDTRIP_2008_TABLESTYLE_CELLSTYLEMAP
360
12C
  0
DICTIONARY
  5
103
330
2F
100
AcDbDictionary
280
     1
281
     1
  3
ACAD_XREC_ROUNDTRIP
360
104
  0
DICTIONARY
  5
109
330
32
100
AcDbDictionary
280
     1
281
     1
  3
ACAD_XREC_ROUNDTRIP
360
10A
  0
DICTIONARY
  5
111
330
36
100
AcDbDictionary
280
     1
281
     1
  3
ACAD_XREC_ROUNDTRIP
360
112
  0
DICTIONARY
  5
119
330
3A
100
AcDbDictionary
280
     1
281
     1
  3
ACAD_XREC_ROUNDTRIP
360
11A
  0
DICTIONARY
  5
10D
330
34
100
AcDbDictionary
280
     1
281
     1
  3
ACAD_XREC_ROUNDTRIP
360
10E
  0
DICTIONARY
  5
10F
330
35
100
AcDbDictionary
280
     1
281
     1
  3
ACAD_XREC_ROUNDTRIP
360
110
  0
DICTIONARY
  5
11F
330
3D
100
AcDbDictionary
280
     1
281
     1
  3
ACAD_XREC_ROUNDTRIP
360
120
  0
DICTIONARY
  5
117
330
39
100
AcDbDictionary
280
     1
281
     1
  3
ACAD_XREC_ROUNDTRIP
360
118
  0
DICTIONARY
  5
FB
330
2B
100
AcDbDictionary
280
     1
281
     1
  3
ACAD_XREC_ROUNDTRIP
360
FC
  0
DICTIONARY
  5
FD
330
2C
100
AcDbDictionary
280
     1
281
     1
  3
ACAD_XREC_ROUNDTRIP
360
FE
  0
DICTIONARY
  5
FF
330
2D
100
AcDbDictionary
280
     1
281
     1
  3
ACAD_XREC_ROUNDTRIP
360
100
  0
DICTIONARY
  5
101
330
2E
100
AcDbDictionary
280
     1
281
     1
  3
ACAD_XREC_ROUNDTRIP
360
102
  0
DICTIONARY
  5
107
330
31
100
AcDbDictionary
280
     1
281
     1
  3
ACAD_XREC_ROUNDTRIP
360
108
  0
DICTIONARY
  5
11B
330
3B
100
AcDbDictionary
280
     1
281
     1
  3
ACAD_XREC_ROUNDTRIP
360
11C
  0
DICTIONARY
  5
115
330
38
100
AcDbDictionary
280
     1
281
     1
  3
ACAD_XREC_ROUNDTRIP
360
116
  0
DICTIONARY
  5
11D
330
3C
100
AcDbDictionary
280
     1
281
     1
  3
ACAD_XREC_ROUNDTRIP
360
11E
  0
DICTIONARY
  5
10B
330
33
100
AcDbDictionary
280
     1
281
     1
  3
ACAD_XREC_ROUNDTRIP
360
10C
  0
DICTIONARY
  5
129
330
42
100
AcDbDictionary
280
     1
281
     1
  3
ACAD_XREC_ROUNDTRIP
360
12A
  0
DICTIONARY
  5
127
330
41
100
AcDbDictionary
280
     1
281
     1
  3
ACAD_XREC_ROUNDTRIP
360
128
  0
DICTIONARY
  5
121
330
3E
100
AcDbDictionary
280
     1
281
     1
  3
ACAD_XREC_ROUNDTRIP
360
122
  0
DICTIONARY
  5
123
330
3F
100
AcDbDictionary
280
     1
281
     1
  3
ACAD_XREC_ROUNDTRIP
360
124
  0
DICTIONARY
  5
113
330
37
100
AcDbDictionary
280
     1
281
     1
  3
ACAD_XREC_ROUNDTRIP
360
114
  0
DICTIONARY
  5
105
330
30
100
AcDbDictionary
280
     1
281
     1
  3
ACAD_XREC_ROUNDTRIP
360
106
  0
DICTIONARY
  5
125
330
40
100
AcDbDictionary
280
     1
281
     1
  3
ACAD_XREC_ROUNDTRIP
360
126
  0
XRECORD
  5
12F
102
{ACAD_REACTORS
330
12E
102
}
330
12E
100
AcDbXrecord
280
     1
102
ACAD_ROUNDTRIP_2010_MLEADER_STYLE
  0
CELLSTYLEMAP
  5
12C
102
{ACAD_REACTORS
330
12B
102
}
330
12B
100
AcDbCellStyleMap
 90
        3
300
CELLSTYLE
  1
TABLEFORMAT_BEGIN
 90
        5
170
     1
 91
        0
 92
    32768
 62
   257
 93
        1
300
CONTENTFORMAT
  1
CONTENTFORMAT_BEGIN
 90
        0
 91
        0
 92
        4
 93
        0
300

 40
0.0
140
1.0
 94
        5
 62
     0
340
11
144
0.25
309
CONTENTFORMAT_END
171
     1
301
MARGIN
  1
CELLMARGIN_BEGIN
 40
0.06
 40
0.06
 40
0.06
 40
0.06
 40
0.06
 40
0.06
309
CELLMARGIN_END
 94
        6
 95
        1
302
GRIDFORMAT
  1
GRIDFORMAT_BEGIN
 90
        0
 91
        1
 62
     0
 92
       -2
340
14
 93
        0
 40
0.045
309
GRIDFORMAT_END
 95
        2
302
GRIDFORMAT
  1
GRIDFORMAT_BEGIN
 90
        0
 91
        1
 62
     0
 92
       -2
340
14
 93
        0
 40
0.045
309
GRIDFORMAT_END
 95
        4
302
GRIDFORMAT
  1
GRIDFORMAT_BEGIN
 90
        0
 91
        1
 62
     0
 92
       -2
340
14
 93
        0
 40
0.045
309
GRIDFORMAT_END
 95
        8
302
GRIDFORMAT
  1
GRIDFORMAT_BEGIN
 90
        0
 91
        1
 62
     0
 92
       -2
340
14
 93
        0
 40
0.045
309
GRIDFORMAT_END
 95
       16
302
GRIDFORMAT
  1
GRIDFORMAT_BEGIN
 90
        0
 91
        1
 62
     0
 92
       -2
340
14
 93
        0
 40
0.045
309
GRIDFORMAT_END
 95
       32
302
GRIDFORMAT
  1
GRIDFORMAT_BEGIN
 90
        0
 91
        1
 62
     0
 92
       -2
340
14
 93
        0
 40
0.045
309
GRIDFORMAT_END
309
TABLEFORMAT_END
  1
CELLSTYLE_BEGIN
 90
        1
 91
        1
300
_TITLE
309
CELLSTYLE_END
300
CELLSTYLE
  1
TABLEFORMAT_BEGIN
 90
        5
170
     1
 91
        0
 92
        0
 62
   257
 93
        1
300
CONTENTFORMAT
  1
CONTENTFORMAT_BEGIN
 90
        0
 91
        0
 92
        4
 93
        0
300

 40
0.0
140
1.0
 94
        5
 62
     0
340
11
144
0.18
309
CONTENTFORMAT_END
171
     1
301
MARGIN
  1
CELLMARGIN_BEGIN
 40
0.06
 40
0.06
 40
0.06
 40
0.06
 40
0.06
 40
0.06
309
CELLMARGIN_END
 94
        6
 95
        1
302
GRIDFORMAT
  1
GRIDFORMAT_BEGIN
 90
        0
 91
        1
 62
     0
 92
       -2
340
14
 93
        0
 40
0.045
309
GRIDFORMAT_END
 95
        2
302
GRIDFORMAT
  1
GRIDFORMAT_BEGIN
 90
        0
 91
        1
 62
     0
 92
       -2
340
14
 93
        0
 40
0.045
309
GRIDFORMAT_END
 95
        4
302
GRIDFORMAT
  1
GRIDFORMAT_BEGIN
 90
        0
 91
        1
 62
     0
 92
       -2
340
14
 93
        0
 40
0.045
309
GRIDFORMAT_END
 95
        8
302
GRIDFORMAT
  1
GRIDFORMAT_BEGIN
 90
        0
 91
        1
 62
     0
 92
       -2
340
14
 93
        0
 40
0.045
309
GRIDFORMAT_END
 95
       16
302
GRIDFORMAT
  1
GRIDFORMAT_BEGIN
 90
        0
 91
        1
 62
     0
 92
       -2
340
14
 93
        0
 40
0.045
309
GRIDFORMAT_END
 95
       32
302
GRIDFORMAT
  1
GRIDFORMAT_BEGIN
 90
        0
 91
        1
 62
     0
 92
       -2
340
14
 93
        0
 40
0.045
309
GRIDFORMAT_END
309
TABLEFORMAT_END
  1
CELLSTYLE_BEGIN
 90
        2
 91
        1
300
_HEADER
309
CELLSTYLE_END
300
CELLSTYLE
  1
TABLEFORMAT_BEGIN
 90
        5
170
     1
 91
        0
 92
        0
 62
   257
 93
        1
300
CONTENTFORMAT
  1
CONTENTFORMAT_BEGIN
 90
        0
 91
        0
 92
        4
 93
        0
300

 40
0.0
140
1.0
 94
        2
 62
     0
340
11
144
0.18
309
CONTENTFORMAT_END
171
     1
301
MARGIN
  1
CELLMARGIN_BEGIN
 40
0.06
 40
0.06
 40
0.06
 40
0.06
 40
0.06
 40
0.06
309
CELLMARGIN_END
 94
        6
 95
        1
302
GRIDFORMAT
  1
GRIDFORMAT_BEGIN
 90
        0
 91
        1
 62
     0
 92
       -2
340
14
 93
        0
 40
0.045
309
GRIDFORMAT_END
 95
        2
302
GRIDFORMAT
  1
GRIDFORMAT_BEGIN
 90
        0
 91
        1
 62
     0
 92
       -2
340
14
 93
        0
 40
0.045
309
GRIDFORMAT_END
 95
        4
302
GRIDFORMAT
  1
GRIDFORMAT_BEGIN
 90
        0
 91
        1
 62
     0
 92
       -2
340
14
 93
        0
 40
0.045
309
GRIDFORMAT_END
 95
        8
302
GRIDFORMAT
  1
GRIDFORMAT_BEGIN
 90
        0
 91
        1
 62
     0
 92
       -2
340
14
 93
        0
 40
0.045
309
GRIDFORMAT_END
 95
       16
302
GRIDFORMAT
  1
GRIDFORMAT_BEGIN
 90
        0
 91
        1
 62
     0
 92
       -2
340
14
 93
        0
 40
0.045
309
GRIDFORMAT_END
 95
       32
302
GRIDFORMAT
  1
GRIDFORMAT_BEGIN
 90
        0
 91
        1
 62
     0
 92
       -2
340
14
 93
        0
 40
0.045
309
GRIDFORMAT_END
309
TABLEFORMAT_END
  1
CELLSTYLE_BEGIN
 90
        3
 91
        2
300
_DATA
309
CELLSTYLE_END
  0
XRECORD
  5
104
102
{ACAD_REACTORS
330
103
102
}
330
103
100
AcDbXrecord
280
     1
102
RTVSPropertyOp0
 70
     1
102
RTVSPropertyOp1
 70
     1
102
RTVSPropertyOp2
 70
     1
102
RTVSPropertyOp3
 70
     1
102
RTVSPropertyOp4
 70
     1
102
RTVSPropertyOp5
 70
     1
102
RTVSPropertyOp6
 70
     1
102
RTVSPropertyOp7
 70
     1
102
RTVSPropertyOp8
 70
     1
102
RTVSPropertyOp9
 70
     1
102
RTVSPropertyOp10
 70
     1
102
RTVSPropertyOp11
 70
     1
102
RTVSPropertyOp12
 70
     1
102
RTVSPropertyOp13
 70
     1
102
RTVSPropertyOp14
 70
     1
102
RTVSPropertyOp15
 70
     1
102
RTVSPropertyOp16
 70
     1
102
RTVSPropertyOp17
 70
     1
102
RTVSPropertyOp18
 70
     1
102
RTVSPropertyOp19
 70
     1
102
RTVSPropertyOp20
 70
     1
102
RTVSPropertyOp21
 70
     1
102
RTVSPropertyOp22
 70
     1
102
RTVSPropertyOp23
 70
     1
102
RTVSPropertyOp24
 70
     1
102
RTVSPropertyOp25
 70
     1
102
RTVSPropertyOp26
 70
     1
102
RTVSPropertyOp27
 70
     1
102
RTVSPropertyOp28
 70
     1
102
RTVSPropertyOp29
 70
     1
102
RTVSPropertyOp30
 70
     1
102
RTVSPropertyOp31
 70
     1
102
RTVSPropertyOp32
 70
     1
102
RTVSPropertyOp33
 70
     1
102
RTVSPropertyOp34
 70
     1
102
RTVSPropertyOp35
 70
     1
102
RTVSPropertyOp36
 70
     1
102
RTVSPropertyOp37
 70
     1
102
RTVSPropertyOp38
 70
     1
102
RTVSPropertyOp39
 70
     1
102
RTVSPropertyOp40
 70
     1
102
RTVSPropertyOp41
 70
     1
102
RTVSPropertyOp42
 70
     1
102
RTVSPropertyOp43
 70
     1
102
RTVSPropertyOp44
 70
     1
102
RTVSPropertyOp45
 70
     1
102
RTVSPropertyOp46
 70
     1
102
RTVSPropertyOp47
 70
     1
102
RTVSPropertyOp48
 70
     1
102
RTVSPropertyOp49
 70
     1
102
RTVSPropertyOp50
 70
     1
102
RTVSPropertyOp51
 70
     0
102
RTVSPropertyOp52
 70
     0
102
RTVSPropertyOp53
 70
     1
102
RTVSPropertyOp54
 70
     1
102
RTVSPropertyOp55
 70
     1
102
RTVSPropertyOp56
 70
     1
102
RTVSPropertyOp57
 70
     1
102
RTVSPost2010Prop28
280
     1
102
RTVSPost2010PropOp28
 70
     1
102
RTVSPost2010Prop29
280
     1
102
RTVSPost2010PropOp29
 70
     1
102
RTVSPost2010Prop30
280
     0
102
RTVSPost2010PropOp30
 70
     1
102
RTVSPost2010Prop31
280
     0
102
RTVSPost2010PropOp31
 70
     1
102
RTVSPost2010Prop32
280
     0
102
RTVSPost2010PropOp32
 70
     1
102
RTVSPost2010Prop33
280
     0
102
RTVSPost2010PropOp33
 70
     1
102
RTVSPost2010Prop34
280
     0
102
RTVSPost2010PropOp34
 70
     1
102
RTVSPost2010Prop35
280
     0
102
RTVSPost2010PropOp35
 70
     1
102
RTVSPost2010Prop36
280
     0
102
RTVSPost2010PropOp36
 70
     1
102
RTVSPost2010Prop37
 90
       50
102
RTVSPost2010PropOp37
 70
     1
102
RTVSPost2010Prop38
140
0.0
102
RTVSPost2010PropOp38
 70
     1
102
RTVSPost2010Prop39
140
1.0
102
RTVSPost2010PropOp39
 70
     1
102
RTVSPost2010Prop40
 90
        0
102
RTVSPost2010PropOp40
 70
     1
102
RTVSPost2010Prop41ColorIndex
 90
       18
102
RTVSPost2010Prop41ColorRGB
 90
        0
102
RTVSPost2010PropOp41
 70
     1
102
RTVSPost2010Prop42
 90
       50
102
RTVSPost2010PropOp42
 70
     1
102
RTVSPost2010Prop43
 90
        3
102
RTVSPost2010PropOp43
 70
     1
102
RTVSPost2010Prop44ColorIndex
 90
        5
102
RTVSPost2010Prop44ColorRGB
 90
      255
102
RTVSPost2010PropOp44
 70
     1
102
RTVSPost2010Prop45
280
     0
102
RTVSPost2010PropOp45
 70
     1
102
RTVSPost2010Prop46
 90
       50
102
RTVSPost2010PropOp46
 70
     1
102
RTVSPost2010Prop47
 90
       50
102
RTVSPost2010PropOp47
 70
     1
102
RTVSPost2010Prop48
 90
       50
102
RTVSPost2010PropOp48
 70
     1
102
RTVSPost2010Prop49
280
     0
102
RTVSPost2010PropOp49
 70
     1
102
RTVSPost2010Prop50
 90
       50
102
RTVSPost2010PropOp50
 70
     1
102
RTVSPost2010Prop51ColorIndex
 90
      256
102
RTVSPost2010Prop51ColorRGB
 90
-16777216
102
RTVSPost2010PropOp51
 70
     0
102
RTVSPost2010Prop52
140
1.0
102
RTVSPost2010PropOp52
 70
     0
102
RTVSPost2010Prop53
 90
        2
102
RTVSPost2010PropOp53
 70
     1
102
RTVSPost2010Prop54
  1
strokes_ogs.tif
102
RTVSPost2010PropOp54
 70
     1
102
RTVSPost2010Prop55
280
     0
102
RTVSPost2010PropOp55
 70
     1
102
RTVSPost2010Prop56
140
1.0
102
RTVSPost2010PropOp56
 70
     1
102
RTVSPost2010Prop57
140
1.0
102
RTVSPost2010PropOp57
 70
     1
  0
XRECORD
  5
10A
102
{ACAD_REACTORS
330
109
102
}
330
109
100
AcDbXrecord
280
     1
102
RTVSPropertyOp0
 70
     1
102
RTVSPropertyOp1
 70
     1
102
RTVSPropertyOp2
 70
     1
102
RTVSPropertyOp3
 70
     1
102
RTVSPropertyOp4
 70
     1
102
RTVSPropertyOp5
 70
     1
102
RTVSPropertyOp6
 70
     1
102
RTVSPropertyOp7
 70
     1
102
RTVSPropertyOp8
 70
     1
102
RTVSPropertyOp9
 70
     1
102
RTVSPropertyOp10
 70
     1
102
RTVSPropertyOp11
 70
     1
102
RTVSPropertyOp12
 70
     1
102
RTVSPropertyOp13
 70
     1
102
RTVSPropertyOp14
 70
     1
102
RTVSPropertyOp15
 70
     1
102
RTVSPropertyOp16
 70
     1
102
RTVSPropertyOp17
 70
     1
102
RTVSPropertyOp18
 70
     1
102
RTVSPropertyOp19
 70
     1
102
RTVSPropertyOp20
 70
     1
102
RTVSPropertyOp21
 70
     1
102
RTVSPropertyOp22
 70
     1
102
RTVSPropertyOp23
 70
     1
102
RTVSPropertyOp24
 70
     1
102
RTVSPropertyOp25
 70
     1
102
RTVSPropertyOp26
 70
     1
102
RTVSPropertyOp27
 70
     1
102
RTVSPropertyOp28
 70
     1
102
RTVSPropertyOp29
 70
     1
102
RTVSPropertyOp30
 70
     1
102
RTVSPropertyOp31
 70
     1
102
RTVSPropertyOp32
 70
     1
102
RTVSPropertyOp33
 70
     1
102
RTVSPropertyOp34
 70
     1
102
RTVSPropertyOp35
 70
     1
102
RTVSPropertyOp36
 70
     1
102
RTVSPropertyOp37
 70
     1
102
RTVSPropertyOp38
 70
     1
102
RTVSPropertyOp39
 70
     1
102
RTVSPropertyOp40
 70
     1
102
RTVSPropertyOp41
 70
     1
102
RTVSPropertyOp42
 70
     1
102
RTVSPropertyOp43
 70
     1
102
RTVSPropertyOp44
 70
     1
102
RTVSPropertyOp45
 70
     1
102
RTVSPropertyOp46
 70
     1
102
RTVSPropertyOp47
 70
     1
102
RTVSPropertyOp48
 70
     1
102
RTVSPropertyOp49
 70
     1
102
RTVSPropertyOp50
 70
     1
102
RTVSPropertyOp51
 70
     0
102
RTVSPropertyOp52
 70
     0
102
RTVSPropertyOp53
 70
     1
102
RTVSPropertyOp54
 70
     1
102
RTVSPropertyOp55
 70
     1
102
RTVSPropertyOp56
 70
     1
102
RTVSPropertyOp57
 70
     1
102
RTVSPost2010Prop28
280
     0
102
RTVSPost2010PropOp28
 70
     1
102
RTVSPost2010Prop29
280
     1
102
RTVSPost2010PropOp29
 70
     1
102
RTVSPost2010Prop30
280
     1
102
RTVSPost2010PropOp30
 70
     1
102
RTVSPost2010Prop31
280
     0
102
RTVSPost2010PropOp31
 70
     1
102
RTVSPost2010Prop32
280
     0
102
RTVSPost2010PropOp32
 70
     1
102
RTVSPost2010Prop33
280
     0
102
RTVSPost2010PropOp33
 70
     1
102
RTVSPost2010Prop34
280
     0
102
RTVSPost2010PropOp34
 70
     1
102
RTVSPost2010Prop35
280
     0
102
RTVSPost2010PropOp35
 70
     1
102
RTVSPost2010Prop36
280
     0
102
RTVSPost2010PropOp36
 70
     1
102
RTVSPost2010Prop37
 90
       50
102
RTVSPost2010PropOp37
 70
     1
102
RTVSPost2010Prop38
140
0.0
102
RTVSPost2010PropOp38
 70
     1
102
RTVSPost2010Prop39
140
1.0
102
RTVSPost2010PropOp39
 70
     1
102
RTVSPost2010Prop40
 90
        0
102
RTVSPost2010PropOp40
 70
     1
102
RTVSPost2010Prop41ColorIndex
 90
       18
102
RTVSPost2010Prop41ColorRGB
 90
        0
102
RTVSPost2010PropOp41
 70
     1
102
RTVSPost2010Prop42
 90
       50
102
RTVSPost2010PropOp42
 70
     1
102
RTVSPost2010Prop43
 90
        3
102
RTVSPost2010PropOp43
 70
     1
102
RTVSPost2010Prop44ColorIndex
 90
        5
102
RTVSPost2010Prop44ColorRGB
 90
      255
102
RTVSPost2010PropOp44
 70
     1
102
RTVSPost2010Prop45
280
     0
102
RTVSPost2010PropOp45
 70
     1
102
RTVSPost2010Prop46
 90
       50
102
RTVSPost2010PropOp46
 70
     1
102
RTVSPost2010Prop47
 90
       50
102
RTVSPost2010PropOp47
 70
     1
102
RTVSPost2010Prop48
 90
       50
102
RTVSPost2010PropOp48
 70
     1
102
RTVSPost2010Prop49
280
     0
102
RTVSPost2010PropOp49
 70
     1
102
RTVSPost2010Prop50
 90
       50
102
RTVSPost2010PropOp50
 70
     1
102
RTVSPost2010Prop51ColorIndex
 90
      256
102
RTVSPost2010Prop51ColorRGB
 90
-16777216
102
RTVSPost2010PropOp51
 70
     0
102
RTVSPost2010Prop52
140
1.0
102
RTVSPost2010PropOp52
 70
     0
102
RTVSPost2010Prop53
 90
        2
102
RTVSPost2010PropOp53
 70
     1
102
RTVSPost2010Prop54
  1
strokes_ogs.tif
102
RTVSPost2010PropOp54
 70
     1
102
RTVSPost2010Prop55
280
     0
102
RTVSPost2010PropOp55
 70
     1
102
RTVSPost2010Prop56
140
1.0
102
RTVSPost2010PropOp56
 70
     1
102
RTVSPost2010Prop57
140
1.0
102
RTVSPost2010PropOp57
 70
     1
  0
XRECORD
  5
112
102
{ACAD_REACTORS
330
111
102
}
330
111
100
AcDbXrecord
280
     1
102
RTVSPropertyOp0
 70
     1
102
RTVSPropertyOp1
 70
     1
102
RTVSPropertyOp2
 70
     1
102
RTVSPropertyOp3
 70
     1
102
RTVSPropertyOp4
 70
     1
102
RTVSPropertyOp5
 70
     1
102
RTVSPropertyOp6
 70
     1
102
RTVSPropertyOp7
 70
     1
102
RTVSPropertyOp8
 70
     1
102
RTVSPropertyOp9
 70
     1
102
RTVSPropertyOp10
 70
     1
102
RTVSPropertyOp11
 70
     1
102
RTVSPropertyOp12
 70
     1
102
RTVSPropertyOp13
 70
     1
102
RTVSPropertyOp14
 70
     1
102
RTVSPropertyOp15
 70
     1
102
RTVSPropertyOp16
 70
     1
102
RTVSPropertyOp17
 70
     1
102
RTVSPropertyOp18
 70
     1
102
RTVSPropertyOp19
 70
     1
102
RTVSPropertyOp20
 70
     1
102
RTVSPropertyOp21
 70
     1
102
RTVSPropertyOp22
 70
     1
102
RTVSPropertyOp23
 70
     1
102
RTVSPropertyOp24
 70
     1
102
RTVSPropertyOp25
 70
     1
102
RTVSPropertyOp26
 70
     1
102
RTVSPropertyOp27
 70
     1
102
RTVSPropertyOp28
 70
     1
102
RTVSPropertyOp29
 70
     1
102
RTVSPropertyOp30
 70
     1
102
RTVSPropertyOp31
 70
     1
102
RTVSPropertyOp32
 70
     1
102
RTVSPropertyOp33
 70
     1
102
RTVSPropertyOp34
 70
     1
102
RTVSPropertyOp35
 70
     1
102
RTVSPropertyOp36
 70
     1
102
RTVSPropertyOp37
 70
     1
102
RTVSPropertyOp38
 70
     1
102
RTVSPropertyOp39
 70
     1
102
RTVSPropertyOp40
 70
     1
102
RTVSPropertyOp41
 70
     1
102
RTVSPropertyOp42
 70
     1
102
RTVSPropertyOp43
 70
     1
102
RTVSPropertyOp44
 70
     1
102
RTVSPropertyOp45
 70
     1
102
RTVSPropertyOp46
 70
     1
102
RTVSPropertyOp47
 70
     1
102
RTVSPropertyOp48
 70
     1
102
RTVSPropertyOp49
 70
     1
102
RTVSPropertyOp50
 70
     1
102
RTVSPropertyOp51
 70
     0
102
RTVSPropertyOp52
 70
     0
102
RTVSPropertyOp53
 70
     1
102
RTVSPropertyOp54
 70
     1
102
RTVSPropertyOp55
 70
     1
102
RTVSPropertyOp56
 70
     1
102
RTVSPropertyOp57
 70
     1
102
RTVSPost2010Prop28
280
     0
102
RTVSPost2010PropOp28
 70
     1
102
RTVSPost2010Prop29
280
     1
102
RTVSPost2010PropOp29
 70
     1
102
RTVSPost2010Prop30
280
     1
102
RTVSPost2010PropOp30
 70
     1
102
RTVSPost2010Prop31
280
     0
102
RTVSPost2010PropOp31
 70
     1
102
RTVSPost2010Prop32
280
     0
102
RTVSPost2010PropOp32
 70
     1
102
RTVSPost2010Prop33
280
     0
102
RTVSPost2010PropOp33
 70
     1
102
RTVSPost2010Prop34
280
     0
102
RTVSPost2010PropOp34
 70
     1
102
RTVSPost2010Prop35
280
     0
102
RTVSPost2010PropOp35
 70
     1
102
RTVSPost2010Prop36
280
     0
102
RTVSPost2010PropOp36
 70
     1
102
RTVSPost2010Prop37
 90
       50
102
RTVSPost2010PropOp37
 70
     1
102
RTVSPost2010Prop38
140
0.0
102
RTVSPost2010PropOp38
 70
     1
102
RTVSPost2010Prop39
140
1.0
102
RTVSPost2010PropOp39
 70
     1
102
RTVSPost2010Prop40
 90
        0
102
RTVSPost2010PropOp40
 70
     1
102
RTVSPost2010Prop41ColorIndex
 90
       18
102
RTVSPost2010Prop41ColorRGB
 90
        0
102
RTVSPost2010PropOp41
 70
     1
102
RTVSPost2010Prop42
 90
       50
102
RTVSPost2010PropOp42
 70
     1
102
RTVSPost2010Prop43
 90
        3
102
RTVSPost2010PropOp43
 70
     1
102
RTVSPost2010Prop44ColorIndex
 90
        5
102
RTVSPost2010Prop44ColorRGB
 90
      255
102
RTVSPost2010PropOp44
 70
     1
102
RTVSPost2010Prop45
280
     0
102
RTVSPost2010PropOp45
 70
     1
102
RTVSPost2010Prop46
 90
       50
102
RTVSPost2010PropOp46
 70
     1
102
RTVSPost2010Prop47
 90
       50
102
RTVSPost2010PropOp47
 70
     1
102
RTVSPost2010Prop48
 90
       50
102
RTVSPost2010PropOp48
 70
     1
102
RTVSPost2010Prop49
280
     0
102
RTVSPost2010PropOp49
 70
     1
102
RTVSPost2010Prop50
 90
       50
102
RTVSPost2010PropOp50
 70
     1
102
RTVSPost2010Prop51ColorIndex
 90
      256
102
RTVSPost2010Prop51ColorRGB
 90
-16777216
102
RTVSPost2010PropOp51
 70
     0
102
RTVSPost2010Prop52
140
1.0
102
RTVSPost2010PropOp52
 70
     0
102
RTVSPost2010Prop53
 90
        2
102
RTVSPost2010PropOp53
 70
     1
102
RTVSPost2010Prop54
  1
strokes_ogs.tif
102
RTVSPost2010PropOp54
 70
     1
102
RTVSPost2010Prop55
280
     0
102
RTVSPost2010PropOp55
 70
     1
102
RTVSPost2010Prop56
140
1.0
102
RTVSPost2010PropOp56
 70
     1
102
RTVSPost2010Prop57
140
1.0
102
RTVSPost2010PropOp57
 70
     1
  0
XRECORD
  5
11A
102
{ACAD_REACTORS
330
119
102
}
330
119
100
AcDbXrecord
280
     1
102
RTVSPropertyOp0
 70
     1
102
RTVSPropertyOp1
 70
     1
102
RTVSPropertyOp2
 70
     1
102
RTVSPropertyOp3
 70
     1
102
RTVSPropertyOp4
 70
     1
102
RTVSPropertyOp5
 70
     1
102
RTVSPropertyOp6
 70
     1
102
RTVSPropertyOp7
 70
     1
102
RTVSPropertyOp8
 70
     1
102
RTVSPropertyOp9
 70
     1
102
RTVSPropertyOp10
 70
     1
102
RTVSPropertyOp11
 70
     1
102
RTVSPropertyOp12
 70
     1
102
RTVSPropertyOp13
 70
     1
102
RTVSPropertyOp14
 70
     1
102
RTVSPropertyOp15
 70
     1
102
RTVSPropertyOp16
 70
     1
102
RTVSPropertyOp17
 70
     1
102
RTVSPropertyOp18
 70
     1
102
RTVSPropertyOp19
 70
     1
102
RTVSPropertyOp20
 70
     1
102
RTVSPropertyOp21
 70
     1
102
RTVSPropertyOp22
 70
     1
102
RTVSPropertyOp23
 70
     1
102
RTVSPropertyOp24
 70
     1
102
RTVSPropertyOp25
 70
     1
102
RTVSPropertyOp26
 70
     1
102
RTVSPropertyOp27
 70
     1
102
RTVSPropertyOp28
 70
     1
102
RTVSPropertyOp29
 70
     1
102
RTVSPropertyOp30
 70
     1
102
RTVSPropertyOp31
 70
     1
102
RTVSPropertyOp32
 70
     1
102
RTVSPropertyOp33
 70
     1
102
RTVSPropertyOp34
 70
     1
102
RTVSPropertyOp35
 70
     1
102
RTVSPropertyOp36
 70
     1
102
RTVSPropertyOp37
 70
     1
102
RTVSPropertyOp38
 70
     1
102
RTVSPropertyOp39
 70
     1
102
RTVSPropertyOp40
 70
     1
102
RTVSPropertyOp41
 70
     1
102
RTVSPropertyOp42
 70
     1
102
RTVSPropertyOp43
 70
     1
102
RTVSPropertyOp44
 70
     1
102
RTVSPropertyOp45
 70
     1
102
RTVSPropertyOp46
 70
     1
102
RTVSPropertyOp47
 70
     1
102
RTVSPropertyOp48
 70
     1
102
RTVSPropertyOp49
 70
     1
102
RTVSPropertyOp50
 70
     1
102
RTVSPropertyOp51
 70
     0
102
RTVSPropertyOp52
 70
     0
102
RTVSPropertyOp53
 70
     1
102
RTVSPropertyOp54
 70
     1
102
RTVSPropertyOp55
 70
     1
102
RTVSPropertyOp56
 70
     1
102
RTVSPropertyOp57
 70
     1
102
RTVSPost2010Prop28
280
     0
102
RTVSPost2010PropOp28
 70
     1
102
RTVSPost2010Prop29
280
     1
102
RTVSPost2010PropOp29
 70
     1
102
RTVSPost2010Prop30
280
     1
102
RTVSPost2010PropOp30
 70
     1
102
RTVSPost2010Prop31
280
     0
102
RTVSPost2010PropOp31
 70
     1
102
RTVSPost2010Prop32
280
     0
102
RTVSPost2010PropOp32
 70
     1
102
RTVSPost2010Prop33
280
     0
102
RTVSPost2010PropOp33
 70
     1
102
RTVSPost2010Prop34
280
     0
102
RTVSPost2010PropOp34
 70
     1
102
RTVSPost2010Prop35
280
     0
102
RTVSPost2010PropOp35
 70
     1
102
RTVSPost2010Prop36
280
     0
102
RTVSPost2010PropOp36
 70
     1
102
RTVSPost2010Prop37
 90
       50
102
RTVSPost2010PropOp37
 70
     1
102
RTVSPost2010Prop38
140
0.0
102
RTVSPost2010PropOp38
 70
     1
102
RTVSPost2010Prop39
140
1.0
102
RTVSPost2010PropOp39
 70
     1
102
RTVSPost2010Prop40
 90
        0
102
RTVSPost2010PropOp40
 70
     1
102
RTVSPost2010Prop41ColorIndex
 90
       18
102
RTVSPost2010Prop41ColorRGB
 90
        0
102
RTVSPost2010PropOp41
 70
     1
102
RTVSPost2010Prop42
 90
       50
102
RTVSPost2010PropOp42
 70
     1
102
RTVSPost2010Prop43
 90
        3
102
RTVSPost2010PropOp43
 70
     1
102
RTVSPost2010Prop44ColorIndex
 90
        5
102
RTVSPost2010Prop44ColorRGB
 90
      255
102
RTVSPost2010PropOp44
 70
     1
102
RTVSPost2010Prop45
280
     0
102
RTVSPost2010PropOp45
 70
     1
102
RTVSPost2010Prop46
 90
       50
102
RTVSPost2010PropOp46
 70
     1
102
RTVSPost2010Prop47
 90
       50
102
RTVSPost2010PropOp47
 70
     1
102
RTVSPost2010Prop48
 90
       50
102
RTVSPost2010PropOp48
 70
     1
102
RTVSPost2010Prop49
280
     0
102
RTVSPost2010PropOp49
 70
     1
102
RTVSPost2010Prop50
 90
       50
102
RTVSPost2010PropOp50
 70
     1
102
RTVSPost2010Prop51ColorIndex
 90
      256
102
RTVSPost2010Prop51ColorRGB
 90
-16777216
102
RTVSPost2010PropOp51
 70
     0
102
RTVSPost2010Prop52
140
1.0
102
RTVSPost2010PropOp52
 70
     0
102
RTVSPost2010Prop53
 90
        2
102
RTVSPost2010PropOp53
 70
     1
102
RTVSPost2010Prop54
  1
strokes_ogs.tif
102
RTVSPost2010PropOp54
 70
     1
102
RTVSPost2010Prop55
280
     0
102
RTVSPost2010PropOp55
 70
     1
102
RTVSPost2010Prop56
140
1.0
102
RTVSPost2010PropOp56
 70
     1
102
RTVSPost2010Prop57
140
1.0
102
RTVSPost2010PropOp57
 70
     1
  0
XRECORD
  5
10E
102
{ACAD_REACTORS
330
10D
102
}
330
10D
100
AcDbXrecord
280
     1
102
RTVSPropertyOp0
 70
     1
102
RTVSPropertyOp1
 70
     1
102
RTVSPropertyOp2
 70
     1
102
RTVSPropertyOp3
 70
     1
102
RTVSPropertyOp4
 70
     1
102
RTVSPropertyOp5
 70
     1
102
RTVSPropertyOp6
 70
     1
102
RTVSPropertyOp7
 70
     1
102
RTVSPropertyOp8
 70
     1
102
RTVSPropertyOp9
 70
     1
102
RTVSPropertyOp10
 70
     1
102
RTVSPropertyOp11
 70
     1
102
RTVSPropertyOp12
 70
     1
102
RTVSPropertyOp13
 70
     1
102
RTVSPropertyOp14
 70
     1
102
RTVSPropertyOp15
 70
     1
102
RTVSPropertyOp16
 70
     1
102
RTVSPropertyOp17
 70
     1
102
RTVSPropertyOp18
 70
     1
102
RTVSPropertyOp19
 70
     1
102
RTVSPropertyOp20
 70
     1
102
RTVSPropertyOp21
 70
     1
102
RTVSPropertyOp22
 70
     1
102
RTVSPropertyOp23
 70
     1
102
RTVSPropertyOp24
 70
     1
102
RTVSPropertyOp25
 70
     1
102
RTVSPropertyOp26
 70
     1
102
RTVSPropertyOp27
 70
     1
102
RTVSPropertyOp28
 70
     1
102
RTVSPropertyOp29
 70
     1
102
RTVSPropertyOp30
 70
     1
102
RTVSPropertyOp31
 70
     1
102
RTVSPropertyOp32
 70
     1
102
RTVSPropertyOp33
 70
     1
102
RTVSPropertyOp34
 70
     1
102
RTVSPropertyOp35
 70
     1
102
RTVSPropertyOp36
 70
     1
102
RTVSPropertyOp37
 70
     1
102
RTVSPropertyOp38
 70
     1
102
RTVSPropertyOp39
 70
     1
102
RTVSPropertyOp40
 70
     1
102
RTVSPropertyOp41
 70
     1
102
RTVSPropertyOp42
 70
     1
102
RTVSPropertyOp43
 70
     1
102
RTVSPropertyOp44
 70
     1
102
RTVSPropertyOp45
 70
     1
102
RTVSPropertyOp46
 70
     1
102
RTVSPropertyOp47
 70
     1
102
RTVSPropertyOp48
 70
     1
102
RTVSPropertyOp49
 70
     1
102
RTVSPropertyOp50
 70
     1
102
RTVSPropertyOp51
 70
     0
102
RTVSPropertyOp52
 70
     0
102
RTVSPropertyOp53
 70
     1
102
RTVSPropertyOp54
 70
     1
102
RTVSPropertyOp55
 70
     1
102
RTVSPropertyOp56
 70
     1
102
RTVSPropertyOp57
 70
     1
102
RTVSPost2010Prop28
280
     0
102
RTVSPost2010PropOp28
 70
     1
102
RTVSPost2010Prop29
280
     1
102
RTVSPost2010PropOp29
 70
     1
102
RTVSPost2010Prop30
280
     1
102
RTVSPost2010PropOp30
 70
     1
102
RTVSPost2010Prop31
280
     0
102
RTVSPost2010PropOp31
 70
     1
102
RTVSPost2010Prop32
280
     0
102
RTVSPost2010PropOp32
 70
     1
102
RTVSPost2010Prop33
280
     0
102
RTVSPost2010PropOp33
 70
     1
102
RTVSPost2010Prop34
280
     0
102
RTVSPost2010PropOp34
 70
     1
102
RTVSPost2010Prop35
280
     0
102
RTVSPost2010PropOp35
 70
     1
102
RTVSPost2010Prop36
280
     0
102
RTVSPost2010PropOp36
 70
     1
102
RTVSPost2010Prop37
 90
       50
102
RTVSPost2010PropOp37
 70
     1
102
RTVSPost2010Prop38
140
0.0
102
RTVSPost2010PropOp38
 70
     1
102
RTVSPost2010Prop39
140
1.0
102
RTVSPost2010PropOp39
 70
     1
102
RTVSPost2010Prop40
 90
        0
102
RTVSPost2010PropOp40
 70
     1
102
RTVSPost2010Prop41ColorIndex
 90
       18
102
RTVSPost2010Prop41ColorRGB
 90
        0
102
RTVSPost2010PropOp41
 70
     1
102
RTVSPost2010Prop42
 90
       50
102
RTVSPost2010PropOp42
 70
     1
102
RTVSPost2010Prop43
 90
        3
102
RTVSPost2010PropOp43
 70
     1
102
RTVSPost2010Prop44ColorIndex
 90
        5
102
RTVSPost2010Prop44ColorRGB
 90
      255
102
RTVSPost2010PropOp44
 70
     1
102
RTVSPost2010Prop45
280
     0
102
RTVSPost2010PropOp45
 70
     1
102
RTVSPost2010Prop46
 90
       50
102
RTVSPost2010PropOp46
 70
     1
102
RTVSPost2010Prop47
 90
       50
102
RTVSPost2010PropOp47
 70
     1
102
RTVSPost2010Prop48
 90
       50
102
RTVSPost2010PropOp48
 70
     1
102
RTVSPost2010Prop49
280
     0
102
RTVSPost2010PropOp49
 70
     1
102
RTVSPost2010Prop50
 90
       50
102
RTVSPost2010PropOp50
 70
     1
102
RTVSPost2010Prop51ColorIndex
 90
      256
102
RTVSPost2010Prop51ColorRGB
 90
-16777216
102
RTVSPost2010PropOp51
 70
     0
102
RTVSPost2010Prop52
140
1.0
102
RTVSPost2010PropOp52
 70
     0
102
RTVSPost2010Prop53
 90
        2
102
RTVSPost2010PropOp53
 70
     1
102
RTVSPost2010Prop54
  1
strokes_ogs.tif
102
RTVSPost2010PropOp54
 70
     1
102
RTVSPost2010Prop55
280
     0
102
RTVSPost2010PropOp55
 70
     1
102
RTVSPost2010Prop56
140
1.0
102
RTVSPost2010PropOp56
 70
     1
102
RTVSPost2010Prop57
140
1.0
102
RTVSPost2010PropOp57
 70
     1
  0
XRECORD
  5
110
102
{ACAD_REACTORS
330
10F
102
}
330
10F
100
AcDbXrecord
280
     1
102
RTVSPropertyOp0
 70
     1
102
RTVSPropertyOp1
 70
     1
102
RTVSPropertyOp2
 70
     1
102
RTVSPropertyOp3
 70
     1
102
RTVSPropertyOp4
 70
     1
102
RTVSPropertyOp5
 70
     1
102
RTVSPropertyOp6
 70
     1
102
RTVSPropertyOp7
 70
     1
102
RTVSPropertyOp8
 70
     1
102
RTVSPropertyOp9
 70
     1
102
RTVSPropertyOp10
 70
     1
102
RTVSPropertyOp11
 70
     1
102
RTVSPropertyOp12
 70
     1
102
RTVSPropertyOp13
 70
     1
102
RTVSPropertyOp14
 70
     1
102
RTVSPropertyOp15
 70
     1
102
RTVSPropertyOp16
 70
     1
102
RTVSPropertyOp17
 70
     1
102
RTVSPropertyOp18
 70
     1
102
RTVSPropertyOp19
 70
     1
102
RTVSPropertyOp20
 70
     1
102
RTVSPropertyOp21
 70
     1
102
RTVSPropertyOp22
 70
     1
102
RTVSPropertyOp23
 70
     1
102
RTVSPropertyOp24
 70
     1
102
RTVSPropertyOp25
 70
     1
102
RTVSPropertyOp26
 70
     1
102
RTVSPropertyOp27
 70
     1
102
RTVSPropertyOp28
 70
     1
102
RTVSPropertyOp29
 70
     1
102
RTVSPropertyOp30
 70
     1
102
RTVSPropertyOp31
 70
     1
102
RTVSPropertyOp32
 70
     1
102
RTVSPropertyOp33
 70
     1
102
RTVSPropertyOp34
 70
     1
102
RTVSPropertyOp35
 70
     1
102
RTVSPropertyOp36
 70
     1
102
RTVSPropertyOp37
 70
     1
102
RTVSPropertyOp38
 70
     1
102
RTVSPropertyOp39
 70
     1
102
RTVSPropertyOp40
 70
     1
102
RTVSPropertyOp41
 70
     1
102
RTVSPropertyOp42
 70
     1
102
RTVSPropertyOp43
 70
     1
102
RTVSPropertyOp44
 70
     1
102
RTVSPropertyOp45
 70
     1
102
RTVSPropertyOp46
 70
     1
102
RTVSPropertyOp47
 70
     1
102
RTVSPropertyOp48
 70
     1
102
RTVSPropertyOp49
 70
     1
102
RTVSPropertyOp50
 70
     1
102
RTVSPropertyOp51
 70
     0
102
RTVSPropertyOp52
 70
     0
102
RTVSPropertyOp53
 70
     1
102
RTVSPropertyOp54
 70
     1
102
RTVSPropertyOp55
 70
     1
102
RTVSPropertyOp56
 70
     1
102
RTVSPropertyOp57
 70
     1
102
RTVSPost2010Prop28
280
     0
102
RTVSPost2010PropOp28
 70
     1
102
RTVSPost2010Prop29
280
     1
102
RTVSPost2010PropOp29
 70
     1
102
RTVSPost2010Prop30
280
     1
102
RTVSPost2010PropOp30
 70
     1
102
RTVSPost2010Prop31
280
     0
102
RTVSPost2010PropOp31
 70
     1
102
RTVSPost2010Prop32
280
     0
102
RTVSPost2010PropOp32
 70
     1
102
RTVSPost2010Prop33
280
     0
102
RTVSPost2010PropOp33
 70
     1
102
RTVSPost2010Prop34
280
     0
102
RTVSPost2010PropOp34
 70
     1
102
RTVSPost2010Prop35
280
     0
102
RTVSPost2010PropOp35
 70
     1
102
RTVSPost2010Prop36
280
     0
102
RTVSPost2010PropOp36
 70
     1
102
RTVSPost2010Prop37
 90
       50
102
RTVSPost2010PropOp37
 70
     1
102
RTVSPost2010Prop38
140
0.0
102
RTVSPost2010PropOp38
 70
     1
102
RTVSPost2010Prop39
140
1.0
102
RTVSPost2010PropOp39
 70
     1
102
RTVSPost2010Prop40
 90
        0
102
RTVSPost2010PropOp40
 70
     1
102
RTVSPost2010Prop41ColorIndex
 90
       18
102
RTVSPost2010Prop41ColorRGB
 90
        0
102
RTVSPost2010PropOp41
 70
     1
102
RTVSPost2010Prop42
 90
       50
102
RTVSPost2010PropOp42
 70
     1
102
RTVSPost2010Prop43
 90
        3
102
RTVSPost2010PropOp43
 70
     1
102
RTVSPost2010Prop44ColorIndex
 90
        5
102
RTVSPost2010Prop44ColorRGB
 90
      255
102
RTVSPost2010PropOp44
 70
     1
102
RTVSPost2010Prop45
280
     0
102
RTVSPost2010PropOp45
 70
     1
102
RTVSPost2010Prop46
 90
       50
102
RTVSPost2010PropOp46
 70
     1
102
RTVSPost2010Prop47
 90
       50
102
RTVSPost2010PropOp47
 70
     1
102
RTVSPost2010Prop48
 90
       50
102
RTVSPost2010PropOp48
 70
     1
102
RTVSPost2010Prop49
280
     0
102
RTVSPost2010PropOp49
 70
     1
102
RTVSPost2010Prop50
 90
       50
102
RTVSPost2010PropOp50
 70
     1
102
RTVSPost2010Prop51ColorIndex
 90
      256
102
RTVSPost2010Prop51ColorRGB
 90
-16777216
102
RTVSPost2010PropOp51
 70
     0
102
RTVSPost2010Prop52
140
1.0
102
RTVSPost2010PropOp52
 70
     0
102
RTVSPost2010Prop53
 90
        2
102
RTVSPost2010PropOp53
 70
     1
102
RTVSPost2010Prop54
  1
strokes_ogs.tif
102
RTVSPost2010PropOp54
 70
     1
102
RTVSPost2010Prop55
280
     0
102
RTVSPost2010PropOp55
 70
     1
102
RTVSPost2010Prop56
140
1.0
102
RTVSPost2010PropOp56
 70
     1
102
RTVSPost2010Prop57
140
1.0
102
RTVSPost2010PropOp57
 70
     1
  0
XRECORD
  5
120
102
{ACAD_REACTORS
330
11F
102
}
330
11F
100
AcDbXrecord
280
     1
102
RTVSPropertyOp0
 70
     0
102
RTVSPropertyOp1
 70
     0
102
RTVSPropertyOp2
 70
     0
102
RTVSPropertyOp3
 70
     0
102
RTVSPropertyOp4
 70
     0
102
RTVSPropertyOp5
 70
     0
102
RTVSPropertyOp6
 70
     0
102
RTVSPropertyOp7
 70
     0
102
RTVSPropertyOp8
 70
     0
102
RTVSPropertyOp9
 70
     0
102
RTVSPropertyOp10
 70
     0
102
RTVSPropertyOp11
 70
     0
102
RTVSPropertyOp12
 70
     0
102
RTVSPropertyOp13
 70
     0
102
RTVSPropertyOp14
 70
     2
102
RTVSPropertyOp15
 70
     0
102
RTVSPropertyOp16
 70
     0
102
RTVSPropertyOp17
 70
     0
102
RTVSPropertyOp18
 70
     0
102
RTVSPropertyOp19
 70
     0
102
RTVSPropertyOp20
 70
     0
102
RTVSPropertyOp21
 70
     0
102
RTVSPropertyOp22
 70
     0
102
RTVSPropertyOp23
 70
     0
102
RTVSPropertyOp24
 70
     0
102
RTVSPropertyOp25
 70
     0
102
RTVSPropertyOp26
 70
     0
102
RTVSPropertyOp27
 70
     0
102
RTVSPropertyOp28
 70
     0
102
RTVSPropertyOp29
 70
     0
102
RTVSPropertyOp30
 70
     0
102
RTVSPropertyOp31
 70
     0
102
RTVSPropertyOp32
 70
     0
102
RTVSPropertyOp33
 70
     0
102
RTVSPropertyOp34
 70
     0
102
RTVSPropertyOp35
 70
     0
102
RTVSPropertyOp36
 70
     0
102
RTVSPropertyOp37
 70
     0
102
RTVSPropertyOp38
 70
     0
102
RTVSPropertyOp39
 70
     0
102
RTVSPropertyOp40
 70
     0
102
RTVSPropertyOp41
 70
     0
102
RTVSPropertyOp42
 70
     0
102
RTVSPropertyOp43
 70
     0
102
RTVSPropertyOp44
 70
     0
102
RTVSPropertyOp45
 70
     0
102
RTVSPropertyOp46
 70
     0
102
RTVSPropertyOp47
 70
     0
102
RTVSPropertyOp48
 70
     0
102
RTVSPropertyOp49
 70
     0
102
RTVSPropertyOp50
 70
     0
102
RTVSPropertyOp51
 70
     0
102
RTVSPropertyOp52
 70
     0
102
RTVSPropertyOp53
 70
     0
102
RTVSPropertyOp54
 70
     0
102
RTVSPropertyOp55
 70
     0
102
RTVSPropertyOp56
 70
     0
102
RTVSPropertyOp57
 70
     0
102
RTVSPost2010Prop28
280
     0
102
RTVSPost2010PropOp28
 70
     0
102
RTVSPost2010Prop29
280
     1
102
RTVSPost2010PropOp29
 70
     0
102
RTVSPost2010Prop30
280
     1
102
RTVSPost2010PropOp30
 70
     0
102
RTVSPost2010Prop31
280
     0
102
RTVSPost2010PropOp31
 70
     0
102
RTVSPost2010Prop32
280
     0
102
RTVSPost2010PropOp32
 70
     0
102
RTVSPost2010Prop33
280
     0
102
RTVSPost2010PropOp33
 70
     0
102
RTVSPost2010Prop34
280
     0
102
RTVSPost2010PropOp34
 70
     0
102
RTVSPost2010Prop35
280
     0
102
RTVSPost2010PropOp35
 70
     0
102
RTVSPost2010Prop36
280
     0
102
RTVSPost2010PropOp36
 70
     0
102
RTVSPost2010Prop37
 90
       50
102
RTVSPost2010PropOp37
 70
     0
102
RTVSPost2010Prop38
140
0.0
102
RTVSPost2010PropOp38
 70
     0
102
RTVSPost2010Prop39
140
1.0
102
RTVSPost2010PropOp39
 70
     0
102
RTVSPost2010Prop40
 90
        0
102
RTVSPost2010PropOp40
 70
     0
102
RTVSPost2010Prop41ColorIndex
 90
       18
102
RTVSPost2010Prop41ColorRGB
 90
        0
102
RTVSPost2010PropOp41
 70
     0
102
RTVSPost2010Prop42
 90
       50
102
RTVSPost2010PropOp42
 70
     0
102
RTVSPost2010Prop43
 90
        3
102
RTVSPost2010PropOp43
 70
     0
102
RTVSPost2010Prop44ColorIndex
 90
        5
102
RTVSPost2010Prop44ColorRGB
 90
      255
102
RTVSPost2010PropOp44
 70
     0
102
RTVSPost2010Prop45
280
     0
102
RTVSPost2010PropOp45
 70
     0
102
RTVSPost2010Prop46
 90
       50
102
RTVSPost2010PropOp46
 70
     0
102
RTVSPost2010Prop47
 90
       50
102
RTVSPost2010PropOp47
 70
     0
102
RTVSPost2010Prop48
 90
       50
102
RTVSPost2010PropOp48
 70
     0
102
RTVSPost2010Prop49
280
     0
102
RTVSPost2010PropOp49
 70
     0
102
RTVSPost2010Prop50
 90
       50
102
RTVSPost2010PropOp50
 70
     0
102
RTVSPost2010Prop51ColorIndex
 90
      256
102
RTVSPost2010Prop51ColorRGB
 90
-16777216
102
RTVSPost2010PropOp51
 70
     0
102
RTVSPost2010Prop52
140
1.0
102
RTVSPost2010PropOp52
 70
     0
102
RTVSPost2010Prop53
 90
        2
102
RTVSPost2010PropOp53
 70
     0
102
RTVSPost2010Prop54
  1
strokes_ogs.tif
102
RTVSPost2010PropOp54
 70
     0
102
RTVSPost2010Prop55
280
     0
102
RTVSPost2010PropOp55
 70
     0
102
RTVSPost2010Prop56
140
1.0
102
RTVSPost2010PropOp56
 70
     0
102
RTVSPost2010Prop57
140
1.0
102
RTVSPost2010PropOp57
 70
     0
  0
XRECORD
  5
118
102
{ACAD_REACTORS
330
117
102
}
330
117
100
AcDbXrecord
280
     1
102
RTVSPropertyOp0
 70
     1
102
RTVSPropertyOp1
 70
     1
102
RTVSPropertyOp2
 70
     1
102
RTVSPropertyOp3
 70
     1
102
RTVSPropertyOp4
 70
     1
102
RTVSPropertyOp5
 70
     1
102
RTVSPropertyOp6
 70
     1
102
RTVSPropertyOp7
 70
     1
102
RTVSPropertyOp8
 70
     1
102
RTVSPropertyOp9
 70
     1
102
RTVSPropertyOp10
 70
     1
102
RTVSPropertyOp11
 70
     1
102
RTVSPropertyOp12
 70
     1
102
RTVSPropertyOp13
 70
     1
102
RTVSPropertyOp14
 70
     1
102
RTVSPropertyOp15
 70
     1
102
RTVSPropertyOp16
 70
     1
102
RTVSPropertyOp17
 70
     1
102
RTVSPropertyOp18
 70
     1
102
RTVSPropertyOp19
 70
     1
102
RTVSPropertyOp20
 70
     1
102
RTVSPropertyOp21
 70
     1
102
RTVSPropertyOp22
 70
     1
102
RTVSPropertyOp23
 70
     1
102
RTVSPropertyOp24
 70
     1
102
RTVSPropertyOp25
 70
     1
102
RTVSPropertyOp26
 70
     1
102
RTVSPropertyOp27
 70
     1
102
RTVSPropertyOp28
 70
     1
102
RTVSPropertyOp29
 70
     1
102
RTVSPropertyOp30
 70
     1
102
RTVSPropertyOp31
 70
     1
102
RTVSPropertyOp32
 70
     1
102
RTVSPropertyOp33
 70
     1
102
RTVSPropertyOp34
 70
     1
102
RTVSPropertyOp35
 70
     1
102
RTVSPropertyOp36
 70
     1
102
RTVSPropertyOp37
 70
     1
102
RTVSPropertyOp38
 70
     1
102
RTVSPropertyOp39
 70
     1
102
RTVSPropertyOp40
 70
     1
102
RTVSPropertyOp41
 70
     1
102
RTVSPropertyOp42
 70
     1
102
RTVSPropertyOp43
 70
     1
102
RTVSPropertyOp44
 70
     1
102
RTVSPropertyOp45
 70
     1
102
RTVSPropertyOp46
 70
     1
102
RTVSPropertyOp47
 70
     1
102
RTVSPropertyOp48
 70
     1
102
RTVSPropertyOp49
 70
     1
102
RTVSPropertyOp50
 70
     1
102
RTVSPropertyOp51
 70
     0
102
RTVSPropertyOp52
 70
     0
102
RTVSPropertyOp53
 70
     1
102
RTVSPropertyOp54
 70
     1
102
RTVSPropertyOp55
 70
     1
102
RTVSPropertyOp56
 70
     1
102
RTVSPropertyOp57
 70
     1
102
RTVSPost2010Prop28
280
     0
102
RTVSPost2010PropOp28
 70
     1
102
RTVSPost2010Prop29
280
     1
102
RTVSPost2010PropOp29
 70
     1
102
RTVSPost2010Prop30
280
     1
102
RTVSPost2010PropOp30
 70
     1
102
RTVSPost2010Prop31
280
     0
102
RTVSPost2010PropOp31
 70
     1
102
RTVSPost2010Prop32
280
     0
102
RTVSPost2010PropOp32
 70
     1
102
RTVSPost2010Prop33
280
     0
102
RTVSPost2010PropOp33
 70
     1
102
RTVSPost2010Prop34
280
     0
102
RTVSPost2010PropOp34
 70
     1
102
RTVSPost2010Prop35
280
     0
102
RTVSPost2010PropOp35
 70
     1
102
RTVSPost2010Prop36
280
     0
102
RTVSPost2010PropOp36
 70
     1
102
RTVSPost2010Prop37
 90
       50
102
RTVSPost2010PropOp37
 70
     1
102
RTVSPost2010Prop38
140
0.0
102
RTVSPost2010PropOp38
 70
     1
102
RTVSPost2010Prop39
140
1.0
102
RTVSPost2010PropOp39
 70
     1
102
RTVSPost2010Prop40
 90
        0
102
RTVSPost2010PropOp40
 70
     1
102
RTVSPost2010Prop41ColorIndex
 90
       18
102
RTVSPost2010Prop41ColorRGB
 90
        0
102
RTVSPost2010PropOp41
 70
     1
102
RTVSPost2010Prop42
 90
       50
102
RTVSPost2010PropOp42
 70
     1
102
RTVSPost2010Prop43
 90
        3
102
RTVSPost2010PropOp43
 70
     1
102
RTVSPost2010Prop44ColorIndex
 90
        5
102
RTVSPost2010Prop44ColorRGB
 90
      255
102
RTVSPost2010PropOp44
 70
     1
102
RTVSPost2010Prop45
280
     0
102
RTVSPost2010PropOp45
 70
     1
102
RTVSPost2010Prop46
 90
       50
102
RTVSPost2010PropOp46
 70
     1
102
RTVSPost2010Prop47
 90
       50
102
RTVSPost2010PropOp47
 70
     1
102
RTVSPost2010Prop48
 90
       50
102
RTVSPost2010PropOp48
 70
     1
102
RTVSPost2010Prop49
280
     0
102
RTVSPost2010PropOp49
 70
     1
102
RTVSPost2010Prop50
 90
       50
102
RTVSPost2010PropOp50
 70
     1
102
RTVSPost2010Prop51ColorIndex
 90
      256
102
RTVSPost2010Prop51ColorRGB
 90
-16777216
102
RTVSPost2010PropOp51
 70
     0
102
RTVSPost2010Prop52
140
1.0
102
RTVSPost2010PropOp52
 70
     0
102
RTVSPost2010Prop53
 90
        2
102
RTVSPost2010PropOp53
 70
     1
102
RTVSPost2010Prop54
  1
strokes_ogs.tif
102
RTVSPost2010PropOp54
 70
     1
102
RTVSPost2010Prop55
280
     0
102
RTVSPost2010PropOp55
 70
     1
102
RTVSPost2010Prop56
140
1.0
102
RTVSPost2010PropOp56
 70
     1
102
RTVSPost2010Prop57
140
1.0
102
RTVSPost2010PropOp57
 70
     1
  0
XRECORD
  5
FC
102
{ACAD_REACTORS
330
FB
102
}
330
FB
100
AcDbXrecord
280
     1
102
RTVSPropertyOp0
 70
     1
102
RTVSPropertyOp1
 70
     1
102
RTVSPropertyOp2
 70
     1
102
RTVSPropertyOp3
 70
     1
102
RTVSPropertyOp4
 70
     1
102
RTVSPropertyOp5
 70
     1
102
RTVSPropertyOp6
 70
     1
102
RTVSPropertyOp7
 70
     1
102
RTVSPropertyOp8
 70
     1
102
RTVSPropertyOp9
 70
     1
102
RTVSPropertyOp10
 70
     1
102
RTVSPropertyOp11
 70
     1
102
RTVSPropertyOp12
 70
     1
102
RTVSPropertyOp13
 70
     1
102
RTVSPropertyOp14
 70
     1
102
RTVSPropertyOp15
 70
     1
102
RTVSPropertyOp16
 70
     1
102
RTVSPropertyOp17
 70
     1
102
RTVSPropertyOp18
 70
     1
102
RTVSPropertyOp19
 70
     1
102
RTVSPropertyOp20
 70
     1
102
RTVSPropertyOp21
 70
     1
102
RTVSPropertyOp22
 70
     1
102
RTVSPropertyOp23
 70
     1
102
RTVSPropertyOp24
 70
     1
102
RTVSPropertyOp25
 70
     1
102
RTVSPropertyOp26
 70
     1
102
RTVSPropertyOp27
 70
     1
102
RTVSPropertyOp28
 70
     1
102
RTVSPropertyOp29
 70
     1
102
RTVSPropertyOp30
 70
     1
102
RTVSPropertyOp31
 70
     1
102
RTVSPropertyOp32
 70
     1
102
RTVSPropertyOp33
 70
     1
102
RTVSPropertyOp34
 70
     1
102
RTVSPropertyOp35
 70
     1
102
RTVSPropertyOp36
 70
     1
102
RTVSPropertyOp37
 70
     1
102
RTVSPropertyOp38
 70
     1
102
RTVSPropertyOp39
 70
     1
102
RTVSPropertyOp40
 70
     1
102
RTVSPropertyOp41
 70
     1
102
RTVSPropertyOp42
 70
     1
102
RTVSPropertyOp43
 70
     1
102
RTVSPropertyOp44
 70
     1
102
RTVSPropertyOp45
 70
     1
102
RTVSPropertyOp46
 70
     1
102
RTVSPropertyOp47
 70
     1
102
RTVSPropertyOp48
 70
     1
102
RTVSPropertyOp49
 70
     1
102
RTVSPropertyOp50
 70
     1
102
RTVSPropertyOp51
 70
     0
102
RTVSPropertyOp52
 70
     0
102
RTVSPropertyOp53
 70
     1
102
RTVSPropertyOp54
 70
     1
102
RTVSPropertyOp55
 70
     1
102
RTVSPropertyOp56
 70
     1
102
RTVSPropertyOp57
 70
     1
102
RTVSPost2010Prop28
280
     0
102
RTVSPost2010PropOp28
 70
     1
102
RTVSPost2010Prop29
280
     1
102
RTVSPost2010PropOp29
 70
     1
102
RTVSPost2010Prop30
280
     1
102
RTVSPost2010PropOp30
 70
     1
102
RTVSPost2010Prop31
280
     0
102
RTVSPost2010PropOp31
 70
     1
102
RTVSPost2010Prop32
280
     0
102
RTVSPost2010PropOp32
 70
     1
102
RTVSPost2010Prop33
280
     0
102
RTVSPost2010PropOp33
 70
     1
102
RTVSPost2010Prop34
280
     0
102
RTVSPost2010PropOp34
 70
     1
102
RTVSPost2010Prop35
280
     0
102
RTVSPost2010PropOp35
 70
     1
102
RTVSPost2010Prop36
280
     0
102
RTVSPost2010PropOp36
 70
     1
102
RTVSPost2010Prop37
 90
       50
102
RTVSPost2010PropOp37
 70
     1
102
RTVSPost2010Prop38
140
0.0
102
RTVSPost2010PropOp38
 70
     1
102
RTVSPost2010Prop39
140
1.0
102
RTVSPost2010PropOp39
 70
     1
102
RTVSPost2010Prop40
 90
        0
102
RTVSPost2010PropOp40
 70
     1
102
RTVSPost2010Prop41ColorIndex
 90
       18
102
RTVSPost2010Prop41ColorRGB
 90
        0
102
RTVSPost2010PropOp41
 70
     1
102
RTVSPost2010Prop42
 90
       50
102
RTVSPost2010PropOp42
 70
     1
102
RTVSPost2010Prop43
 90
        3
102
RTVSPost2010PropOp43
 70
     1
102
RTVSPost2010Prop44ColorIndex
 90
        5
102
RTVSPost2010Prop44ColorRGB
 90
      255
102
RTVSPost2010PropOp44
 70
     1
102
RTVSPost2010Prop45
280
     0
102
RTVSPost2010PropOp45
 70
     1
102
RTVSPost2010Prop46
 90
       50
102
RTVSPost2010PropOp46
 70
     1
102
RTVSPost2010Prop47
 90
       50
102
RTVSPost2010PropOp47
 70
     1
102
RTVSPost2010Prop48
 90
       50
102
RTVSPost2010PropOp48
 70
     1
102
RTVSPost2010Prop49
280
     0
102
RTVSPost2010PropOp49
 70
     1
102
RTVSPost2010Prop50
 90
       50
102
RTVSPost2010PropOp50
 70
     1
102
RTVSPost2010Prop51ColorIndex
 90
      256
102
RTVSPost2010Prop51ColorRGB
 90
-16777216
102
RTVSPost2010PropOp51
 70
     0
102
RTVSPost2010Prop52
140
1.0
102
RTVSPost2010PropOp52
 70
     0
102
RTVSPost2010Prop53
 90
        2
102
RTVSPost2010PropOp53
 70
     1
102
RTVSPost2010Prop54
  1
strokes_ogs.tif
102
RTVSPost2010PropOp54
 70
     1
102
RTVSPost2010Prop55
280
     0
102
RTVSPost2010PropOp55
 70
     1
102
RTVSPost2010Prop56
140
1.0
102
RTVSPost2010PropOp56
 70
     1
102
RTVSPost2010Prop57
140
1.0
102
RTVSPost2010PropOp57
 70
     1
  0
XRECORD
  5
FE
102
{ACAD_REACTORS
330
FD
102
}
330
FD
100
AcDbXrecord
280
     1
102
RTVSPropertyOp0
 70
     1
102
RTVSPropertyOp1
 70
     1
102
RTVSPropertyOp2
 70
     1
102
RTVSPropertyOp3
 70
     1
102
RTVSPropertyOp4
 70
     1
102
RTVSPropertyOp5
 70
     1
102
RTVSPropertyOp6
 70
     1
102
RTVSPropertyOp7
 70
     1
102
RTVSPropertyOp8
 70
     1
102
RTVSPropertyOp9
 70
     1
102
RTVSPropertyOp10
 70
     1
102
RTVSPropertyOp11
 70
     1
102
RTVSPropertyOp12
 70
     1
102
RTVSPropertyOp13
 70
     1
102
RTVSPropertyOp14
 70
     1
102
RTVSPropertyOp15
 70
     1
102
RTVSPropertyOp16
 70
     1
102
RTVSPropertyOp17
 70
     1
102
RTVSPropertyOp18
 70
     1
102
RTVSPropertyOp19
 70
     1
102
RTVSPropertyOp20
 70
     1
102
RTVSPropertyOp21
 70
     1
102
RTVSPropertyOp22
 70
     1
102
RTVSPropertyOp23
 70
     1
102
RTVSPropertyOp24
 70
     1
102
RTVSPropertyOp25
 70
     1
102
RTVSPropertyOp26
 70
     1
102
RTVSPropertyOp27
 70
     1
102
RTVSPropertyOp28
 70
     1
102
RTVSPropertyOp29
 70
     1
102
RTVSPropertyOp30
 70
     1
102
RTVSPropertyOp31
 70
     1
102
RTVSPropertyOp32
 70
     1
102
RTVSPropertyOp33
 70
     1
102
RTVSPropertyOp34
 70
     1
102
RTVSPropertyOp35
 70
     1
102
RTVSPropertyOp36
 70
     1
102
RTVSPropertyOp37
 70
     1
102
RTVSPropertyOp38
 70
     1
102
RTVSPropertyOp39
 70
     1
102
RTVSPropertyOp40
 70
     1
102
RTVSPropertyOp41
 70
     1
102
RTVSPropertyOp42
 70
     1
102
RTVSPropertyOp43
 70
     1
102
RTVSPropertyOp44
 70
     1
102
RTVSPropertyOp45
 70
     1
102
RTVSPropertyOp46
 70
     1
102
RTVSPropertyOp47
 70
     1
102
RTVSPropertyOp48
 70
     1
102
RTVSPropertyOp49
 70
     1
102
RTVSPropertyOp50
 70
     1
102
RTVSPropertyOp51
 70
     0
102
RTVSPropertyOp52
 70
     0
102
RTVSPropertyOp53
 70
     1
102
RTVSPropertyOp54
 70
     1
102
RTVSPropertyOp55
 70
     1
102
RTVSPropertyOp56
 70
     1
102
RTVSPropertyOp57
 70
     1
102
RTVSPost2010Prop28
280
     0
102
RTVSPost2010PropOp28
 70
     1
102
RTVSPost2010Prop29
280
     1
102
RTVSPost2010PropOp29
 70
     1
102
RTVSPost2010Prop30
280
     1
102
RTVSPost2010PropOp30
 70
     1
102
RTVSPost2010Prop31
280
     0
102
RTVSPost2010PropOp31
 70
     1
102
RTVSPost2010Prop32
280
     0
102
RTVSPost2010PropOp32
 70
     1
102
RTVSPost2010Prop33
280
     0
102
RTVSPost2010PropOp33
 70
     1
102
RTVSPost2010Prop34
280
     0
102
RTVSPost2010PropOp34
 70
     1
102
RTVSPost2010Prop35
280
     0
102
RTVSPost2010PropOp35
 70
     1
102
RTVSPost2010Prop36
280
     0
102
RTVSPost2010PropOp36
 70
     1
102
RTVSPost2010Prop37
 90
       50
102
RTVSPost2010PropOp37
 70
     1
102
RTVSPost2010Prop38
140
0.0
102
RTVSPost2010PropOp38
 70
     1
102
RTVSPost2010Prop39
140
1.0
102
RTVSPost2010PropOp39
 70
     1
102
RTVSPost2010Prop40
 90
        0
102
RTVSPost2010PropOp40
 70
     1
102
RTVSPost2010Prop41ColorIndex
 90
       18
102
RTVSPost2010Prop41ColorRGB
 90
        0
102
RTVSPost2010PropOp41
 70
     1
102
RTVSPost2010Prop42
 90
       50
102
RTVSPost2010PropOp42
 70
     1
102
RTVSPost2010Prop43
 90
        3
102
RTVSPost2010PropOp43
 70
     1
102
RTVSPost2010Prop44ColorIndex
 90
        5
102
RTVSPost2010Prop44ColorRGB
 90
      255
102
RTVSPost2010PropOp44
 70
     1
102
RTVSPost2010Prop45
280
     0
102
RTVSPost2010PropOp45
 70
     1
102
RTVSPost2010Prop46
 90
       50
102
RTVSPost2010PropOp46
 70
     1
102
RTVSPost2010Prop47
 90
       50
102
RTVSPost2010PropOp47
 70
     1
102
RTVSPost2010Prop48
 90
       50
102
RTVSPost2010PropOp48
 70
     1
102
RTVSPost2010Prop49
280
     0
102
RTVSPost2010PropOp49
 70
     1
102
RTVSPost2010Prop50
 90
       50
102
RTVSPost2010PropOp50
 70
     1
102
RTVSPost2010Prop51ColorIndex
 90
      256
102
RTVSPost2010Prop51ColorRGB
 90
-16777216
102
RTVSPost2010PropOp51
 70
     0
102
RTVSPost2010Prop52
140
1.0
102
RTVSPost2010PropOp52
 70
     0
102
RTVSPost2010Prop53
 90
        2
102
RTVSPost2010PropOp53
 70
     1
102
RTVSPost2010Prop54
  1
strokes_ogs.tif
102
RTVSPost2010PropOp54
 70
     1
102
RTVSPost2010Prop55
280
     0
102
RTVSPost2010PropOp55
 70
     1
102
RTVSPost2010Prop56
140
1.0
102
RTVSPost2010PropOp56
 70
     1
102
RTVSPost2010Prop57
140
1.0
102
RTVSPost2010PropOp57
 70
     1
  0
XRECORD
  5
100
102
{ACAD_REACTORS
330
FF
102
}
330
FF
100
AcDbXrecord
280
     1
102
RTVSPropertyOp0
 70
     1
102
RTVSPropertyOp1
 70
     1
102
RTVSPropertyOp2
 70
     1
102
RTVSPropertyOp3
 70
     1
102
RTVSPropertyOp4
 70
     1
102
RTVSPropertyOp5
 70
     1
102
RTVSPropertyOp6
 70
     1
102
RTVSPropertyOp7
 70
     1
102
RTVSPropertyOp8
 70
     1
102
RTVSPropertyOp9
 70
     1
102
RTVSPropertyOp10
 70
     1
102
RTVSPropertyOp11
 70
     1
102
RTVSPropertyOp12
 70
     1
102
RTVSPropertyOp13
 70
     1
102
RTVSPropertyOp14
 70
     1
102
RTVSPropertyOp15
 70
     1
102
RTVSPropertyOp16
 70
     1
102
RTVSPropertyOp17
 70
     1
102
RTVSPropertyOp18
 70
     1
102
RTVSPropertyOp19
 70
     1
102
RTVSPropertyOp20
 70
     1
102
RTVSPropertyOp21
 70
     1
102
RTVSPropertyOp22
 70
     1
102
RTVSPropertyOp23
 70
     1
102
RTVSPropertyOp24
 70
     1
102
RTVSPropertyOp25
 70
     1
102
RTVSPropertyOp26
 70
     1
102
RTVSPropertyOp27
 70
     1
102
RTVSPropertyOp28
 70
     1
102
RTVSPropertyOp29
 70
     1
102
RTVSPropertyOp30
 70
     1
102
RTVSPropertyOp31
 70
     1
102
RTVSPropertyOp32
 70
     1
102
RTVSPropertyOp33
 70
     1
102
RTVSPropertyOp34
 70
     1
102
RTVSPropertyOp35
 70
     1
102
RTVSPropertyOp36
 70
     1
102
RTVSPropertyOp37
 70
     1
102
RTVSPropertyOp38
 70
     1
102
RTVSPropertyOp39
 70
     1
102
RTVSPropertyOp40
 70
     1
102
RTVSPropertyOp41
 70
     1
102
RTVSPropertyOp42
 70
     1
102
RTVSPropertyOp43
 70
     1
102
RTVSPropertyOp44
 70
     1
102
RTVSPropertyOp45
 70
     1
102
RTVSPropertyOp46
 70
     1
102
RTVSPropertyOp47
 70
     1
102
RTVSPropertyOp48
 70
     1
102
RTVSPropertyOp49
 70
     1
102
RTVSPropertyOp50
 70
     1
102
RTVSPropertyOp51
 70
     0
102
RTVSPropertyOp52
 70
     0
102
RTVSPropertyOp53
 70
     1
102
RTVSPropertyOp54
 70
     1
102
RTVSPropertyOp55
 70
     1
102
RTVSPropertyOp56
 70
     1
102
RTVSPropertyOp57
 70
     1
102
RTVSPost2010Prop28
280
     0
102
RTVSPost2010PropOp28
 70
     1
102
RTVSPost2010Prop29
280
     1
102
RTVSPost2010PropOp29
 70
     1
102
RTVSPost2010Prop30
280
     1
102
RTVSPost2010PropOp30
 70
     1
102
RTVSPost2010Prop31
280
     0
102
RTVSPost2010PropOp31
 70
     1
102
RTVSPost2010Prop32
280
     0
102
RTVSPost2010PropOp32
 70
     1
102
RTVSPost2010Prop33
280
     0
102
RTVSPost2010PropOp33
 70
     1
102
RTVSPost2010Prop34
280
     0
102
RTVSPost2010PropOp34
 70
     1
102
RTVSPost2010Prop35
280
     0
102
RTVSPost2010PropOp35
 70
     1
102
RTVSPost2010Prop36
280
     0
102
RTVSPost2010PropOp36
 70
     1
102
RTVSPost2010Prop37
 90
       50
102
RTVSPost2010PropOp37
 70
     1
102
RTVSPost2010Prop38
140
0.0
102
RTVSPost2010PropOp38
 70
     1
102
RTVSPost2010Prop39
140
1.0
102
RTVSPost2010PropOp39
 70
     1
102
RTVSPost2010Prop40
 90
        0
102
RTVSPost2010PropOp40
 70
     1
102
RTVSPost2010Prop41ColorIndex
 90
       18
102
RTVSPost2010Prop41ColorRGB
 90
        0
102
RTVSPost2010PropOp41
 70
     1
102
RTVSPost2010Prop42
 90
       50
102
RTVSPost2010PropOp42
 70
     1
102
RTVSPost2010Prop43
 90
        3
102
RTVSPost2010PropOp43
 70
     1
102
RTVSPost2010Prop44ColorIndex
 90
        5
102
RTVSPost2010Prop44ColorRGB
 90
      255
102
RTVSPost2010PropOp44
 70
     1
102
RTVSPost2010Prop45
280
     0
102
RTVSPost2010PropOp45
 70
     1
102
RTVSPost2010Prop46
 90
       50
102
RTVSPost2010PropOp46
 70
     1
102
RTVSPost2010Prop47
 90
       50
102
RTVSPost2010PropOp47
 70
     1
102
RTVSPost2010Prop48
 90
       50
102
RTVSPost2010PropOp48
 70
     1
102
RTVSPost2010Prop49
280
     0
102
RTVSPost2010PropOp49
 70
     1
102
RTVSPost2010Prop50
 90
       50
102
RTVSPost2010PropOp50
 70
     1
102
RTVSPost2010Prop51ColorIndex
 90
      256
102
RTVSPost2010Prop51ColorRGB
 90
-16777216
102
RTVSPost2010PropOp51
 70
     0
102
RTVSPost2010Prop52
140
1.0
102
RTVSPost2010PropOp52
 70
     0
102
RTVSPost2010Prop53
 90
        2
102
RTVSPost2010PropOp53
 70
     1
102
RTVSPost2010Prop54
  1
strokes_ogs.tif
102
RTVSPost2010PropOp54
 70
     1
102
RTVSPost2010Prop55
280
     0
102
RTVSPost2010PropOp55
 70
     1
102
RTVSPost2010Prop56
140
1.0
102
RTVSPost2010PropOp56
 70
     1
102
RTVSPost2010Prop57
140
1.0
102
RTVSPost2010PropOp57
 70
     1
  0
XRECORD
  5
102
102
{ACAD_REACTORS
330
101
102
}
330
101
100
AcDbXrecord
280
     1
102
RTVSPropertyOp0
 70
     1
102
RTVSPropertyOp1
 70
     1
102
RTVSPropertyOp2
 70
     1
102
RTVSPropertyOp3
 70
     1
102
RTVSPropertyOp4
 70
     1
102
RTVSPropertyOp5
 70
     1
102
RTVSPropertyOp6
 70
     1
102
RTVSPropertyOp7
 70
     1
102
RTVSPropertyOp8
 70
     1
102
RTVSPropertyOp9
 70
     1
102
RTVSPropertyOp10
 70
     1
102
RTVSPropertyOp11
 70
     1
102
RTVSPropertyOp12
 70
     1
102
RTVSPropertyOp13
 70
     1
102
RTVSPropertyOp14
 70
     1
102
RTVSPropertyOp15
 70
     1
102
RTVSPropertyOp16
 70
     1
102
RTVSPropertyOp17
 70
     1
102
RTVSPropertyOp18
 70
     1
102
RTVSPropertyOp19
 70
     1
102
RTVSPropertyOp20
 70
     1
102
RTVSPropertyOp21
 70
     1
102
RTVSPropertyOp22
 70
     1
102
RTVSPropertyOp23
 70
     1
102
RTVSPropertyOp24
 70
     1
102
RTVSPropertyOp25
 70
     1
102
RTVSPropertyOp26
 70
     1
102
RTVSPropertyOp27
 70
     1
102
RTVSPropertyOp28
 70
     1
102
RTVSPropertyOp29
 70
     1
102
RTVSPropertyOp30
 70
     1
102
RTVSPropertyOp31
 70
     1
102
RTVSPropertyOp32
 70
     1
102
RTVSPropertyOp33
 70
     1
102
RTVSPropertyOp34
 70
     1
102
RTVSPropertyOp35
 70
     1
102
RTVSPropertyOp36
 70
     1
102
RTVSPropertyOp37
 70
     1
102
RTVSPropertyOp38
 70
     1
102
RTVSPropertyOp39
 70
     1
102
RTVSPropertyOp40
 70
     1
102
RTVSPropertyOp41
 70
     1
102
RTVSPropertyOp42
 70
     1
102
RTVSPropertyOp43
 70
     1
102
RTVSPropertyOp44
 70
     1
102
RTVSPropertyOp45
 70
     1
102
RTVSPropertyOp46
 70
     1
102
RTVSPropertyOp47
 70
     1
102
RTVSPropertyOp48
 70
     1
102
RTVSPropertyOp49
 70
     1
102
RTVSPropertyOp50
 70
     1
102
RTVSPropertyOp51
 70
     0
102
RTVSPropertyOp52
 70
     0
102
RTVSPropertyOp53
 70
     1
102
RTVSPropertyOp54
 70
     1
102
RTVSPropertyOp55
 70
     1
102
RTVSPropertyOp56
 70
     1
102
RTVSPropertyOp57
 70
     1
102
RTVSPost2010Prop28
280
     0
102
RTVSPost2010PropOp28
 70
     1
102
RTVSPost2010Prop29
280
     1
102
RTVSPost2010PropOp29
 70
     1
102
RTVSPost2010Prop30
280
     1
102
RTVSPost2010PropOp30
 70
     1
102
RTVSPost2010Prop31
280
     0
102
RTVSPost2010PropOp31
 70
     1
102
RTVSPost2010Prop32
280
     0
102
RTVSPost2010PropOp32
 70
     1
102
RTVSPost2010Prop33
280
     0
102
RTVSPost2010PropOp33
 70
     1
102
RTVSPost2010Prop34
280
     0
102
RTVSPost2010PropOp34
 70
     1
102
RTVSPost2010Prop35
280
     0
102
RTVSPost2010PropOp35
 70
     1
102
RTVSPost2010Prop36
280
     0
102
RTVSPost2010PropOp36
 70
     1
102
RTVSPost2010Prop37
 90
       50
102
RTVSPost2010PropOp37
 70
     1
102
RTVSPost2010Prop38
140
0.0
102
RTVSPost2010PropOp38
 70
     1
102
RTVSPost2010Prop39
140
1.0
102
RTVSPost2010PropOp39
 70
     1
102
RTVSPost2010Prop40
 90
        0
102
RTVSPost2010PropOp40
 70
     1
102
RTVSPost2010Prop41ColorIndex
 90
       18
102
RTVSPost2010Prop41ColorRGB
 90
        0
102
RTVSPost2010PropOp41
 70
     1
102
RTVSPost2010Prop42
 90
       50
102
RTVSPost2010PropOp42
 70
     1
102
RTVSPost2010Prop43
 90
        3
102
RTVSPost2010PropOp43
 70
     1
102
RTVSPost2010Prop44ColorIndex
 90
        5
102
RTVSPost2010Prop44ColorRGB
 90
      255
102
RTVSPost2010PropOp44
 70
     1
102
RTVSPost2010Prop45
280
     0
102
RTVSPost2010PropOp45
 70
     1
102
RTVSPost2010Prop46
 90
       50
102
RTVSPost2010PropOp46
 70
     1
102
RTVSPost2010Prop47
 90
       50
102
RTVSPost2010PropOp47
 70
     1
102
RTVSPost2010Prop48
 90
       50
102
RTVSPost2010PropOp48
 70
     1
102
RTVSPost2010Prop49
280
     0
102
RTVSPost2010PropOp49
 70
     1
102
RTVSPost2010Prop50
 90
       50
102
RTVSPost2010PropOp50
 70
     1
102
RTVSPost2010Prop51ColorIndex
 90
      256
102
RTVSPost2010Prop51ColorRGB
 90
-16777216
102
RTVSPost2010PropOp51
 70
     0
102
RTVSPost2010Prop52
140
1.0
102
RTVSPost2010PropOp52
 70
     0
102
RTVSPost2010Prop53
 90
        2
102
RTVSPost2010PropOp53
 70
     1
102
RTVSPost2010Prop54
  1
strokes_ogs.tif
102
RTVSPost2010PropOp54
 70
     1
102
RTVSPost2010Prop55
280
     0
102
RTVSPost2010PropOp55
 70
     1
102
RTVSPost2010Prop56
140
1.0
102
RTVSPost2010PropOp56
 70
     1
102
RTVSPost2010Prop57
140
1.0
102
RTVSPost2010PropOp57
 70
     1
  0
XRECORD
  5
108
102
{ACAD_REACTORS
330
107
102
}
330
107
100
AcDbXrecord
280
     1
102
RTVSPropertyOp0
 70
     1
102
RTVSPropertyOp1
 70
     1
102
RTVSPropertyOp2
 70
     1
102
RTVSPropertyOp3
 70
     1
102
RTVSPropertyOp4
 70
     1
102
RTVSPropertyOp5
 70
     1
102
RTVSPropertyOp6
 70
     1
102
RTVSPropertyOp7
 70
     1
102
RTVSPropertyOp8
 70
     1
102
RTVSPropertyOp9
 70
     1
102
RTVSPropertyOp10
 70
     1
102
RTVSPropertyOp11
 70
     1
102
RTVSPropertyOp12
 70
     1
102
RTVSPropertyOp13
 70
     1
102
RTVSPropertyOp14
 70
     1
102
RTVSPropertyOp15
 70
     1
102
RTVSPropertyOp16
 70
     1
102
RTVSPropertyOp17
 70
     1
102
RTVSPropertyOp18
 70
     1
102
RTVSPropertyOp19
 70
     1
102
RTVSPropertyOp20
 70
     1
102
RTVSPropertyOp21
 70
     1
102
RTVSPropertyOp22
 70
     1
102
RTVSPropertyOp23
 70
     1
102
RTVSPropertyOp24
 70
     1
102
RTVSPropertyOp25
 70
     1
102
RTVSPropertyOp26
 70
     1
102
RTVSPropertyOp27
 70
     1
102
RTVSPropertyOp28
 70
     1
102
RTVSPropertyOp29
 70
     1
102
RTVSPropertyOp30
 70
     1
102
RTVSPropertyOp31
 70
     1
102
RTVSPropertyOp32
 70
     1
102
RTVSPropertyOp33
 70
     1
102
RTVSPropertyOp34
 70
     1
102
RTVSPropertyOp35
 70
     1
102
RTVSPropertyOp36
 70
     1
102
RTVSPropertyOp37
 70
     1
102
RTVSPropertyOp38
 70
     1
102
RTVSPropertyOp39
 70
     1
102
RTVSPropertyOp40
 70
     1
102
RTVSPropertyOp41
 70
     1
102
RTVSPropertyOp42
 70
     1
102
RTVSPropertyOp43
 70
     1
102
RTVSPropertyOp44
 70
     1
102
RTVSPropertyOp45
 70
     1
102
RTVSPropertyOp46
 70
     1
102
RTVSPropertyOp47
 70
     1
102
RTVSPropertyOp48
 70
     1
102
RTVSPropertyOp49
 70
     1
102
RTVSPropertyOp50
 70
     1
102
RTVSPropertyOp51
 70
     0
102
RTVSPropertyOp52
 70
     0
102
RTVSPropertyOp53
 70
     1
102
RTVSPropertyOp54
 70
     1
102
RTVSPropertyOp55
 70
     1
102
RTVSPropertyOp56
 70
     1
102
RTVSPropertyOp57
 70
     1
102
RTVSPost2010Prop28
280
     0
102
RTVSPost2010PropOp28
 70
     1
102
RTVSPost2010Prop29
280
     1
102
RTVSPost2010PropOp29
 70
     1
102
RTVSPost2010Prop30
280
     1
102
RTVSPost2010PropOp30
 70
     1
102
RTVSPost2010Prop31
280
     0
102
RTVSPost2010PropOp31
 70
     1
102
RTVSPost2010Prop32
280
     0
102
RTVSPost2010PropOp32
 70
     1
102
RTVSPost2010Prop33
280
     0
102
RTVSPost2010PropOp33
 70
     1
102
RTVSPost2010Prop34
280
     0
102
RTVSPost2010PropOp34
 70
     1
102
RTVSPost2010Prop35
280
     0
102
RTVSPost2010PropOp35
 70
     1
102
RTVSPost2010Prop36
280
     0
102
RTVSPost2010PropOp36
 70
     1
102
RTVSPost2010Prop37
 90
       50
102
RTVSPost2010PropOp37
 70
     1
102
RTVSPost2010Prop38
140
0.0
102
RTVSPost2010PropOp38
 70
     1
102
RTVSPost2010Prop39
140
1.0
102
RTVSPost2010PropOp39
 70
     1
102
RTVSPost2010Prop40
 90
        0
102
RTVSPost2010PropOp40
 70
     1
102
RTVSPost2010Prop41ColorIndex
 90
       18
102
RTVSPost2010Prop41ColorRGB
 90
        0
102
RTVSPost2010PropOp41
 70
     1
102
RTVSPost2010Prop42
 90
       50
102
RTVSPost2010PropOp42
 70
     1
102
RTVSPost2010Prop43
 90
        3
102
RTVSPost2010PropOp43
 70
     1
102
RTVSPost2010Prop44ColorIndex
 90
        5
102
RTVSPost2010Prop44ColorRGB
 90
      255
102
RTVSPost2010PropOp44
 70
     1
102
RTVSPost2010Prop45
280
     0
102
RTVSPost2010PropOp45
 70
     1
102
RTVSPost2010Prop46
 90
       50
102
RTVSPost2010PropOp46
 70
     1
102
RTVSPost2010Prop47
 90
       50
102
RTVSPost2010PropOp47
 70
     1
102
RTVSPost2010Prop48
 90
       50
102
RTVSPost2010PropOp48
 70
     1
102
RTVSPost2010Prop49
280
     0
102
RTVSPost2010PropOp49
 70
     1
102
RTVSPost2010Prop50
 90
       50
102
RTVSPost2010PropOp50
 70
     1
102
RTVSPost2010Prop51ColorIndex
 90
      256
102
RTVSPost2010Prop51ColorRGB
 90
-16777216
102
RTVSPost2010PropOp51
 70
     0
102
RTVSPost2010Prop52
140
1.0
102
RTVSPost2010PropOp52
 70
     0
102
RTVSPost2010Prop53
 90
        2
102
RTVSPost2010PropOp53
 70
     1
102
RTVSPost2010Prop54
  1
strokes_ogs.tif
102
RTVSPost2010PropOp54
 70
     1
102
RTVSPost2010Prop55
280
     0
102
RTVSPost2010PropOp55
 70
     1
102
RTVSPost2010Prop56
140
1.0
102
RTVSPost2010PropOp56
 70
     1
102
RTVSPost2010Prop57
140
1.0
102
RTVSPost2010PropOp57
 70
     1
  0
XRECORD
  5
11C
102
{ACAD_REACTORS
330
11B
102
}
330
11B
100
AcDbXrecord
280
     1
102
RTVSPropertyOp0
 70
     0
102
RTVSPropertyOp1
 70
     0
102
RTVSPropertyOp2
 70
     0
102
RTVSPropertyOp3
 70
     0
102
RTVSPropertyOp4
 70
     0
102
RTVSPropertyOp5
 70
     0
102
RTVSPropertyOp6
 70
     0
102
RTVSPropertyOp7
 70
     0
102
RTVSPropertyOp8
 70
     0
102
RTVSPropertyOp9
 70
     0
102
RTVSPropertyOp10
 70
     0
102
RTVSPropertyOp11
 70
     0
102
RTVSPropertyOp12
 70
     0
102
RTVSPropertyOp13
 70
     0
102
RTVSPropertyOp14
 70
     2
102
RTVSPropertyOp15
 70
     0
102
RTVSPropertyOp16
 70
     0
102
RTVSPropertyOp17
 70
     0
102
RTVSPropertyOp18
 70
     0
102
RTVSPropertyOp19
 70
     0
102
RTVSPropertyOp20
 70
     0
102
RTVSPropertyOp21
 70
     0
102
RTVSPropertyOp22
 70
     0
102
RTVSPropertyOp23
 70
     0
102
RTVSPropertyOp24
 70
     0
102
RTVSPropertyOp25
 70
     0
102
RTVSPropertyOp26
 70
     0
102
RTVSPropertyOp27
 70
     0
102
RTVSPropertyOp28
 70
     0
102
RTVSPropertyOp29
 70
     0
102
RTVSPropertyOp30
 70
     0
102
RTVSPropertyOp31
 70
     0
102
RTVSPropertyOp32
 70
     0
102
RTVSPropertyOp33
 70
     0
102
RTVSPropertyOp34
 70
     0
102
RTVSPropertyOp35
 70
     0
102
RTVSPropertyOp36
 70
     0
102
RTVSPropertyOp37
 70
     0
102
RTVSPropertyOp38
 70
     0
102
RTVSPropertyOp39
 70
     0
102
RTVSPropertyOp40
 70
     0
102
RTVSPropertyOp41
 70
     0
102
RTVSPropertyOp42
 70
     0
102
RTVSPropertyOp43
 70
     0
102
RTVSPropertyOp44
 70
     0
102
RTVSPropertyOp45
 70
     0
102
RTVSPropertyOp46
 70
     0
102
RTVSPropertyOp47
 70
     0
102
RTVSPropertyOp48
 70
     0
102
RTVSPropertyOp49
 70
     0
102
RTVSPropertyOp50
 70
     0
102
RTVSPropertyOp51
 70
     0
102
RTVSPropertyOp52
 70
     0
102
RTVSPropertyOp53
 70
     0
102
RTVSPropertyOp54
 70
     0
102
RTVSPropertyOp55
 70
     0
102
RTVSPropertyOp56
 70
     0
102
RTVSPropertyOp57
 70
     0
102
RTVSPost2010Prop28
280
     0
102
RTVSPost2010PropOp28
 70
     0
102
RTVSPost2010Prop29
280
     1
102
RTVSPost2010PropOp29
 70
     0
102
RTVSPost2010Prop30
280
     1
102
RTVSPost2010PropOp30
 70
     0
102
RTVSPost2010Prop31
280
     0
102
RTVSPost2010PropOp31
 70
     0
102
RTVSPost2010Prop32
280
     0
102
RTVSPost2010PropOp32
 70
     0
102
RTVSPost2010Prop33
280
     0
102
RTVSPost2010PropOp33
 70
     0
102
RTVSPost2010Prop34
280
     0
102
RTVSPost2010PropOp34
 70
     0
102
RTVSPost2010Prop35
280
     0
102
RTVSPost2010PropOp35
 70
     0
102
RTVSPost2010Prop36
280
     0
102
RTVSPost2010PropOp36
 70
     0
102
RTVSPost2010Prop37
 90
       50
102
RTVSPost2010PropOp37
 70
     0
102
RTVSPost2010Prop38
140
0.0
102
RTVSPost2010PropOp38
 70
     0
102
RTVSPost2010Prop39
140
1.0
102
RTVSPost2010PropOp39
 70
     0
102
RTVSPost2010Prop40
 90
        0
102
RTVSPost2010PropOp40
 70
     0
102
RTVSPost2010Prop41ColorIndex
 90
       18
102
RTVSPost2010Prop41ColorRGB
 90
        0
102
RTVSPost2010PropOp41
 70
     0
102
RTVSPost2010Prop42
 90
       50
102
RTVSPost2010PropOp42
 70
     0
102
RTVSPost2010Prop43
 90
        3
102
RTVSPost2010PropOp43
 70
     0
102
RTVSPost2010Prop44ColorIndex
 90
        5
102
RTVSPost2010Prop44ColorRGB
 90
      255
102
RTVSPost2010PropOp44
 70
     0
102
RTVSPost2010Prop45
280
     0
102
RTVSPost2010PropOp45
 70
     0
102
RTVSPost2010Prop46
 90
       50
102
RTVSPost2010PropOp46
 70
     0
102
RTVSPost2010Prop47
 90
       50
102
RTVSPost2010PropOp47
 70
     0
102
RTVSPost2010Prop48
 90
       50
102
RTVSPost2010PropOp48
 70
     0
102
RTVSPost2010Prop49
280
     0
102
RTVSPost2010PropOp49
 70
     0
102
RTVSPost2010Prop50
 90
       50
102
RTVSPost2010PropOp50
 70
     0
102
RTVSPost2010Prop51ColorIndex
 90
      256
102
RTVSPost2010Prop51ColorRGB
 90
-16777216
102
RTVSPost2010PropOp51
 70
     0
102
RTVSPost2010Prop52
140
1.0
102
RTVSPost2010PropOp52
 70
     0
102
RTVSPost2010Prop53
 90
        2
102
RTVSPost2010PropOp53
 70
     0
102
RTVSPost2010Prop54
  1
strokes_ogs.tif
102
RTVSPost2010PropOp54
 70
     0
102
RTVSPost2010Prop55
280
     0
102
RTVSPost2010PropOp55
 70
     0
102
RTVSPost2010Prop56
140
1.0
102
RTVSPost2010PropOp56
 70
     0
102
RTVSPost2010Prop57
140
1.0
102
RTVSPost2010PropOp57
 70
     0
  0
XRECORD
  5
116
102
{ACAD_REACTORS
330
115
102
}
330
115
100
AcDbXrecord
280
     1
102
RTVSPropertyOp0
 70
     1
102
RTVSPropertyOp1
 70
     1
102
RTVSPropertyOp2
 70
     1
102
RTVSPropertyOp3
 70
     1
102
RTVSPropertyOp4
 70
     1
102
RTVSPropertyOp5
 70
     1
102
RTVSPropertyOp6
 70
     1
102
RTVSPropertyOp7
 70
     1
102
RTVSPropertyOp8
 70
     1
102
RTVSPropertyOp9
 70
     1
102
RTVSPropertyOp10
 70
     1
102
RTVSPropertyOp11
 70
     1
102
RTVSPropertyOp12
 70
     1
102
RTVSPropertyOp13
 70
     1
102
RTVSPropertyOp14
 70
     1
102
RTVSPropertyOp15
 70
     1
102
RTVSPropertyOp16
 70
     1
102
RTVSPropertyOp17
 70
     1
102
RTVSPropertyOp18
 70
     1
102
RTVSPropertyOp19
 70
     1
102
RTVSPropertyOp20
 70
     1
102
RTVSPropertyOp21
 70
     1
102
RTVSPropertyOp22
 70
     1
102
RTVSPropertyOp23
 70
     1
102
RTVSPropertyOp24
 70
     1
102
RTVSPropertyOp25
 70
     1
102
RTVSPropertyOp26
 70
     1
102
RTVSPropertyOp27
 70
     1
102
RTVSPropertyOp28
 70
     1
102
RTVSPropertyOp29
 70
     1
102
RTVSPropertyOp30
 70
     1
102
RTVSPropertyOp31
 70
     1
102
RTVSPropertyOp32
 70
     1
102
RTVSPropertyOp33
 70
     1
102
RTVSPropertyOp34
 70
     1
102
RTVSPropertyOp35
 70
     1
102
RTVSPropertyOp36
 70
     1
102
RTVSPropertyOp37
 70
     1
102
RTVSPropertyOp38
 70
     1
102
RTVSPropertyOp39
 70
     1
102
RTVSPropertyOp40
 70
     1
102
RTVSPropertyOp41
 70
     1
102
RTVSPropertyOp42
 70
     1
102
RTVSPropertyOp43
 70
     1
102
RTVSPropertyOp44
 70
     1
102
RTVSPropertyOp45
 70
     1
102
RTVSPropertyOp46
 70
     1
102
RTVSPropertyOp47
 70
     1
102
RTVSPropertyOp48
 70
     1
102
RTVSPropertyOp49
 70
     1
102
RTVSPropertyOp50
 70
     1
102
RTVSPropertyOp51
 70
     0
102
RTVSPropertyOp52
 70
     0
102
RTVSPropertyOp53
 70
     1
102
RTVSPropertyOp54
 70
     1
102
RTVSPropertyOp55
 70
     1
102
RTVSPropertyOp56
 70
     1
102
RTVSPropertyOp57
 70
     1
102
RTVSPost2010Prop28
280
     0
102
RTVSPost2010PropOp28
 70
     1
102
RTVSPost2010Prop29
280
     1
102
RTVSPost2010PropOp29
 70
     1
102
RTVSPost2010Prop30
280
     1
102
RTVSPost2010PropOp30
 70
     1
102
RTVSPost2010Prop31
280
     0
102
RTVSPost2010PropOp31
 70
     1
102
RTVSPost2010Prop32
280
     0
102
RTVSPost2010PropOp32
 70
     1
102
RTVSPost2010Prop33
280
     0
102
RTVSPost2010PropOp33
 70
     1
102
RTVSPost2010Prop34
280
     0
102
RTVSPost2010PropOp34
 70
     1
102
RTVSPost2010Prop35
280
     0
102
RTVSPost2010PropOp35
 70
     1
102
RTVSPost2010Prop36
280
     0
102
RTVSPost2010PropOp36
 70
     1
102
RTVSPost2010Prop37
 90
       50
102
RTVSPost2010PropOp37
 70
     1
102
RTVSPost2010Prop38
140
0.0
102
RTVSPost2010PropOp38
 70
     1
102
RTVSPost2010Prop39
140
1.0
102
RTVSPost2010PropOp39
 70
     1
102
RTVSPost2010Prop40
 90
        0
102
RTVSPost2010PropOp40
 70
     1
102
RTVSPost2010Prop41ColorIndex
 90
       18
102
RTVSPost2010Prop41ColorRGB
 90
        0
102
RTVSPost2010PropOp41
 70
     1
102
RTVSPost2010Prop42
 90
       50
102
RTVSPost2010PropOp42
 70
     1
102
RTVSPost2010Prop43
 90
        3
102
RTVSPost2010PropOp43
 70
     1
102
RTVSPost2010Prop44ColorIndex
 90
        5
102
RTVSPost2010Prop44ColorRGB
 90
      255
102
RTVSPost2010PropOp44
 70
     1
102
RTVSPost2010Prop45
280
     0
102
RTVSPost2010PropOp45
 70
     1
102
RTVSPost2010Prop46
 90
       50
102
RTVSPost2010PropOp46
 70
     1
102
RTVSPost2010Prop47
 90
       50
102
RTVSPost2010PropOp47
 70
     1
102
RTVSPost2010Prop48
 90
       50
102
RTVSPost2010PropOp48
 70
     1
102
RTVSPost2010Prop49
280
     0
102
RTVSPost2010PropOp49
 70
     1
102
RTVSPost2010Prop50
 90
       50
102
RTVSPost2010PropOp50
 70
     1
102
RTVSPost2010Prop51ColorIndex
 90
      256
102
RTVSPost2010Prop51ColorRGB
 90
-16777216
102
RTVSPost2010PropOp51
 70
     0
102
RTVSPost2010Prop52
140
1.0
102
RTVSPost2010PropOp52
 70
     0
102
RTVSPost2010Prop53
 90
        2
102
RTVSPost2010PropOp53
 70
     1
102
RTVSPost2010Prop54
  1
strokes_ogs.tif
102
RTVSPost2010PropOp54
 70
     1
102
RTVSPost2010Prop55
280
     0
102
RTVSPost2010PropOp55
 70
     1
102
RTVSPost2010Prop56
140
1.0
102
RTVSPost2010PropOp56
 70
     1
102
RTVSPost2010Prop57
140
1.0
102
RTVSPost2010PropOp57
 70
     1
  0
XRECORD
  5
11E
102
{ACAD_REACTORS
330
11D
102
}
330
11D
100
AcDbXrecord
280
     1
102
RTVSPropertyOp0
 70
     0
102
RTVSPropertyOp1
 70
     0
102
RTVSPropertyOp2
 70
     0
102
RTVSPropertyOp3
 70
     0
102
RTVSPropertyOp4
 70
     0
102
RTVSPropertyOp5
 70
     0
102
RTVSPropertyOp6
 70
     0
102
RTVSPropertyOp7
 70
     0
102
RTVSPropertyOp8
 70
     0
102
RTVSPropertyOp9
 70
     0
102
RTVSPropertyOp10
 70
     0
102
RTVSPropertyOp11
 70
     0
102
RTVSPropertyOp12
 70
     0
102
RTVSPropertyOp13
 70
     0
102
RTVSPropertyOp14
 70
     2
102
RTVSPropertyOp15
 70
     0
102
RTVSPropertyOp16
 70
     0
102
RTVSPropertyOp17
 70
     0
102
RTVSPropertyOp18
 70
     0
102
RTVSPropertyOp19
 70
     0
102
RTVSPropertyOp20
 70
     0
102
RTVSPropertyOp21
 70
     0
102
RTVSPropertyOp22
 70
     0
102
RTVSPropertyOp23
 70
     0
102
RTVSPropertyOp24
 70
     0
102
RTVSPropertyOp25
 70
     0
102
RTVSPropertyOp26
 70
     0
102
RTVSPropertyOp27
 70
     0
102
RTVSPropertyOp28
 70
     0
102
RTVSPropertyOp29
 70
     0
102
RTVSPropertyOp30
 70
     0
102
RTVSPropertyOp31
 70
     0
102
RTVSPropertyOp32
 70
     0
102
RTVSPropertyOp33
 70
     0
102
RTVSPropertyOp34
 70
     0
102
RTVSPropertyOp35
 70
     0
102
RTVSPropertyOp36
 70
     0
102
RTVSPropertyOp37
 70
     0
102
RTVSPropertyOp38
 70
     0
102
RTVSPropertyOp39
 70
     0
102
RTVSPropertyOp40
 70
     0
102
RTVSPropertyOp41
 70
     0
102
RTVSPropertyOp42
 70
     0
102
RTVSPropertyOp43
 70
     0
102
RTVSPropertyOp44
 70
     0
102
RTVSPropertyOp45
 70
     0
102
RTVSPropertyOp46
 70
     0
102
RTVSPropertyOp47
 70
     0
102
RTVSPropertyOp48
 70
     0
102
RTVSPropertyOp49
 70
     0
102
RTVSPropertyOp50
 70
     0
102
RTVSPropertyOp51
 70
     0
102
RTVSPropertyOp52
 70
     0
102
RTVSPropertyOp53
 70
     0
102
RTVSPropertyOp54
 70
     0
102
RTVSPropertyOp55
 70
     0
102
RTVSPropertyOp56
 70
     0
102
RTVSPropertyOp57
 70
     0
102
RTVSPost2010Prop28
280
     0
102
RTVSPost2010PropOp28
 70
     0
102
RTVSPost2010Prop29
280
     1
102
RTVSPost2010PropOp29
 70
     0
102
RTVSPost2010Prop30
280
     1
102
RTVSPost2010PropOp30
 70
     0
102
RTVSPost2010Prop31
280
     0
102
RTVSPost2010PropOp31
 70
     0
102
RTVSPost2010Prop32
280
     0
102
RTVSPost2010PropOp32
 70
     0
102
RTVSPost2010Prop33
280
     0
102
RTVSPost2010PropOp33
 70
     0
102
RTVSPost2010Prop34
280
     0
102
RTVSPost2010PropOp34
 70
     0
102
RTVSPost2010Prop35
280
     0
102
RTVSPost2010PropOp35
 70
     0
102
RTVSPost2010Prop36
280
     0
102
RTVSPost2010PropOp36
 70
     0
102
RTVSPost2010Prop37
 90
       50
102
RTVSPost2010PropOp37
 70
     0
102
RTVSPost2010Prop38
140
0.0
102
RTVSPost2010PropOp38
 70
     0
102
RTVSPost2010Prop39
140
1.0
102
RTVSPost2010PropOp39
 70
     0
102
RTVSPost2010Prop40
 90
        0
102
RTVSPost2010PropOp40
 70
     0
102
RTVSPost2010Prop41ColorIndex
 90
       18
102
RTVSPost2010Prop41ColorRGB
 90
        0
102
RTVSPost2010PropOp41
 70
     0
102
RTVSPost2010Prop42
 90
       50
102
RTVSPost2010PropOp42
 70
     0
102
RTVSPost2010Prop43
 90
        3
102
RTVSPost2010PropOp43
 70
     0
102
RTVSPost2010Prop44ColorIndex
 90
        5
102
RTVSPost2010Prop44ColorRGB
 90
      255
102
RTVSPost2010PropOp44
 70
     0
102
RTVSPost2010Prop45
280
     0
102
RTVSPost2010PropOp45
 70
     0
102
RTVSPost2010Prop46
 90
       50
102
RTVSPost2010PropOp46
 70
     0
102
RTVSPost2010Prop47
 90
       50
102
RTVSPost2010PropOp47
 70
     0
102
RTVSPost2010Prop48
 90
       50
102
RTVSPost2010PropOp48
 70
     0
102
RTVSPost2010Prop49
280
     0
102
RTVSPost2010PropOp49
 70
     0
102
RTVSPost2010Prop50
 90
       50
102
RTVSPost2010PropOp50
 70
     0
102
RTVSPost2010Prop51ColorIndex
 90
      256
102
RTVSPost2010Prop51ColorRGB
 90
-16777216
102
RTVSPost2010PropOp51
 70
     0
102
RTVSPost2010Prop52
140
1.0
102
RTVSPost2010PropOp52
 70
     0
102
RTVSPost2010Prop53
 90
        2
102
RTVSPost2010PropOp53
 70
     0
102
RTVSPost2010Prop54
  1
strokes_ogs.tif
102
RTVSPost2010PropOp54
 70
     0
102
RTVSPost2010Prop55
280
     0
102
RTVSPost2010PropOp55
 70
     0
102
RTVSPost2010Prop56
140
1.0
102
RTVSPost2010PropOp56
 70
     0
102
RTVSPost2010Prop57
140
1.0
102
RTVSPost2010PropOp57
 70
     0
  0
XRECORD
  5
10C
102
{ACAD_REACTORS
330
10B
102
}
330
10B
100
AcDbXrecord
280
     1
102
RTVSPropertyOp0
 70
     1
102
RTVSPropertyOp1
 70
     1
102
RTVSPropertyOp2
 70
     1
102
RTVSPropertyOp3
 70
     1
102
RTVSPropertyOp4
 70
     1
102
RTVSPropertyOp5
 70
     1
102
RTVSPropertyOp6
 70
     1
102
RTVSPropertyOp7
 70
     1
102
RTVSPropertyOp8
 70
     1
102
RTVSPropertyOp9
 70
     1
102
RTVSPropertyOp10
 70
     1
102
RTVSPropertyOp11
 70
     1
102
RTVSPropertyOp12
 70
     1
102
RTVSPropertyOp13
 70
     1
102
RTVSPropertyOp14
 70
     1
102
RTVSPropertyOp15
 70
     1
102
RTVSPropertyOp16
 70
     1
102
RTVSPropertyOp17
 70
     1
102
RTVSPropertyOp18
 70
     1
102
RTVSPropertyOp19
 70
     1
102
RTVSPropertyOp20
 70
     1
102
RTVSPropertyOp21
 70
     1
102
RTVSPropertyOp22
 70
     1
102
RTVSPropertyOp23
 70
     1
102
RTVSPropertyOp24
 70
     1
102
RTVSPropertyOp25
 70
     1
102
RTVSPropertyOp26
 70
     1
102
RTVSPropertyOp27
 70
     1
102
RTVSPropertyOp28
 70
     1
102
RTVSPropertyOp29
 70
     1
102
RTVSPropertyOp30
 70
     1
102
RTVSPropertyOp31
 70
     1
102
RTVSPropertyOp32
 70
     1
102
RTVSPropertyOp33
 70
     1
102
RTVSPropertyOp34
 70
     1
102
RTVSPropertyOp35
 70
     1
102
RTVSPropertyOp36
 70
     1
102
RTVSPropertyOp37
 70
     1
102
RTVSPropertyOp38
 70
     1
102
RTVSPropertyOp39
 70
     1
102
RTVSPropertyOp40
 70
     1
102
RTVSPropertyOp41
 70
     1
102
RTVSPropertyOp42
 70
     1
102
RTVSPropertyOp43
 70
     1
102
RTVSPropertyOp44
 70
     1
102
RTVSPropertyOp45
 70
     1
102
RTVSPropertyOp46
 70
     1
102
RTVSPropertyOp47
 70
     1
102
RTVSPropertyOp48
 70
     1
102
RTVSPropertyOp49
 70
     1
102
RTVSPropertyOp50
 70
     1
102
RTVSPropertyOp51
 70
     0
102
RTVSPropertyOp52
 70
     0
102
RTVSPropertyOp53
 70
     1
102
RTVSPropertyOp54
 70
     1
102
RTVSPropertyOp55
 70
     1
102
RTVSPropertyOp56
 70
     1
102
RTVSPropertyOp57
 70
     1
102
RTVSPost2010Prop28
280
     0
102
RTVSPost2010PropOp28
 70
     1
102
RTVSPost2010Prop29
280
     1
102
RTVSPost2010PropOp29
 70
     1
102
RTVSPost2010Prop30
280
     1
102
RTVSPost2010PropOp30
 70
     1
102
RTVSPost2010Prop31
280
     0
102
RTVSPost2010PropOp31
 70
     1
102
RTVSPost2010Prop32
280
     0
102
RTVSPost2010PropOp32
 70
     1
102
RTVSPost2010Prop33
280
     0
102
RTVSPost2010PropOp33
 70
     1
102
RTVSPost2010Prop34
280
     0
102
RTVSPost2010PropOp34
 70
     1
102
RTVSPost2010Prop35
280
     0
102
RTVSPost2010PropOp35
 70
     1
102
RTVSPost2010Prop36
280
     0
102
RTVSPost2010PropOp36
 70
     1
102
RTVSPost2010Prop37
 90
       50
102
RTVSPost2010PropOp37
 70
     1
102
RTVSPost2010Prop38
140
0.0
102
RTVSPost2010PropOp38
 70
     1
102
RTVSPost2010Prop39
140
1.0
102
RTVSPost2010PropOp39
 70
     1
102
RTVSPost2010Prop40
 90
        0
102
RTVSPost2010PropOp40
 70
     1
102
RTVSPost2010Prop41ColorIndex
 90
       18
102
RTVSPost2010Prop41ColorRGB
 90
        0
102
RTVSPost2010PropOp41
 70
     1
102
RTVSPost2010Prop42
 90
       50
102
RTVSPost2010PropOp42
 70
     1
102
RTVSPost2010Prop43
 90
        3
102
RTVSPost2010PropOp43
 70
     1
102
RTVSPost2010Prop44ColorIndex
 90
        5
102
RTVSPost2010Prop44ColorRGB
 90
      255
102
RTVSPost2010PropOp44
 70
     1
102
RTVSPost2010Prop45
280
     0
102
RTVSPost2010PropOp45
 70
     1
102
RTVSPost2010Prop46
 90
       50
102
RTVSPost2010PropOp46
 70
     1
102
RTVSPost2010Prop47
 90
       50
102
RTVSPost2010PropOp47
 70
     1
102
RTVSPost2010Prop48
 90
       50
102
RTVSPost2010PropOp48
 70
     1
102
RTVSPost2010Prop49
280
     0
102
RTVSPost2010PropOp49
 70
     1
102
RTVSPost2010Prop50
 90
       50
102
RTVSPost2010PropOp50
 70
     1
102
RTVSPost2010Prop51ColorIndex
 90
      256
102
RTVSPost2010Prop51ColorRGB
 90
-16777216
102
RTVSPost2010PropOp51
 70
     0
102
RTVSPost2010Prop52
140
1.0
102
RTVSPost2010PropOp52
 70
     0
102
RTVSPost2010Prop53
 90
        2
102
RTVSPost2010PropOp53
 70
     1
102
RTVSPost2010Prop54
  1
strokes_ogs.tif
102
RTVSPost2010PropOp54
 70
     1
102
RTVSPost2010Prop55
280
     0
102
RTVSPost2010PropOp55
 70
     1
102
RTVSPost2010Prop56
140
1.0
102
RTVSPost2010PropOp56
 70
     1
102
RTVSPost2010Prop57
140
1.0
102
RTVSPost2010PropOp57
 70
     1
  0
XRECORD
  5
12A
102
{ACAD_REACTORS
330
129
102
}
330
129
100
AcDbXrecord
280
     1
102
RTVSPropertyOp0
 70
     1
102
RTVSPropertyOp1
 70
     1
102
RTVSPropertyOp2
 70
     1
102
RTVSPropertyOp3
 70
     1
102
RTVSPropertyOp4
 70
     1
102
RTVSPropertyOp5
 70
     1
102
RTVSPropertyOp6
 70
     1
102
RTVSPropertyOp7
 70
     1
102
RTVSPropertyOp8
 70
     1
102
RTVSPropertyOp9
 70
     1
102
RTVSPropertyOp10
 70
     1
102
RTVSPropertyOp11
 70
     1
102
RTVSPropertyOp12
 70
     1
102
RTVSPropertyOp13
 70
     1
102
RTVSPropertyOp14
 70
     1
102
RTVSPropertyOp15
 70
     1
102
RTVSPropertyOp16
 70
     1
102
RTVSPropertyOp17
 70
     1
102
RTVSPropertyOp18
 70
     1
102
RTVSPropertyOp19
 70
     1
102
RTVSPropertyOp20
 70
     1
102
RTVSPropertyOp21
 70
     1
102
RTVSPropertyOp22
 70
     1
102
RTVSPropertyOp23
 70
     1
102
RTVSPropertyOp24
 70
     1
102
RTVSPropertyOp25
 70
     1
102
RTVSPropertyOp26
 70
     1
102
RTVSPropertyOp27
 70
     1
102
RTVSPropertyOp28
 70
     1
102
RTVSPropertyOp29
 70
     1
102
RTVSPropertyOp30
 70
     1
102
RTVSPropertyOp31
 70
     1
102
RTVSPropertyOp32
 70
     1
102
RTVSPropertyOp33
 70
     1
102
RTVSPropertyOp34
 70
     1
102
RTVSPropertyOp35
 70
     1
102
RTVSPropertyOp36
 70
     1
102
RTVSPropertyOp37
 70
     1
102
RTVSPropertyOp38
 70
     1
102
RTVSPropertyOp39
 70
     1
102
RTVSPropertyOp40
 70
     1
102
RTVSPropertyOp41
 70
     1
102
RTVSPropertyOp42
 70
     1
102
RTVSPropertyOp43
 70
     1
102
RTVSPropertyOp44
 70
     1
102
RTVSPropertyOp45
 70
     1
102
RTVSPropertyOp46
 70
     1
102
RTVSPropertyOp47
 70
     1
102
RTVSPropertyOp48
 70
     1
102
RTVSPropertyOp49
 70
     1
102
RTVSPropertyOp50
 70
     1
102
RTVSPropertyOp51
 70
     0
102
RTVSPropertyOp52
 70
     0
102
RTVSPropertyOp53
 70
     1
102
RTVSPropertyOp54
 70
     1
102
RTVSPropertyOp55
 70
     1
102
RTVSPropertyOp56
 70
     1
102
RTVSPropertyOp57
 70
     1
102
RTVSPost2010Prop28
280
     0
102
RTVSPost2010PropOp28
 70
     1
102
RTVSPost2010Prop29
280
     1
102
RTVSPost2010PropOp29
 70
     1
102
RTVSPost2010Prop30
280
     1
102
RTVSPost2010PropOp30
 70
     1
102
RTVSPost2010Prop31
280
     0
102
RTVSPost2010PropOp31
 70
     1
102
RTVSPost2010Prop32
280
     0
102
RTVSPost2010PropOp32
 70
     1
102
RTVSPost2010Prop33
280
     0
102
RTVSPost2010PropOp33
 70
     1
102
RTVSPost2010Prop34
280
     0
102
RTVSPost2010PropOp34
 70
     1
102
RTVSPost2010Prop35
280
     0
102
RTVSPost2010PropOp35
 70
     1
102
RTVSPost2010Prop36
280
     0
102
RTVSPost2010PropOp36
 70
     1
102
RTVSPost2010Prop37
 90
       50
102
RTVSPost2010PropOp37
 70
     1
102
RTVSPost2010Prop38
140
0.0
102
RTVSPost2010PropOp38
 70
     1
102
RTVSPost2010Prop39
140
1.0
102
RTVSPost2010PropOp39
 70
     1
102
RTVSPost2010Prop40
 90
        0
102
RTVSPost2010PropOp40
 70
     1
102
RTVSPost2010Prop41ColorIndex
 90
       18
102
RTVSPost2010Prop41ColorRGB
 90
        0
102
RTVSPost2010PropOp41
 70
     1
102
RTVSPost2010Prop42
 90
       50
102
RTVSPost2010PropOp42
 70
     1
102
RTVSPost2010Prop43
 90
        3
102
RTVSPost2010PropOp43
 70
     1
102
RTVSPost2010Prop44ColorIndex
 90
        5
102
RTVSPost2010Prop44ColorRGB
 90
      255
102
RTVSPost2010PropOp44
 70
     1
102
RTVSPost2010Prop45
280
     0
102
RTVSPost2010PropOp45
 70
     1
102
RTVSPost2010Prop46
 90
       50
102
RTVSPost2010PropOp46
 70
     1
102
RTVSPost2010Prop47
 90
       50
102
RTVSPost2010PropOp47
 70
     1
102
RTVSPost2010Prop48
 90
       50
102
RTVSPost2010PropOp48
 70
     1
102
RTVSPost2010Prop49
280
     0
102
RTVSPost2010PropOp49
 70
     1
102
RTVSPost2010Prop50
 90
       50
102
RTVSPost2010PropOp50
 70
     1
102
RTVSPost2010Prop51ColorIndex
 90
      256
102
RTVSPost2010Prop51ColorRGB
 90
-16777216
102
RTVSPost2010PropOp51
 70
     0
102
RTVSPost2010Prop52
140
1.0
102
RTVSPost2010PropOp52
 70
     0
102
RTVSPost2010Prop53
 90
        2
102
RTVSPost2010PropOp53
 70
     1
102
RTVSPost2010Prop54
  1
strokes_ogs.tif
102
RTVSPost2010PropOp54
 70
     1
102
RTVSPost2010Prop55
280
     0
102
RTVSPost2010PropOp55
 70
     1
102
RTVSPost2010Prop56
140
1.0
102
RTVSPost2010PropOp56
 70
     1
102
RTVSPost2010Prop57
140
1.0
102
RTVSPost2010PropOp57
 70
     1
  0
XRECORD
  5
128
102
{ACAD_REACTORS
330
127
102
}
330
127
100
AcDbXrecord
280
     1
102
RTVSPropertyOp0
 70
     1
102
RTVSPropertyOp1
 70
     1
102
RTVSPropertyOp2
 70
     1
102
RTVSPropertyOp3
 70
     1
102
RTVSPropertyOp4
 70
     1
102
RTVSPropertyOp5
 70
     1
102
RTVSPropertyOp6
 70
     1
102
RTVSPropertyOp7
 70
     1
102
RTVSPropertyOp8
 70
     1
102
RTVSPropertyOp9
 70
     1
102
RTVSPropertyOp10
 70
     1
102
RTVSPropertyOp11
 70
     1
102
RTVSPropertyOp12
 70
     1
102
RTVSPropertyOp13
 70
     1
102
RTVSPropertyOp14
 70
     1
102
RTVSPropertyOp15
 70
     1
102
RTVSPropertyOp16
 70
     1
102
RTVSPropertyOp17
 70
     1
102
RTVSPropertyOp18
 70
     1
102
RTVSPropertyOp19
 70
     1
102
RTVSPropertyOp20
 70
     1
102
RTVSPropertyOp21
 70
     1
102
RTVSPropertyOp22
 70
     1
102
RTVSPropertyOp23
 70
     1
102
RTVSPropertyOp24
 70
     1
102
RTVSPropertyOp25
 70
     1
102
RTVSPropertyOp26
 70
     1
102
RTVSPropertyOp27
 70
     1
102
RTVSPropertyOp28
 70
     1
102
RTVSPropertyOp29
 70
     1
102
RTVSPropertyOp30
 70
     1
102
RTVSPropertyOp31
 70
     1
102
RTVSPropertyOp32
 70
     1
102
RTVSPropertyOp33
 70
     1
102
RTVSPropertyOp34
 70
     1
102
RTVSPropertyOp35
 70
     1
102
RTVSPropertyOp36
 70
     1
102
RTVSPropertyOp37
 70
     1
102
RTVSPropertyOp38
 70
     1
102
RTVSPropertyOp39
 70
     1
102
RTVSPropertyOp40
 70
     1
102
RTVSPropertyOp41
 70
     1
102
RTVSPropertyOp42
 70
     1
102
RTVSPropertyOp43
 70
     1
102
RTVSPropertyOp44
 70
     1
102
RTVSPropertyOp45
 70
     1
102
RTVSPropertyOp46
 70
     1
102
RTVSPropertyOp47
 70
     1
102
RTVSPropertyOp48
 70
     1
102
RTVSPropertyOp49
 70
     1
102
RTVSPropertyOp50
 70
     1
102
RTVSPropertyOp51
 70
     0
102
RTVSPropertyOp52
 70
     0
102
RTVSPropertyOp53
 70
     1
102
RTVSPropertyOp54
 70
     1
102
RTVSPropertyOp55
 70
     1
102
RTVSPropertyOp56
 70
     1
102
RTVSPropertyOp57
 70
     1
102
RTVSPost2010Prop28
280
     0
102
RTVSPost2010PropOp28
 70
     1
102
RTVSPost2010Prop29
280
     1
102
RTVSPost2010PropOp29
 70
     1
102
RTVSPost2010Prop30
280
     1
102
RTVSPost2010PropOp30
 70
     1
102
RTVSPost2010Prop31
280
     0
102
RTVSPost2010PropOp31
 70
     1
102
RTVSPost2010Prop32
280
     0
102
RTVSPost2010PropOp32
 70
     1
102
RTVSPost2010Prop33
280
     0
102
RTVSPost2010PropOp33
 70
     1
102
RTVSPost2010Prop34
280
     0
102
RTVSPost2010PropOp34
 70
     1
102
RTVSPost2010Prop35
280
     0
102
RTVSPost2010PropOp35
 70
     1
102
RTVSPost2010Prop36
280
     0
102
RTVSPost2010PropOp36
 70
     1
102
RTVSPost2010Prop37
 90
       50
102
RTVSPost2010PropOp37
 70
     1
102
RTVSPost2010Prop38
140
0.0
102
RTVSPost2010PropOp38
 70
     1
102
RTVSPost2010Prop39
140
1.0
102
RTVSPost2010PropOp39
 70
     1
102
RTVSPost2010Prop40
 90
        0
102
RTVSPost2010PropOp40
 70
     1
102
RTVSPost2010Prop41ColorIndex
 90
       18
102
RTVSPost2010Prop41ColorRGB
 90
        0
102
RTVSPost2010PropOp41
 70
     1
102
RTVSPost2010Prop42
 90
       50
102
RTVSPost2010PropOp42
 70
     1
102
RTVSPost2010Prop43
 90
        3
102
RTVSPost2010PropOp43
 70
     1
102
RTVSPost2010Prop44ColorIndex
 90
        5
102
RTVSPost2010Prop44ColorRGB
 90
      255
102
RTVSPost2010PropOp44
 70
     1
102
RTVSPost2010Prop45
280
     0
102
RTVSPost2010PropOp45
 70
     1
102
RTVSPost2010Prop46
 90
       50
102
RTVSPost2010PropOp46
 70
     1
102
RTVSPost2010Prop47
 90
       50
102
RTVSPost2010PropOp47
 70
     1
102
RTVSPost2010Prop48
 90
       50
102
RTVSPost2010PropOp48
 70
     1
102
RTVSPost2010Prop49
280
     0
102
RTVSPost2010PropOp49
 70
     1
102
RTVSPost2010Prop50
 90
       50
102
RTVSPost2010PropOp50
 70
     1
102
RTVSPost2010Prop51ColorIndex
 90
      256
102
RTVSPost2010Prop51ColorRGB
 90
-16777216
102
RTVSPost2010PropOp51
 70
     0
102
RTVSPost2010Prop52
140
1.0
102
RTVSPost2010PropOp52
 70
     0
102
RTVSPost2010Prop53
 90
        2
102
RTVSPost2010PropOp53
 70
     1
102
RTVSPost2010Prop54
  1
strokes_ogs.tif
102
RTVSPost2010PropOp54
 70
     1
102
RTVSPost2010Prop55
280
     0
102
RTVSPost2010PropOp55
 70
     1
102
RTVSPost2010Prop56
140
1.0
102
RTVSPost2010PropOp56
 70
     1
102
RTVSPost2010Prop57
140
1.0
102
RTVSPost2010PropOp57
 70
     1
  0
XRECORD
  5
122
102
{ACAD_REACTORS
330
121
102
}
330
121
100
AcDbXrecord
280
     1
102
RTVSPropertyOp0
 70
     1
102
RTVSPropertyOp1
 70
     1
102
RTVSPropertyOp2
 70
     1
102
RTVSPropertyOp3
 70
     1
102
RTVSPropertyOp4
 70
     1
102
RTVSPropertyOp5
 70
     1
102
RTVSPropertyOp6
 70
     1
102
RTVSPropertyOp7
 70
     1
102
RTVSPropertyOp8
 70
     1
102
RTVSPropertyOp9
 70
     1
102
RTVSPropertyOp10
 70
     1
102
RTVSPropertyOp11
 70
     1
102
RTVSPropertyOp12
 70
     1
102
RTVSPropertyOp13
 70
     1
102
RTVSPropertyOp14
 70
     1
102
RTVSPropertyOp15
 70
     1
102
RTVSPropertyOp16
 70
     1
102
RTVSPropertyOp17
 70
     1
102
RTVSPropertyOp18
 70
     1
102
RTVSPropertyOp19
 70
     1
102
RTVSPropertyOp20
 70
     1
102
RTVSPropertyOp21
 70
     1
102
RTVSPropertyOp22
 70
     1
102
RTVSPropertyOp23
 70
     1
102
RTVSPropertyOp24
 70
     1
102
RTVSPropertyOp25
 70
     1
102
RTVSPropertyOp26
 70
     1
102
RTVSPropertyOp27
 70
     1
102
RTVSPropertyOp28
 70
     1
102
RTVSPropertyOp29
 70
     1
102
RTVSPropertyOp30
 70
     1
102
RTVSPropertyOp31
 70
     1
102
RTVSPropertyOp32
 70
     1
102
RTVSPropertyOp33
 70
     1
102
RTVSPropertyOp34
 70
     1
102
RTVSPropertyOp35
 70
     1
102
RTVSPropertyOp36
 70
     1
102
RTVSPropertyOp37
 70
     1
102
RTVSPropertyOp38
 70
     1
102
RTVSPropertyOp39
 70
     1
102
RTVSPropertyOp40
 70
     1
102
RTVSPropertyOp41
 70
     1
102
RTVSPropertyOp42
 70
     1
102
RTVSPropertyOp43
 70
     1
102
RTVSPropertyOp44
 70
     1
102
RTVSPropertyOp45
 70
     1
102
RTVSPropertyOp46
 70
     1
102
RTVSPropertyOp47
 70
     1
102
RTVSPropertyOp48
 70
     1
102
RTVSPropertyOp49
 70
     1
102
RTVSPropertyOp50
 70
     1
102
RTVSPropertyOp51
 70
     0
102
RTVSPropertyOp52
 70
     0
102
RTVSPropertyOp53
 70
     1
102
RTVSPropertyOp54
 70
     1
102
RTVSPropertyOp55
 70
     1
102
RTVSPropertyOp56
 70
     1
102
RTVSPropertyOp57
 70
     1
102
RTVSPost2010Prop28
280
     0
102
RTVSPost2010PropOp28
 70
     1
102
RTVSPost2010Prop29
280
     1
102
RTVSPost2010PropOp29
 70
     1
102
RTVSPost2010Prop30
280
     1
102
RTVSPost2010PropOp30
 70
     1
102
RTVSPost2010Prop31
280
     0
102
RTVSPost2010PropOp31
 70
     1
102
RTVSPost2010Prop32
280
     0
102
RTVSPost2010PropOp32
 70
     1
102
RTVSPost2010Prop33
280
     0
102
RTVSPost2010PropOp33
 70
     1
102
RTVSPost2010Prop34
280
     0
102
RTVSPost2010PropOp34
 70
     1
102
RTVSPost2010Prop35
280
     0
102
RTVSPost2010PropOp35
 70
     1
102
RTVSPost2010Prop36
280
     0
102
RTVSPost2010PropOp36
 70
     1
102
RTVSPost2010Prop37
 90
       50
102
RTVSPost2010PropOp37
 70
     1
102
RTVSPost2010Prop38
140
0.0
102
RTVSPost2010PropOp38
 70
     1
102
RTVSPost2010Prop39
140
1.0
102
RTVSPost2010PropOp39
 70
     1
102
RTVSPost2010Prop40
 90
        0
102
RTVSPost2010PropOp40
 70
     1
102
RTVSPost2010Prop41ColorIndex
 90
       18
102
RTVSPost2010Prop41ColorRGB
 90
        0
102
RTVSPost2010PropOp41
 70
     1
102
RTVSPost2010Prop42
 90
       50
102
RTVSPost2010PropOp42
 70
     1
102
RTVSPost2010Prop43
 90
        3
102
RTVSPost2010PropOp43
 70
     1
102
RTVSPost2010Prop44ColorIndex
 90
        5
102
RTVSPost2010Prop44ColorRGB
 90
      255
102
RTVSPost2010PropOp44
 70
     1
102
RTVSPost2010Prop45
280
     0
102
RTVSPost2010PropOp45
 70
     1
102
RTVSPost2010Prop46
 90
       50
102
RTVSPost2010PropOp46
 70
     1
102
RTVSPost2010Prop47
 90
       50
102
RTVSPost2010PropOp47
 70
     1
102
RTVSPost2010Prop48
 90
       50
102
RTVSPost2010PropOp48
 70
     1
102
RTVSPost2010Prop49
280
     0
102
RTVSPost2010PropOp49
 70
     1
102
RTVSPost2010Prop50
 90
       50
102
RTVSPost2010PropOp50
 70
     1
102
RTVSPost2010Prop51ColorIndex
 90
      256
102
RTVSPost2010Prop51ColorRGB
 90
-16777216
102
RTVSPost2010PropOp51
 70
     0
102
RTVSPost2010Prop52
140
1.0
102
RTVSPost2010PropOp52
 70
     0
102
RTVSPost2010Prop53
 90
        2
102
RTVSPost2010PropOp53
 70
     1
102
RTVSPost2010Prop54
  1
strokes_ogs.tif
102
RTVSPost2010PropOp54
 70
     1
102
RTVSPost2010Prop55
280
     0
102
RTVSPost2010PropOp55
 70
     1
102
RTVSPost2010Prop56
140
1.0
102
RTVSPost2010PropOp56
 70
     1
102
RTVSPost2010Prop57
140
1.0
102
RTVSPost2010PropOp57
 70
     1
  0
XRECORD
  5
124
102
{ACAD_REACTORS
330
123
102
}
330
123
100
AcDbXrecord
280
     1
102
RTVSPropertyOp0
 70
     1
102
RTVSPropertyOp1
 70
     1
102
RTVSPropertyOp2
 70
     1
102
RTVSPropertyOp3
 70
     1
102
RTVSPropertyOp4
 70
     1
102
RTVSPropertyOp5
 70
     1
102
RTVSPropertyOp6
 70
     1
102
RTVSPropertyOp7
 70
     1
102
RTVSPropertyOp8
 70
     1
102
RTVSPropertyOp9
 70
     1
102
RTVSPropertyOp10
 70
     1
102
RTVSPropertyOp11
 70
     1
102
RTVSPropertyOp12
 70
     1
102
RTVSPropertyOp13
 70
     1
102
RTVSPropertyOp14
 70
     1
102
RTVSPropertyOp15
 70
     1
102
RTVSPropertyOp16
 70
     1
102
RTVSPropertyOp17
 70
     1
102
RTVSPropertyOp18
 70
     1
102
RTVSPropertyOp19
 70
     1
102
RTVSPropertyOp20
 70
     1
102
RTVSPropertyOp21
 70
     1
102
RTVSPropertyOp22
 70
     1
102
RTVSPropertyOp23
 70
     1
102
RTVSPropertyOp24
 70
     1
102
RTVSPropertyOp25
 70
     1
102
RTVSPropertyOp26
 70
     1
102
RTVSPropertyOp27
 70
     1
102
RTVSPropertyOp28
 70
     1
102
RTVSPropertyOp29
 70
     1
102
RTVSPropertyOp30
 70
     1
102
RTVSPropertyOp31
 70
     1
102
RTVSPropertyOp32
 70
     1
102
RTVSPropertyOp33
 70
     1
102
RTVSPropertyOp34
 70
     1
102
RTVSPropertyOp35
 70
     1
102
RTVSPropertyOp36
 70
     1
102
RTVSPropertyOp37
 70
     1
102
RTVSPropertyOp38
 70
     1
102
RTVSPropertyOp39
 70
     1
102
RTVSPropertyOp40
 70
     1
102
RTVSPropertyOp41
 70
     1
102
RTVSPropertyOp42
 70
     1
102
RTVSPropertyOp43
 70
     1
102
RTVSPropertyOp44
 70
     1
102
RTVSPropertyOp45
 70
     1
102
RTVSPropertyOp46
 70
     1
102
RTVSPropertyOp47
 70
     1
102
RTVSPropertyOp48
 70
     1
102
RTVSPropertyOp49
 70
     1
102
RTVSPropertyOp50
 70
     1
102
RTVSPropertyOp51
 70
     0
102
RTVSPropertyOp52
 70
     0
102
RTVSPropertyOp53
 70
     1
102
RTVSPropertyOp54
 70
     1
102
RTVSPropertyOp55
 70
     1
102
RTVSPropertyOp56
 70
     1
102
RTVSPropertyOp57
 70
     1
102
RTVSPost2010Prop28
280
     0
102
RTVSPost2010PropOp28
 70
     1
102
RTVSPost2010Prop29
280
     1
102
RTVSPost2010PropOp29
 70
     1
102
RTVSPost2010Prop30
280
     1
102
RTVSPost2010PropOp30
 70
     1
102
RTVSPost2010Prop31
280
     0
102
RTVSPost2010PropOp31
 70
     1
102
RTVSPost2010Prop32
280
     0
102
RTVSPost2010PropOp32
 70
     1
102
RTVSPost2010Prop33
280
     0
102
RTVSPost2010PropOp33
 70
     1
102
RTVSPost2010Prop34
280
     0
102
RTVSPost2010PropOp34
 70
     1
102
RTVSPost2010Prop35
280
     0
102
RTVSPost2010PropOp35
 70
     1
102
RTVSPost2010Prop36
280
     0
102
RTVSPost2010PropOp36
 70
     1
102
RTVSPost2010Prop37
 90
       50
102
RTVSPost2010PropOp37
 70
     1
102
RTVSPost2010Prop38
140
0.0
102
RTVSPost2010PropOp38
 70
     1
102
RTVSPost2010Prop39
140
1.0
102
RTVSPost2010PropOp39
 70
     1
102
RTVSPost2010Prop40
 90
        0
102
RTVSPost2010PropOp40
 70
     1
102
RTVSPost2010Prop41ColorIndex
 90
       18
102
RTVSPost2010Prop41ColorRGB
 90
        0
102
RTVSPost2010PropOp41
 70
     1
102
RTVSPost2010Prop42
 90
       50
102
RTVSPost2010PropOp42
 70
     1
102
RTVSPost2010Prop43
 90
        3
102
RTVSPost2010PropOp43
 70
     1
102
RTVSPost2010Prop44ColorIndex
 90
        5
102
RTVSPost2010Prop44ColorRGB
 90
      255
102
RTVSPost2010PropOp44
 70
     1
102
RTVSPost2010Prop45
280
     0
102
RTVSPost2010PropOp45
 70
     1
102
RTVSPost2010Prop46
 90
       50
102
RTVSPost2010PropOp46
 70
     1
102
RTVSPost2010Prop47
 90
       50
102
RTVSPost2010PropOp47
 70
     1
102
RTVSPost2010Prop48
 90
       50
102
RTVSPost2010PropOp48
 70
     1
102
RTVSPost2010Prop49
280
     0
102
RTVSPost2010PropOp49
 70
     1
102
RTVSPost2010Prop50
 90
       50
102
RTVSPost2010PropOp50
 70
     1
102
RTVSPost2010Prop51ColorIndex
 90
      256
102
RTVSPost2010Prop51ColorRGB
 90
-16777216
102
RTVSPost2010PropOp51
 70
     0
102
RTVSPost2010Prop52
140
1.0
102
RTVSPost2010PropOp52
 70
     0
102
RTVSPost2010Prop53
 90
        2
102
RTVSPost2010PropOp53
 70
     1
102
RTVSPost2010Prop54
  1
strokes_ogs.tif
102
RTVSPost2010PropOp54
 70
     1
102
RTVSPost2010Prop55
280
     0
102
RTVSPost2010PropOp55
 70
     1
102
RTVSPost2010Prop56
140
1.0
102
RTVSPost2010PropOp56
 70
     1
102
RTVSPost2010Prop57
140
1.0
102
RTVSPost2010PropOp57
 70
     1
  0
XRECORD
  5
114
102
{ACAD_REACTORS
330
113
102
}
330
113
100
AcDbXrecord
280
     1
102
RTVSPropertyOp0
 70
     1
102
RTVSPropertyOp1
 70
     1
102
RTVSPropertyOp2
 70
     1
102
RTVSPropertyOp3
 70
     1
102
RTVSPropertyOp4
 70
     1
102
RTVSPropertyOp5
 70
     1
102
RTVSPropertyOp6
 70
     1
102
RTVSPropertyOp7
 70
     1
102
RTVSPropertyOp8
 70
     1
102
RTVSPropertyOp9
 70
     1
102
RTVSPropertyOp10
 70
     1
102
RTVSPropertyOp11
 70
     1
102
RTVSPropertyOp12
 70
     1
102
RTVSPropertyOp13
 70
     1
102
RTVSPropertyOp14
 70
     1
102
RTVSPropertyOp15
 70
     1
102
RTVSPropertyOp16
 70
     1
102
RTVSPropertyOp17
 70
     1
102
RTVSPropertyOp18
 70
     1
102
RTVSPropertyOp19
 70
     1
102
RTVSPropertyOp20
 70
     1
102
RTVSPropertyOp21
 70
     1
102
RTVSPropertyOp22
 70
     1
102
RTVSPropertyOp23
 70
     1
102
RTVSPropertyOp24
 70
     1
102
RTVSPropertyOp25
 70
     1
102
RTVSPropertyOp26
 70
     1
102
RTVSPropertyOp27
 70
     1
102
RTVSPropertyOp28
 70
     1
102
RTVSPropertyOp29
 70
     1
102
RTVSPropertyOp30
 70
     1
102
RTVSPropertyOp31
 70
     1
102
RTVSPropertyOp32
 70
     1
102
RTVSPropertyOp33
 70
     1
102
RTVSPropertyOp34
 70
     1
102
RTVSPropertyOp35
 70
     1
102
RTVSPropertyOp36
 70
     1
102
RTVSPropertyOp37
 70
     1
102
RTVSPropertyOp38
 70
     1
102
RTVSPropertyOp39
 70
     1
102
RTVSPropertyOp40
 70
     1
102
RTVSPropertyOp41
 70
     1
102
RTVSPropertyOp42
 70
     1
102
RTVSPropertyOp43
 70
     1
102
RTVSPropertyOp44
 70
     1
102
RTVSPropertyOp45
 70
     1
102
RTVSPropertyOp46
 70
     1
102
RTVSPropertyOp47
 70
     1
102
RTVSPropertyOp48
 70
     1
102
RTVSPropertyOp49
 70
     1
102
RTVSPropertyOp50
 70
     1
102
RTVSPropertyOp51
 70
     0
102
RTVSPropertyOp52
 70
     0
102
RTVSPropertyOp53
 70
     1
102
RTVSPropertyOp54
 70
     1
102
RTVSPropertyOp55
 70
     1
102
RTVSPropertyOp56
 70
     1
102
RTVSPropertyOp57
 70
     1
102
RTVSPost2010Prop28
280
     0
102
RTVSPost2010PropOp28
 70
     1
102
RTVSPost2010Prop29
280
     1
102
RTVSPost2010PropOp29
 70
     1
102
RTVSPost2010Prop30
280
     1
102
RTVSPost2010PropOp30
 70
     1
102
RTVSPost2010Prop31
280
     0
102
RTVSPost2010PropOp31
 70
     1
102
RTVSPost2010Prop32
280
     0
102
RTVSPost2010PropOp32
 70
     1
102
RTVSPost2010Prop33
280
     0
102
RTVSPost2010PropOp33
 70
     1
102
RTVSPost2010Prop34
280
     0
102
RTVSPost2010PropOp34
 70
     1
102
RTVSPost2010Prop35
280
     0
102
RTVSPost2010PropOp35
 70
     1
102
RTVSPost2010Prop36
280
     0
102
RTVSPost2010PropOp36
 70
     1
102
RTVSPost2010Prop37
 90
       50
102
RTVSPost2010PropOp37
 70
     1
102
RTVSPost2010Prop38
140
0.0
102
RTVSPost2010PropOp38
 70
     1
102
RTVSPost2010Prop39
140
1.0
102
RTVSPost2010PropOp39
 70
     1
102
RTVSPost2010Prop40
 90
        0
102
RTVSPost2010PropOp40
 70
     1
102
RTVSPost2010Prop41ColorIndex
 90
       18
102
RTVSPost2010Prop41ColorRGB
 90
        0
102
RTVSPost2010PropOp41
 70
     1
102
RTVSPost2010Prop42
 90
       50
102
RTVSPost2010PropOp42
 70
     1
102
RTVSPost2010Prop43
 90
        3
102
RTVSPost2010PropOp43
 70
     1
102
RTVSPost2010Prop44ColorIndex
 90
        5
102
RTVSPost2010Prop44ColorRGB
 90
      255
102
RTVSPost2010PropOp44
 70
     1
102
RTVSPost2010Prop45
280
     0
102
RTVSPost2010PropOp45
 70
     1
102
RTVSPost2010Prop46
 90
       50
102
RTVSPost2010PropOp46
 70
     1
102
RTVSPost2010Prop47
 90
       50
102
RTVSPost2010PropOp47
 70
     1
102
RTVSPost2010Prop48
 90
       50
102
RTVSPost2010PropOp48
 70
     1
102
RTVSPost2010Prop49
280
     0
102
RTVSPost2010PropOp49
 70
     1
102
RTVSPost2010Prop50
 90
       50
102
RTVSPost2010PropOp50
 70
     1
102
RTVSPost2010Prop51ColorIndex
 90
      256
102
RTVSPost2010Prop51ColorRGB
 90
-16777216
102
RTVSPost2010PropOp51
 70
     0
102
RTVSPost2010Prop52
140
1.0
102
RTVSPost2010PropOp52
 70
     0
102
RTVSPost2010Prop53
 90
        2
102
RTVSPost2010PropOp53
 70
     1
102
RTVSPost2010Prop54
  1
strokes_ogs.tif
102
RTVSPost2010PropOp54
 70
     1
102
RTVSPost2010Prop55
280
     0
102
RTVSPost2010PropOp55
 70
     1
102
RTVSPost2010Prop56
140
1.0
102
RTVSPost2010PropOp56
 70
     1
102
RTVSPost2010Prop57
140
1.0
102
RTVSPost2010PropOp57
 70
     1
  0
XRECORD
  5
106
102
{ACAD_REACTORS
330
105
102
}
330
105
100
AcDbXrecord
280
     1
102
RTVSPropertyOp0
 70
     1
102
RTVSPropertyOp1
 70
     1
102
RTVSPropertyOp2
 70
     1
102
RTVSPropertyOp3
 70
     1
102
RTVSPropertyOp4
 70
     1
102
RTVSPropertyOp5
 70
     1
102
RTVSPropertyOp6
 70
     1
102
RTVSPropertyOp7
 70
     1
102
RTVSPropertyOp8
 70
     1
102
RTVSPropertyOp9
 70
     1
102
RTVSPropertyOp10
 70
     1
102
RTVSPropertyOp11
 70
     1
102
RTVSPropertyOp12
 70
     1
102
RTVSPropertyOp13
 70
     1
102
RTVSPropertyOp14
 70
     1
102
RTVSPropertyOp15
 70
     1
102
RTVSPropertyOp16
 70
     1
102
RTVSPropertyOp17
 70
     1
102
RTVSPropertyOp18
 70
     1
102
RTVSPropertyOp19
 70
     1
102
RTVSPropertyOp20
 70
     1
102
RTVSPropertyOp21
 70
     1
102
RTVSPropertyOp22
 70
     1
102
RTVSPropertyOp23
 70
     1
102
RTVSPropertyOp24
 70
     1
102
RTVSPropertyOp25
 70
     1
102
RTVSPropertyOp26
 70
     1
102
RTVSPropertyOp27
 70
     1
102
RTVSPropertyOp28
 70
     1
102
RTVSPropertyOp29
 70
     1
102
RTVSPropertyOp30
 70
     1
102
RTVSPropertyOp31
 70
     1
102
RTVSPropertyOp32
 70
     1
102
RTVSPropertyOp33
 70
     1
102
RTVSPropertyOp34
 70
     1
102
RTVSPropertyOp35
 70
     1
102
RTVSPropertyOp36
 70
     1
102
RTVSPropertyOp37
 70
     1
102
RTVSPropertyOp38
 70
     1
102
RTVSPropertyOp39
 70
     1
102
RTVSPropertyOp40
 70
     1
102
RTVSPropertyOp41
 70
     1
102
RTVSPropertyOp42
 70
     1
102
RTVSPropertyOp43
 70
     1
102
RTVSPropertyOp44
 70
     1
102
RTVSPropertyOp45
 70
     1
102
RTVSPropertyOp46
 70
     1
102
RTVSPropertyOp47
 70
     1
102
RTVSPropertyOp48
 70
     1
102
RTVSPropertyOp49
 70
     1
102
RTVSPropertyOp50
 70
     1
102
RTVSPropertyOp51
 70
     0
102
RTVSPropertyOp52
 70
     0
102
RTVSPropertyOp53
 70
     1
102
RTVSPropertyOp54
 70
     1
102
RTVSPropertyOp55
 70
     1
102
RTVSPropertyOp56
 70
     1
102
RTVSPropertyOp57
 70
     1
102
RTVSPost2010Prop28
280
     0
102
RTVSPost2010PropOp28
 70
     1
102
RTVSPost2010Prop29
280
     1
102
RTVSPost2010PropOp29
 70
     1
102
RTVSPost2010Prop30
280
     1
102
RTVSPost2010PropOp30
 70
     1
102
RTVSPost2010Prop31
280
     0
102
RTVSPost2010PropOp31
 70
     1
102
RTVSPost2010Prop32
280
     0
102
RTVSPost2010PropOp32
 70
     1
102
RTVSPost2010Prop33
280
     0
102
RTVSPost2010PropOp33
 70
     1
102
RTVSPost2010Prop34
280
     0
102
RTVSPost2010PropOp34
 70
     1
102
RTVSPost2010Prop35
280
     0
102
RTVSPost2010PropOp35
 70
     1
102
RTVSPost2010Prop36
280
     0
102
RTVSPost2010PropOp36
 70
     1
102
RTVSPost2010Prop37
 90
       50
102
RTVSPost2010PropOp37
 70
     1
102
RTVSPost2010Prop38
140
0.0
102
RTVSPost2010PropOp38
 70
     1
102
RTVSPost2010Prop39
140
1.0
102
RTVSPost2010PropOp39
 70
     1
102
RTVSPost2010Prop40
 90
        0
102
RTVSPost2010PropOp40
 70
     1
102
RTVSPost2010Prop41ColorIndex
 90
       18
102
RTVSPost2010Prop41ColorRGB
 90
        0
102
RTVSPost2010PropOp41
 70
     1
102
RTVSPost2010Prop42
 90
       50
102
RTVSPost2010PropOp42
 70
     1
102
RTVSPost2010Prop43
 90
        3
102
RTVSPost2010PropOp43
 70
     1
102
RTVSPost2010Prop44ColorIndex
 90
        5
102
RTVSPost2010Prop44ColorRGB
 90
      255
102
RTVSPost2010PropOp44
 70
     1
102
RTVSPost2010Prop45
280
     0
102
RTVSPost2010PropOp45
 70
     1
102
RTVSPost2010Prop46
 90
       50
102
RTVSPost2010PropOp46
 70
     1
102
RTVSPost2010Prop47
 90
       50
102
RTVSPost2010PropOp47
 70
     1
102
RTVSPost2010Prop48
 90
       50
102
RTVSPost2010PropOp48
 70
     1
102
RTVSPost2010Prop49
280
     0
102
RTVSPost2010PropOp49
 70
     1
102
RTVSPost2010Prop50
 90
       50
102
RTVSPost2010PropOp50
 70
     1
102
RTVSPost2010Prop51ColorIndex
 90
      256
102
RTVSPost2010Prop51ColorRGB
 90
-16777216
102
RTVSPost2010PropOp51
 70
     0
102
RTVSPost2010Prop52
140
1.0
102
RTVSPost2010PropOp52
 70
     0
102
RTVSPost2010Prop53
 90
        2
102
RTVSPost2010PropOp53
 70
     1
102
RTVSPost2010Prop54
  1
strokes_ogs.tif
102
RTVSPost2010PropOp54
 70
     1
102
RTVSPost2010Prop55
280
     0
102
RTVSPost2010PropOp55
 70
     1
102
RTVSPost2010Prop56
140
1.0
102
RTVSPost2010PropOp56
 70
     1
102
RTVSPost2010Prop57
140
1.0
102
RTVSPost2010PropOp57
 70
     1
  0
XRECORD
  5
126
102
{ACAD_REACTORS
330
125
102
}
330
125
100
AcDbXrecord
280
     1
102
RTVSPropertyOp0
 70
     1
102
RTVSPropertyOp1
 70
     1
102
RTVSPropertyOp2
 70
     1
102
RTVSPropertyOp3
 70
     1
102
RTVSPropertyOp4
 70
     1
102
RTVSPropertyOp5
 70
     1
102
RTVSPropertyOp6
 70
     1
102
RTVSPropertyOp7
 70
     1
102
RTVSPropertyOp8
 70
     1
102
RTVSPropertyOp9
 70
     1
102
RTVSPropertyOp10
 70
     1
102
RTVSPropertyOp11
 70
     1
102
RTVSPropertyOp12
 70
     1
102
RTVSPropertyOp13
 70
     1
102
RTVSPropertyOp14
 70
     1
102
RTVSPropertyOp15
 70
     1
102
RTVSPropertyOp16
 70
     1
102
RTVSPropertyOp17
 70
     1
102
RTVSPropertyOp18
 70
     1
102
RTVSPropertyOp19
 70
     1
102
RTVSPropertyOp20
 70
     1
102
RTVSPropertyOp21
 70
     1
102
RTVSPropertyOp22
 70
     1
102
RTVSPropertyOp23
 70
     1
102
RTVSPropertyOp24
 70
     1
102
RTVSPropertyOp25
 70
     1
102
RTVSPropertyOp26
 70
     1
102
RTVSPropertyOp27
 70
     1
102
RTVSPropertyOp28
 70
     1
102
RTVSPropertyOp29
 70
     1
102
RTVSPropertyOp30
 70
     1
102
RTVSPropertyOp31
 70
     1
102
RTVSPropertyOp32
 70
     1
102
RTVSPropertyOp33
 70
     1
102
RTVSPropertyOp34
 70
     1
102
RTVSPropertyOp35
 70
     1
102
RTVSPropertyOp36
 70
     1
102
RTVSPropertyOp37
 70
     1
102
RTVSPropertyOp38
 70
     1
102
RTVSPropertyOp39
 70
     1
102
RTVSPropertyOp40
 70
     1
102
RTVSPropertyOp41
 70
     1
102
RTVSPropertyOp42
 70
     1
102
RTVSPropertyOp43
 70
     1
102
RTVSPropertyOp44
 70
     1
102
RTVSPropertyOp45
 70
     1
102
RTVSPropertyOp46
 70
     1
102
RTVSPropertyOp47
 70
     1
102
RTVSPropertyOp48
 70
     1
102
RTVSPropertyOp49
 70
     1
102
RTVSPropertyOp50
 70
     1
102
RTVSPropertyOp51
 70
     0
102
RTVSPropertyOp52
 70
     0
102
RTVSPropertyOp53
 70
     1
102
RTVSPropertyOp54
 70
     1
102
RTVSPropertyOp55
 70
     1
102
RTVSPropertyOp56
 70
     1
102
RTVSPropertyOp57
 70
     1
102
RTVSPost2010Prop28
280
     0
102
RTVSPost2010PropOp28
 70
     1
102
RTVSPost2010Prop29
280
     1
102
RTVSPost2010PropOp29
 70
     1
102
RTVSPost2010Prop30
280
     1
102
RTVSPost2010PropOp30
 70
     1
102
RTVSPost2010Prop31
280
     0
102
RTVSPost2010PropOp31
 70
     1
102
RTVSPost2010Prop32
280
     0
102
RTVSPost2010PropOp32
 70
     1
102
RTVSPost2010Prop33
280
     0
102
RTVSPost2010PropOp33
 70
     1
102
RTVSPost2010Prop34
280
     0
102
RTVSPost2010PropOp34
 70
     1
102
RTVSPost2010Prop35
280
     0
102
RTVSPost2010PropOp35
 70
     1
102
RTVSPost2010Prop36
280
     0
102
RTVSPost2010PropOp36
 70
     1
102
RTVSPost2010Prop37
 90
       50
102
RTVSPost2010PropOp37
 70
     1
102
RTVSPost2010Prop38
140
0.0
102
RTVSPost2010PropOp38
 70
     1
102
RTVSPost2010Prop39
140
1.0
102
RTVSPost2010PropOp39
 70
     1
102
RTVSPost2010Prop40
 90
        0
102
RTVSPost2010PropOp40
 70
     1
102
RTVSPost2010Prop41ColorIndex
 90
       18
102
RTVSPost2010Prop41ColorRGB
 90
        0
102
RTVSPost2010PropOp41
 70
     1
102
RTVSPost2010Prop42
 90
       50
102
RTVSPost2010PropOp42
 70
     1
102
RTVSPost2010Prop43
 90
        3
102
RTVSPost2010PropOp43
 70
     1
102
RTVSPost2010Prop44ColorIndex
 90
        5
102
RTVSPost2010Prop44ColorRGB
 90
      255
102
RTVSPost2010PropOp44
 70
     1
102
RTVSPost2010Prop45
280
     0
102
RTVSPost2010PropOp45
 70
     1
102
RTVSPost2010Prop46
 90
       50
102
RTVSPost2010PropOp46
 70
     1
102
RTVSPost2010Prop47
 90
       50
102
RTVSPost2010PropOp47
 70
     1
102
RTVSPost2010Prop48
 90
       50
102
RTVSPost2010PropOp48
 70
     1
102
RTVSPost2010Prop49
280
     0
102
RTVSPost2010PropOp49
 70
     1
102
RTVSPost2010Prop50
 90
       50
102
RTVSPost2010PropOp50
 70
     1
102
RTVSPost2010Prop51ColorIndex
 90
      256
102
RTVSPost2010Prop51ColorRGB
 90
-16777216
102
RTVSPost2010PropOp51
 70
     0
102
RTVSPost2010Prop52
140
1.0
102
RTVSPost2010PropOp52
 70
     0
102
RTVSPost2010Prop53
 90
        2
102
RTVSPost2010PropOp53
 70
     1
102
RTVSPost2010Prop54
  1
strokes_ogs.tif
102
RTVSPost2010PropOp54
 70
     1
102
RTVSPost2010Prop55
280
     0
102
RTVSPost2010PropOp55
 70
     1
102
RTVSPost2010Prop56
140
1.0
102
RTVSPost2010PropOp56
 70
     1
102
RTVSPost2010Prop57
140
1.0
102
RTVSPost2010PropOp57
 70
     1
  0
ENDSEC
  0
EOF
