  0
SECTION
  2
HEADER
  9
$ACADVER
  1
AC1021
  9
$ACADMAINTVER
 70
    25
  9
$DWGCODEPAGE
  3
ANSI_1252
  9
$LASTSAVEDBY
  1
colombo_c
  9
$INSBASE
 10
0.0
 20
0.0
 30
0.0
  9
$EXTMIN
 10
544.4523310004403
 20
55.95516360581351
 30
0.0
  9
$EXTMAX
 10
1442.048091186465
 20
896.3327664828876
 30
0.6754861706091085
  9
$LIMMIN
 10
0.0
 20
0.0
  9
$LIMMAX
 10
12.0
 20
9.0
  9
$ORTHOMODE
 70
     0
  9
$REGENMODE
 70
     1
  9
$FILLMODE
 70
     1
  9
$QTEXTMODE
 70
     0
  9
$MIRRTEXT
 70
     1
  9
$LTSCALE
 40
1.0
  9
$ATTMODE
 70
     1
  9
$TEXTSIZE
 40
0.2
  9
$TRACEWID
 40
0.05
  9
$TEXTSTYLE
  7
Standard
  9
$CLAYER
  8
0
  9
$CELTYPE
  6
ByLayer
  9
$CECOLOR
 62
   256
  9
$CELTSCALE
 40
1.0
  9
$DISPSILH
 70
     0
  9
$DIMSCALE
 40
1.0
  9
$DIMASZ
 40
0.18
  9
$DIMEXO
 40
0.0625
  9
$DIMDLI
 40
0.38
  9
$DIMRND
 40
0.0
  9
$DIMDLE
 40
0.0
  9
$DIMEXE
 40
0.18
  9
$DIMTP
 40
0.0
  9
$DIMTM
 40
0.0
  9
$DIMTXT
 40
0.18
  9
$DIMCEN
 40
0.09
  9
$DIMTSZ
 40
0.0
  9
$DIMTOL
 70
     0
  9
$DIMLIM
 70
     0
  9
$DIMTIH
 70
     1
  9
$DIMTOH
 70
     1
  9
$DIMSE1
 70
     0
  9
$DIMSE2
 70
     0
  9
$DIMTAD
 70
     0
  9
$DIMZIN
 70
     0
  9
$DIMBLK
  1

  9
$DIMASO
 70
     1
  9
$DIMSHO
 70
     1
  9
$DIMPOST
  1

  9
$DIMAPOST
  1

  9
$DIMALT
 70
     0
  9
$DIMALTD
 70
     2
  9
$DIMALTF
 40
25.4
  9
$DIMLFAC
 40
1.0
  9
$DIMTOFL
 70
     0
  9
$DIMTVP
 40
0.0
  9
$DIMTIX
 70
     0
  9
$DIMSOXD
 70
     0
  9
$DIMSAH
 70
     0
  9
$DIMBLK1
  1

  9
$DIMBLK2
  1

  9
$DIMSTYLE
  2
STANDARD_ACAD
  9
$DIMCLRD
 70
     0
  9
$DIMCLRE
 70
     0
  9
$DIMCLRT
 70
     0
  9
$DIMTFAC
 40
1.0
  9
$DIMGAP
 40
0.09
  9
$DIMJUST
 70
     0
  9
$DIMSD1
 70
     0
  9
$DIMSD2
 70
     0
  9
$DIMTOLJ
 70
     1
  9
$DIMTZIN
 70
     0
  9
$DIMALTZ
 70
     0
  9
$DIMALTTZ
 70
     0
  9
$DIMUPT
 70
     0
  9
$DIMDEC
 70
     4
  9
$DIMTDEC
 70
     4
  9
$DIMALTU
 70
     2
  9
$DIMALTTD
 70
     2
  9
$DIMTXSTY
  7
Standard
  9
$DIMAUNIT
 70
     0
  9
$DIMADEC
 70
     0
  9
$DIMALTRND
 40
0.0
  9
$DIMAZIN
 70
     0
  9
$DIMDSEP
 70
    46
  9
$DIMATFIT
 70
     3
  9
$DIMFRAC
 70
     0
  9
$DIMLDRBLK
  1

  9
$DIMLUNIT
 70
     2
  9
$DIMLWD
 70
    -2
  9
$DIMLWE
 70
    -2
  9
$DIMTMOVE
 70
     2
  9
$DIMFXL
 40
1.0
  9
$DIMFXLON
 70
     0
  9
$DIMJOGANG
 40
0.7853981633974483
  9
$DIMTFILL
 70
     0
  9
$DIMTFILLCLR
 70
     0
  9
$DIMARCSYM
 70
     0
  9
$DIMLTYPE
  6

  9
$DIMLTEX1
  6

  9
$DIMLTEX2
  6

  9
$LUNITS
 70
     2
  9
$LUPREC
 70
     3
  9
$SKETCHINC
 40
0.1
  9
$FILLETRAD
 40
0.0
  9
$AUNITS
 70
     0
  9
$AUPREC
 70
     0
  9
$MENU
  1
.
  9
$ELEVATION
 40
0.0
  9
$PELEVATION
 40
0.0
  9
$THICKNESS
 40
0.0
  9
$LIMCHECK
 70
     0
  9
$CHAMFERA
 40
0.0
  9
$CHAMFERB
 40
0.0
  9
$CHAMFERC
 40
0.0
  9
$CHAMFERD
 40
0.0
  9
$SKPOLY
 70
     0
  9
$TDCREATE
 40
2460915.634915417
  9
$TDUCREATE
 40
2460915.551582083
  9
$TDUPDATE
 40
2460915.634931771
  9
$TDUUPDATE
 40
2460915.551598438
  9
$TDINDWG
 40
0.0000000116
  9
$TDUSRTIMER
 40
0.0000000116
  9
$USRTIMER
 70
     1
  9
$ANGBASE
 50
0.0
  9
$ANGDIR
 70
     0
  9
$PDMODE
 70
     0
  9
$PDSIZE
 40
0.0
  9
$PLINEWID
 40
0.0
  9
$SPLFRAME
 70
     0
  9
$SPLINETYPE
 70
     6
  9
$SPLINESEGS
 70
     8
  9
$HANDSEED
  5
178
  9
$SURFTAB1
 70
     6
  9
$SURFTAB2
 70
     6
  9
$SURFTYPE
 70
     6
  9
$SURFU
 70
     6
  9
$SURFV
 70
     6
  9
$UCSBASE
  2

  9
$UCSNAME
  2

  9
$UCSORG
 10
0.0
 20
0.0
 30
0.0
  9
$UCSXDIR
 10
1.0
 20
0.0
 30
0.0
  9
$UCSYDIR
 10
0.0
 20
1.0
 30
0.0
  9
$UCSORTHOREF
  2

  9
$UCSORTHOVIEW
 70
     0
  9
$UCSORGTOP
 10
0.0
 20
0.0
 30
0.0
  9
$UCSORGBOTTOM
 10
0.0
 20
0.0
 30
0.0
  9
$UCSORGLEFT
 10
0.0
 20
0.0
 30
0.0
  9
$UCSORGRIGHT
 10
0.0
 20
0.0
 30
0.0
  9
$UCSORGFRONT
 10
0.0
 20
0.0
 30
0.0
  9
$UCSORGBACK
 10
0.0
 20
0.0
 30
0.0
  9
$PUCSBASE
  2

  9
$PUCSNAME
  2

  9
$PUCSORG
 10
0.0
 20
0.0
 30
0.0
  9
$PUCSXDIR
 10
1.0
 20
0.0
 30
0.0
  9
$PUCSYDIR
 10
0.0
 20
1.0
 30
0.0
  9
$PUCSORTHOREF
  2

  9
$PUCSORTHOVIEW
 70
     0
  9
$PUCSORGTOP
 10
0.0
 20
0.0
 30
0.0
  9
$PUCSORGBOTTOM
 10
0.0
 20
0.0
 30
0.0
  9
$PUCSORGLEFT
 10
0.0
 20
0.0
 30
0.0
  9
$PUCSORGRIGHT
 10
0.0
 20
0.0
 30
0.0
  9
$PUCSORGFRONT
 10
0.0
 20
0.0
 30
0.0
  9
$PUCSORGBACK
 10
0.0
 20
0.0
 30
0.0
  9
$USERI1
 70
     0
  9
$USERI2
 70
     0
  9
$USERI3
 70
     0
  9
$USERI4
 70
     0
  9
$USERI5
 70
     0
  9
$USERR1
 40
0.0
  9
$USERR2
 40
0.0
  9
$USERR3
 40
0.0
  9
$USERR4
 40
0.0
  9
$USERR5
 40
0.0
  9
$WORLDVIEW
 70
     1
  9
$SHADEDGE
 70
     3
  9
$SHADEDIF
 70
    70
  9
$TILEMODE
 70
     1
  9
$MAXACTVP
 70
    64
  9
$PINSBASE
 10
0.0
 20
0.0
 30
0.0
  9
$PLIMCHECK
 70
     0
  9
$PEXTMIN
 10
1.000000000000000E+20
 20
1.000000000000000E+20
 30
1.000000000000000E+20
  9
$PEXTMAX
 10
-1.000000000000000E+20
 20
-1.000000000000000E+20
 30
-1.000000000000000E+20
  9
$PLIMMIN
 10
0.0
 20
0.0
  9
$PLIMMAX
 10
12.0
 20
9.0
  9
$UNITMODE
 70
     0
  9
$VISRETAIN
 70
     1
  9
$PLINEGEN
 70
     0
  9
$PSLTSCALE
 70
     1
  9
$TREEDEPTH
 70
  3020
  9
$CMLSTYLE
  2
Standard
  9
$CMLJUST
 70
     0
  9
$CMLSCALE
 40
1.0
  9
$PROXYGRAPHICS
 70
     1
  9
$MEASUREMENT
 70
     1
  9
$CELWEIGHT
370
    -1
  9
$ENDCAPS
280
     0
  9
$JOINSTYLE
280
     0
  9
$LWDISPLAY
290
     0
  9
$INSUNITS
 70
     4
  9
$HYPERLINKBASE
  1

  9
$STYLESHEET
  1

  9
$XEDIT
290
     1
  9
$CEPSNTYPE
380
     0
  9
$PSTYLEMODE
290
     1
  9
$FINGERPRINTGUID
  2
{0dc09a26-0e67-4aac-9060-8691369ca373}
  9
$VERSIONGUID
  2
{FAEB1C32-E019-11D5-929B-00C0DF256EC4}
  9
$EXTNAMES
290
     1
  9
$PSVPSCALE
 40
0.0
  9
$OLESTARTUP
290
     0
  9
$SORTENTS
280
   127
  9
$INDEXCTL
280
     0
  9
$HIDETEXT
280
     1
  9
$XCLIPFRAME
290
     0
  9
$HALOGAP
280
     0
  9
$OBSCOLOR
 70
   257
  9
$OBSLTYPE
280
     0
  9
$INTERSECTIONDISPLAY
280
     0
  9
$INTERSECTIONCOLOR
 70
   257
  9
$DIMASSOC
280
     2
  9
$PROJECTNAME
  1

  9
$CAMERADISPLAY
290
     0
  9
$LENSLENGTH
 40
50.0
  9
$CAMERAHEIGHT
 40
0.0
  9
$STEPSPERSEC
 40
2.0
  9
$STEPSIZE
 40
6.0
  9
$3DDWFPREC
 40
2.0
  9
$PSOLWIDTH
 40
0.25
  9
$PSOLHEIGHT
 40
4.0
  9
$LOFTANG1
 40
1.570796326794897
  9
$LOFTANG2
 40
1.570796326794897
  9
$LOFTMAG1
 40
0.0
  9
$LOFTMAG2
 40
0.0
  9
$LOFTPARAM
 70
     7
  9
$LOFTNORMALS
280
     1
  9
$LATITUDE
 40
37.795
  9
$LONGITUDE
 40
-122.394
  9
$NORTHDIRECTION
 40
0.0
  9
$TIMEZONE
 70
 -8000
  9
$LIGHTGLYPHDISPLAY
280
     1
  9
$TILEMODELIGHTSYNCH
280
     1
  9
$CMATERIAL
347
44
  9
$SOLIDHIST
280
     0
  9
$SHOWHIST
280
     1
  9
$DWFFRAME
280
     2
  9
$DGNFRAME
280
     2
  9
$REALWORLDSCALE
290
     1
  9
$INTERFERECOLOR
 62
   256
  9
$CSHADOW
280
     0
  9
$SHADOWPLANELOCATION
 40
0.0
  0
ENDSEC
  0
SECTION
  2
CLASSES
  0
CLASS
  1
ACDBDICTIONARYWDFLT
  2
AcDbDictionaryWithDefault
  3
ObjectDBX Classes
 90
        0
 91
        3
280
     0
281
     0
  0
CLASS
  1
VISUALSTYLE
  2
AcDbVisualStyle
  3
ObjectDBX Classes
 90
     4095
 91
        3
280
     0
281
     0
  0
CLASS
  1
MATERIAL
  2
AcDbMaterial
  3
ObjectDBX Classes
 90
     1153
 91
        3
280
     0
281
     0
  0
CLASS
  1
SCALE
  2
AcDbScale
  3
ObjectDBX Classes
 90
     1153
 91
        3
280
     0
281
     0
  0
CLASS
  1
TABLESTYLE
  2
AcDbTableStyle
  3
ObjectDBX Classes
 90
     4095
 91
        3
280
     0
281
     0
  0
CLASS
  1
MLEADERSTYLE
  2
AcDbMLeaderStyle
  3
ACDB_MLEADERSTYLE_CLASS
 90
     4095
 91
        3
280
     0
281
     0
  0
CLASS
  1
SUN
  2
AcDbSun
  3
SCENEOE
 90
     1153
 91
        3
280
     0
281
     0
  0
CLASS
  1
DICTIONARYVAR
  2
AcDbDictionaryVar
  3
ObjectDBX Classes
 90
        0
 91
        3
280
     0
281
     0
  0
CLASS
  1
CELLSTYLEMAP
  2
AcDbCellStyleMap
  3
ObjectDBX Classes
 90
     1152
 91
        3
280
     0
281
     0
  0
ENDSEC
  0
SECTION
  2
TABLES
  0
TABLE
  2
VPORT
  5
8
330
0
100
AcDbSymbolTable
 70
     1
  0
VPORT
  5
29
330
8
100
AcDbSymbolTableRecord
100
AcDbViewportTableRecord
  2
*Active
 70
     0
 10
0.0
 20
0.0
 11
1.0
 21
1.0
 12
10.42990654205607
 22
4.5
 13
0.0
 23
0.0
 14
0.5
 24
0.5
 15
0.5
 25
0.5
 16
0.0
 26
0.0
 36
1.0
 17
0.0
 27
0.0
 37
0.0
 40
9.0
 41
1.972972972850329
 42
50.0
 43
0.0
 44
0.0
 50
0.0
 51
0.0
 71
     0
 72
   100
 73
     1
 74
     3
 75
     0
 76
     0
 77
     0
 78
     0
281
     0
 65
     1
110
0.0
120
0.0
130
0.0
111
1.0
121
0.0
131
0.0
112
0.0
122
1.0
132
0.0
 79
     0
146
0.0
348
2F
 60
     3
 61
     5
292
     1
282
     1
141
0.0
142
0.0
 63
   250
361
5D
  0
ENDTAB
  0
TABLE
  2
LTYPE
  5
5
330
0
100
AcDbSymbolTable
 70
     1
  0
LTYPE
  5
14
330
5
100
AcDbSymbolTableRecord
100
AcDbLinetypeTableRecord
  2
ByBlock
 70
     0
  3

 72
    65
 73
     0
 40
0.0
  0
LTYPE
  5
15
330
5
100
AcDbSymbolTableRecord
100
AcDbLinetypeTableRecord
  2
ByLayer
 70
     0
  3

 72
    65
 73
     0
 40
0.0
  0
LTYPE
  5
16
330
5
100
AcDbSymbolTableRecord
100
AcDbLinetypeTableRecord
  2
Continuous
 70
     0
  3
Solid line
 72
    65
 73
     0
 40
0.0
  0
ENDTAB
  0
TABLE
  2
LAYER
  5
2
330
0
100
AcDbSymbolTable
 70
     3
  0
LAYER
  5
10
330
2
100
AcDbSymbolTableRecord
100
AcDbLayerTableRecord
  2
0
 70
     0
 62
     7
  6
Continuous
370
    -3
390
F
347
46
  0
LAYER
  5
5F
330
2
100
AcDbSymbolTableRecord
100
AcDbLayerTableRecord
  2
Make2D$Visibile$Curve
 70
     0
 62
    18
420
        0
  6
Continuous
370
    -3
390
F
347
46
  0
LAYER
  5
81
330
2
100
AcDbSymbolTableRecord
100
AcDbLayerTableRecord
  2
2D
 70
     0
 62
    18
420
        0
  6
Continuous
370
    -3
390
F
347
46
  0
ENDTAB
  0
TABLE
  2
STYLE
  5
3
330
0
100
AcDbSymbolTable
 70
     1
  0
STYLE
  5
11
330
3
100
AcDbSymbolTableRecord
100
AcDbTextStyleTableRecord
  2
Standard
 70
     0
 40
0.0
 41
1.0
 50
0.0
 71
     0
 42
0.2
  3
txt
  4

  0
ENDTAB
  0
TABLE
  2
VIEW
  5
6
330
0
100
AcDbSymbolTable
 70
     0
  0
ENDTAB
  0
TABLE
  2
UCS
  5
7
330
0
100
AcDbSymbolTable
 70
     0
  0
ENDTAB
  0
TABLE
  2
APPID
  5
9
330
0
100
AcDbSymbolTable
 70
     3
  0
APPID
  5
12
330
9
100
AcDbSymbolTableRecord
100
AcDbRegAppTableRecord
  2
ACAD
 70
     0
  0
APPID
  5
5E
330
9
100
AcDbSymbolTableRecord
100
AcDbRegAppTableRecord
  2
Rhino
 70
     0
  0
APPID
  5
170
330
9
100
AcDbSymbolTableRecord
100
AcDbRegAppTableRecord
  2
ACAD_MLEADERVER
 70
     0
  0
ENDTAB
  0
TABLE
  2
DIMSTYLE
  5
A
330
0
100
AcDbSymbolTable
 70
     1
100
AcDbDimStyleTable
  0
DIMSTYLE
105
27
330
A
100
AcDbSymbolTableRecord
100
AcDbDimStyleTableRecord
  2
STANDARD_ACAD
 70
     0
178
     0
340
11
  0
ENDTAB
  0
TABLE
  2
BLOCK_RECORD
  5
1
330
0
100
AcDbSymbolTable
 70
     1
  0
BLOCK_RECORD
  5
1F
330
1
100
AcDbSymbolTableRecord
100
AcDbBlockTableRecord
  2
*Model_Space
340
22
 70
     0
280
     1
281
     0
  0
BLOCK_RECORD
  5
1B
330
1
100
AcDbSymbolTableRecord
100
AcDbBlockTableRecord
  2
*Paper_Space
340
1E
 70
     0
280
     1
281
     0
  0
BLOCK_RECORD
  5
23
330
1
100
AcDbSymbolTableRecord
100
AcDbBlockTableRecord
  2
*Paper_Space0
340
26
 70
     0
280
     1
281
     0
  0
ENDTAB
  0
ENDSEC
  0
SECTION
  2
BLOCKS
  0
BLOCK
  5
20
330
1F
100
AcDbEntity
  8
0
100
AcDbBlockBegin
  2
*Model_Space
 70
     0
 10
0.0
 20
0.0
 30
0.0
  3
*Model_Space
  1

  0
ENDBLK
  5
21
330
1F
100
AcDbEntity
  8
0
100
AcDbBlockEnd
  0
BLOCK
  5
1C
330
1B
100
AcDbEntity
 67
     1
  8
0
100
AcDbBlockBegin
  2
*Paper_Space
 70
     0
 10
0.0
 20
0.0
 30
0.0
  3
*Paper_Space
  1

  0
ENDBLK
  5
1D
330
1B
100
AcDbEntity
 67
     1
  8
0
100
AcDbBlockEnd
  0
BLOCK
  5
24
330
23
100
AcDbEntity
  8
0
100
AcDbBlockBegin
  2
*Paper_Space0
 70
     0
 10
0.0
 20
0.0
 30
0.0
  3
*Paper_Space0
  1

  0
ENDBLK
  5
25
330
23
100
AcDbEntity
  8
0
100
AcDbBlockEnd
  0
ENDSEC
  0
SECTION
  2
ENTITIES
  0
SPLINE
  5
60
330
1F
100
AcDbEntity
  8
Make2D$Visibile$Curve
100
AcDbSpline
210
0.0
220
0.0
230
1.0
 70
    12
 71
     2
 72
     8
 73
     5
 74
     0
 42
0.0000000001
 43
0.0000000001
 40
352.0705018581276
 40
352.0705018581276
 40
352.0705018581276
 40
410.7489188344838
 40
410.7489188344838
 40
469.42733581084
 40
469.42733581084
 40
469.42733581084
 10
1125.011252018415
 20
808.4008560128713
 30
0.0
 41
1.0
 10
1125.011255146816
 20
778.0528380503329
 30
0.0
 41
0.9238795127869835
 10
1103.551965849933
 20
756.5935487534505
 30
0.0
 41
1.0
 10
1082.092676553051
 20
735.1342594565683
 30
0.0
 41
0.9238795127869835
 10
1051.744658590512
 20
735.1342625849684
 30
0.0
 41
1.0
  0
SPLINE
  5
61
330
1F
100
AcDbEntity
  8
Make2D$Visibile$Curve
100
AcDbSpline
210
0.0
220
0.0
230
1.0
 70
    12
 71
     2
 72
     8
 73
     5
 74
     0
 42
0.0000000001
 43
0.0000000001
 40
-1718.924026818401
 40
-1718.924026818401
 40
-1718.924026818401
 40
-1713.322366512723
 40
-1713.322366512723
 40
-1707.720706207045
 40
-1707.720706207045
 40
-1707.720706207045
 10
1096.029632903994
 20
892.2400210181788
 30
0.0
 41
1.0
 10
1098.175193278697
 20
894.0403599372604
 30
0.0
 41
0.8191520442889764
 10
1100.600783342741
 20
892.6399448608407
 30
0.0
 41
1.0
 10
1103.026373406785
 20
891.2395297844212
 30
0.0
 41
0.8191520442889764
 10
1102.540014354789
 20
888.481250535035
 30
0.0
 41
1.0
  0
SPLINE
  5
62
330
1F
100
AcDbEntity
  8
Make2D$Visibile$Curve
100
AcDbSpline
210
0.0
220
0.0
230
1.0
 70
    28
 71
     2
 72
     6
 73
     3
 74
     0
 42
0.0000000001
 43
0.0000000001
 40
-1707.720706207045
 40
-1707.720706207045
 40
-1707.720706207045
 40
-1701.297540403207
 40
-1701.297540403207
 40
-1701.297540403207
 10
1102.540014354789
 20
888.481250535035
 30
0.0
 41
1.0
 10
1101.982328836445
 20
885.3184587937835
 30
0.0
 41
1.0
 10
1101.4246433181
 20
882.155667052532
 30
0.0
 41
1.0
  0
SPLINE
  5
63
330
1F
100
AcDbEntity
  8
Make2D$Visibile$Curve
100
AcDbSpline
210
0.0
220
0.0
230
1.0
 70
    12
 71
     2
 72
     6
 73
     3
 74
     0
 42
0.0000000001
 43
0.0000000001
 40
-1701.297540403207
 40
-1701.297540403207
 40
-1701.297540403207
 40
-1699.375731507578
 40
-1699.375731507578
 40
-1699.375731507578
 10
1101.4246433181
 20
882.155667052532
 30
0.0
 41
1.0
 10
1101.257784011825
 20
881.2093609024205
 30
0.0
 41
0.8420408031879083
 10
1102.047666421142
 20
880.6621651995109
 30
0.0
 41
1.0
  0
SPLINE
  5
64
330
1F
100
AcDbEntity
  8
Make2D$Visibile$Curve
100
AcDbSpline
210
0.0
220
0.0
230
1.0
 70
    12
 71
     2
 72
    12
 73
     9
 74
     0
 42
0.0000000001
 43
0.0000000001
 40
-1699.375731507578
 40
-1699.375731507578
 40
-1699.375731507578
 40
-1699.109316684457
 40
-1699.109316684457
 40
-1607.111383293511
 40
-1607.111383293511
 40
-1515.113449902564
 40
-1515.113449902564
 40
-1514.847035079373
 40
-1514.847035079373
 40
-1514.847035079373
 10
1102.047666421142
 20
880.6621651995109
 30
0.0
 41
1.0
 10
1102.157165540873
 20
880.5863090377799
 30
0.0
 41
0.9999988581804181
 10
1102.266434897487
 20
880.5101222790896
 30
0.0
 41
1.0
 10
1139.999151394611
 20
854.2014346873668
 30
0.0
 41
0.8865497275147488
 10
1139.99915139463
 20
808.2024679918935
 30
0.0
 41
1.0
 10
1139.999151394649
 20
762.2035012964202
 30
0.0
 41
0.8865497275147488
 10
1102.266434897545
 20
735.8948137046668
 30
0.0
 41
1.0
 10
1102.157165540902
 20
735.818626945956
 30
0.0
 41
0.9999988581804184
 10
1102.047666421141
 20
735.7427707842047
 30
0.0
 41
1.0
  0
SPLINE
  5
65
330
1F
100
AcDbEntity
  8
Make2D$Visibile$Curve
100
AcDbSpline
210
0.0
220
0.0
230
1.0
 70
    12
 71
     2
 72
     6
 73
     3
 74
     0
 42
0.0000000001
 43
0.0000000001
 40
-1514.847035079373
 40
-1514.847035079373
 40
-1514.847035079373
 40
-1512.925226183744
 40
-1512.925226183744
 40
-1512.925226183744
 10
1102.047666421141
 20
735.7427707842047
 30
0.0
 41
1.0
 10
1101.257784011825
 20
735.1955750812954
 30
0.0
 41
0.84204080318788
 10
1101.4246433181
 20
734.2492689311838
 30
0.0
 41
1.0
  0
SPLINE
  5
66
330
1F
100
AcDbEntity
  8
Make2D$Visibile$Curve
100
AcDbSpline
210
0.0
220
0.0
230
1.0
 70
    28
 71
     2
 72
     6
 73
     3
 74
     0
 42
0.0000000001
 43
0.0000000001
 40
-1512.925226183744
 40
-1512.925226183744
 40
-1512.925226183744
 40
-1506.502060379905
 40
-1506.502060379905
 40
-1506.502060379905
 10
1101.4246433181
 20
734.2492689311838
 30
0.0
 41
1.0
 10
1101.982328836445
 20
731.0864771899322
 30
0.0
 41
1.0
 10
1102.540014354789
 20
727.9236854486805
 30
0.0
 41
1.0
  0
SPLINE
  5
67
330
1F
100
AcDbEntity
  8
Make2D$Visibile$Curve
100
AcDbSpline
210
0.0
220
0.0
230
1.0
 70
    12
 71
     2
 72
     8
 73
     5
 74
     0
 42
0.0000000001
 43
0.0000000001
 40
-1506.502060379905
 40
-1506.502060379905
 40
-1506.502060379905
 40
-1500.900400074227
 40
-1500.900400074227
 40
-1495.29873976855
 40
-1495.29873976855
 40
-1495.29873976855
 10
1102.540014354789
 20
727.9236854486805
 30
0.0
 41
1.0
 10
1103.026373406784
 20
725.1654061992946
 30
0.0
 41
0.819152044288992
 10
1100.60078334274
 20
723.764991122875
 30
0.0
 41
1.0
 10
1098.175193278696
 20
722.3645760464557
 30
0.0
 41
0.819152044288992
 10
1096.029632903994
 20
724.1649149655369
 30
0.0
 41
1.0
  0
SPLINE
  5
68
330
1F
100
AcDbEntity
  8
Make2D$Visibile$Curve
100
AcDbSpline
210
0.0
220
0.0
230
1.0
 70
    28
 71
     2
 72
     6
 73
     3
 74
     0
 42
0.0000000001
 43
0.0000000001
 40
-1495.29873976855
 40
-1495.29873976855
 40
-1495.29873976855
 40
-1488.875573964711
 40
-1488.875573964711
 40
-1488.875573964711
 10
1096.029632903994
 20
724.1649149655369
 30
0.0
 41
1.0
 10
1093.569417668363
 20
726.2292806623718
 30
0.0
 41
1.0
 10
1091.109202432732
 20
728.2936463592067
 30
0.0
 41
1.0
  0
SPLINE
  5
69
330
1F
100
AcDbEntity
  8
Make2D$Visibile$Curve
100
AcDbSpline
210
0.0
220
0.0
230
1.0
 70
    12
 71
     2
 72
     6
 73
     3
 74
     0
 42
0.0000000001
 43
0.0000000001
 40
-1488.875573964711
 40
-1488.875573964711
 40
-1488.875573964711
 40
-1486.953765069082
 40
-1486.953765069082
 40
-1486.953765069082
 10
1091.109202432732
 20
728.2936463592067
 30
0.0
 41
1.0
 10
1090.373106920115
 20
728.9113038323546
 30
0.0
 41
0.8420408031878932
 10
1089.504280335896
 20
728.5008434513388
 30
0.0
 41
1.0
  0
SPLINE
  5
6A
330
1F
100
AcDbEntity
  8
Make2D$Visibile$Curve
100
AcDbSpline
210
0.0
220
0.0
230
1.0
 70
    12
 71
     2
 72
     6
 73
     3
 74
     0
 42
0.0000000001
 43
0.0000000001
 40
-1302.425068640751
 40
-1302.425068640751
 40
-1302.425068640751
 40
-1300.503259745122
 40
-1300.503259745122
 40
-1300.503259745122
 10
964.000403271184
 20
800.960540658992
 30
0.0
 41
1.0
 10
963.921459096281
 20
801.918196742917
 30
0.0
 41
0.8420408031879177
 10
963.0185042773894
 20
802.2468454198809
 30
0.0
 41
1.0
  0
SPLINE
  5
6B
330
1F
100
AcDbEntity
  8
Make2D$Visibile$Curve
100
AcDbSpline
210
0.0
220
0.0
230
1.0
 70
    28
 71
     2
 72
     6
 73
     3
 74
     0
 42
0.0000000001
 43
0.0000000001
 40
-1300.503259745122
 40
-1300.503259745122
 40
-1300.503259745122
 40
-1294.080093941283
 40
-1294.080093941283
 40
-1294.080093941283
 10
963.0185042773894
 20
802.2468454198809
 30
0.0
 41
1.0
 10
960.0006035234135
 20
803.3452714642975
 30
0.0
 41
1.0
 10
956.9827027694378
 20
804.4436975087143
 30
0.0
 41
1.0
  0
SPLINE
  5
6C
330
1F
100
AcDbEntity
  8
Make2D$Visibile$Curve
100
AcDbSpline
210
0.0
220
0.0
230
1.0
 70
    12
 71
     2
 72
     8
 73
     5
 74
     0
 42
0.0000000001
 43
0.0000000001
 40
-1294.080093941283
 40
-1294.080093941283
 40
-1294.080093941283
 40
-1288.478433635605
 40
-1288.478433635605
 40
-1282.876773329928
 40
-1282.876773329928
 40
-1282.876773329928
 10
956.9827027694378
 20
804.4436975087143
 30
0.0
 41
1.0
 10
954.3507833427403
 20
805.4016378390191
 30
0.0
 41
0.819152044288988
 10
954.3507833427404
 20
808.2024679918578
 30
0.0
 41
1.0
 10
954.3507833427403
 20
811.0032981446968
 30
0.0
 41
0.819152044288988
 10
956.9827027694378
 20
811.9612384750016
 30
0.0
 41
1.0
  0
SPLINE
  5
6D
330
1F
100
AcDbEntity
  8
Make2D$Visibile$Curve
100
AcDbSpline
210
0.0
220
0.0
230
1.0
 70
    28
 71
     2
 72
     6
 73
     3
 74
     0
 42
0.0000000001
 43
0.0000000001
 40
-1282.876773329928
 40
-1282.876773329928
 40
-1282.876773329928
 40
-1276.453607526089
 40
-1276.453607526089
 40
-1276.453607526089
 10
956.9827027694378
 20
811.9612384750016
 30
0.0
 41
1.0
 10
960.0006035234137
 20
813.0596645194183
 30
0.0
 41
1.0
 10
963.0185042773894
 20
814.1580905638349
 30
0.0
 41
1.0
  0
SPLINE
  5
6E
330
1F
100
AcDbEntity
  8
Make2D$Visibile$Curve
100
AcDbSpline
210
0.0
220
0.0
230
1.0
 70
    12
 71
     2
 72
     6
 73
     3
 74
     0
 42
0.0000000001
 43
0.0000000001
 40
-1276.453607526089
 40
-1276.453607526089
 40
-1276.453607526089
 40
-1274.53179863046
 40
-1274.53179863046
 40
-1274.53179863046
 10
963.0185042773894
 20
814.1580905638349
 30
0.0
 41
1.0
 10
963.9214590962808
 20
814.4867392407986
 30
0.0
 41
0.8420408031879156
 10
964.000403271184
 20
815.4443953247237
 30
0.0
 41
1.0
  0
SPLINE
  5
6F
330
1F
100
AcDbEntity
  8
Make2D$Visibile$Curve
100
AcDbSpline
210
0.0
220
0.0
230
1.0
 70
    12
 71
     2
 72
     6
 73
     3
 74
     0
 42
0.0000000001
 43
0.0000000001
 40
-1090.003102202639
 40
-1090.003102202639
 40
-1090.003102202639
 40
-1088.08129330701
 40
-1088.08129330701
 40
-1088.08129330701
 10
1089.504280335896
 20
887.9040925323769
 30
0.0
 41
1.0
 10
1090.373106920115
 20
887.4936321513612
 30
0.0
 41
0.8420408031879267
 10
1091.109202432732
 20
888.1112896245089
 30
0.0
 41
1.0
  0
SPLINE
  5
70
330
1F
100
AcDbEntity
  8
Make2D$Visibile$Curve
100
AcDbSpline
210
0.0
220
0.0
230
1.0
 70
    28
 71
     2
 72
     6
 73
     3
 74
     0
 42
0.0000000001
 43
0.0000000001
 40
-1088.08129330701
 40
-1088.08129330701
 40
-1088.08129330701
 40
-1081.658127503171
 40
-1081.658127503171
 40
-1081.658127503171
 10
1091.109202432732
 20
888.1112896245089
 30
0.0
 41
1.0
 10
1093.569417668363
 20
890.1756553213439
 30
0.0
 41
1.0
 10
1096.029632903994
 20
892.2400210181788
 30
0.0
 41
1.0
  0
SPLINE
  5
71
330
1F
100
AcDbEntity
  8
Make2D$Visibile$Curve
100
AcDbSpline
210
0.0
220
0.0
230
1.0
 70
    28
 71
     2
 72
     8
 73
     5
 74
     0
 42
0.0000000001
 43
0.0000000001
 40
-1544.326405839308
 40
-1544.326405839308
 40
-1544.326405839308
 40
-1431.493765255373
 40
-1431.493765255373
 40
-1318.661124671438
 40
-1318.661124671438
 40
-1318.661124671438
 10
838.85078334274
 20
864.6187882838257
 30
0.0
 41
1.0
 10
838.85078334274
 20
864.6187882838259
 30
0.0
 41
0.7071067811865469
 10
838.85078334274
 20
808.2024679918585
 30
0.0
 41
1.0
 10
838.85078334274
 20
751.786147699891
 30
0.0
 41
0.7071067811865469
 10
838.85078334274
 20
751.7861476998911
 30
0.0
 41
1.0
  0
SPLINE
  5
72
330
1F
100
AcDbEntity
  8
Make2D$Visibile$Curve
100
AcDbSpline
210
0.0
220
0.0
230
1.0
 70
    28
 71
     2
 72
     6
 73
     3
 74
     0
 42
0.0000000001
 43
0.0000000001
 40
0.0
 40
0.0
 40
0.0
 40
34.00000000000091
 40
34.00000000000091
 40
34.00000000000091
 10
838.85078334274
 20
751.7861476998911
 30
0.0
 41
1.0
 10
855.8507833427404
 20
751.7861476998911
 30
0.0
 41
1.0
 10
872.8507833427409
 20
751.7861476998911
 30
0.0
 41
1.0
  0
SPLINE
  5
73
330
1F
100
AcDbEntity
  8
Make2D$Visibile$Curve
100
AcDbSpline
210
0.0
220
0.0
230
1.0
 70
    28
 71
     2
 72
     6
 73
     3
 74
     0
 42
0.0000000001
 43
0.0000000001
 40
0.0
 40
0.0
 40
0.0
 40
34.00000000000091
 40
34.00000000000091
 40
34.00000000000091
 10
838.85078334274
 20
864.6187882838257
 30
0.0
 41
1.0
 10
855.8507833427404
 20
864.6187882838257
 30
0.0
 41
1.0
 10
872.8507833427409
 20
864.6187882838257
 30
0.0
 41
1.0
  0
SPLINE
  5
74
330
1F
100
AcDbEntity
  8
Make2D$Visibile$Curve
100
AcDbSpline
210
0.0
220
0.0
230
1.0
 70
    24
 71
     2
 72
     6
 73
     3
 74
     0
 42
0.0000000001
 43
0.0000000001
 40
0.0
 40
0.0
 40
0.0
 40
2.760234864338101
 40
2.760234864338101
 40
2.760234864338101
 10
964.000403271184
 20
800.960540658992
 30
0.0
 10
964.0004032711872
 20
799.5815043252055
 30
0.0
 10
964.0004032711904
 20
798.202467991419
 30
0.0
  0
SPLINE
  5
75
330
1F
100
AcDbEntity
  8
Make2D$Visibile$Curve
100
AcDbSpline
210
0.0
220
0.0
230
1.0
 70
    28
 71
     2
 72
     6
 73
     3
 74
     0
 42
0.0000000001
 43
0.0000000001
 40
0.0
 40
0.0
 40
0.0
 40
91.42069428106028
 40
91.42069428106028
 40
91.42069428106028
 10
872.8507833427409
 20
818.2024679918582
 30
0.0
 41
1.0
 10
918.5611304832711
 20
818.2024679918582
 30
0.0
 41
1.0
 10
964.2714776238013
 20
818.2024679918582
 30
0.0
 41
1.0
  0
SPLINE
  5
76
330
1F
100
AcDbEntity
  8
Make2D$Visibile$Curve
100
AcDbSpline
210
0.0
220
0.0
230
1.0
 70
    28
 71
     2
 72
     6
 73
     3
 74
     0
 42
0.0000000001
 43
0.0000000001
 40
2.90557865428371
 40
2.90557865428371
 40
2.90557865428371
 40
2.91084776377744
 40
2.91084776377744
 40
2.91084776377744
 10
1051.850783342739
 20
810.3980384124187
 30
0.0
 41
0.9252092702834493
 10
1051.850783342739
 20
810.37304580656
 30
0.0
 41
0.9258965173878169
 10
1051.850783342739
 20
810.3480247113671
 30
0.0
 41
0.9265903558366001
  0
SPLINE
  5
77
330
1F
100
AcDbEntity
  8
Make2D$Visibile$Curve
100
AcDbSpline
210
0.0
220
0.0
230
1.0
 70
    12
 71
     2
 72
     8
 73
     5
 74
     0
 42
0.0000000001
 43
0.0000000001
 40
0.0
 40
0.0
 40
0.0
 40
4.000000002698661
 40
4.000000002698661
 40
8.000000005397322
 40
8.000000005397322
 40
8.000000005397322
 10
1049.744658590488
 20
808.4008560128713
 30
0.0
 41
1.0
 10
1049.744658590489
 20
810.4008560142207
 30
0.0
 41
0.7071067809521672
 10
1051.744658591838
 20
810.4008560128948
 30
0.0
 41
1.0
 10
1053.744658593187
 20
810.400856011569
 30
0.0
 41
0.7071067809521672
 10
1053.744658590535
 20
808.4008560102196
 30
0.0
 41
1.0
  0
SPLINE
  5
78
330
1F
100
AcDbEntity
  8
Make2D$Visibile$Curve
100
AcDbSpline
210
0.0
220
0.0
230
1.0
 70
    12
 71
     2
 72
     8
 73
     5
 74
     0
 42
0.0000000001
 43
0.0000000001
 40
0.0
 40
0.0
 40
0.0
 40
3.900117128208552
 40
3.900117128208552
 40
7.800234256417103
 40
7.800234256417103
 40
7.800234256417103
 10
1049.794600026407
 20
808.4008560163196
 30
0.0
 41
1.0
 10
1049.794600022958
 20
806.4507974522154
 30
0.0
 41
0.707106781186502
 10
1051.744658587062
 20
806.450797448767
 30
0.0
 41
1.0
 10
1053.694717151167
 20
806.4507974453187
 30
0.0
 41
0.707106781186502
 10
1053.694717154614
 20
808.400856009423
 30
0.0
 41
1.0
  0
SPLINE
  5
79
330
1F
100
AcDbEntity
  8
Make2D$Visibile$Curve
100
AcDbSpline
210
0.0
220
0.0
230
1.0
 70
    12
 71
     2
 72
     8
 73
     5
 74
     0
 42
0.0000000001
 43
0.0000000001
 40
-7.800234256415321
 40
-7.800234256415321
 40
-7.800234256415321
 40
-3.90011712820766
 40
-3.90011712820766
 40
0.0
 40
0.0
 40
0.0
 10
1049.794600026407
 20
808.4008560163196
 30
0.0
 41
1.0
 10
1049.794600029855
 20
810.3509145804235
 30
0.0
 41
0.7071067811865829
 10
1051.744658593959
 20
810.3509145769751
 30
0.0
 41
1.0
 10
1053.694717158063
 20
810.350914573527
 30
0.0
 41
0.7071067811865829
 10
1053.694717154614
 20
808.400856009423
 30
0.0
 41
1.0
  0
SPLINE
  5
7A
330
1F
100
AcDbEntity
  8
Make2D$Visibile$Curve
100
AcDbSpline
210
0.0
220
0.0
230
1.0
 70
    12
 71
     2
 72
     8
 73
     5
 74
     0
 42
0.0000000001
 43
0.0000000001
 40
0.0
 40
0.0
 40
0.0
 40
3.999999997395256
 40
3.999999997395256
 40
7.999999994790512
 40
7.999999994790512
 40
7.999999994790512
 10
1053.744658590535
 20
808.4008560102196
 30
0.0
 41
1.0
 10
1053.744658587884
 20
806.4008560115218
 30
0.0
 41
0.7071067814209263
 10
1051.744658589186
 20
806.4008560128478
 30
0.0
 41
1.0
 10
1049.744658590488
 20
806.4008560141737
 30
0.0
 41
0.7071067814209263
 10
1049.744658590488
 20
808.4008560128713
 30
0.0
 41
1.0
  0
SPLINE
  5
7B
330
1F
100
AcDbEntity
  8
Make2D$Visibile$Curve
100
AcDbSpline
210
0.0
220
0.0
230
1.0
 70
    12
 71
     2
 72
     8
 73
     5
 74
     0
 42
0.0000000001
 43
0.0000000001
 40
0.0
 40
0.0
 40
0.0
 40
58.67841697635348
 40
58.67841697635348
 40
117.356833952707
 40
117.356833952707
 40
117.356833952707
 10
1051.744658590512
 20
735.1342625849684
 30
0.0
 41
1.0
 10
1021.396640627974
 20
735.1342594565682
 30
0.0
 41
0.9238795127869842
 10
999.9373513310916
 20
756.5935487534505
 30
0.0
 41
1.0
 10
978.4780620342092
 20
778.0528380503328
 30
0.0
 41
0.9238795127869842
 10
978.4780651626093
 20
808.4008560128713
 30
0.0
 41
1.0
  0
SPLINE
  5
7C
330
1F
100
AcDbEntity
  8
Make2D$Visibile$Curve
100
AcDbSpline
210
0.0
220
0.0
230
1.0
 70
    12
 71
     2
 72
     8
 73
     5
 74
     0
 42
0.0000000001
 43
0.0000000001
 40
0.0
 40
0.0
 40
0.0
 40
127.1205284105465
 40
127.1205284105465
 40
254.241056821093
 40
254.241056821093
 40
254.241056821093
 10
978.4780651626093
 20
808.4008560128713
 30
0.0
 41
1.0
 10
978.4780651626093
 20
881.6674494407738
 30
0.0
 41
0.7071067811865477
 10
1051.744658590512
 20
881.6674494407741
 30
0.0
 41
1.0
 10
1125.011252018415
 20
881.6674494407738
 30
0.0
 41
0.7071067811865477
 10
1125.011252018415
 20
808.4008560128713
 30
0.0
 41
1.0
  0
SPLINE
  5
7D
330
1F
100
AcDbEntity
  8
Make2D$Visibile$Curve
100
AcDbSpline
210
0.0
220
0.0
230
1.0
 70
    12
 71
     2
 72
    12
 73
     9
 74
     0
 42
0.0000000001
 43
0.0000000001
 40
-1486.953765069082
 40
-1486.953765069082
 40
-1486.953765069082
 40
-1486.687350245739
 40
-1486.687350245739
 40
-1394.689416854498
 40
-1394.689416854498
 40
-1302.691483463256
 40
-1302.691483463256
 40
-1302.425068640751
 40
-1302.425068640751
 40
-1302.425068640751
 10
1089.504280335896
 20
728.5008434513388
 30
0.0
 41
1.0
 10
1089.383837412837
 20
728.443942512777
 30
0.0
 41
0.9999988581804168
 10
1089.263223065971
 20
728.3874058533925
 30
0.0
 41
1.0
 10
1047.612873022565
 20
708.8642586089904
 30
0.0
 41
0.8865497275141411
 10
1007.776599316433
 20
731.8637419569901
 30
0.0
 41
1.0
 10
967.9403256103001
 20
754.8632253049897
 30
0.0
 41
0.8865497275141411
 10
964.0226920645093
 20
800.6950601413314
 30
0.0
 41
1.0
 10
964.0113470743856
 20
800.8277835590534
 30
0.0
 41
0.9999988581804238
 10
964.000403271184
 20
800.960540658992
 30
0.0
 41
1.0
  0
SPLINE
  5
7E
330
1F
100
AcDbEntity
  8
Make2D$Visibile$Curve
100
AcDbSpline
210
0.0
220
0.0
230
1.0
 70
    12
 71
     2
 72
    12
 73
     9
 74
     0
 42
0.0000000001
 43
0.0000000001
 40
-1274.53179863046
 40
-1274.53179863046
 40
-1274.53179863046
 40
-1274.265383807028
 40
-1274.265383807028
 40
-1182.267450416978
 40
-1182.267450416978
 40
-1090.269517026928
 40
-1090.269517026928
 40
-1090.003102202639
 40
-1090.003102202639
 40
-1090.003102202639
 10
964.000403271184
 20
815.4443953247237
 30
0.0
 41
1.0
 10
964.0113470744237
 20
815.5771524251243
 30
0.0
 41
0.9999988581804156
 10
964.0226920645882
 20
815.7098758433074
 30
0.0
 41
1.0
 10
967.9403256108097
 20
861.5417106790145
 30
0.0
 41
0.886549727516598
 10
1007.776599316424
 20
884.5411940267207
 30
0.0
 41
1.0
 10
1047.612873022038
 20
907.540677374427
 30
0.0
 41
0.886549727516598
 10
1089.263223065114
 20
888.0175301307247
 30
0.0
 41
1.0
 10
1089.383837412409
 20
887.960993471141
 30
0.0
 41
0.9999988581804091
 10
1089.504280335896
 20
887.9040925323769
 30
0.0
 41
1.0
  0
SPLINE
  5
7F
330
1F
100
AcDbEntity
  8
Make2D$Visibile$Curve
100
AcDbSpline
210
0.0
220
0.0
230
1.0
 70
    28
 71
     2
 72
     8
 73
     5
 74
     0
 42
0.0000000001
 43
0.0000000001
 40
-1544.326405839308
 40
-1544.326405839308
 40
-1544.326405839308
 40
-1431.493765255373
 40
-1431.493765255373
 40
-1318.661124671438
 40
-1318.661124671438
 40
-1318.661124671438
 10
872.8507833427409
 20
864.6187882838257
 30
0.0
 41
1.0
 10
872.850783342741
 20
864.6187882838259
 30
0.0
 41
0.7071067811865469
 10
872.8507833427409
 20
808.2024679918585
 30
0.0
 41
1.0
 10
872.850783342741
 20
751.786147699891
 30
0.0
 41
0.7071067811865469
 10
872.8507833427409
 20
751.7861476998911
 30
0.0
 41
1.0
  0
SPLINE
  5
80
330
1F
100
AcDbEntity
  8
Make2D$Visibile$Curve
100
AcDbSpline
210
0.0
220
0.0
230
1.0
 70
    28
 71
     2
 72
     6
 73
     3
 74
     0
 42
0.0000000001
 43
0.0000000001
 40
87.57930571893796
 40
87.57930571893796
 40
87.57930571893796
 40
178.9999999999982
 40
178.9999999999982
 40
178.9999999999982
 10
964.271477623801
 20
798.2024679918582
 30
0.0
 41
1.0
 10
918.561130483271
 20
798.2024679918582
 30
0.0
 41
1.0
 10
872.8507833427409
 20
798.2024679918582
 30
0.0
 41
1.0
  0
SPLINE
  5
82
330
1F
100
AcDbEntity
  8
2D
100
AcDbSpline
210
0.0
220
0.0
230
1.0
 70
    15
 71
     2
 72
    12
 73
     9
 74
     0
 42
0.0000000001
 43
0.0000000001
 40
0.0
 40
0.0
 40
0.0
 40
19.99999999999999
 40
19.99999999999999
 40
39.99999999999999
 40
39.99999999999999
 40
60.0
 40
60.0
 40
80.0
 40
80.0
 40
80.0
 10
1051.85078334274
 20
134.0703746685946
 30
0.0
 41
1.0
 10
1061.85078334274
 20
134.0703746685944
 30
0.0
 41
0.707106781186548
 10
1061.85078334274
 20
144.0703746685946
 30
0.0
 41
1.0
 10
1061.85078334274
 20
154.0703746685944
 30
0.0
 41
0.707106781186548
 10
1051.85078334274
 20
154.0703746685946
 30
0.0
 41
1.0
 10
1041.85078334274
 20
154.0703746685944
 30
0.0
 41
0.707106781186548
 10
1041.85078334274
 20
144.0703746685945
 30
0.0
 41
1.0
 10
1041.85078334274
 20
134.0703746685944
 30
0.0
 41
0.707106781186548
 10
1051.85078334274
 20
134.0703746685946
 30
0.0
 41
1.0
  0
SPLINE
  5
83
330
1F
100
AcDbEntity
  8
2D
100
AcDbSpline
210
0.0
220
0.0
230
1.0
 70
    28
 71
     2
 72
     8
 73
     5
 74
     0
 42
0.0000000001
 43
0.0000000001
 40
-1873.991687007168
 40
-1873.991687007168
 40
-1873.991687007168
 40
-1761.159046423233
 40
-1761.159046423233
 40
-1648.326405839298
 40
-1648.326405839298
 40
-1648.326405839298
 10
872.8507833427402
 20
200.4866949605616
 30
0.0
 41
1.0
 10
872.85078334274
 20
200.4866949605617
 30
0.0
 41
0.7071067811865469
 10
872.8507833427402
 20
144.0703746685944
 30
0.0
 41
1.0
 10
872.85078334274
 20
87.65405437662685
 30
0.0
 41
0.7071067811865469
 10
872.8507833427402
 20
87.65405437662683
 30
0.0
 41
1.0
  0
SPLINE
  5
84
330
1F
100
AcDbEntity
  8
2D
100
AcDbSpline
210
0.0
220
0.0
230
1.0
 70
    28
 71
     2
 72
     6
 73
     3
 74
     0
 42
0.0000000001
 43
0.0000000001
 40
0.0
 40
0.0
 40
0.0
 40
178.9999999999982
 40
178.9999999999982
 40
178.9999999999982
 10
1051.850783342738
 20
134.0703746685942
 30
0.0
 41
1.0
 10
962.3507833427393
 20
134.0703746685942
 30
0.0
 41
1.0
 10
872.8507833427402
 20
134.0703746685942
 30
0.0
 41
1.0
  0
SPLINE
  5
85
330
1F
100
AcDbEntity
  8
2D
100
AcDbSpline
210
0.0
220
0.0
230
1.0
 70
    28
 71
     2
 72
     6
 73
     3
 74
     0
 42
0.0000000001
 43
0.0000000001
 40
0.0
 40
0.0
 40
0.0
 40
178.9999999999982
 40
178.9999999999982
 40
178.9999999999982
 10
872.8507833427402
 20
154.0703746685942
 30
0.0
 41
1.0
 10
962.3507833427393
 20
154.0703746685942
 30
0.0
 41
1.0
 10
1051.850783342738
 20
154.0703746685942
 30
0.0
 41
1.0
  0
SPLINE
  5
86
330
1F
100
AcDbEntity
  8
2D
100
AcDbSpline
210
0.0
220
0.0
230
1.0
 70
     8
 71
     3
 72
     8
 73
     4
 74
     0
 42
0.0000000001
 43
0.0000000001
 40
11.08094388385749
 40
11.08094388385749
 40
11.08094388385749
 40
11.08094388385749
 40
11.27004600994747
 40
11.27004600994747
 40
11.27004600994747
 40
11.27004600994747
 10
1003.409718066597
 20
174.8932569529906
 30
0.0
 10
1003.450986534955
 20
174.8466733224213
 30
0.0
 10
1003.490529975153
 20
174.798851945561
 30
0.0
 10
1003.528314540298
 20
174.7498907604843
 30
0.0
  0
SPLINE
  5
87
330
1F
100
AcDbEntity
  8
2D
100
AcDbSpline
210
0.0
220
0.0
230
1.0
 70
     8
 71
     3
 72
     8
 73
     4
 74
     0
 42
0.0000000001
 43
0.0000000001
 40
9.931112112127835
 40
9.931112112127835
 40
9.931112112127835
 40
9.931112112127835
 40
10.72587393553877
 40
10.72587393553877
 40
10.72587393553877
 40
10.72587393553877
 10
1002.518326525602
 20
175.5595303217713
 30
0.0
 10
1002.750729904576
 20
175.450703751849
 30
0.0
 10
1002.967793885034
 20
175.3093825372165
 30
0.0
 10
1003.162589173804
 20
175.1389053293072
 30
0.0
  0
SPLINE
  5
88
330
1F
100
AcDbEntity
  8
2D
100
AcDbSpline
210
0.0
220
0.0
230
1.0
 70
     8
 71
     3
 72
     8
 73
     4
 74
     0
 42
0.0000000001
 43
0.0000000001
 40
8.907713668664586
 40
8.907713668664586
 40
8.907713668664586
 40
8.907713668664586
 40
9.901150730038674
 40
9.901150730038674
 40
9.901150730038674
 40
9.901150730038674
 10
1001.55903467523
 20
175.8111631935635
 30
0.0
 10
1001.884552497311
 20
175.7866569184035
 30
0.0
 10
1002.20004454795
 20
175.7046621585072
 30
0.0
 10
1002.491977673348
 20
175.5716994177992
 30
0.0
  0
SPLINE
  5
89
330
1F
100
AcDbEntity
  8
2D
100
AcDbSpline
210
0.0
220
0.0
230
1.0
 70
     8
 71
     3
 72
    13
 73
     9
 74
     0
 42
0.0000000001
 43
0.0000000001
 40
2.939977178638277
 40
2.939977178638277
 40
2.939977178638277
 40
2.939977178638277
 40
4.429631868337143
 40
4.429631868337143
 40
4.429631868337143
 40
6.645173491843529
 40
6.645173491843529
 40
7.364191153587699
 40
7.364191153587699
 40
7.364191153587699
 40
7.364191153587699
 10
998.8980689559179
 20
171.826936001942
 30
0.0
 10
998.680273620872
 20
172.2569415455514
 30
0.0
 10
998.5775190529138
 20
172.7406252562332
 30
0.0
 10
998.6063508988117
 20
173.2301109076549
 30
0.0
 10
998.6492324389379
 20
173.9581218257565
 30
0.0
 10
998.9796521928544
 20
174.6392512905678
 30
0.0
 10
999.7015036531591
 20
175.2810253920984
 30
0.0
 10
999.8962893258304
 20
175.4134054889918
 30
0.0
 10
1000.103619782382
 20
175.5190456330599
 30
0.0
  0
SPLINE
  5
8A
330
1F
100
AcDbEntity
  8
2D
100
AcDbSpline
210
0.0
220
0.0
230
1.0
 70
     8
 71
     3
 72
     8
 73
     4
 74
     0
 42
0.0000000001
 43
0.0000000001
 40
2.790750014702366
 40
2.790750014702366
 40
2.790750014702366
 40
2.790750014702366
 40
2.812354070017458
 40
2.812354070017458
 40
2.812354070017458
 40
2.812354070017458
 10
998.9669690664952
 20
171.6993718522089
 30
0.0
 10
998.9634785810516
 20
171.7054451679689
 30
0.0
 10
998.9600119434136
 20
171.7115307825545
 30
0.0
 10
998.956569204051
 20
171.7176285499265
 30
0.0
  0
SPLINE
  5
8B
330
1F
100
AcDbEntity
  8
2D
100
AcDbSpline
210
0.0
220
0.0
230
1.0
 70
     8
 71
     3
 72
    19
 73
    15
 74
     0
 42
0.0000000001
 43
0.0000000001
 40
11.99972740440296
 40
11.99972740440296
 40
11.99972740440296
 40
11.99972740440296
 40
12.99972740440296
 40
12.99972740440296
 40
12.99972740440296
 40
13.99972740440296
 40
13.99972740440296
 40
13.99972740440296
 40
14.99972740440296
 40
14.99972740440296
 40
14.99972740440296
 40
15.63782754540888
 40
15.63782754540888
 40
16.27747707973043
 40
16.27747707973043
 40
16.27747707973043
 40
16.27747707973043
 10
1003.557553696972
 20
174.7113508326031
 30
0.0
 10
1003.564810737772
 20
174.7014437292671
 30
0.0
 10
1003.572067778572
 20
174.6915366259311
 30
0.0
 10
1003.579324819372
 20
174.6816295225951
 30
0.0
 10
1003.580291882394
 20
174.6802881713978
 30
0.0
 10
1003.581258945416
 20
174.6789468202005
 30
0.0
 10
1003.582226008439
 20
174.6776054690033
 30
0.0
 10
1003.582604628092
 20
174.677078983411
 30
0.0
 10
1003.582983247746
 20
174.6765524978186
 30
0.0
 10
1003.5833618674
 20
174.6760260122263
 30
0.0
 10
1003.583873353007
 20
174.6753143055433
 30
0.0
 10
1003.587769323363
 20
174.6698780157994
 30
0.0
 10
1003.590615828846
 20
174.6658896519953
 30
0.0
 10
1003.591599567117
 20
174.6645083506494
 30
0.0
 10
1003.592938123966
 20
174.6626285794523
 30
0.0
  0
SPLINE
  5
8C
330
1F
100
AcDbEntity
  8
2D
100
AcDbSpline
210
0.0
220
0.0
230
1.0
 70
     8
 71
     3
 72
    28
 73
    24
 74
     0
 42
0.0000000001
 43
0.0000000001
 40
5.878469350455229
 40
5.878469350455229
 40
5.878469350455229
 40
5.878469350455229
 40
5.882024562778421
 40
5.882024562778421
 40
5.99972740440296
 40
5.99972740440296
 40
5.99972740440296
 40
6.99972740440296
 40
6.99972740440296
 40
6.99972740440296
 40
7.99972740440296
 40
7.99972740440296
 40
7.99972740440296
 40
8.999727404402961
 40
8.999727404402961
 40
8.999727404402961
 40
9.999727404402961
 40
9.999727404402961
 40
9.999727404402961
 40
10.99972740440296
 40
10.99972740440296
 40
10.99972740440296
 40
11.56293086641976
 40
11.56293086641976
 40
11.56293086641976
 40
11.56293086641976
 10
1003.825787990474
 20
174.268694683022
 30
0.0
 10
1003.825488847921
 20
174.2693136079971
 30
0.0
 10
1003.825191697962
 20
174.2699275906298
 30
0.0
 10
1003.815126216392
 20
174.2906974356662
 30
0.0
 10
1003.807000188473
 20
174.3067941455002
 30
0.0
 10
1003.804619809938
 20
174.3115044253241
 30
0.0
 10
1003.795732529208
 20
174.3286383530738
 30
0.0
 10
1003.786845248477
 20
174.3457722808236
 30
0.0
 10
1003.777957967747
 20
174.3629062085733
 30
0.0
 10
1003.764044687885
 20
174.3880896608364
 30
0.0
 10
1003.750131408024
 20
174.4132731130995
 30
0.0
 10
1003.736218128162
 20
174.4384565653627
 30
0.0
 10
1003.734449891707
 20
174.4415280016215
 30
0.0
 10
1003.732681655252
 20
174.4445994378802
 30
0.0
 10
1003.730913418796
 20
174.447670874139
 30
0.0
 10
1003.700201716714
 20
174.497095855515
 30
0.0
 10
1003.669490014632
 20
174.546520836891
 30
0.0
 10
1003.638778312551
 20
174.595945818267
 30
0.0
 10
1003.638171414342
 20
174.5968556279528
 30
0.0
 10
1003.637564516133
 20
174.5977654376385
 30
0.0
 10
1003.636957617925
 20
174.5986752473243
 30
0.0
 10
1003.622050763532
 20
174.6198283405622
 30
0.0
 10
1003.607143909139
 20
174.6409814338001
 30
0.0
 10
1003.592237054746
 20
174.6621345270381
 30
0.0
  0
SPLINE
  5
8D
330
1F
100
AcDbEntity
  8
2D
100
AcDbSpline
210
0.0
220
0.0
230
1.0
 70
     8
 71
     3
 72
    26
 73
    22
 74
     0
 42
0.0000000001
 43
0.0000000001
 40
31.04765715831284
 40
31.04765715831284
 40
31.04765715831284
 40
31.04765715831284
 40
32.0
 40
32.0
 40
32.0
 40
33.0
 40
33.0
 40
33.0
 40
37.7795628549075
 40
37.7795628549075
 40
37.7795628549075
 40
38.7795628549075
 40
38.7795628549075
 40
38.7795628549075
 40
39.7795628549075
 40
39.7795628549075
 40
39.7795628549075
 40
40.7795628549075
 40
40.7795628549075
 40
40.7795628549075
 40
41.74864634735522
 40
41.74864634735522
 40
41.74864634735522
 40
41.74864634735522
 10
998.6465203625354
 20
172.5739409922397
 30
0.0
 10
998.6328061966805
 20
172.6829513293247
 30
0.0
 10
998.6190920308255
 20
172.7919616664097
 30
0.0
 10
998.6053778649706
 20
172.9009720034946
 30
0.0
 10
998.6051671780805
 20
173.0115407004324
 30
0.0
 10
998.6049564911906
 20
173.1221093973701
 30
0.0
 10
998.6047458043005
 20
173.2326780943079
 30
0.0
 10
998.6934288583113
 20
174.7491713449111
 30
0.0
 10
999.9945076398244
 20
175.9063460226706
 30
0.0
 10
1001.51111032116
 20
175.8169048288768
 30
0.0
 10
1001.620881978297
 20
175.803753502474
 30
0.0
 10
1001.730653635434
 20
175.7906021760713
 30
0.0
 10
1001.840425292572
 20
175.7774508496686
 30
0.0
 10
1001.952405554835
 20
175.7497496040639
 30
0.0
 10
1002.064385817099
 20
175.7220483584593
 30
0.0
 10
1002.176366079363
 20
175.6943471128546
 30
0.0
 10
1002.287757031549
 20
175.6510602254398
 30
0.0
 10
1002.399147983736
 20
175.6077733380248
 30
0.0
 10
1002.510538935922
 20
175.5644864506099
 30
0.0
 10
1002.614829835044
 20
175.5071277835837
 30
0.0
 10
1002.719120734166
 20
175.4497691165574
 30
0.0
 10
1002.823411633288
 20
175.3924104495311
 30
0.0
  0
SPLINE
  5
8E
330
1F
100
AcDbEntity
  8
2D
100
AcDbSpline
210
0.0
220
0.0
230
1.0
 70
     8
 71
     3
 72
    11
 73
     7
 74
     0
 42
0.0000000001
 43
0.0000000001
 40
29.00328844326054
 40
29.00328844326054
 40
29.00328844326054
 40
29.00328844326054
 40
30.0
 40
30.0
 40
30.0
 40
30.96051397805045
 40
30.96051397805045
 40
30.96051397805045
 40
30.96051397805045
 10
998.876497489509
 20
171.8701303203819
 30
0.0
 10
998.8304709292244
 20
171.9835743716247
 30
0.0
 10
998.7844443689395
 20
172.0970184228674
 30
0.0
 10
998.7384178086546
 20
172.2104624741102
 30
0.0
 10
998.7096540673709
 20
172.321598176002
 30
0.0
 10
998.6808903260873
 20
172.4327338778938
 30
0.0
 10
998.6521265848036
 20
172.5438695797857
 30
0.0
  0
SPLINE
  5
8F
330
1F
100
AcDbEntity
  8
2D
100
AcDbSpline
210
0.0
220
0.0
230
1.0
 70
     8
 71
     3
 72
     8
 73
     4
 74
     0
 42
0.0000000001
 43
0.0000000001
 40
0.0
 40
0.0
 40
0.0
 40
0.0
 40
1.277322297284377
 40
1.277322297284377
 40
1.277322297284377
 40
1.277322297284377
 10
999.1132819649441
 20
171.4715924367089
 30
0.0
 10
999.1110188826976
 20
171.4747681391643
 30
0.0
 10
999.1090339154247
 20
171.4775576103669
 30
0.0
 10
999.1086684305158
 20
171.4780718758041
 30
0.0
  0
SPLINE
  5
90
330
1F
100
AcDbEntity
  8
2D
100
AcDbSpline
210
0.0
220
0.0
230
1.0
 70
    12
 71
     4
 72
    83
 73
    78
 74
     0
 42
0.0000000001
 43
0.0000000001
 40
35.11689552870965
 40
35.11689552870965
 40
35.11689552870965
 40
35.11689552870965
 40
35.11689552870965
 40
36.02677334674204
 40
36.02677334674204
 40
36.02677334674204
 40
36.02677334674204
 40
37.02677334674204
 40
37.02677334674204
 40
37.02677334674204
 40
37.02677334674204
 40
38.02677334674204
 40
38.02677334674204
 40
38.02677334674204
 40
38.02677334674204
 40
39.02677334674204
 40
39.02677334674204
 40
39.02677334674204
 40
39.02677334674204
 40
40.02677334674204
 40
40.02677334674204
 40
40.02677334674204
 40
40.02677334674204
 40
41.02677334674204
 40
41.02677334674204
 40
41.02677334674204
 40
41.02677334674204
 40
42.02677334674204
 40
42.02677334674204
 40
42.02677334674204
 40
42.02677334674204
 40
43.02677334674204
 40
43.02677334674204
 40
43.02677334674204
 40
43.02677334674204
 40
44.02677334674204
 40
44.02677334674204
 40
44.02677334674204
 40
44.02677334674204
 40
45.02677334674204
 40
45.02677334674204
 40
45.02677334674204
 40
45.02677334674204
 40
46.02677334674204
 40
46.02677334674204
 40
46.02677334674204
 40
46.02677334674204
 40
47.02677334674204
 40
47.02677334674204
 40
47.02677334674204
 40
47.02677334674204
 40
48.07133208962361
 40
48.07133208962361
 40
48.07133208962361
 40
49.20223784133223
 40
49.20223784133223
 40
49.20223784133223
 40
49.20223784133223
 40
51.4188432245195
 40
51.4188432245195
 40
51.4188432245195
 40
51.4188432245195
 40
52.47772663876125
 40
52.47772663876125
 40
52.47772663876125
 40
53.0462890401106
 40
53.0462890401106
 40
53.0462890401106
 40
53.62154797261674
 40
53.62154797261674
 40
53.62154797261674
 40
53.62154797261674
 40
54.62154797261674
 40
54.62154797261674
 40
54.62154797261674
 40
54.62154797261674
 40
55.07565006566914
 40
55.07565006566914
 40
55.07565006566914
 40
55.07565006566914
 40
55.07565006566914
 10
999.1070830908757
 20
171.4804904128197
 30
0.0
 41
1.005750012133506
 10
999.0960990838756
 20
171.4963989050633
 30
0.0
 41
1.005750012133506
 10
999.0851150768754
 20
171.5123073973068
 30
0.0
 41
1.005750012133506
 10
999.0741310698753
 20
171.5282158895504
 30
0.0
 41
1.005750012133506
 10
999.0631470628751
 20
171.544124381794
 30
0.0
 41
1.005750012133506
 10
999.038313010408
 20
171.5842107214016
 30
0.0
 41
1.005750012133506
 10
999.0134789579411
 20
171.6242970610091
 30
0.0
 41
1.005750012133506
 10
998.9886449054738
 20
171.6643834006167
 30
0.0
 41
1.005750012133506
 10
998.9638108530067
 20
171.7044697402243
 30
0.0
 41
1.005750012133506
 10
998.9419223186673
 20
171.7458604635499
 30
0.0
 41
1.005750012133506
 10
998.9200337843276
 20
171.7872511868756
 30
0.0
 41
1.005750012133506
 10
998.898145249988
 20
171.8286419102012
 30
0.0
 41
1.005750012133506
 10
998.8762567156484
 20
171.8700326335269
 30
0.0
 41
1.005750012133506
 10
998.8573935407727
 20
171.9124092095533
 30
0.0
 41
1.005750012133506
 10
998.8385303658969
 20
171.9547857855799
 30
0.0
 41
1.005750012133506
 10
998.8196671910212
 20
171.9971623616063
 30
0.0
 41
1.005750012133506
 10
998.8008040161453
 20
172.0395389376329
 30
0.0
 41
1.005750012133506
 10
998.7939959580848
 20
172.0570125926116
 30
0.0
 41
1.005750012133506
 10
998.787187900024
 20
172.0744862475905
 30
0.0
 41
1.005750012133506
 10
998.7803798419634
 20
172.0919599025692
 30
0.0
 41
1.005750012133506
 10
998.7735717839029
 20
172.1094335575481
 30
0.0
 41
1.005750012133506
 10
998.7645778966312
 20
172.1350015022117
 30
0.0
 41
1.005750012133506
 10
998.7555840093597
 20
172.1605694468753
 30
0.0
 41
1.005750012133506
 10
998.746590122088
 20
172.1861373915389
 30
0.0
 41
1.005750012133506
 10
998.7375962348165
 20
172.2117053362026
 30
0.0
 41
1.005750012133506
 10
998.7248484985149
 20
172.2550965354639
 30
0.0
 41
1.005750012133506
 10
998.7121007622134
 20
172.2984877347253
 30
0.0
 41
1.005750012133506
 10
998.6993530259118
 20
172.3418789339867
 30
0.0
 41
1.005750012133506
 10
998.6866052896103
 20
172.3852701332481
 30
0.0
 41
1.005750012133506
 10
998.676864563456
 20
172.4287076124568
 30
0.0
 41
1.005750012133506
 10
998.6671238373018
 20
172.4721450916656
 30
0.0
 41
1.005750012133506
 10
998.6573831111476
 20
172.5155825708743
 30
0.0
 41
1.005750012133506
 10
998.6476423849933
 20
172.5590200500831
 30
0.0
 41
1.005750012133506
 10
998.640825140029
 20
172.602218341105
 30
0.0
 41
1.005750012133506
 10
998.6340078950644
 20
172.6454166321271
 30
0.0
 41
1.005750012133506
 10
998.6271906501001
 20
172.6886149231491
 30
0.0
 41
1.005750012133506
 10
998.6203734051355
 20
172.7318132141711
 30
0.0
 41
1.005750012133506
 10
998.6163644568254
 20
172.7745093559937
 30
0.0
 41
1.005750012133506
 10
998.6123555085151
 20
172.8172054978163
 30
0.0
 41
1.005750012133506
 10
998.6083465602048
 20
172.859901639639
 30
0.0
 41
1.005750012133506
 10
998.6043376118946
 20
172.9025977814616
 30
0.0
 41
1.005750012133506
 10
998.602995319369
 20
172.9445548052095
 30
0.0
 41
1.005750012133506
 10
998.6016530268435
 20
172.9865118289573
 30
0.0
 41
1.005750012133506
 10
998.600310734318
 20
173.0284688527051
 30
0.0
 41
1.005750012133506
 10
998.5989684417924
 20
173.0704258764531
 30
0.0
 41
1.005750012133506
 10
998.6001301442803
 20
173.111435114053
 30
0.0
 41
1.005750012133506
 10
998.6012918467682
 20
173.1524443516529
 30
0.0
 41
1.005750012133506
 10
998.602453549256
 20
173.1934535892528
 30
0.0
 41
1.005750012133506
 10
998.6036152517439
 20
173.2344628268528
 30
0.0
 41
1.005750012133506
 10
998.6187059738432
 20
173.4937780908844
 30
0.0
 41
1.005750012133506
 10
998.6663832953867
 20
173.7499437250623
 30
0.0
 41
1.005750012133506
 10
998.745598219482
 20
173.9983323710647
 30
0.0
 41
1.005750012133506
 10
998.9740737700812
 20
174.4898082869514
 30
0.0
 41
1.005750012133506
 10
999.126945271469
 20
174.7273139387789
 30
0.0
 41
1.005750012133506
 10
999.3104426329038
 20
174.9420912960019
 30
0.0
 41
1.005750012133506
 10
999.5210922338887
 20
175.1293980285699
 30
0.0
 41
1.005750012133506
 10
999.9306871437756
 20
175.4936041979085
 30
0.0
 41
1.005750012133506
 10
1000.425223874445
 20
175.7384606471712
 30
0.0
 41
1.005750012133506
 10
1000.964913825162
 20
175.8511247527709
 30
0.0
 41
1.005750012133506
 10
1001.509968395192
 20
175.8187538911203
 30
0.0
 41
1.005750012133506
 10
1001.769720319801
 20
175.8033271906075
 30
0.0
 41
1.005750012133506
 10
1002.026161769903
 20
175.755112251527
 30
0.0
 41
1.005750012133506
 10
1002.274439468017
 20
175.6754836832866
 30
0.0
 41
1.005750012133506
 10
1002.636022231156
 20
175.5069306067301
 30
0.0
 41
1.005750012133506
 10
1002.758595757351
 20
175.4392639814839
 30
0.0
 41
1.005750012133506
 10
1002.875994339404
 20
175.3638366756125
 30
0.0
 41
1.005750012133506
 10
1003.098893834317
 20
175.1985338450991
 30
0.0
 41
1.005750012133506
 10
1003.212762930196
 20
175.099991847746
 30
0.0
 41
1.005750012133506
 10
1003.318237723054
 20
174.9965611361154
 30
0.0
 41
1.005750012133506
 10
1003.405157046837
 20
174.8987596932091
 30
0.0
 41
1.005750012133506
 10
1003.435458595686
 20
174.8622017836981
 30
0.0
 41
1.005750012133506
 10
1003.465760144534
 20
174.825643874187
 30
0.0
 41
1.005750012133506
 10
1003.496061693383
 20
174.7890859646758
 30
0.0
 41
1.005750012133506
 10
1003.526363242232
 20
174.7525280551647
 30
0.0
 41
1.005750012133506
 10
1003.534043888873
 20
174.7421472072174
 30
0.0
 41
1.005750012133506
 10
1003.541724535514
 20
174.73176635927
 30
0.0
 41
1.005750012133506
 10
1003.549405182156
 20
174.7213855113225
 30
0.0
 41
1.005750012133506
 10
1003.557085828798
 20
174.7110046633752
 30
0.0
 41
1.005750012133506
  0
SPLINE
  5
91
330
1F
100
AcDbEntity
  8
2D
100
AcDbSpline
210
0.0
220
0.0
230
1.0
 70
    12
 71
     4
 72
    10
 73
     5
 74
     0
 42
0.0000000001
 43
0.0000000001
 40
23.84437250310135
 40
23.84437250310135
 40
23.84437250310135
 40
23.84437250310135
 40
23.84437250310135
 40
23.95072983773761
 40
23.95072983773761
 40
23.95072983773761
 40
23.95072983773761
 40
23.95072983773761
 10
998.8981459963268
 20
171.8269750224663
 30
0.0
 41
1.005750012133506
 10
998.9118495431044
 20
171.8000802975979
 30
0.0
 41
1.005750012133506
 10
998.926325902516
 20
171.7727141220859
 30
0.0
 41
1.005750012133506
 10
998.9413956780485
 20
171.7451855723534
 30
0.0
 41
1.005750012133506
 10
998.9568794731881
 20
171.7178037248237
 30
0.0
 41
1.005750012133506
  0
SPLINE
  5
92
330
1F
100
AcDbEntity
  8
2D
100
AcDbSpline
210
0.0
220
0.0
230
1.0
 70
    12
 71
     4
 72
    48
 73
    43
 74
     0
 42
0.0000000001
 43
0.0000000001
 40
11.10077158912787
 40
11.10077158912787
 40
11.10077158912787
 40
11.10077158912787
 40
11.10077158912787
 40
12.092264733091
 40
12.092264733091
 40
12.092264733091
 40
12.092264733091
 40
13.092264733091
 40
13.092264733091
 40
13.092264733091
 40
13.092264733091
 40
14.092264733091
 40
14.092264733091
 40
14.092264733091
 40
14.092264733091
 40
15.092264733091
 40
15.092264733091
 40
15.092264733091
 40
15.092264733091
 40
16.092264733091
 40
16.092264733091
 40
16.092264733091
 40
16.092264733091
 40
17.092264733091
 40
17.092264733091
 40
17.092264733091
 40
17.092264733091
 40
18.092264733091
 40
18.092264733091
 40
18.092264733091
 40
18.092264733091
 40
20.30786489607643
 40
20.30786489607643
 40
20.30786489607643
 40
22.52331310991286
 40
22.52331310991286
 40
22.52331310991286
 40
22.52331310991286
 40
23.1412100057015
 40
23.1412100057015
 40
23.1412100057015
 40
23.34656023262056
 40
23.34656023262056
 40
23.34656023262056
 40
23.34656023262056
 40
23.34656023262056
 10
1003.587516979326
 20
174.6699985274032
 30
0.0
 41
1.005750012133506
 10
1003.542195059357
 20
174.7267922407059
 30
0.0
 41
1.005750012133506
 10
1003.496873139389
 20
174.7835859540087
 30
0.0
 41
1.005750012133506
 10
1003.45155121942
 20
174.8403796673115
 30
0.0
 41
1.005750012133506
 10
1003.406229299452
 20
174.8971733806143
 30
0.0
 41
1.005750012133506
 10
1003.338610076821
 20
174.9633892710919
 30
0.0
 41
1.005750012133506
 10
1003.270990854191
 20
175.0296051615695
 30
0.0
 41
1.005750012133506
 10
1003.203371631561
 20
175.0958210520471
 30
0.0
 41
1.005750012133506
 10
1003.135752408931
 20
175.1620369425247
 30
0.0
 41
1.005750012133506
 10
1003.060419363997
 20
175.2178490849566
 30
0.0
 41
1.005750012133506
 10
1002.985086319063
 20
175.2736612273885
 30
0.0
 41
1.005750012133506
 10
1002.909753274129
 20
175.3294733698204
 30
0.0
 41
1.005750012133506
 10
1002.834420229195
 20
175.3852855122523
 30
0.0
 41
1.005750012133506
 10
1002.753756200009
 20
175.4295914845154
 30
0.0
 41
1.005750012133506
 10
1002.673092170822
 20
175.4738974567786
 30
0.0
 41
1.005750012133506
 10
1002.592428141636
 20
175.5182034290417
 30
0.0
 41
1.005750012133506
 10
1002.51176411245
 20
175.5625094013047
 30
0.0
 41
1.005750012133506
 10
1002.428266396426
 20
175.594896305654
 30
0.0
 41
1.005750012133506
 10
1002.344768680401
 20
175.6272832100033
 30
0.0
 41
1.005750012133506
 10
1002.261270964377
 20
175.6596701143525
 30
0.0
 41
1.005750012133506
 10
1002.177773248352
 20
175.6920570187017
 30
0.0
 41
1.005750012133506
 10
1002.093828717435
 20
175.7127632454631
 30
0.0
 41
1.005750012133506
 10
1002.009884186518
 20
175.7334694722247
 30
0.0
 41
1.005750012133506
 10
1001.925939655601
 20
175.7541756989861
 30
0.0
 41
1.005750012133506
 10
1001.841995124684
 20
175.7748819257475
 30
0.0
 41
1.005750012133506
 10
1001.759701752566
 20
175.7846850301943
 30
0.0
 41
1.005750012133506
 10
1001.677408380448
 20
175.7944881346409
 30
0.0
 41
1.005750012133506
 10
1001.595115008329
 20
175.8042912390875
 30
0.0
 41
1.005750012133506
 10
1001.512821636211
 20
175.8140943435342
 30
0.0
 41
1.005750012133506
 10
1000.967696551727
 20
175.8458809776571
 30
0.0
 41
1.005750012133506
 10
1000.428271088868
 20
175.7326654836155
 30
0.0
 41
1.005750012133506
 10
999.9340876062722
 20
175.4875181308404
 30
0.0
 41
1.005750012133506
 10
999.1153173960859
 20
174.7595252109593
 30
0.0
 41
1.005750012133506
 10
998.8140679420299
 20
174.2974441020755
 30
0.0
 41
1.005750012133506
 10
998.6385693626727
 20
173.7750066927248
 30
0.0
 41
1.005750012133506
 10
998.6064509202763
 20
173.2299538135204
 30
0.0
 41
1.005750012133506
 10
998.596472320936
 20
173.0606160780917
 30
0.0
 41
1.005750012133506
 10
998.6004556003362
 20
172.8908747694327
 30
0.0
 41
1.005750012133506
 10
998.6183185209671
 20
172.7220320946698
 30
0.0
 41
1.005750012133506
 10
998.6605007541267
 20
172.5000089528085
 30
0.0
 41
1.005750012133506
 10
998.6725402998755
 20
172.4449383839166
 30
0.0
 41
1.005750012133506
 10
998.6860778950479
 20
172.3902344651178
 30
0.0
 41
1.005750012133506
 10
998.701093952126
 20
172.3359531072764
 30
0.0
 41
1.005750012133506
  0
SPLINE
  5
93
330
1F
100
AcDbEntity
  8
2D
100
AcDbSpline
210
0.0
220
0.0
230
1.0
 70
    12
 71
     4
 72
    30
 73
    25
 74
     0
 42
0.0000000001
 43
0.0000000001
 40
24.18069255126654
 40
24.18069255126654
 40
24.18069255126654
 40
24.18069255126654
 40
24.18069255126654
 40
27.5472748711794
 40
27.5472748711794
 40
27.5472748711794
 40
27.5472748711794
 40
33.83780401072242
 40
33.83780401072242
 40
33.83780401072242
 40
33.83780401072242
 40
45.83860337601344
 40
45.83860337601344
 40
45.83860337601344
 40
45.83860337601344
 40
53.44617230019723
 40
53.44617230019723
 40
53.44617230019723
 40
53.44617230019723
 40
55.30369930044709
 40
55.30369930044709
 40
55.30369930044709
 40
55.30369930044709
 40
55.49631851918093
 40
55.49631851918093
 40
55.49631851918093
 40
55.49631851918093
 40
55.49631851918093
 10
1011.510448966506
 20
154.0703746685943
 30
0.0
 41
1.001103981241395
 10
1011.022049466358
 20
154.7559411869162
 30
0.0
 41
1.001103981241395
 10
1010.53842564641
 20
155.4348047684456
 30
0.0
 41
1.001103981241395
 10
1010.070128767255
 20
156.0921480451993
 30
0.0
 41
1.001103981241395
 10
1009.627710089486
 20
156.7131536491947
 30
0.0
 41
1.001103981241395
 10
1008.731404663103
 20
157.9712621347632
 30
0.0
 41
1.001103981241395
 10
1007.843524498113
 20
159.2175028291569
 30
0.0
 41
1.001103981241395
 10
1006.961099703908
 20
160.4560738092814
 30
0.0
 41
1.001103981241395
 10
1006.081160389881
 20
161.6911731520427
 30
0.0
 41
1.001103981241395
 10
1004.447345567832
 20
163.9844263125029
 30
0.0
 41
1.001103981241395
 10
1002.85358831345
 20
166.2215154079228
 30
0.0
 41
1.001103981241395
 10
1001.474262048301
 20
168.1576330615444
 30
0.0
 41
1.001103981241395
 10
1000.483740193954
 20
169.5479718966098
 30
0.0
 41
1.001103981241395
 10
999.8755016332423
 20
170.4017215521367
 30
0.0
 41
1.001103981241395
 10
999.4653117791693
 20
170.9774712212733
 30
0.0
 41
1.001103981241395
 10
999.2314592868993
 20
171.3057087067446
 30
0.0
 41
1.001103981241395
 10
999.1522328115965
 20
171.4169218112754
 30
0.0
 41
1.001103981241395
 10
999.1326422463833
 20
171.4444218050405
 30
0.0
 41
1.001103981241395
 10
999.1222848340735
 20
171.4589592373575
 30
0.0
 41
1.001103981241395
 10
999.1174481382576
 20
171.465746482264
 30
0.0
 41
1.001103981241395
 10
999.1144197225263
 20
171.469995913797
 30
0.0
 41
1.001103981241395
 10
999.1141055156182
 20
171.4704368046331
 30
0.0
 41
1.001103981241395
 10
999.1138121495748
 20
171.4708484570583
 30
0.0
 41
1.001103981241395
 10
999.1135381306198
 20
171.4712329685694
 30
0.0
 41
1.001103981241395
 10
999.1132819649767
 20
171.4715924366631
 30
0.0
 41
1.001103981241395
  0
SPLINE
  5
94
330
1F
100
AcDbEntity
  8
2D
100
AcDbSpline
210
0.0
220
0.0
230
1.0
 70
    12
 71
     2
 72
     6
 73
     3
 74
     0
 42
0.0000000001
 43
0.0000000001
 40
-8.245533736269147
 40
-8.245533736269147
 40
-8.245533736269147
 40
-8.022972112041977
 40
-8.022972112041977
 40
-8.022972112041977
 10
1003.408351980783
 20
174.894905101265
 30
0.0
 41
0.8535537768736647
 10
1003.469514170299
 20
174.8259309692208
 30
0.0
 41
0.8535730258917255
 10
1003.525919921724
 20
174.7530157065951
 30
0.0
 41
0.8545514866765815
  0
SPLINE
  5
95
330
1F
100
AcDbEntity
  8
2D
100
AcDbSpline
210
0.0
220
0.0
230
1.0
 70
    12
 71
     2
 72
     6
 73
     3
 74
     0
 42
0.0000000001
 43
0.0000000001
 40
-10.06849886087273
 40
-10.06849886087273
 40
-10.06849886087273
 40
-9.636938927679108
 40
-9.636938927679108
 40
-9.636938927679108
 10
1002.187883025959
 20
175.6898715898287
 30
0.0
 41
0.9175917209453156
 10
1002.348942007441
 20
175.6384027672142
 30
0.0
 41
0.9023943632987473
 10
1002.50248259648
 20
175.5675908844908
 30
0.0
 41
0.890803590617278
  0
SPLINE
  5
96
330
1F
100
AcDbEntity
  8
2D
100
AcDbSpline
210
0.0
220
0.0
230
1.0
 70
    12
 71
     2
 72
     8
 73
     5
 74
     0
 42
0.0000000001
 43
0.0000000001
 40
-16.49834966899891
 40
-16.49834966899891
 40
-16.49834966899891
 40
-11.00000000000012
 40
-11.00000000000012
 40
-10.10135053222372
 40
-10.10135053222372
 40
-10.10135053222372
 10
998.6055741543307
 20
173.2326291350181
 30
0.0
 41
0.9998242815568172
 10
998.7677597767608
 20
175.9766735409316
 30
0.0
 41
0.7071946667791063
 10
1001.51187276495
 20
175.8156524683906
 30
0.0
 41
1.0
 10
1001.84498940315
 20
175.7961056062187
 30
0.0
 41
0.9521439390541773
 10
1002.163764023211
 20
175.6974571593398
 30
0.0
 41
0.9199263594533866
  0
SPLINE
  5
97
330
1F
100
AcDbEntity
  8
2D
100
AcDbSpline
210
0.0
220
0.0
230
1.0
 70
    12
 71
     2
 72
     6
 73
     3
 74
     0
 42
0.0000000001
 43
0.0000000001
 40
-16.94212949993961
 40
-16.94212949993961
 40
-16.94212949993961
 40
-16.51817343527976
 40
-16.51817343527976
 40
-16.51817343527976
 10
998.6053571674433
 20
172.9118340870422
 30
0.0
 41
0.9566956890904699
 10
998.5965000438432
 20
173.0652117190167
 30
0.0
 41
0.9756429406670614
 10
998.6047820894061
 20
173.2186214786471
 30
0.0
 41
0.99807080444192
  0
SPLINE
  5
98
330
1F
100
AcDbEntity
  8
2D
100
AcDbSpline
210
0.0
220
0.0
230
1.0
 70
    12
 71
     2
 72
     6
 73
     3
 74
     0
 42
0.0000000001
 43
0.0000000001
 40
-17.2612873128197
 40
-17.2612873128197
 40
-17.2612873128197
 40
-16.9701287387432
 40
-16.9701287387432
 40
-16.9701287387432
 10
998.6295253986312
 20
172.6738205088306
 30
0.0
 41
0.9301409133252321
 10
998.6137564932027
 20
172.782030845579
 30
0.0
 41
0.9413537516876718
 10
998.6066297208375
 20
172.8911516248706
 30
0.0
 41
0.9542082118137796
  0
SPLINE
  5
99
330
1F
100
AcDbEntity
  8
2D
100
AcDbSpline
210
0.0
220
0.0
230
1.0
 70
    12
 71
     2
 72
     6
 73
     3
 74
     0
 42
0.0000000001
 43
0.0000000001
 40
-17.46696382450529
 40
-17.46696382450529
 40
-17.46696382450529
 40
-17.34540442700664
 40
-17.34540442700664
 40
-17.34540442700664
 10
998.65671830115
 20
172.5185472030905
 30
0.0
 41
0.9151184414524156
 10
998.6473372932654
 20
172.564346020614
 30
0.0
 41
0.9193156700853866
 10
998.6395184060854
 20
172.6104372345135
 30
0.0
 41
0.9237990469136663
  0
SPLINE
  5
9A
330
1F
100
AcDbEntity
  8
2D
100
AcDbSpline
210
0.0
220
0.0
230
1.0
 70
    12
 71
     2
 72
     6
 73
     3
 74
     0
 42
0.0000000001
 43
0.0000000001
 40
-18.31932064041137
 40
-18.31932064041137
 40
-18.31932064041137
 40
-18.11562047473493
 40
-18.11562047473493
 40
-18.11562047473493
 10
998.8724501617623
 20
171.8785841483827
 30
0.0
 41
0.8703265200206904
 10
998.8367390531223
 20
171.952845542454
 30
0.0
 41
0.8739976976481673
 10
998.8055383955282
 20
172.0291118973913
 30
0.0
 41
0.8784723952884602
  0
SPLINE
  5
9B
330
1F
100
AcDbEntity
  8
2D
100
AcDbSpline
210
0.0
220
0.0
230
1.0
 70
     8
 71
     3
 72
     8
 73
     4
 74
     0
 42
0.0000000001
 43
0.0000000001
 40
11.31938573005181
 40
11.31938573005181
 40
11.31938573005181
 40
11.31938573005181
 40
11.31981777169053
 40
11.31981777169053
 40
11.31981777169053
 40
11.31981777169053
 10
1003.55753048487
 20
174.711335485171
 30
0.0
 10
1003.557614709023
 20
174.7112222798698
 30
0.0
 10
1003.557698923949
 20
174.7111090687522
 30
0.0
 10
1003.557783129647
 20
174.7109958518196
 30
0.0
  0
SPLINE
  5
9C
330
1F
100
AcDbEntity
  8
2D
100
AcDbSpline
210
0.0
220
0.0
230
1.0
 70
     8
 71
     3
 72
     8
 73
     4
 74
     0
 42
0.0000000001
 43
0.0000000001
 40
11.4603500026549
 40
11.4603500026549
 40
11.4603500026549
 40
11.4603500026549
 40
11.46136558114062
 40
11.46136558114062
 40
11.46136558114062
 40
11.46136558114062
 10
1003.637010264556
 20
174.5987104542806
 30
0.0
 10
1003.637193991321
 20
174.5984357189369
 30
0.0
 10
1003.637377666372
 20
174.5981609535609
 30
0.0
 10
1003.637561289705
 20
174.5978861581677
 30
0.0
  0
SPLINE
  5
9D
330
1F
100
AcDbEntity
  8
2D
100
AcDbSpline
210
0.0
220
0.0
230
1.0
 70
     8
 71
     3
 72
     8
 73
     4
 74
     0
 42
0.0000000001
 43
0.0000000001
 40
11.46239700944856
 40
11.46239700944856
 40
11.46239700944856
 40
11.46239700944856
 40
11.64837063328244
 40
11.64837063328244
 40
11.64837063328244
 40
11.64837063328244
 10
1003.638120596923
 20
174.5970488131777
 30
0.0
 10
1003.671726624929
 20
174.5467168773316
 30
0.0
 10
1003.703598195414
 20
174.4953788869568
 30
0.0
 10
1003.733703113735
 20
174.4431279992453
 30
0.0
  0
SPLINE
  5
9E
330
1F
100
AcDbEntity
  8
2D
100
AcDbSpline
210
0.0
220
0.0
230
1.0
 70
    28
 71
     4
 72
    10
 73
     5
 74
     0
 42
0.0000000001
 43
0.0000000001
 40
66.63182956351667
 40
66.63182956351667
 40
66.63182956351667
 40
66.63182956351667
 40
66.63182956351667
 40
67.62154797261674
 40
67.62154797261674
 40
67.62154797261674
 40
67.62154797261674
 40
67.62154797261674
 10
1003.639632138978
 20
174.5942957739175
 30
0.0
 41
1.005750012133506
 10
1003.68578888193
 20
174.5138039658083
 30
0.0
 41
1.005750012133506
 10
1003.731945624883
 20
174.4333121576991
 30
0.0
 41
1.005750012133506
 10
1003.778102367836
 20
174.3528203495898
 30
0.0
 41
1.005750012133506
 10
1003.824259110789
 20
174.2723285414805
 30
0.0
 41
1.005750012133506
  0
SPLINE
  5
9F
330
1F
100
AcDbEntity
  8
2D
100
AcDbSpline
210
0.0
220
0.0
230
1.0
 70
    12
 71
     4
 72
    10
 73
     5
 74
     0
 42
0.0000000001
 43
0.0000000001
 40
23.64724632814728
 40
23.64724632814728
 40
23.64724632814728
 40
23.64724632814728
 40
23.64724632814728
 40
23.78782600826439
 40
23.78782600826439
 40
23.78782600826439
 40
23.78782600826439
 40
23.78782600826439
 10
998.8078170534856
 20
172.0241631399411
 30
0.0
 41
1.005750012133506
 10
998.8224566458634
 20
171.9885198723564
 30
0.0
 41
1.005750012133506
 10
998.8377622458737
 20
171.9531513767361
 30
0.0
 41
1.005750012133506
 10
998.8537275691499
 20
171.9180755912569
 30
0.0
 41
1.005750012133506
 10
998.8703463313255
 20
171.8833104540954
 30
0.0
 41
1.005750012133506
  0
SPLINE
  5
A0
330
1F
100
AcDbEntity
  8
2D
100
AcDbSpline
210
0.0
220
0.0
230
1.0
 70
    12
 71
     2
 72
     6
 73
     3
 74
     0
 42
0.0000000001
 43
0.0000000001
 40
-7.576482185692574
 40
-7.576482185692574
 40
-7.576482185692574
 40
-7.575989558449489
 40
-7.575989558449489
 40
-7.575989558449489
 10
1003.730997767732
 20
174.4477196838539
 30
0.0
 41
0.8623377906848262
 10
1003.731098926335
 20
174.4475448698715
 30
0.0
 41
0.8623442158078256
 10
1003.731200059259
 20
174.4473700410319
 30
0.0
 41
0.8623506456303156
  0
SPLINE
  5
A1
330
1F
100
AcDbEntity
  8
2D
100
AcDbSpline
210
0.0
220
0.0
230
1.0
 70
    12
 71
     4
 72
    10
 73
     5
 74
     0
 42
0.0000000001
 43
0.0000000001
 40
0.1878773613060462
 40
0.1878773613060462
 40
0.1878773613060462
 40
0.1878773613060462
 40
0.1878773613060462
 40
0.3792946234038313
 40
0.3792946234038313
 40
0.3792946234038313
 40
0.3792946234038313
 40
0.3792946234038313
 10
1003.525919921724
 20
174.7530157065951
 30
0.0
 41
0.9951050184670422
 10
1003.555192825035
 20
174.715174859186
 30
0.0
 41
0.9952553823026341
 10
1003.583564785827
 20
174.676685062051
 30
0.0
 41
0.9954561109345671
 10
1003.611007944982
 20
174.637588523605
 30
0.0
 41
0.9957061332881523
 10
1003.63749962144
 20
174.5979311031417
 30
0.0
 41
0.9960032870333035
  0
SPLINE
  5
A2
330
1F
100
AcDbEntity
  8
2D
100
AcDbSpline
210
0.0
220
0.0
230
1.0
 70
    24
 71
     3
 72
     8
 73
     4
 74
     0
 42
0.0000000001
 43
0.0000000001
 40
28.00304608937211
 40
28.00304608937211
 40
28.00304608937211
 40
28.00304608937211
 40
29.0
 40
29.0
 40
29.0
 40
29.0
 10
999.0631381427082
 20
171.5443230481444
 30
0.0
 10
999.0010764467407
 20
171.6525511870823
 30
0.0
 10
998.9390147507733
 20
171.7607793260204
 30
0.0
 10
998.8769530548057
 20
171.8690074649584
 30
0.0
  0
SPLINE
  5
A3
330
1F
100
AcDbEntity
  8
2D
100
AcDbSpline
210
0.0
220
0.0
230
1.0
 70
    12
 71
     2
 72
    10
 73
     7
 74
     0
 42
0.0000000001
 43
0.0000000001
 40
-1271.449722341623
 40
-1271.449722341623
 40
-1271.449722341623
 40
-1182.267450416978
 40
-1182.267450416978
 40
-1090.269517026928
 40
-1090.269517026928
 40
-1090.003102202639
 40
-1090.003102202639
 40
-1090.003102202639
 10
964.2714426484488
 20
134.0706809850493
 30
0.0
 41
0.9932680890141639
 10
969.3101987636669
 20
89.94023534787115
 30
0.0
 41
0.8900219529101493
 10
1007.776599316424
 20
67.73164863373165
 30
0.0
 41
1.0
 10
1047.612873022038
 20
44.73216528602553
 30
0.0
 41
0.886549727516598
 10
1089.263223065114
 20
64.25531252972769
 30
0.0
 41
1.0
 10
1089.383837412409
 20
64.31184918931167
 30
0.0
 41
0.9999988581804091
 10
1089.504280335895
 20
64.36875012807548
 30
0.0
 41
1.0
  0
SPLINE
  5
A4
330
1F
100
AcDbEntity
  8
2D
100
AcDbSpline
210
0.0
220
0.0
230
1.0
 70
    28
 71
     2
 72
     6
 73
     3
 74
     0
 42
0.0000000001
 43
0.0000000001
 40
0.0
 40
0.0
 40
0.0
 40
34.00000000000091
 40
34.00000000000091
 40
34.00000000000091
 10
838.8507833427393
 20
200.4866949605616
 30
0.0
 41
1.0
 10
855.8507833427398
 20
200.4866949605616
 30
0.0
 41
1.0
 10
872.8507833427402
 20
200.4866949605616
 30
0.0
 41
1.0
  0
SPLINE
  5
A5
330
1F
100
AcDbEntity
  8
2D
100
AcDbSpline
210
0.0
220
0.0
230
1.0
 70
    28
 71
     2
 72
     6
 73
     3
 74
     0
 42
0.0000000001
 43
0.0000000001
 40
0.0
 40
0.0
 40
0.0
 40
34.00000000000091
 40
34.00000000000091
 40
34.00000000000091
 10
838.8507833427393
 20
87.65405437662683
 30
0.0
 41
1.0
 10
855.8507833427398
 20
87.65405437662683
 30
0.0
 41
1.0
 10
872.8507833427402
 20
87.65405437662683
 30
0.0
 41
1.0
  0
SPLINE
  5
A6
330
1F
100
AcDbEntity
  8
2D
100
AcDbSpline
210
0.0
220
0.0
230
1.0
 70
    28
 71
     2
 72
     8
 73
     5
 74
     0
 42
0.0000000001
 43
0.0000000001
 40
-1873.991687007168
 40
-1873.991687007168
 40
-1873.991687007168
 40
-1761.159046423233
 40
-1761.159046423233
 40
-1648.326405839298
 40
-1648.326405839298
 40
-1648.326405839298
 10
838.8507833427393
 20
200.4866949605616
 30
0.0
 41
1.0
 10
838.8507833427394
 20
200.4866949605617
 30
0.0
 41
0.7071067811865469
 10
838.8507833427393
 20
144.0703746685944
 30
0.0
 41
1.0
 10
838.8507833427394
 20
87.65405437662685
 30
0.0
 41
0.7071067811865469
 10
838.8507833427393
 20
87.65405437662683
 30
0.0
 41
1.0
  0
SPLINE
  5
A7
330
1F
100
AcDbEntity
  8
2D
100
AcDbSpline
210
0.0
220
0.0
230
1.0
 70
    28
 71
     2
 72
     6
 73
     3
 74
     0
 42
0.0000000001
 43
0.0000000001
 40
-1088.08129330701
 40
-1088.08129330701
 40
-1088.08129330701
 40
-1081.658127503171
 40
-1081.658127503171
 40
-1081.658127503171
 10
1091.109202432731
 20
64.16155303594348
 30
0.0
 41
1.0
 10
1093.569417668363
 20
62.09718733910859
 30
0.0
 41
1.0
 10
1096.029632903994
 20
60.03282164227357
 30
0.0
 41
1.0
  0
SPLINE
  5
A8
330
1F
100
AcDbEntity
  8
2D
100
AcDbSpline
210
0.0
220
0.0
230
1.0
 70
    12
 71
     2
 72
     6
 73
     3
 74
     0
 42
0.0000000001
 43
0.0000000001
 40
-1090.003102202639
 40
-1090.003102202639
 40
-1090.003102202639
 40
-1088.08129330701
 40
-1088.08129330701
 40
-1088.08129330701
 10
1089.504280335895
 20
64.36875012807548
 30
0.0
 41
1.0
 10
1090.373106920115
 20
64.77921050909113
 30
0.0
 41
0.8420408031879267
 10
1091.109202432731
 20
64.16155303594348
 30
0.0
 41
1.0
  0
SPLINE
  5
A9
330
1F
100
AcDbEntity
  8
2D
100
AcDbSpline
210
0.0
220
0.0
230
1.0
 70
    12
 71
     2
 72
    10
 73
     7
 74
     0
 42
0.0000000001
 43
0.0000000001
 40
-1486.953765069082
 40
-1486.953765069082
 40
-1486.953765069082
 40
-1486.687350245739
 40
-1486.687350245739
 40
-1394.689416854498
 40
-1394.689416854498
 40
-1305.507902069213
 40
-1305.507902069213
 40
-1305.507902069213
 10
1089.504280335895
 20
223.7719992091136
 30
0.0
 41
1.0
 10
1089.383837412836
 20
223.8289001476753
 30
0.0
 41
0.9999988581804168
 10
1089.26322306597
 20
223.8854368070599
 30
0.0
 41
1.0
 10
1047.612873022565
 20
243.4085840514619
 30
0.0
 41
0.8865497275141411
 10
1007.776599316432
 20
220.4091007034623
 30
0.0
 41
1.0
 10
969.3105656890459
 20
198.2007258337899
 30
0.0
 41
0.8900228866004565
 10
964.2715193139376
 20
154.0707397811682
 30
0.0
 41
0.9932663359492949
  0
SPLINE
  5
AA
330
1F
100
AcDbEntity
  8
2D
100
AcDbSpline
210
0.0
220
0.0
230
1.0
 70
    12
 71
     2
 72
     6
 73
     3
 74
     0
 42
0.0000000001
 43
0.0000000001
 40
-1488.875573964711
 40
-1488.875573964711
 40
-1488.875573964711
 40
-1486.953765069082
 40
-1486.953765069082
 40
-1486.953765069082
 10
1091.109202432731
 20
223.9791963012457
 30
0.0
 41
1.0
 10
1090.373106920114
 20
223.3615388280979
 30
0.0
 41
0.8420408031878932
 10
1089.504280335895
 20
223.7719992091136
 30
0.0
 41
1.0
  0
SPLINE
  5
AB
330
1F
100
AcDbEntity
  8
2D
100
AcDbSpline
210
0.0
220
0.0
230
1.0
 70
    28
 71
     2
 72
     6
 73
     3
 74
     0
 42
0.0000000001
 43
0.0000000001
 40
-1495.29873976855
 40
-1495.29873976855
 40
-1495.29873976855
 40
-1488.875573964711
 40
-1488.875573964711
 40
-1488.875573964711
 10
1096.029632903993
 20
228.1079276949155
 30
0.0
 41
1.0
 10
1093.569417668362
 20
226.0435619980806
 30
0.0
 41
1.0
 10
1091.109202432731
 20
223.9791963012457
 30
0.0
 41
1.0
  0
SPLINE
  5
AC
330
1F
100
AcDbEntity
  8
2D
100
AcDbSpline
210
0.0
220
0.0
230
1.0
 70
    12
 71
     2
 72
     8
 73
     5
 74
     0
 42
0.0000000001
 43
0.0000000001
 40
-1506.502060379905
 40
-1506.502060379905
 40
-1506.502060379905
 40
-1500.900400074227
 40
-1500.900400074227
 40
-1495.29873976855
 40
-1495.29873976855
 40
-1495.29873976855
 10
1102.540014354789
 20
224.3491572117719
 30
0.0
 41
1.0
 10
1103.026373406783
 20
227.1074364611579
 30
0.0
 41
0.819152044288992
 10
1100.60078334274
 20
228.5078515375774
 30
0.0
 41
1.0
 10
1098.175193278696
 20
229.9082666139968
 30
0.0
 41
0.819152044288992
 10
1096.029632903993
 20
228.1079276949155
 30
0.0
 41
1.0
  0
SPLINE
  5
AD
330
1F
100
AcDbEntity
  8
2D
100
AcDbSpline
210
0.0
220
0.0
230
1.0
 70
    28
 71
     2
 72
     6
 73
     3
 74
     0
 42
0.0000000001
 43
0.0000000001
 40
-1512.925226183744
 40
-1512.925226183744
 40
-1512.925226183744
 40
-1506.502060379905
 40
-1506.502060379905
 40
-1506.502060379905
 10
1101.4246433181
 20
218.0235737292686
 30
0.0
 41
1.0
 10
1101.982328836444
 20
221.1863654705203
 30
0.0
 41
1.0
 10
1102.540014354789
 20
224.3491572117719
 30
0.0
 41
1.0
  0
SPLINE
  5
AE
330
1F
100
AcDbEntity
  8
2D
100
AcDbSpline
210
0.0
220
0.0
230
1.0
 70
    12
 71
     2
 72
     6
 73
     3
 74
     0
 42
0.0000000001
 43
0.0000000001
 40
-1514.847035079373
 40
-1514.847035079373
 40
-1514.847035079373
 40
-1512.925226183744
 40
-1512.925226183744
 40
-1512.925226183744
 10
1102.047666421141
 20
216.5300718762478
 30
0.0
 41
1.0
 10
1101.257784011824
 20
217.077267579157
 30
0.0
 41
0.84204080318788
 10
1101.4246433181
 20
218.0235737292686
 30
0.0
 41
1.0
  0
SPLINE
  5
AF
330
1F
100
AcDbEntity
  8
2D
100
AcDbSpline
210
0.0
220
0.0
230
1.0
 70
    12
 71
     2
 72
    12
 73
     9
 74
     0
 42
0.0000000001
 43
0.0000000001
 40
-1699.375731507578
 40
-1699.375731507578
 40
-1699.375731507578
 40
-1699.109316684457
 40
-1699.109316684457
 40
-1607.111383293511
 40
-1607.111383293511
 40
-1515.113449902564
 40
-1515.113449902564
 40
-1514.847035079373
 40
-1514.847035079373
 40
-1514.847035079373
 10
1102.047666421141
 20
71.61067746094147
 30
0.0
 41
1.0
 10
1102.157165540873
 20
71.68653362267221
 30
0.0
 41
0.9999988581804181
 10
1102.266434897486
 20
71.76272038136278
 30
0.0
 41
1.0
 10
1139.999151394611
 20
98.07140797308568
 30
0.0
 41
0.8865497275147488
 10
1139.99915139463
 20
144.070374668559
 30
0.0
 41
1.0
 10
1139.999151394648
 20
190.0693413640323
 30
0.0
 41
0.8865497275147488
 10
1102.266434897545
 20
216.3780289557856
 30
0.0
 41
1.0
 10
1102.157165540902
 20
216.4542157144965
 30
0.0
 41
0.9999988581804184
 10
1102.047666421141
 20
216.5300718762478
 30
0.0
 41
1.0
  0
SPLINE
  5
B0
330
1F
100
AcDbEntity
  8
2D
100
AcDbSpline
210
0.0
220
0.0
230
1.0
 70
    12
 71
     2
 72
     6
 73
     3
 74
     0
 42
0.0000000001
 43
0.0000000001
 40
-1701.297540403207
 40
-1701.297540403207
 40
-1701.297540403207
 40
-1699.375731507578
 40
-1699.375731507578
 40
-1699.375731507578
 10
1101.4246433181
 20
70.11717560792044
 30
0.0
 41
1.0
 10
1101.257784011825
 20
71.06348175803204
 30
0.0
 41
0.8420408031879083
 10
1102.047666421141
 20
71.61067746094147
 30
0.0
 41
1.0
  0
SPLINE
  5
B1
330
1F
100
AcDbEntity
  8
2D
100
AcDbSpline
210
0.0
220
0.0
230
1.0
 70
    28
 71
     2
 72
     6
 73
     3
 74
     0
 42
0.0000000001
 43
0.0000000001
 40
-1707.720706207045
 40
-1707.720706207045
 40
-1707.720706207045
 40
-1701.297540403207
 40
-1701.297540403207
 40
-1701.297540403207
 10
1102.540014354789
 20
63.79159212541742
 30
0.0
 41
1.0
 10
1101.982328836444
 20
66.95438386666899
 30
0.0
 41
1.0
 10
1101.4246433181
 20
70.11717560792044
 30
0.0
 41
1.0
  0
SPLINE
  5
B2
330
1F
100
AcDbEntity
  8
2D
100
AcDbSpline
210
0.0
220
0.0
230
1.0
 70
    12
 71
     2
 72
     8
 73
     5
 74
     0
 42
0.0000000001
 43
0.0000000001
 40
-1718.924026818401
 40
-1718.924026818401
 40
-1718.924026818401
 40
-1713.322366512723
 40
-1713.322366512723
 40
-1707.720706207045
 40
-1707.720706207045
 40
-1707.720706207045
 10
1096.029632903994
 20
60.03282164227357
 30
0.0
 41
1.0
 10
1098.175193278696
 20
58.23248272319208
 30
0.0
 41
0.8191520442889764
 10
1100.60078334274
 20
59.63289779961167
 30
0.0
 41
1.0
 10
1103.026373406784
 20
61.03331287603119
 30
0.0
 41
0.8191520442889764
 10
1102.540014354789
 20
63.79159212541742
 30
0.0
 41
1.0
  0
SPLINE
  5
B3
330
1F
100
AcDbEntity
  8
2D
100
AcDbSpline
210
0.0
220
0.0
230
1.0
 70
    24
 71
     3
 72
     8
 73
     4
 74
     0
 42
0.0000000001
 43
0.0000000001
 40
3.293460375629065
 40
3.293460375629065
 40
3.293460375629065
 40
3.293460375629065
 40
3.302265168021963
 40
3.302265168021963
 40
3.302265168021963
 40
3.302265168021963
 10
999.1083077854765
 20
171.4786416683819
 30
0.0
 10
999.1085030561634
 20
171.4783779515285
 30
0.0
 10
999.1086983268501
 20
171.4781142346753
 30
0.0
 10
999.108893597537
 20
171.4778505178219
 30
0.0
  0
SPLINE
  5
B4
330
1F
100
AcDbEntity
  8
2D
100
AcDbSpline
210
0.0
220
0.0
230
1.0
 70
    28
 71
     4
 72
    10
 73
     5
 74
     0
 42
0.0000000001
 43
0.0000000001
 40
34.66458396047194
 40
34.66458396047194
 40
34.66458396047194
 40
34.66458396047194
 40
34.66458396047194
 40
35.02677334674204
 40
35.02677334674204
 40
35.02677334674204
 40
35.02677334674204
 40
35.02677334674204
 10
999.1110876661503
 20
171.4746745621731
 30
0.0
 41
1.005750012133506
 10
999.1111744735466
 20
171.4745528099372
 30
0.0
 41
1.005750012133506
 10
999.1112612809428
 20
171.4744310577013
 30
0.0
 41
1.005750012133506
 10
999.1113480883392
 20
171.4743093054655
 30
0.0
 41
1.005750012133506
 10
999.1114348957357
 20
171.4741875532296
 30
0.0
 41
1.005750012133506
  0
SPLINE
  5
B5
330
1F
100
AcDbEntity
  8
2D
100
AcDbSpline
210
0.0
220
0.0
230
1.0
 70
    28
 71
     4
 72
    10
 73
     5
 74
     0
 42
0.0000000001
 43
0.0000000001
 40
55.62154797261674
 40
55.62154797261674
 40
55.62154797261674
 40
55.62154797261674
 40
55.62154797261674
 40
55.87538466776892
 40
55.87538466776892
 40
55.87538466776892
 40
55.87538466776892
 40
55.87538466776892
 10
1003.59401892371
 20
174.6610874024463
 30
0.0
 41
1.005750012133506
 10
1003.593746369257
 20
174.6614710238663
 30
0.0
 41
1.005750012133506
 10
1003.593473814804
 20
174.6618546452862
 30
0.0
 41
1.005750012133506
 10
1003.593201260352
 20
174.6622382667062
 30
0.0
 41
1.005750012133506
 10
1003.592928705899
 20
174.6626218881261
 30
0.0
 41
1.005750012133506
  0
SPLINE
  5
B6
330
1F
100
AcDbEntity
  8
2D
100
AcDbSpline
210
0.0
220
0.0
230
1.0
 70
    28
 71
     4
 72
    10
 73
     5
 74
     0
 42
0.0000000001
 43
0.0000000001
 40
10.69593252217782
 40
10.69593252217782
 40
10.69593252217782
 40
10.69593252217782
 40
10.69593252217782
 40
11.092264733091
 40
11.092264733091
 40
11.092264733091
 40
11.092264733091
 40
11.092264733091
 10
1003.588693367031
 20
174.6685798507697
 30
0.0
 41
1.005750012133506
 10
1003.588788125086
 20
174.6684472387543
 30
0.0
 41
1.005750012133506
 10
1003.588882883142
 20
174.6683146267391
 30
0.0
 41
1.005750012133506
 10
1003.588977641198
 20
174.6681820147238
 30
0.0
 41
1.005750012133506
 10
1003.589072399253
 20
174.6680494027085
 30
0.0
 41
1.005750012133506
  0
SPLINE
  5
B7
330
1F
100
AcDbEntity
  8
2D
100
AcDbSpline
210
0.0
220
0.0
230
1.0
 70
    12
 71
     4
 72
    10
 73
     5
 74
     0
 42
0.0000000001
 43
0.0000000001
 40
23.9782850932289
 40
23.9782850932289
 40
23.9782850932289
 40
23.9782850932289
 40
23.9782850932289
 40
24.12568022987665
 40
24.12568022987665
 40
24.12568022987665
 40
24.12568022987665
 40
24.12568022987665
 10
998.9730800179138
 20
171.6895077483104
 30
0.0
 41
1.005750012133506
 10
998.9949341048533
 20
171.6518049330988
 30
0.0
 41
1.005750012133506
 10
999.0174048172734
 20
171.6146914549532
 30
0.0
 41
1.005750012133506
 10
999.0400146686438
 20
171.5789899599008
 30
0.0
 41
1.005750012133506
 10
999.0622861724346
 20
171.5455230939681
 30
0.0
 41
1.005750012133506
  0
SPLINE
  5
B8
330
1F
100
AcDbEntity
  8
2D
100
AcDbSpline
210
0.0
220
0.0
230
1.0
 70
    12
 71
     2
 72
     6
 73
     3
 74
     0
 42
0.0000000001
 43
0.0000000001
 40
-7.397051265493374
 40
-7.397051265493374
 40
-7.397051265493374
 40
-7.387031662131259
 40
-7.387031662131259
 40
-7.387031662131259
 10
1003.801051284258
 20
174.3188485428784
 30
0.0
 41
0.8676417295479472
 10
1003.802904513052
 20
174.3152113765778
 30
0.0
 41
0.8678072255064334
 10
1003.804746935718
 20
174.3115687244695
 30
0.0
 41
0.8679746655487726
  0
SPLINE
  5
B9
330
1F
100
AcDbEntity
  8
2D
100
AcDbSpline
210
0.0
220
0.0
230
1.0
 70
    24
 71
     3
 72
     8
 73
     4
 74
     0
 42
0.0000000001
 43
0.0000000001
 40
2.277322297284377
 40
2.277322297284377
 40
2.277322297284377
 40
2.277322297284377
 40
3.277322297284377
 40
3.277322297284377
 40
3.277322297284377
 40
3.277322297284377
 10
999.1082788040267
 20
171.4786202088978
 30
0.0
 10
999.1079305578721
 20
171.4791107219215
 30
0.0
 10
999.1075823117175
 20
171.4796012349452
 30
0.0
 10
999.1072340655629
 20
171.4800917479689
 30
0.0
  0
SPLINE
  5
BA
330
1F
100
AcDbEntity
  8
2D
100
AcDbSpline
210
0.0
220
0.0
230
1.0
 70
     8
 71
     3
 72
    23
 73
    19
 74
     0
 42
0.0000000001
 43
0.0000000001
 40
0.0
 40
0.0
 40
0.0
 40
0.0
 40
0.1925371201430309
 40
0.1925371201430309
 40
0.1925371201430309
 40
2.048203184298908
 40
2.048203184298908
 40
2.048203184298908
 40
9.659116158376952
 40
9.659116158376952
 40
9.659116158376952
 40
21.65924791295851
 40
21.65924791295851
 40
21.65924791295851
 40
27.94862233504496
 40
27.94862233504496
 40
27.94862233504496
 40
35.28383473114177
 40
35.28383473114177
 40
35.28383473114177
 40
35.28383473114177
 10
1003.592938124069
 20
174.6626285793084
 30
0.0
 10
1003.593341515268
 20
174.6620620862539
 30
0.0
 10
1003.593770027007
 20
174.661460222958
 30
0.0
 10
1003.594232932758
 20
174.6608099748879
 30
0.0
 10
1003.598751050342
 20
174.6544633325507
 30
0.0
 10
1003.605349510652
 20
174.6451899201708
 30
0.0
 10
1003.631598347579
 20
174.6083424909976
 30
0.0
 10
1003.736429531569
 20
174.4611832230275
 30
0.0
 10
1004.152669531624
 20
173.8769672359857
 30
0.0
 10
1004.96359300422
 20
172.7387257390976
 30
0.0
 10
1006.283691796978
 20
170.8857873587352
 30
0.0
 10
1008.384369436024
 20
167.9370783331644
 30
0.0
 10
1010.561241909059
 20
164.881607138797
 30
0.0
 10
1011.734502018008
 20
163.2348122480545
 30
0.0
 10
1012.912075279854
 20
161.5820234144198
 30
0.0
 10
1014.107250699976
 20
159.9043969964298
 30
0.0
 10
1015.393270393157
 20
158.0992556129867
 30
0.0
 10
1016.923295481858
 20
155.9513976041354
 30
0.0
 10
1018.263406342191
 20
154.0703746685944
 30
0.0
  0
SPLINE
  5
BB
330
1F
100
AcDbEntity
  8
2D
100
AcDbSpline
210
0.0
220
0.0
230
1.0
 70
    12
 71
     2
 72
     6
 73
     3
 74
     0
 42
0.0000000001
 43
0.0000000001
 40
-18.0745803582426
 40
-18.0745803582426
 40
-18.0745803582426
 40
-13.25315761005485
 40
-13.25315761005485
 40
-13.25315761005485
 10
1007.97596140578
 20
154.0703746685942
 30
0.0
 41
0.9059833178205232
 10
1008.389789728983
 20
155.8860390678929
 30
0.0
 41
0.9153717265132243
 10
1008.952220840786
 20
157.6613030866917
 30
0.0
 41
0.9264412784468676
  0
SPLINE
  5
BC
330
1F
100
AcDbEntity
  8
2D
100
AcDbSpline
210
0.0
220
0.0
230
1.0
 70
    12
 71
     2
 72
    14
 73
    11
 74
     0
 42
0.0000000001
 43
0.0000000001
 40
-4.472047359730844
 40
-4.472047359730844
 40
-4.472047359730844
 40
-0.0000000000000036
 40
-0.0000000000000036
 40
89.99999999999754
 40
89.99999999999754
 40
179.999999999995
 40
179.999999999995
 40
269.9999999999925
 40
269.9999999999925
 40
317.0484413303723
 40
317.0484413303723
 40
317.0484413303723
 10
1011.376177484347
 20
163.7377659701293
 30
0.0
 41
0.9723389434950792
 10
1012.077411022428
 20
165.1808730214582
 30
0.0
 41
0.9854463072680244
 10
1012.879640172441
 20
166.5703746685938
 30
0.0
 41
1.0
 10
1035.37964017244
 20
205.5415178388924
 30
0.0
 41
0.707106781186548
 10
1074.350783342739
 20
183.0415178388934
 30
0.0
 41
1.0
 10
1113.321926513038
 20
160.5415178388939
 30
0.0
 41
0.707106781186548
 10
1090.821926513039
 20
121.5703746685953
 30
0.0
 41
1.0
 10
1068.321926513039
 20
82.59923149829636
 30
0.0
 41
0.707106781186548
 10
1029.350783342741
 20
105.0992314982957
 30
0.0
 41
1.0
 10
1012.340740447721
 20
114.9199843426621
 30
0.0
 41
0.8468870064287652
 10
1007.97596140578
 20
134.0703746685944
 30
0.0
 41
0.8538568505232025
  0
SPLINE
  5
BD
330
1F
100
AcDbEntity
  8
2D
100
AcDbSpline
210
0.0
220
0.0
230
1.0
 70
    24
 71
     3
 72
     8
 73
     4
 74
     0
 42
0.0000000001
 43
0.0000000001
 40
3.370605492623981
 40
3.370605492623981
 40
3.370605492623981
 40
3.370605492623981
 40
3.518391166835214
 40
3.518391166835214
 40
3.518391166835214
 40
3.518391166835214
 10
999.1134405061499
 20
171.4717098294722
 30
0.0
 10
999.1167180632821
 20
171.4672834249388
 30
0.0
 10
999.1199956204143
 20
171.4628570204054
 30
0.0
 10
999.1232731775466
 20
171.458430615872
 30
0.0
  0
SPLINE
  5
BE
330
1F
100
AcDbEntity
  8
Make2D$Visibile$Curve
100
AcDbSpline
210
0.0
220
0.0
230
1.0
 70
    28
 71
     2
 72
     8
 73
     5
 74
     0
 42
0.0000000001
 43
0.0000000001
 40
-1444.687715043537
 40
-1444.687715043537
 40
-1444.687715043537
 40
-1394.689416854498
 40
-1394.689416854498
 40
-1360.73847223773
 40
-1360.73847223773
 40
-1360.73847223773
 10
1265.751355082685
 20
498.5063877785985
 30
0.0
 41
0.9437036631895632
 10
1265.751355082685
 20
498.5063877785987
 30
0.0
 41
0.9383429568004216
 10
1277.560997099707
 20
498.5063877785986
 30
0.0
 41
1.0
 10
1285.41461016452
 20
498.5063877785987
 30
0.0
 41
0.958132277802978
 10
1297.483453576111
 20
498.5063877785987
 30
0.0
 41
0.9471663088333095
  0
SPLINE
  5
BF
330
1F
100
AcDbEntity
  8
Make2D$Visibile$Curve
100
AcDbSpline
210
0.0
220
0.0
230
1.0
 70
    28
 71
     2
 72
     8
 73
     5
 74
     0
 42
0.0000000001
 43
0.0000000001
 40
-1216.218324490972
 40
-1216.218324490972
 40
-1216.218324490972
 40
-1182.267450416978
 40
-1182.267450416978
 40
-1132.269152228032
 40
-1132.269152228032
 40
-1132.269152228032
 10
1410.316043426542
 20
498.5063877785987
 30
0.0
 41
0.9471663544041615
 10
1422.384853135781
 20
498.5063877785988
 30
0.0
 41
0.9581323647954807
 10
1430.238449169438
 20
498.5063877785987
 30
0.0
 41
1.0
 10
1442.048091186464
 20
498.5063877785987
 30
0.0
 41
0.938342956801073
 10
1442.048091186465
 20
498.5063877785987
 30
0.0
 41
0.9437036631909013
  0
SPLINE
  5
C0
330
1F
100
AcDbEntity
  8
Make2D$Visibile$Curve
100
AcDbSpline
210
0.0
220
0.0
230
1.0
 70
    28
 71
     2
 72
     6
 73
     3
 74
     0
 42
0.0000000001
 43
0.0000000001
 40
-1318.661124671438
 40
-1318.661124671438
 40
-1318.661124671438
 40
-1214.661124671448
 40
-1214.661124671448
 40
-1214.661124671448
 10
1297.483402842608
 20
463.2885900964613
 30
0.0
 41
1.0
 10
1297.483402842608
 20
515.2885900964563
 30
0.0
 41
1.0
 10
1297.483402842608
 20
567.2885900964516
 30
0.0
 41
1.0
  0
SPLINE
  5
C1
330
1F
100
AcDbEntity
  8
Make2D$Visibile$Curve
100
AcDbSpline
210
0.0
220
0.0
230
1.0
 70
    12
 71
     2
 72
     8
 73
     5
 74
     0
 42
0.0000000001
 43
0.0000000001
 40
-1544.326405839308
 40
-1544.326405839308
 40
-1544.326405839308
 40
-1431.493765255373
 40
-1431.493765255373
 40
-1318.661124671438
 40
-1318.661124671438
 40
-1318.661124671438
 10
1410.316043426542
 20
463.2885900964615
 30
0.0
 41
1.0
 10
1410.316043426542
 20
406.8722698044942
 30
0.0
 41
0.7071067811865469
 10
1353.899723134575
 20
406.872269804494
 30
0.0
 41
1.0
 10
1297.483402842608
 20
406.8722698044938
 30
0.0
 41
0.7071067811865469
 10
1297.483402842608
 20
463.2885900964613
 30
0.0
 41
1.0
  0
SPLINE
  5
C2
330
1F
100
AcDbEntity
  8
Make2D$Visibile$Curve
100
AcDbSpline
210
0.0
220
0.0
230
1.0
 70
    28
 71
     2
 72
     6
 73
     3
 74
     0
 42
0.0000000001
 43
0.0000000001
 40
-1648.326405839298
 40
-1648.326405839298
 40
-1648.326405839298
 40
-1544.326405839308
 40
-1544.326405839308
 40
-1544.326405839308
 10
1410.316043426542
 20
567.2885900964516
 30
0.0
 41
1.0
 10
1410.316043426542
 20
515.2885900964566
 30
0.0
 41
1.0
 10
1410.316043426542
 20
463.2885900964615
 30
0.0
 41
1.0
  0
SPLINE
  5
C3
330
1F
100
AcDbEntity
  8
Make2D$Visibile$Curve
100
AcDbSpline
210
0.0
220
0.0
230
1.0
 70
    28
 71
     2
 72
     8
 73
     5
 74
     0
 42
0.0000000001
 43
0.0000000001
 40
-1216.218083398728
 40
-1216.218083398728
 40
-1216.218083398728
 40
-1182.267450416978
 40
-1182.267450416978
 40
-1132.269152228032
 40
-1132.269152228032
 40
-1132.269152228032
 10
1410.316216817108
 20
515.5621687402144
 30
0.0
 41
0.9471665101495776
 10
1422.384911342778
 20
515.5621687402144
 30
0.0
 41
0.9581326621062982
 10
1430.238449169438
 20
515.5621687402145
 30
0.0
 41
1.0
 10
1442.048091186464
 20
515.5621687402142
 30
0.0
 41
0.9383429568010733
 10
1442.048091186465
 20
515.5621687402142
 30
0.0
 41
0.9437036631909013
  0
SPLINE
  5
C4
330
1F
100
AcDbEntity
  8
Make2D$Visibile$Curve
100
AcDbSpline
210
0.0
220
0.0
230
1.0
 70
    28
 71
     2
 72
     8
 73
     5
 74
     0
 42
0.0000000001
 43
0.0000000001
 40
-1444.687715043537
 40
-1444.687715043537
 40
-1444.687715043537
 40
-1394.689416854498
 40
-1394.689416854498
 40
-1360.737818781645
 40
-1360.737818781645
 40
-1360.737818781645
 10
1265.751355082685
 20
515.5621687402141
 30
0.0
 41
0.9437036631895632
 10
1265.751355082685
 20
515.5621687402142
 30
0.0
 41
0.9383429568004216
 10
1277.560997099707
 20
515.5621687402142
 30
0.0
 41
1.0
 10
1285.414767928894
 20
515.5621687402142
 30
0.0
 41
0.9581314719721492
 10
1297.48392353598
 20
515.5621687402142
 30
0.0
 41
0.9471658867192914
  0
SPLINE
  5
C5
330
1F
100
AcDbEntity
  8
Make2D$Visibile$Curve
100
AcDbSpline
210
0.0
220
0.0
230
1.0
 70
    28
 71
     2
 72
     6
 73
     3
 74
     0
 42
0.0000000001
 43
0.0000000001
 40
0.0
 40
0.0
 40
0.0
 40
17.05578096161559
 40
17.05578096161559
 40
17.05578096161559
 10
1442.048091186464
 20
515.5621687402142
 30
0.0
 41
0.9437036631909015
 10
1442.048091186464
 20
507.0342782594065
 30
0.0
 41
0.9437036631909015
 10
1442.048091186464
 20
498.5063877785987
 30
0.0
 41
0.9437036631909015
  0
SPLINE
  5
C6
330
1F
100
AcDbEntity
  8
Make2D$Visibile$Curve
100
AcDbSpline
210
0.0
220
0.0
230
1.0
 70
    28
 71
     2
 72
     6
 73
     3
 74
     0
 42
0.0000000001
 43
0.0000000001
 40
0.0
 40
0.0
 40
0.0
 40
17.05578096161559
 40
17.05578096161559
 40
17.05578096161559
 10
1265.751355082685
 20
498.5063877785985
 30
0.0
 41
0.9437036631895633
 10
1265.751355082685
 20
507.0342782594063
 30
0.0
 41
0.9437036631895633
 10
1265.751355082685
 20
515.5621687402141
 30
0.0
 41
0.9437036631895633
  0
SPLINE
  5
C7
330
1F
100
AcDbEntity
  8
Make2D$Visibile$Curve
100
AcDbSpline
210
0.0
220
0.0
230
1.0
 70
    12
 71
     2
 72
     8
 73
     5
 74
     0
 42
0.0000000001
 43
0.0000000001
 40
-1873.991687007168
 40
-1873.991687007168
 40
-1873.991687007168
 40
-1761.159046423233
 40
-1761.159046423233
 40
-1648.326405839298
 40
-1648.326405839298
 40
-1648.326405839298
 10
1297.483402842608
 20
567.2885900964516
 30
0.0
 41
1.0
 10
1297.483402842607
 20
623.7049103884189
 30
0.0
 41
0.7071067811865469
 10
1353.899723134575
 20
623.704910388419
 30
0.0
 41
1.0
 10
1410.316043426542
 20
623.7049103884191
 30
0.0
 41
0.7071067811865469
 10
1410.316043426542
 20
567.2885900964516
 30
0.0
 41
1.0
  0
SPLINE
  5
C8
330
1F
100
AcDbEntity
  8
Make2D$Visibile$Curve
100
AcDbSpline
210
0.0
220
0.0
230
1.0
 70
    28
 71
     2
 72
     6
 73
     3
 74
     0
 42
0.0000000001
 43
0.0000000001
 40
0.0
 40
0.0
 40
0.0
 40
106.2770332606861
 40
106.2770332606861
 40
106.2770332606861
 10
1427.364712053595
 20
498.5063869934582
 30
0.0
 41
1.0
 10
1421.810216889766
 20
445.6589695244064
 30
0.0
 41
1.0
 10
1416.255721725937
 20
392.8115520553546
 30
0.0
 41
1.0
  0
SPLINE
  5
C9
330
1F
100
AcDbEntity
  8
Make2D$Visibile$Curve
100
AcDbSpline
210
0.0
220
0.0
230
1.0
 70
    12
 71
     2
 72
    12
 73
     9
 74
     0
 42
0.0000000001
 43
0.0000000001
 40
2.144354709701145
 40
2.144354709701145
 40
2.144354709701145
 40
23.84294622881829
 40
23.84294622881829
 40
49.73129387713671
 40
49.73129387713671
 40
75.61964152545517
 40
75.61964152545517
 40
92.5442164521917
 40
92.5442164521917
 40
92.5442164521917
 10
1352.098111155564
 20
336.8765883764607
 30
0.0
 41
0.9871252195958682
 10
1341.215707749823
 20
337.2250037197954
 30
0.0
 41
0.9234839659335443
 10
1331.092191807971
 20
341.2328113638611
 30
0.0
 41
0.8901650429449555
 10
1319.056850419349
 20
345.9974932681834
 30
0.0
 41
0.853553390593274
 10
1309.903937331429
 20
355.1504063561038
 30
0.0
 41
0.853553390593274
 10
1300.751024243508
 20
364.3033194440242
 30
0.0
 41
0.853553390593274
 10
1295.986342339186
 20
376.3386608326459
 30
0.0
 41
0.8901650429449555
 10
1292.83529953109
 20
384.2980328719834
 30
0.0
 41
0.9161533015884584
 10
1291.940492695068
 20
392.8115512260632
 30
0.0
 41
0.9605889545433135
  0
SPLINE
  5
CA
330
1F
100
AcDbEntity
  8
Make2D$Visibile$Curve
100
AcDbSpline
210
0.0
220
0.0
230
1.0
 70
    28
 71
     2
 72
     6
 73
     3
 74
     0
 42
0.0000000001
 43
0.0000000001
 40
3.999999995519492
 40
3.999999995519492
 40
3.999999995519492
 40
7.999999994790512
 40
7.999999994790512
 40
7.999999994790512
 10
1352.098111155564
 20
336.8765883764631
 30
0.0
 41
1.000000000274699
 10
1352.098111155564
 20
336.8765883764626
 30
0.0
 41
0.7071067812835766
 10
1354.098111155588
 20
336.8765883764621
 30
0.0
 41
1.0
  0
SPLINE
  5
CB
330
1F
100
AcDbEntity
  8
Make2D$Visibile$Curve
100
AcDbSpline
210
0.0
220
0.0
230
1.0
 70
    12
 71
     2
 72
    12
 73
     9
 74
     0
 42
0.0000000001
 43
0.0000000001
 40
0.0
 40
0.0
 40
0.0
 40
22.12244050092403
 40
22.12244050092403
 40
45.63199649689368
 40
45.63199649689368
 40
68.959614610773
 40
68.959614610773
 40
90.60547334702115
 40
90.60547334702115
 40
90.60547334702115
 10
1416.255729616108
 20
392.8115512260631
 30
0.0
 41
0.9605889545433134
 10
1415.099517261467
 20
381.8109254974872
 30
0.0
 41
0.9039376146293489
 10
1410.238019131292
 20
371.8753113061283
 30
0.0
 41
0.8772704612381514
 10
1405.071696613173
 20
361.3167168248212
 30
0.0
 41
0.8506033078469541
 10
1396.422423807271
 20
353.3565104386159
 30
0.0
 41
0.8539203409785239
 10
1387.84008677745
 20
345.4579072188487
 30
0.0
 41
0.8572373741100936
 10
1376.986560302089
 20
341.1864432115806
 30
0.0
 41
0.8905385937644305
 10
1366.915497764589
 20
337.2229221162449
 30
0.0
 41
0.9238398134187664
 10
1356.098111155611
 20
336.8765883764608
 30
0.0
 41
0.9871252195958682
  0
SPLINE
  5
CC
330
1F
100
AcDbEntity
  8
Make2D$Visibile$Curve
100
AcDbSpline
210
0.0
220
0.0
230
1.0
 70
    24
 71
     2
 72
     6
 73
     3
 74
     0
 42
0.0000000001
 43
0.0000000001
 40
10.91835420103014
 40
10.91835420103014
 40
10.91835420103014
 40
117.1953874617046
 40
117.1953874617046
 40
117.1953874617046
 10
1291.940492695068
 20
392.811551226063
 30
0.0
 10
1286.386005211377
 20
445.6589695023308
 30
0.0
 10
1280.831517727685
 20
498.5063877785985
 30
0.0
  0
SPLINE
  5
CD
330
1F
100
AcDbEntity
  8
Make2D$Visibile$Curve
100
AcDbSpline
210
0.0
220
0.0
230
1.0
 70
    28
 71
     2
 72
     6
 73
     3
 74
     0
 42
0.0000000001
 43
0.0000000001
 40
0.0
 40
0.0
 40
0.0
 40
4.000000000824351
 40
4.000000000824351
 40
4.000000000824351
 10
1354.098111155588
 20
336.8765883764621
 30
0.0
 41
1.0
 10
1356.098111155612
 20
336.8765883764625
 30
0.0
 41
0.7071067810894103
 10
1356.098111155612
 20
336.8765883764631
 30
0.0
 41
0.9999999997255138
  0
SPLINE
  5
CE
330
1F
100
AcDbEntity
  8
2D
100
AcDbSpline
210
0.0
220
0.0
230
1.0
 70
     8
 71
     3
 72
    29
 73
    25
 74
     0
 42
0.0000000001
 43
0.0000000001
 40
0.0
 40
0.0
 40
0.0
 40
0.0
 40
0.1854096440811434
 40
0.1854096440811434
 40
0.1854096440811434
 40
1.897630391935994
 40
1.897630391935994
 40
1.897630391935994
 40
4.787360560078231
 40
4.787360560078231
 40
8.244173223922061
 40
8.244173223922061
 40
8.244173223922061
 40
13.16501856923187
 40
13.16501856923187
 40
15.66425664850743
 40
15.66425664850743
 40
18.28799475135664
 40
18.28799475135664
 40
18.28799475135664
 40
24.41711546681924
 40
24.41711546681924
 40
24.41711546681924
 40
28.81866202890746
 40
28.81866202890746
 40
28.81866202890746
 40
28.81866202890746
 10
658.8508442707898
 20
524.6278915202345
 30
0.0
 10
658.8503397422168
 20
524.689657278567
 30
0.0
 10
658.8497225111618
 20
524.7514558803139
 30
0.0
 10
658.8489714363059
 20
524.8132836042068
 30
0.0
 10
658.8420795481314
 20
525.3806168810336
 30
0.0
 10
658.8239576767818
 20
525.9571899706505
 30
0.0
 10
658.785996415835
 20
526.5225586572762
 30
0.0
 10
658.7216007332651
 20
527.4816232818666
 30
0.0
 10
658.5968315289217
 20
528.445684510147
 30
0.0
 10
658.1403217428132
 20
530.4789492889415
 30
0.0
 10
657.7815815363665
 20
531.5049098878233
 30
0.0
 10
657.2751426177913
 20
532.4410873895481
 30
0.0
 10
656.5532047809486
 20
533.7756253480395
 30
0.0
 10
655.6250872326967
 20
534.7528635303788
 30
0.0
 10
654.0073973176928
 20
535.9142516508603
 30
0.0
 10
653.4285581993021
 20
536.2487066726558
 30
0.0
 10
652.209114193029
 20
536.8497309974341
 30
0.0
 10
651.5571508671143
 20
537.1169325575306
 30
0.0
 10
650.8965136209891
 20
537.3574758947868
 30
0.0
 10
649.3790720063276
 20
537.9099885970654
 30
0.0
 10
647.7176903517193
 20
538.3560937317213
 30
0.0
 10
646.1236078723681
 20
538.778452985732
 30
0.0
 10
644.9693314651075
 20
539.084283661753
 30
0.0
 10
643.772182532723
 20
539.3970846229197
 30
0.0
 10
642.6006990523301
 20
539.7455754856567
 30
0.0
  0
SPLINE
  5
CF
330
1F
100
AcDbEntity
  8
2D
100
AcDbSpline
210
0.0
220
0.0
230
1.0
 70
     8
 71
     3
 72
    11
 73
     7
 74
     0
 42
0.0000000001
 43
0.0000000001
 40
0.0
 40
0.0
 40
0.0
 40
0.0
 40
1.293764243819449
 40
1.293764243819449
 40
1.293764243819449
 40
3.368318804763071
 40
3.368318804763071
 40
3.368318804763071
 40
3.368318804763071
 10
664.3448239772641
 20
524.6548278051437
 30
0.0
 10
664.3473839153155
 20
524.2250006091097
 30
0.0
 10
664.3498362634065
 20
523.7937611928603
 30
0.0
 10
664.3514133438694
 20
523.361100057067
 30
0.0
 10
664.353928858661
 20
522.6709859427615
 30
0.0
 10
664.3542395691211
 20
521.9801390747816
 30
0.0
 10
664.3536846517428
 20
521.2885908815917
 30
0.0
  0
SPLINE
  5
D0
330
1F
100
AcDbEntity
  8
2D
100
AcDbSpline
210
0.0
220
0.0
230
1.0
 70
    28
 71
     2
 72
     6
 73
     3
 74
     0
 42
0.0000000001
 43
0.0000000001
 40
-1701.297540403207
 40
-1701.297540403207
 40
-1701.297540403207
 40
-1699.375731507578
 40
-1699.375731507578
 40
-1699.375731507578
 10
558.647499991656
 20
515.5621695253544
 30
0.0
 41
1.0
 10
559.5938061417676
 20
515.5621695253543
 30
0.0
 41
0.8420408031879083
 10
560.141001844677
 20
515.5621695253544
 30
0.0
 41
1.0
  0
SPLINE
  5
D1
330
1F
100
AcDbEntity
  8
2D
100
AcDbSpline
210
0.0
220
0.0
230
1.0
 70
    28
 71
     2
 72
     6
 73
     3
 74
     0
 42
0.0000000001
 43
0.0000000001
 40
-1514.847035079373
 40
-1514.847035079373
 40
-1514.847035079373
 40
-1512.925226183744
 40
-1512.925226183744
 40
-1512.925226183744
 10
705.0603962599833
 20
515.5621695253542
 30
0.0
 41
1.0
 10
705.6075919628927
 20
515.5621695253543
 30
0.0
 41
0.84204080318788
 10
706.5538981130042
 20
515.5621695253542
 30
0.0
 41
1.0
  0
SPLINE
  5
D2
330
1F
100
AcDbEntity
  8
2D
100
AcDbSpline
210
0.0
220
0.0
230
1.0
 70
    28
 71
     2
 72
     6
 73
     3
 74
     0
 42
0.0000000001
 43
0.0000000001
 40
0.0
 40
0.0
 40
0.0
 40
17.05578096161559
 40
17.05578096161559
 40
17.05578096161559
 10
720.74906710422
 20
515.5621695253548
 30
0.0
 41
0.9437036631895633
 10
720.74906710422
 20
507.034279044547
 30
0.0
 41
0.9437036631895633
 10
720.74906710422
 20
498.5063885637391
 30
0.0
 41
0.9437036631895633
  0
SPLINE
  5
D3
330
1F
100
AcDbEntity
  8
2D
100
AcDbSpline
210
0.0
220
0.0
230
1.0
 70
    28
 71
     2
 72
     6
 73
     3
 74
     0
 42
0.0000000001
 43
0.0000000001
 40
0.0
 40
0.0
 40
0.0
 40
17.05578096161559
 40
17.05578096161559
 40
17.05578096161559
 10
544.4523310004403
 20
498.5063885637389
 30
0.0
 41
0.9437036631909015
 10
544.4523310004403
 20
507.0342790445467
 30
0.0
 41
0.9437036631909015
 10
544.4523310004403
 20
515.5621695253545
 30
0.0
 41
0.9437036631909015
  0
SPLINE
  5
D4
330
1F
100
AcDbEntity
  8
2D
100
AcDbSpline
210
0.0
220
0.0
230
1.0
 70
    28
 71
     2
 72
     6
 73
     3
 74
     0
 42
0.0000000001
 43
0.0000000001
 40
-1132.269152228032
 40
-1132.269152228032
 40
-1132.269152228032
 40
-1106.782193554639
 40
-1106.782193554639
 40
-1106.782193554639
 10
544.4523310004403
 20
498.5063885637389
 30
0.0
 41
0.9437036631909015
 10
544.4523310004403
 20
498.5063885637389
 30
0.0
 41
0.9464363182445079
 10
547.627178528347
 20
498.506388563739
 30
0.0
 41
0.9665836503574599
  0
SPLINE
  5
D5
330
1F
100
AcDbEntity
  8
2D
100
AcDbSpline
210
0.0
220
0.0
230
1.0
 70
    28
 71
     2
 72
     6
 73
     3
 74
     0
 42
0.0000000001
 43
0.0000000001
 40
-1132.269152228032
 40
-1132.269152228032
 40
-1132.269152228032
 40
-1106.783549932654
 40
-1106.783549932654
 40
-1106.783549932654
 10
544.4523310004403
 20
515.5621695253545
 30
0.0
 41
0.9437036631909015
 10
544.4523310004404
 20
515.5621695253548
 30
0.0
 41
0.9464361728166724
 10
547.6268476587047
 20
515.5621695253545
 30
0.0
 41
0.9665815059847123
  0
SPLINE
  5
D6
330
1F
100
AcDbEntity
  8
2D
100
AcDbSpline
210
0.0
220
0.0
230
1.0
 70
    28
 71
     2
 72
     6
 73
     3
 74
     0
 42
0.0000000001
 43
0.0000000001
 40
-1470.175269221221
 40
-1470.175269221221
 40
-1470.175269221221
 40
-1444.687715043537
 40
-1444.687715043537
 40
-1444.687715043537
 10
717.5740743061751
 20
498.5063885637388
 30
0.0
 41
0.9665845918520497
 10
720.7490671042199
 20
498.5063885637389
 30
0.0
 41
0.946436382091461
 10
720.7490671042198
 20
498.5063885637388
 30
0.0
 41
0.9437036631895632
  0
SPLINE
  5
D7
330
1F
100
AcDbEntity
  8
2D
100
AcDbSpline
210
0.0
220
0.0
230
1.0
 70
    28
 71
     2
 72
     6
 73
     3
 74
     0
 42
0.0000000001
 43
0.0000000001
 40
-1470.175269221221
 40
-1470.175269221221
 40
-1470.175269221221
 40
-1444.687715043537
 40
-1444.687715043537
 40
-1444.687715043537
 10
717.5740743061751
 20
515.5621695253543
 30
0.0
 41
0.9665845918520497
 10
720.74906710422
 20
515.5621695253545
 30
0.0
 41
0.946436382091461
 10
720.7490671042198
 20
515.5621695253545
 30
0.0
 41
0.9437036631895632
  0
SPLINE
  5
D8
330
1F
100
AcDbEntity
  8
2D
100
AcDbSpline
210
0.0
220
0.0
230
1.0
 70
    28
 71
     2
 72
     6
 73
     3
 74
     0
 42
0.0000000001
 43
0.0000000001
 40
-1512.925226183744
 40
-1512.925226183744
 40
-1512.925226183744
 40
-1506.502060379905
 40
-1506.502060379905
 40
-1506.502060379905
 10
706.5538981130042
 20
498.5063885637388
 30
0.0
 41
1.0
 10
709.7166898542558
 20
498.5063885637388
 30
0.0
 41
1.0
 10
712.8794815955074
 20
498.5063885637388
 30
0.0
 41
1.0
  0
SPLINE
  5
D9
330
1F
100
AcDbEntity
  8
2D
100
AcDbSpline
210
0.0
220
0.0
230
1.0
 70
    28
 71
     2
 72
     6
 73
     3
 74
     0
 42
0.0000000001
 43
0.0000000001
 40
-1512.925226183744
 40
-1512.925226183744
 40
-1512.925226183744
 40
-1506.502060379905
 40
-1506.502060379905
 40
-1506.502060379905
 10
706.5538981130042
 20
515.5621695253542
 30
0.0
 41
1.0
 10
709.7166898542558
 20
515.5621695253542
 30
0.0
 41
1.0
 10
712.8794815955074
 20
515.5621695253542
 30
0.0
 41
1.0
  0
SPLINE
  5
DA
330
1F
100
AcDbEntity
  8
2D
100
AcDbSpline
210
0.0
220
0.0
230
1.0
 70
    28
 71
     2
 72
     8
 73
     5
 74
     0
 42
0.0000000001
 43
0.0000000001
 40
-1506.502060379905
 40
-1506.502060379905
 40
-1506.502060379905
 40
-1500.900400074227
 40
-1500.900400074227
 40
-1498.487414371519
 40
-1498.487414371519
 40
-1498.487414371519
 10
712.8794815955074
 20
498.5063885637388
 30
0.0
 41
1.0
 10
715.6377608448934
 20
498.5063885637388
 30
0.0
 41
0.819152044288992
 10
717.0381759213129
 20
498.5063885637388
 30
0.0
 41
1.0
 10
717.5740743061751
 20
498.5063885637388
 30
0.0
 41
0.9220974661650891
 10
717.5740743061752
 20
498.5063885637388
 30
0.0
 41
0.9113099268463152
  0
SPLINE
  5
DB
330
1F
100
AcDbEntity
  8
2D
100
AcDbSpline
210
0.0
220
0.0
230
1.0
 70
    28
 71
     2
 72
     8
 73
     5
 74
     0
 42
0.0000000001
 43
0.0000000001
 40
-1506.502060379905
 40
-1506.502060379905
 40
-1506.502060379905
 40
-1500.900400074227
 40
-1500.900400074227
 40
-1498.487414371519
 40
-1498.487414371519
 40
-1498.487414371519
 10
712.8794815955074
 20
515.5621695253542
 30
0.0
 41
1.0
 10
715.6377608448934
 20
515.5621695253543
 30
0.0
 41
0.819152044288992
 10
717.0381759213129
 20
515.5621695253542
 30
0.0
 41
1.0
 10
717.5740743061751
 20
515.5621695253544
 30
0.0
 41
0.9220974661650964
 10
717.5740743061751
 20
515.5621695253542
 30
0.0
 41
0.9113099268463172
  0
SPLINE
  5
DC
330
1F
100
AcDbEntity
  8
2D
100
AcDbSpline
210
0.0
220
0.0
230
1.0
 70
    28
 71
     2
 72
     8
 73
     5
 74
     0
 42
0.0000000001
 43
0.0000000001
 40
-1715.735352215432
 40
-1715.735352215432
 40
-1715.735352215432
 40
-1713.322366512723
 40
-1713.322366512723
 40
-1707.720706207045
 40
-1707.720706207045
 40
-1707.720706207045
 10
547.627323798485
 20
498.506388563739
 30
0.0
 41
0.9113099268463083
 10
547.627323798485
 20
498.5063885637391
 30
0.0
 41
0.9220974661650855
 10
548.1632221833472
 20
498.506388563739
 30
0.0
 41
1.0
 10
549.5636372597667
 20
498.5063885637391
 30
0.0
 41
0.8191520442889764
 10
552.321916509153
 20
498.506388563739
 30
0.0
 41
1.0
  0
SPLINE
  5
DD
330
1F
100
AcDbEntity
  8
2D
100
AcDbSpline
210
0.0
220
0.0
230
1.0
 70
    28
 71
     2
 72
     8
 73
     5
 74
     0
 42
0.0000000001
 43
0.0000000001
 40
0.0
 40
0.0
 40
0.0
 40
19.99999999999999
 40
19.99999999999999
 40
39.99999999999999
 40
39.99999999999999
 40
39.99999999999999
 10
622.6006990523301
 20
602.2885908815917
 30
0.0
 41
1.0
 10
622.60069905233
 20
602.2885908815916
 30
0.0
 41
0.707106781186548
 10
632.6006990523301
 20
602.2885908815917
 30
0.0
 41
1.0
 10
642.60069905233
 20
602.2885908815916
 30
0.0
 41
0.707106781186548
 10
642.6006990523301
 20
602.2885908815917
 30
0.0
 41
1.0
  0
SPLINE
  5
DE
330
1F
100
AcDbEntity
  8
2D
100
AcDbSpline
210
0.0
220
0.0
230
1.0
 70
    28
 71
     2
 72
     6
 73
     3
 74
     0
 42
0.0000000001
 43
0.0000000001
 40
0.0
 40
0.0
 40
0.0
 40
50.99999999999949
 40
50.99999999999949
 40
50.99999999999949
 10
622.6006990523301
 20
521.2885908815917
 30
0.0
 41
1.0
 10
622.6006990523301
 20
546.7885908815914
 30
0.0
 41
1.0
 10
622.6006990523301
 20
572.2885908815911
 30
0.0
 41
1.0
  0
SPLINE
  5
DF
330
1F
100
AcDbEntity
  8
2D
100
AcDbSpline
210
0.0
220
0.0
230
1.0
 70
    28
 71
     2
 72
     6
 73
     3
 74
     0
 42
0.0000000001
 43
0.0000000001
 40
50.99999999999949
 40
50.99999999999949
 40
50.99999999999949
 40
80.99999999999997
 40
80.99999999999997
 40
80.99999999999997
 10
622.6006990523301
 20
572.2885908815911
 30
0.0
 41
1.0
 10
622.6006990523301
 20
587.2885908815914
 30
0.0
 41
1.0
 10
622.6006990523301
 20
602.2885908815917
 30
0.0
 41
1.0
  0
SPLINE
  5
E0
330
1F
100
AcDbEntity
  8
2D
100
AcDbSpline
210
0.0
220
0.0
230
1.0
 70
    28
 71
     2
 72
     6
 73
     3
 74
     0
 42
0.0000000001
 43
0.0000000001
 40
0.0
 40
0.0
 40
0.0
 40
30.00000000000187
 40
30.00000000000187
 40
30.00000000000187
 10
642.6006990523301
 20
602.2885908815917
 30
0.0
 41
1.0
 10
642.6006990523301
 20
587.2885908815907
 30
0.0
 41
1.0
 10
642.6006990523301
 20
572.2885908815897
 30
0.0
 41
1.0
  0
SPLINE
  5
E1
330
1F
100
AcDbEntity
  8
2D
100
AcDbSpline
210
0.0
220
0.0
230
1.0
 70
    28
 71
     2
 72
     6
 73
     3
 74
     0
 42
0.0000000001
 43
0.0000000001
 40
0.0
 40
0.0
 40
0.0
 40
5.72642135623726
 40
5.72642135623726
 40
5.72642135623726
 10
677.6006990523291
 20
521.2885908815919
 30
0.0
 41
0.8683475024126046
 10
677.6006990523291
 20
518.4253802034731
 30
0.0
 41
0.8683475024126046
 10
677.6006990523291
 20
515.5621695253543
 30
0.0
 41
0.8683475024126046
  0
SPLINE
  5
E2
330
1F
100
AcDbEntity
  8
2D
100
AcDbSpline
210
0.0
220
0.0
230
1.0
 70
    28
 71
     2
 72
     6
 73
     3
 74
     0
 42
0.0000000001
 43
0.0000000001
 40
0.0
 40
0.0
 40
0.0
 40
5.726421356237259
 40
5.726421356237259
 40
5.726421356237259
 10
587.6006990523315
 20
515.5621695253545
 30
0.0
 41
0.8683475024126048
 10
587.6006990523315
 20
518.4253802034732
 30
0.0
 41
0.8683475024126048
 10
587.6006990523315
 20
521.2885908815919
 30
0.0
 41
0.8683475024126048
  0
SPLINE
  5
E3
330
1F
100
AcDbEntity
  8
2D
100
AcDbSpline
210
0.0
220
0.0
230
1.0
 70
    12
 71
     2
 72
     8
 73
     5
 74
     0
 42
0.0000000001
 43
0.0000000001
 40
-1873.991687007168
 40
-1873.991687007168
 40
-1873.991687007168
 40
-1761.159046423233
 40
-1761.159046423233
 40
-1648.326405839298
 40
-1648.326405839298
 40
-1648.326405839298
 10
689.0170193442972
 20
567.2885908815917
 30
0.0
 41
1.0
 10
689.0170193442973
 20
623.704911173559
 30
0.0
 41
0.7071067811865469
 10
632.6006990523299
 20
623.7049111735591
 30
0.0
 41
1.0
 10
576.1843787603623
 20
623.7049111735594
 30
0.0
 41
0.7071067811865469
 10
576.1843787603624
 20
567.2885908815917
 30
0.0
 41
1.0
  0
SPLINE
  5
E4
330
1F
100
AcDbEntity
  8
2D
100
AcDbSpline
210
0.0
220
0.0
230
1.0
 70
    28
 71
     2
 72
     6
 73
     3
 74
     0
 42
0.0000000001
 43
0.0000000001
 40
-1648.326405839298
 40
-1648.326405839298
 40
-1648.326405839298
 40
-1596.59998448306
 40
-1596.59998448306
 40
-1596.59998448306
 10
576.1843787603624
 20
567.2885908815917
 30
0.0
 41
1.0
 10
576.1843787603624
 20
541.425380203473
 30
0.0
 41
1.0
 10
576.1843787603623
 20
515.5621695253542
 30
0.0
 41
1.0
  0
SPLINE
  5
E5
330
1F
100
AcDbEntity
  8
2D
100
AcDbSpline
210
0.0
220
0.0
230
1.0
 70
    28
 71
     2
 72
     6
 73
     3
 74
     0
 42
0.0000000001
 43
0.0000000001
 40
-1266.387546027686
 40
-1266.387546027686
 40
-1266.387546027686
 40
-1214.661124671448
 40
-1214.661124671448
 40
-1214.661124671448
 10
689.0170193442971
 20
515.5621695253544
 30
0.0
 41
1.0
 10
689.0170193442971
 20
541.425380203473
 30
0.0
 41
1.0
 10
689.0170193442972
 20
567.2885908815917
 30
0.0
 41
1.0
  0
SPLINE
  5
E6
330
1F
100
AcDbEntity
  8
2D
100
AcDbSpline
210
0.0
220
0.0
230
1.0
 70
    28
 71
     2
 72
     6
 73
     3
 74
     0
 42
0.0000000001
 43
0.0000000001
 40
-1707.720706207045
 40
-1707.720706207045
 40
-1707.720706207045
 40
-1701.297540403207
 40
-1701.297540403207
 40
-1701.297540403207
 10
552.321916509153
 20
498.506388563739
 30
0.0
 41
1.0
 10
555.4847082504044
 20
498.506388563739
 30
0.0
 41
1.0
 10
558.647499991656
 20
498.506388563739
 30
0.0
 41
1.0
  0
SPLINE
  5
E7
330
1F
100
AcDbEntity
  8
2D
100
AcDbSpline
210
0.0
220
0.0
230
1.0
 70
    28
 71
     2
 72
     6
 73
     3
 74
     0
 42
0.0000000001
 43
0.0000000001
 40
-1707.720706207045
 40
-1707.720706207045
 40
-1707.720706207045
 40
-1701.297540403207
 40
-1701.297540403207
 40
-1701.297540403207
 10
552.321916509153
 20
515.5621695253544
 30
0.0
 41
1.0
 10
555.4847082504045
 20
515.5621695253544
 30
0.0
 41
1.0
 10
558.647499991656
 20
515.5621695253544
 30
0.0
 41
1.0
  0
SPLINE
  5
E8
330
1F
100
AcDbEntity
  8
2D
100
AcDbSpline
210
0.0
220
0.0
230
1.0
 70
     8
 71
     3
 72
    27
 73
    23
 74
     0
 42
0.0000000001
 43
0.0000000001
 40
17.43584888032847
 40
17.43584888032847
 40
17.43584888032847
 40
17.43584888032847
 40
19.73360757025528
 40
19.73360757025528
 40
23.80266749792977
 40
23.80266749792977
 40
23.80266749792977
 40
30.25889720900153
 40
30.25889720900153
 40
30.25889720900153
 40
36.78880997352841
 40
36.78880997352841
 40
43.83934369467249
 40
43.83934369467249
 40
43.83934369467249
 40
52.66442257923861
 40
52.66442257923861
 40
52.66442257923861
 40
54.6658839099313
 40
54.6658839099313
 40
54.6658839099313
 40
54.86563625466398
 40
54.86563625466398
 40
54.86563625466398
 40
54.86563625466398
 10
642.6006990523307
 20
545.5180107084441
 30
0.0
 10
643.1986252076885
 20
545.3074955464401
 30
0.0
 10
643.8074704610038
 20
545.1153898661616
 30
0.0
 10
645.4159757457859
 20
544.6361949197635
 30
0.0
 10
646.507663157254
 20
544.3451011524896
 30
0.0
 10
647.5508516152826
 20
544.0735762010722
 30
0.0
 10
649.3063804221315
 20
543.6166406681655
 30
0.0
 10
650.9566189044275
 20
543.2012353890741
 30
0.0
 10
652.7357228867995
 20
542.5564413461163
 30
0.0
 10
654.48343878705
 20
541.9230231690847
 30
0.0
 10
656.2158918962093
 20
541.1152540522651
 30
0.0
 10
659.5363185853035
 20
538.6925511792413
 30
0.0
 10
660.9806585464827
 20
537.1008569212825
 30
0.0
 10
662.0718966322576
 20
535.0940421953742
 30
0.0
 10
663.3988781440162
 20
532.65368928475
 30
0.0
 10
664.1476529397158
 20
529.7278206869682
 30
0.0
 10
664.2999491808453
 20
526.8548017281576
 30
0.0
 10
664.3353760751856
 20
526.1864849112951
 30
0.0
 10
664.3396101843576
 20
525.5236798862582
 30
0.0
 10
664.3436281414304
 20
524.8545756959127
 30
0.0
 10
664.3440274944572
 20
524.7880720526734
 30
0.0
 10
664.3444269583889
 20
524.7214893830621
 30
0.0
 10
664.3448239772641
 20
524.6548278051434
 30
0.0
  0
SPLINE
  5
E9
330
1F
100
AcDbEntity
  8
2D
100
AcDbSpline
210
0.0
220
0.0
230
1.0
 70
     8
 71
     3
 72
    11
 73
     7
 74
     0
 42
0.0000000001
 43
0.0000000001
 40
14.53739921405194
 40
14.53739921405194
 40
14.53739921405194
 40
14.53739921405194
 40
16.61696648554277
 40
16.61696648554277
 40
16.61696648554277
 40
17.8781526169052
 40
17.8781526169052
 40
17.8781526169052
 40
17.8781526169052
 10
658.8493732860896
 20
521.2885908815917
 30
0.0
 10
658.8492672988247
 20
521.9817984376921
 30
0.0
 10
658.8497193404484
 20
522.6745196446122
 30
0.0
 10
658.8515137304545
 20
523.3667463241904
 30
0.0
 10
658.852600702447
 20
523.7860704457928
 30
0.0
 10
658.8542864741925
 20
524.2064876299116
 30
0.0
 10
658.8508442707898
 20
524.6278915202345
 30
0.0
  0
SPLINE
  5
EA
330
1F
100
AcDbEntity
  8
2D
100
AcDbSpline
210
0.0
220
0.0
230
1.0
 70
    28
 71
     2
 72
     6
 73
     3
 74
     0
 42
0.0000000001
 43
0.0000000001
 40
0.0
 40
0.0
 40
0.0
 40
3.999999995519492
 40
3.999999995519492
 40
3.999999995519492
 10
632.4023110339684
 20
336.8765891616034
 30
0.0
 41
1.0
 10
634.4023110313397
 20
336.876589161604
 30
0.0
 41
0.707106781558276
 10
634.4023110313401
 20
336.8765891616034
 30
0.0
 41
0.9999999997253006
  0
SPLINE
  5
EB
330
1F
100
AcDbEntity
  8
2D
100
AcDbSpline
210
0.0
220
0.0
230
1.0
 70
    12
 71
     2
 72
    12
 73
     9
 74
     0
 42
0.0000000001
 43
0.0000000001
 40
0.0000000000005266
 40
0.0000000000005266
 40
0.0000000000005266
 40
21.64585873624869
 40
21.64585873624869
 40
44.97347685012802
 40
44.97347685012802
 40
68.48303284609767
 40
68.48303284609767
 40
90.6054733470217
 40
90.6054733470217
 40
90.6054733470217
 10
630.4023110312932
 20
336.8765891616011
 30
0.0
 41
0.9871252195958682
 10
619.5849244223153
 20
337.2229229013852
 30
0.0
 41
0.9238398134187665
 10
609.5138618848157
 20
341.186443996721
 30
0.0
 41
0.8905385937644305
 10
598.6603354094548
 20
345.4579080039892
 30
0.0
 41
0.8572373741100936
 10
590.077998379634
 20
353.3565112237563
 30
0.0
 41
0.8539203409785239
 10
581.4287255737315
 20
361.3167176099616
 30
0.0
 41
0.8506033078469541
 10
576.2624030556129
 20
371.8753120912687
 30
0.0
 41
0.8772704612381514
 10
571.4009049254373
 20
381.8109262826276
 30
0.0
 41
0.9039376146293489
 10
570.2446925707965
 20
392.8115520112033
 30
0.0
 41
0.9605889545433134
  0
SPLINE
  5
EC
330
1F
100
AcDbEntity
  8
2D
100
AcDbSpline
210
0.0
220
0.0
230
1.0
 70
    28
 71
     2
 72
     6
 73
     3
 74
     0
 42
0.0000000001
 43
0.0000000001
 40
4.000000000824351
 40
4.000000000824351
 40
4.000000000824351
 40
8.000000005397322
 40
8.000000005397322
 40
8.000000005397322
 10
630.4023110312932
 20
336.8765891616034
 30
0.0
 41
1.000000000274486
 10
630.4023110312937
 20
336.8765891616039
 30
0.0
 41
0.7071067808149241
 10
632.4023110339684
 20
336.8765891616034
 30
0.0
 41
1.0
  0
SPLINE
  5
ED
330
1F
100
AcDbEntity
  8
2D
100
AcDbSpline
210
0.0
220
0.0
230
1.0
 70
    12
 71
     2
 72
    12
 73
     9
 74
     0
 42
0.0000000001
 43
0.0000000001
 40
2.144354709701145
 40
2.144354709701145
 40
2.144354709701145
 40
23.84294622881829
 40
23.84294622881829
 40
49.73129387713671
 40
49.73129387713671
 40
75.61964152545517
 40
75.61964152545517
 40
92.5442164521917
 40
92.5442164521917
 40
92.5442164521917
 10
634.4023110313402
 20
336.8765891616011
 30
0.0
 41
0.9871252195958682
 10
645.2847144370819
 20
337.2250045049358
 30
0.0
 41
0.9234839659335443
 10
655.4082303789338
 20
341.2328121490013
 30
0.0
 41
0.8901650429449555
 10
667.4435717675557
 20
345.9974940533238
 30
0.0
 41
0.853553390593274
 10
676.5964848554761
 20
355.1504071412442
 30
0.0
 41
0.853553390593274
 10
685.7493979433964
 20
364.3033202291646
 30
0.0
 41
0.853553390593274
 10
690.5140798477187
 20
376.3386616177862
 30
0.0
 41
0.8901650429449555
 10
693.6651226558149
 20
384.2980336571239
 30
0.0
 41
0.9161533015884584
 10
694.5599294918367
 20
392.8115520112035
 30
0.0
 41
0.9605889545433135
  0
SPLINE
  5
EE
330
1F
100
AcDbEntity
  8
2D
100
AcDbSpline
210
0.0
220
0.0
230
1.0
 70
    28
 71
     2
 72
     6
 73
     3
 74
     0
 42
0.0000000001
 43
0.0000000001
 40
13.8247322832168
 40
13.8247322832168
 40
13.8247322832168
 40
120.1017655439025
 40
120.1017655439025
 40
120.1017655439025
 10
705.668911929324
 20
498.5063877785981
 30
0.0
 41
1.0
 10
700.114416765495
 20
445.6589703095466
 30
0.0
 41
1.0
 10
694.559921601666
 20
392.811552840495
 30
0.0
 41
1.0
  0
SPLINE
  5
EF
330
1F
100
AcDbEntity
  8
2D
100
AcDbSpline
210
0.0
220
0.0
230
1.0
 70
    28
 71
     2
 72
     6
 73
     3
 74
     0
 42
0.0000000001
 43
0.0000000001
 40
0.0
 40
0.0
 40
0.0
 40
106.2770332606861
 40
106.2770332606861
 40
106.2770332606861
 10
570.2447004609675
 20
392.811552840495
 30
0.0
 41
1.0
 10
564.6902052971384
 20
445.6589703095468
 30
0.0
 41
1.0
 10
559.1357101333092
 20
498.5063877785986
 30
0.0
 41
1.0
  0
SPLINE
  5
F0
330
1F
100
AcDbEntity
  8
2D
100
AcDbSpline
210
0.0
220
0.0
230
1.0
 70
    28
 71
     2
 72
     6
 73
     3
 74
     0
 42
0.0000000001
 43
0.0000000001
 40
-1701.297540403207
 40
-1701.297540403207
 40
-1701.297540403207
 40
-1699.375731507578
 40
-1699.375731507578
 40
-1699.375731507578
 10
558.647499991656
 20
498.506388563739
 30
0.0
 41
1.0
 10
559.5938061417676
 20
498.5063885637389
 30
0.0
 41
0.8420408031879083
 10
560.141001844677
 20
498.506388563739
 30
0.0
 41
1.0
  0
SPLINE
  5
F1
330
1F
100
AcDbEntity
  8
2D
100
AcDbSpline
210
0.0
220
0.0
230
1.0
 70
    28
 71
     2
 72
    12
 73
     9
 74
     0
 42
0.0000000001
 43
0.0000000001
 40
-1699.375731507578
 40
-1699.375731507578
 40
-1699.375731507578
 40
-1699.109316684457
 40
-1699.109316684457
 40
-1607.111383293511
 40
-1607.111383293511
 40
-1515.113449902564
 40
-1515.113449902564
 40
-1514.847035079373
 40
-1514.847035079373
 40
-1514.847035079373
 10
560.141001844677
 20
498.506388563739
 30
0.0
 41
1.0
 10
560.2168580064078
 20
498.5063885637387
 30
0.0
 41
0.9999988581804181
 10
560.2930447650983
 20
498.506388563739
 30
0.0
 41
1.0
 10
586.6017323568215
 20
498.5063885637391
 30
0.0
 41
0.8865497275147488
 10
632.6006990522945
 20
498.5063885637388
 30
0.0
 41
1.0
 10
678.5996657477679
 20
498.5063885637388
 30
0.0
 41
0.8865497275147488
 10
704.9083533395211
 20
498.5063885637388
 30
0.0
 41
1.0
 10
704.9845400982322
 20
498.5063885637388
 30
0.0
 41
0.9999988581804184
 10
705.0603962599833
 20
498.5063885637388
 30
0.0
 41
1.0
  0
SPLINE
  5
F2
330
1F
100
AcDbEntity
  8
2D
100
AcDbSpline
210
0.0
220
0.0
230
1.0
 70
    28
 71
     2
 72
    12
 73
     9
 74
     0
 42
0.0000000001
 43
0.0000000001
 40
-1699.375731507578
 40
-1699.375731507578
 40
-1699.375731507578
 40
-1699.109316684457
 40
-1699.109316684457
 40
-1607.111383293511
 40
-1607.111383293511
 40
-1515.113449902564
 40
-1515.113449902564
 40
-1514.847035079373
 40
-1514.847035079373
 40
-1514.847035079373
 10
560.141001844677
 20
515.5621695253544
 30
0.0
 41
1.0
 10
560.2168580064078
 20
515.5621695253544
 30
0.0
 41
0.9999988581804181
 10
560.2930447650983
 20
515.5621695253544
 30
0.0
 41
1.0
 10
586.6017323568215
 20
515.5621695253546
 30
0.0
 41
0.8865497275147488
 10
632.6006990522945
 20
515.5621695253542
 30
0.0
 41
1.0
 10
678.5996657477681
 20
515.5621695253543
 30
0.0
 41
0.8865497275147488
 10
704.9083533395211
 20
515.5621695253542
 30
0.0
 41
1.0
 10
704.9845400982322
 20
515.5621695253545
 30
0.0
 41
0.9999988581804184
 10
705.0603962599833
 20
515.5621695253542
 30
0.0
 41
1.0
  0
SPLINE
  5
F3
330
1F
100
AcDbEntity
  8
2D
100
AcDbSpline
210
0.0
220
0.0
230
1.0
 70
    28
 71
     2
 72
     6
 73
     3
 74
     0
 42
0.0000000001
 43
0.0000000001
 40
-1514.847035079373
 40
-1514.847035079373
 40
-1514.847035079373
 40
-1512.925226183744
 40
-1512.925226183744
 40
-1512.925226183744
 10
705.0603962599833
 20
498.5063885637388
 30
0.0
 41
1.0
 10
705.6075919628927
 20
498.5063885637385
 30
0.0
 41
0.84204080318788
 10
706.5538981130042
 20
498.5063885637388
 30
0.0
 41
1.0
  0
SPLINE
  5
F4
330
1F
100
AcDbEntity
  8
2D
100
AcDbSpline
210
0.0
220
0.0
230
1.0
 70
    28
 71
     2
 72
     8
 73
     5
 74
     0
 42
0.0000000001
 43
0.0000000001
 40
-1715.735352215432
 40
-1715.735352215432
 40
-1715.735352215432
 40
-1713.322366512723
 40
-1713.322366512723
 40
-1707.720706207045
 40
-1707.720706207045
 40
-1707.720706207045
 10
547.627323798485
 20
515.5621695253544
 30
0.0
 41
0.9113099268463083
 10
547.627323798485
 20
515.5621695253546
 30
0.0
 41
0.9220974661650855
 10
548.1632221833472
 20
515.5621695253544
 30
0.0
 41
1.0
 10
549.5636372597668
 20
515.5621695253546
 30
0.0
 41
0.8191520442889764
 10
552.321916509153
 20
515.5621695253544
 30
0.0
 41
1.0
  0
SPLINE
  5
F5
330
1F
100
AcDbEntity
  8
2D
100
AcDbSpline
210
0.0
220
0.0
230
1.0
 70
    28
 71
     2
 72
     6
 73
     3
 74
     0
 42
0.0000000001
 43
0.0000000001
 40
30.00000000000187
 40
30.00000000000187
 40
30.00000000000187
 40
80.99999999999997
 40
80.99999999999997
 40
80.99999999999997
 10
642.6006990523301
 20
572.2885908815897
 30
0.0
 41
1.0
 10
642.6006990523301
 20
546.7885908815907
 30
0.0
 41
1.0
 10
642.6006990523301
 20
521.2885908815917
 30
0.0
 41
1.0
  0
SPLINE
  5
F6
330
1F
100
AcDbEntity
  8
2D
100
AcDbSpline
210
0.0
220
0.0
230
1.0
 70
    28
 71
     2
 72
    10
 73
     7
 74
     0
 42
0.0000000001
 43
0.0000000001
 40
59.30267603380872
 40
59.30267603380872
 40
59.30267603380872
 40
89.99999999999753
 40
89.99999999999753
 40
179.9999999999951
 40
179.9999999999951
 40
239.3026760338038
 40
239.3026760338038
 40
239.3026760338038
 10
677.600699052329
 20
521.2885908815919
 30
0.0
 41
0.8683475024126048
 10
677.6006990523288
 20
521.2885908815917
 30
0.0
 41
0.9000995774953711
 10
671.5718422226289
 20
521.2885908815917
 30
0.0
 41
1.0
 10
649.0718422226296
 20
521.2885908815917
 30
0.0
 41
0.707106781186548
 10
610.1006990523308
 20
521.2885908815917
 30
0.0
 41
1.0
 10
587.6006990523313
 20
521.2885908815917
 30
0.0
 41
0.807007203691177
 10
587.6006990523314
 20
521.2885908815919
 30
0.0
 41
0.8683475024126046
  0
POLYLINE
  5
F7
330
1F
100
AcDbEntity
  8
2D
100
AcDb2dPolyline
 66
     1
 10
0.0
 20
0.0
 30
0.0
  0
VERTEX
  5
F8
330
F7
100
AcDbEntity
  8
2D
100
AcDbVertex
100
AcDb2dVertex
 10
560.3007818825533
 20
498.5063877785986
 30
0.0
  0
VERTEX
  5
F9
330
F7
100
AcDbEntity
  8
2D
100
AcDbVertex
100
AcDb2dVertex
 10
560.3007818825535
 20
515.5621695253544
 30
0.0
  0
SEQEND
  5
FA
330
F7
100
AcDbEntity
  8
2D
  0
POLYLINE
  5
FB
330
1F
100
AcDbEntity
  8
2D
100
AcDb2dPolyline
 66
     1
 10
0.0
 20
0.0
 30
0.0
  0
VERTEX
  5
FC
330
FB
100
AcDbEntity
  8
2D
100
AcDbVertex
100
AcDb2dVertex
 10
704.9006162221069
 20
498.5063877785986
 30
0.0
  0
VERTEX
  5
FD
330
FB
100
AcDbEntity
  8
2D
100
AcDbVertex
100
AcDb2dVertex
 10
704.9006162221068
 20
515.5621695253544
 30
0.0
  0
SEQEND
  5
FE
330
FB
100
AcDbEntity
  8
2D
  0
SPLINE
  5
FF
330
1F
100
AcDbEntity
  8
2D
100
AcDbSpline
210
0.0
220
0.0
230
1.0
 70
    28
 71
     2
 72
    10
 73
     7
 74
     0
 42
0.0000000001
 43
0.0000000001
 40
149.3026760338063
 40
149.3026760338063
 40
149.3026760338063
 40
179.9999999999951
 40
179.9999999999951
 40
269.9999999999926
 40
269.9999999999926
 40
329.3026760338013
 40
329.3026760338013
 40
329.3026760338013
 10
1096.850783342739
 20
521.2885908815904
 30
0.0
 41
0.8683475024126046
 10
1096.850783342739
 20
521.2885908815904
 30
0.0
 41
0.9000995774953711
 10
1090.821926513039
 20
521.2885908815904
 30
0.0
 41
1.0
 10
1068.321926513039
 20
521.2885908815906
 30
0.0
 41
0.707106781186548
 10
1029.350783342741
 20
521.2885908815904
 30
0.0
 41
1.0
 10
1006.850783342741
 20
521.2885908815905
 30
0.0
 41
0.8070072036911771
 10
1006.850783342741
 20
521.2885908815904
 30
0.0
 41
0.8683475024126046
  0
SPLINE
  5
100
330
1F
100
AcDbEntity
  8
2D
100
AcDbSpline
210
0.0
220
0.0
230
1.0
 70
    28
 71
     2
 72
     6
 73
     3
 74
     0
 42
0.0000000001
 43
0.0000000001
 40
-1761.159046423233
 40
-1761.159046423233
 40
-1761.159046423233
 40
-1648.326405839298
 40
-1648.326405839298
 40
-1648.326405839298
 10
872.8507833427402
 20
623.704911173558
 30
0.0
 41
1.0
 10
872.85078334274
 20
623.704911173558
 30
0.0
 41
0.7071067811865469
 10
872.8507833427402
 20
567.2885908815906
 30
0.0
 41
1.0
  0
SPLINE
  5
101
330
1F
100
AcDbEntity
  8
2D
100
AcDbSpline
210
0.0
220
0.0
230
1.0
 70
    28
 71
     2
 72
     6
 73
     3
 74
     0
 42
0.0000000001
 43
0.0000000001
 40
-1648.326405839298
 40
-1648.326405839298
 40
-1648.326405839298
 40
-1544.326405839308
 40
-1544.326405839308
 40
-1544.326405839308
 10
872.8507833427402
 20
567.2885908815906
 30
0.0
 41
1.0
 10
872.8507833427402
 20
515.2885908815956
 30
0.0
 41
1.0
 10
872.8507833427402
 20
463.2885908816004
 30
0.0
 41
1.0
  0
SPLINE
  5
102
330
1F
100
AcDbEntity
  8
2D
100
AcDbSpline
210
0.0
220
0.0
230
1.0
 70
    28
 71
     2
 72
    12
 73
     9
 74
     0
 42
0.0000000001
 43
0.0000000001
 40
-1274.53179863046
 40
-1274.53179863046
 40
-1274.53179863046
 40
-1274.265383807028
 40
-1274.265383807028
 40
-1182.267450416978
 40
-1182.267450416978
 40
-1090.269517026928
 40
-1090.269517026928
 40
-1090.003102202639
 40
-1090.003102202639
 40
-1090.003102202639
 10
964.0004032711834
 20
515.5621695253533
 30
0.0
 41
1.0
 10
964.0113470744228
 20
515.5621695253536
 30
0.0
 41
0.9999988581804156
 10
964.0226920645877
 20
515.5621695253533
 30
0.0
 41
1.0
 10
967.9403256108095
 20
515.5621695253535
 30
0.0
 41
0.886549727516598
 10
1007.776599316424
 20
515.5621695253533
 30
0.0
 41
1.0
 10
1047.612873022038
 20
515.5621695253533
 30
0.0
 41
0.886549727516598
 10
1089.263223065114
 20
515.5621695253533
 30
0.0
 41
1.0
 10
1089.383837412409
 20
515.5621695253534
 30
0.0
 41
0.9999988581804091
 10
1089.504280335895
 20
515.5621695253533
 30
0.0
 41
1.0
  0
SPLINE
  5
103
330
1F
100
AcDbEntity
  8
2D
100
AcDbSpline
210
0.0
220
0.0
230
1.0
 70
    28
 71
     2
 72
    12
 73
     9
 74
     0
 42
0.0000000001
 43
0.0000000001
 40
-1274.53179863046
 40
-1274.53179863046
 40
-1274.53179863046
 40
-1274.265383807028
 40
-1274.265383807028
 40
-1182.267450416978
 40
-1182.267450416978
 40
-1090.269517026928
 40
-1090.269517026928
 40
-1090.003102202639
 40
-1090.003102202639
 40
-1090.003102202639
 10
964.0004032711832
 20
498.5063885637378
 30
0.0
 41
1.0
 10
964.0113470744228
 20
498.506388563738
 30
0.0
 41
0.9999988581804156
 10
964.0226920645875
 20
498.5063885637378
 30
0.0
 41
1.0
 10
967.9403256108095
 20
498.5063885637377
 30
0.0
 41
0.886549727516598
 10
1007.776599316424
 20
498.5063885637378
 30
0.0
 41
1.0
 10
1047.612873022038
 20
498.5063885637377
 30
0.0
 41
0.886549727516598
 10
1089.263223065114
 20
498.5063885637376
 30
0.0
 41
1.0
 10
1089.383837412409
 20
498.5063885637377
 30
0.0
 41
0.9999988581804091
 10
1089.504280335895
 20
498.5063885637376
 30
0.0
 41
1.0
  0
SPLINE
  5
104
330
1F
100
AcDbEntity
  8
2D
100
AcDbSpline
210
0.0
220
0.0
230
1.0
 70
    28
 71
     2
 72
     6
 73
     3
 74
     0
 42
0.0000000001
 43
0.0000000001
 40
-1698.649077311778
 40
-1698.649077311778
 40
-1698.649077311778
 40
-1607.111383293511
 40
-1607.111383293511
 40
-1607.111383293511
 10
1102.60078334274
 20
498.5063885637377
 30
0.0
 41
0.998870560083472
 10
1139.999151394611
 20
498.5063885637376
 30
0.0
 41
0.8871172868099889
 10
1139.99915139463
 20
498.5063885637376
 30
0.0
 41
1.0
  0
SPLINE
  5
105
330
1F
100
AcDbEntity
  8
2D
100
AcDbSpline
210
0.0
220
0.0
230
1.0
 70
    28
 71
     2
 72
     8
 73
     5
 74
     0
 42
0.0000000001
 43
0.0000000001
 40
-1718.924026818401
 40
-1718.924026818401
 40
-1718.924026818401
 40
-1713.322366512723
 40
-1713.322366512723
 40
-1708.552200866839
 40
-1708.552200866839
 40
-1708.552200866839
 10
1096.029632903994
 20
515.5621695253533
 30
0.0
 41
1.0
 10
1098.175193278696
 20
515.5621695253532
 30
0.0
 41
0.8191520442889764
 10
1100.60078334274
 20
515.5621695253533
 30
0.0
 41
1.0
 10
1102.60078334274
 20
515.5621695253533
 30
0.0
 41
0.8459966048661051
 10
1102.60078334274
 20
515.5621695253533
 30
0.0
 41
0.9542803405932743
  0
SPLINE
  5
106
330
1F
100
AcDbEntity
  8
2D
100
AcDbSpline
210
0.0
220
0.0
230
1.0
 70
    28
 71
     2
 72
     8
 73
     5
 74
     0
 42
0.0000000001
 43
0.0000000001
 40
-1718.924026818401
 40
-1718.924026818401
 40
-1718.924026818401
 40
-1713.322366512723
 40
-1713.322366512723
 40
-1708.552200866838
 40
-1708.552200866838
 40
-1708.552200866838
 10
1096.029632903994
 20
498.5063885637376
 30
0.0
 41
1.0
 10
1098.175193278696
 20
498.5063885637376
 30
0.0
 41
0.8191520442889764
 10
1100.60078334274
 20
498.5063885637376
 30
0.0
 41
1.0
 10
1102.60078334274
 20
498.5063885637377
 30
0.0
 41
0.8459966048660977
 10
1102.60078334274
 20
498.5063885637377
 30
0.0
 41
0.9542803405932845
  0
SPLINE
  5
107
330
1F
100
AcDbEntity
  8
2D
100
AcDbSpline
210
0.0
220
0.0
230
1.0
 70
     8
 71
     3
 72
    17
 73
    13
 74
     0
 42
0.0000000001
 43
0.0000000001
 40
1.269980269171331
 40
1.269980269171331
 40
1.269980269171331
 40
1.269980269171331
 40
1.492714307360089
 40
1.492714307360089
 40
1.492714307360089
 40
4.291055461175666
 40
4.291055461175666
 40
4.291055461175666
 40
6.023841542184194
 40
6.023841542184194
 40
6.023841542184194
 40
6.231960532995161
 40
6.231960532995161
 40
6.231960532995161
 40
6.231960532995161
 10
1025.134596533253
 20
562.3023993652448
 30
0.0
 10
1025.133869917591
 20
562.228092647161
 30
0.0
 10
1025.133200930462
 20
562.1536912797151
 30
0.0
 10
1025.132667270819
 20
562.0791548464344
 30
0.0
 10
1025.125913421242
 20
561.1358422580399
 30
0.0
 10
1025.138381828396
 20
560.2029985500722
 30
0.0
 10
1025.138325360506
 20
559.2809235727495
 30
0.0
 10
1025.138289955278
 20
558.7027848250241
 30
0.0
 10
1025.134300549958
 20
558.125193988468
 30
0.0
 10
1025.134471347441
 20
557.548154521495
 30
0.0
 10
1025.134491869574
 20
557.4788204731624
 30
0.0
 10
1025.134573497848
 20
557.4094476821365
 30
0.0
 10
1025.13461982524
 20
557.3400359722834
 30
0.0
  0
SPLINE
  5
108
330
1F
100
AcDbEntity
  8
2D
100
AcDbSpline
210
0.0
220
0.0
230
1.0
 70
     8
 71
     3
 72
    17
 73
    13
 74
     0
 42
0.0000000001
 43
0.0000000001
 40
0.0
 40
0.0
 40
0.0
 40
0.0
 40
0.1919080268486386
 40
0.1919080268486386
 40
0.1919080268486386
 40
1.908577268515528
 40
1.908577268515528
 40
1.908577268515528
 40
4.751986524788792
 40
4.751986524788792
 40
4.751986524788792
 40
4.948090502131626
 40
4.948090502131626
 40
4.948090502131626
 40
4.948090502131626
 10
1019.635044296622
 20
557.3572273129289
 30
0.0
 10
1019.635077429556
 20
557.4213528400649
 30
0.0
 10
1019.635066160242
 20
557.4853222685372
 30
0.0
 10
1019.635083138618
 20
557.5491351971975
 30
0.0
 10
1019.635236512962
 20
558.1255900024294
 30
0.0
 10
1019.63729203601
 20
558.6978116974235
 30
0.0
 10
1019.637165465461
 20
559.26580061259
 30
0.0
 10
1019.636957043894
 20
560.201098286444
 30
0.0
 10
1019.629631403127
 20
561.1488982055064
 30
0.0
 10
1019.634049435759
 20
562.1091704727069
 30
0.0
 10
1019.634345083391
 20
562.1734303473013
 30
0.0
 10
1019.634732502338
 20
562.2378449494202
 30
0.0
 10
1019.635164161459
 20
562.3024139262716
 30
0.0
  0
SPLINE
  5
109
330
1F
100
AcDbEntity
  8
2D
100
AcDbSpline
210
0.0
220
0.0
230
1.0
 70
    28
 71
     2
 72
     6
 73
     3
 74
     0
 42
0.0000000001
 43
0.0000000001
 40
32.21571091405681
 40
32.21571091405681
 40
32.21571091405681
 40
178.9999999999982
 40
178.9999999999982
 40
178.9999999999982
 10
1019.635072428682
 20
562.2885908815899
 30
0.0
 41
1.0
 10
946.2429278857109
 20
562.2885908815902
 30
0.0
 41
1.0
 10
872.8507833427401
 20
562.2885908815904
 30
0.0
 41
1.0
  0
SPLINE
  5
10A
330
1F
100
AcDbEntity
  8
2D
100
AcDbSpline
210
0.0
220
0.0
230
1.0
 70
     8
 71
     3
 72
    14
 73
    10
 74
     0
 42
0.0000000001
 43
0.0000000001
 40
8.861468554024205
 40
8.861468554024205
 40
8.861468554024205
 40
8.861468554024205
 40
12.54104276801996
 40
12.54104276801996
 40
12.54104276801996
 40
16.61214508206515
 40
16.61214508206515
 40
16.61214508206515
 40
17.90103208147986
 40
17.90103208147986
 40
17.90103208147986
 40
17.90103208147986
 10
998.6017826399402
 20
515.5621695253533
 30
0.0
 10
998.6019044979297
 20
516.7982608246459
 30
0.0
 10
998.6016824565255
 20
518.0411460677537
 30
0.0
 10
998.6006966324101
 20
519.2908237265922
 30
0.0
 10
998.5996241230124
 20
520.6503877827336
 30
0.0
 10
998.5976374455578
 20
522.0074380299714
 30
0.0
 10
998.6002632521914
 20
523.3618948478286
 30
0.0
 10
998.6010982253462
 20
523.7925949106329
 30
0.0
 10
998.6024183288768
 20
524.2222115606908
 30
0.0
 10
998.6043325066944
 20
524.6507505310785
 30
0.0
  0
SPLINE
  5
10B
330
1F
100
AcDbEntity
  8
2D
100
AcDbSpline
210
0.0
220
0.0
230
1.0
 70
    28
 71
     2
 72
     6
 73
     3
 74
     0
 42
0.0000000001
 43
0.0000000001
 40
10.91835420101926
 40
10.91835420101926
 40
10.91835420101926
 40
117.1953874617052
 40
117.1953874617052
 40
117.1953874617052
 10
989.5870480201626
 20
392.8115528404938
 30
0.0
 41
1.0
 10
984.0325528563335
 20
445.6589703095455
 30
0.0
 41
1.0
 10
978.4780576925043
 20
498.5063877785972
 30
0.0
 41
1.0
  0
SPLINE
  5
10C
330
1F
100
AcDbEntity
  8
2D
100
AcDbSpline
210
0.0
220
0.0
230
1.0
 70
    28
 71
     2
 72
     6
 73
     3
 74
     0
 42
0.0000000001
 43
0.0000000001
 40
13.82473228321688
 40
13.82473228321688
 40
13.82473228321688
 40
120.1017655439025
 40
120.1017655439025
 40
120.1017655439025
 10
1125.011259488519
 20
498.5063877785967
 30
0.0
 41
1.0
 10
1119.45676432469
 20
445.6589703095451
 30
0.0
 41
1.0
 10
1113.902269160861
 20
392.8115528404936
 30
0.0
 41
1.0
  0
SPLINE
  5
10D
330
1F
100
AcDbEntity
  8
2D
100
AcDbSpline
210
0.0
220
0.0
230
1.0
 70
    28
 71
     2
 72
     8
 73
     5
 74
     0
 42
0.0000000001
 43
0.0000000001
 40
0.0
 40
0.0
 40
0.0
 40
4.000000002698661
 40
4.000000002698661
 40
8.000000005397322
 40
8.000000005397322
 40
8.000000005397322
 10
1049.744658590488
 20
336.8765891616011
 30
0.0
 41
1.0
 10
1049.744658590488
 20
336.8765891616017
 30
0.0
 41
0.7071067809521672
 10
1051.744658591837
 20
336.8765891616022
 30
0.0
 41
1.0
 10
1053.744658593186
 20
336.8765891616027
 30
0.0
 41
0.7071067809521672
 10
1053.744658590535
 20
336.8765891616022
 30
0.0
 41
1.0
  0
SPLINE
  5
10E
330
1F
100
AcDbEntity
  8
2D
100
AcDbSpline
210
0.0
220
0.0
230
1.0
 70
    12
 71
     2
 72
     6
 73
     3
 74
     0
 42
0.0000000001
 43
0.0000000001
 40
0.0
 40
0.0
 40
0.0
 40
108.9795806635196
 40
108.9795806635196
 40
108.9795806635196
 10
989.5870401299918
 20
392.8115520112022
 30
0.0
 41
1.0
 10
995.2827741771233
 20
338.6202624522382
 30
0.0
 41
0.75375713317965
 10
1049.744658590488
 20
336.8765891616011
 30
0.0
 41
1.0
  0
SPLINE
  5
10F
330
1F
100
AcDbEntity
  8
2D
100
AcDbSpline
210
0.0
220
0.0
230
1.0
 70
    12
 71
     2
 72
     6
 73
     3
 74
     0
 42
0.0000000001
 43
0.0000000001
 40
0.0
 40
0.0
 40
0.0
 40
108.9795806635232
 40
108.9795806635232
 40
108.9795806635232
 10
1053.744658590535
 20
336.8765891616022
 30
0.0
 41
1.0
 10
1108.206543003901
 20
338.6202624522361
 30
0.0
 41
0.7537571331796229
 10
1113.902277051031
 20
392.8115520112022
 30
0.0
 41
1.0
  0
SPLINE
  5
110
330
1F
100
AcDbEntity
  8
2D
100
AcDbSpline
210
0.0
220
0.0
230
1.0
 70
    28
 71
     2
 72
     6
 73
     3
 74
     0
 42
0.0000000001
 43
0.0000000001
 40
9.999760189483176
 40
9.999760189483176
 40
9.999760189483176
 40
26.71593367166287
 40
26.71593367166287
 40
26.71593367166287
 10
1041.851023153255
 20
562.2885908815899
 30
0.0
 41
1.0
 10
1033.492936412165
 20
562.2885908815899
 30
0.0
 41
1.0
 10
1025.134849671076
 20
562.2885908815899
 30
0.0
 41
1.0
  0
SPLINE
  5
111
330
1F
100
AcDbEntity
  8
2D
100
AcDbSpline
210
0.0
220
0.0
230
1.0
 70
    28
 71
     2
 72
     6
 73
     3
 74
     0
 42
0.0000000001
 43
0.0000000001
 40
0.0
 40
0.0
 40
0.0
 40
5.72642135623726
 40
5.72642135623726
 40
5.72642135623726
 10
1006.850783342741
 20
515.5621695253534
 30
0.0
 41
0.8683475024126047
 10
1006.850783342741
 20
518.4253802034721
 30
0.0
 41
0.8683475024126047
 10
1006.850783342741
 20
521.2885908815907
 30
0.0
 41
0.8683475024126047
  0
SPLINE
  5
112
330
1F
100
AcDbEntity
  8
2D
100
AcDbSpline
210
0.0
220
0.0
230
1.0
 70
    28
 71
     2
 72
     6
 73
     3
 74
     0
 42
0.0000000001
 43
0.0000000001
 40
0.0
 40
0.0
 40
0.0
 40
5.726421356237259
 40
5.726421356237259
 40
5.726421356237259
 10
1096.850783342739
 20
521.2885908815905
 30
0.0
 41
0.8683475024126048
 10
1096.850783342739
 20
518.425380203472
 30
0.0
 41
0.8683475024126048
 10
1096.850783342739
 20
515.5621695253534
 30
0.0
 41
0.8683475024126048
  0
SPLINE
  5
113
330
1F
100
AcDbEntity
  8
2D
100
AcDbSpline
210
0.0
220
0.0
230
1.0
 70
    28
 71
     2
 72
     6
 73
     3
 74
     0
 42
0.0000000001
 43
0.0000000001
 40
0.0
 40
0.0
 40
0.0
 40
169.0004530583464
 40
169.0004530583464
 40
169.0004530583464
 10
872.8507833427402
 20
582.2885908815904
 30
0.0
 41
1.0
 10
957.3510098719134
 20
582.2885908815902
 30
0.0
 41
1.0
 10
1041.851236401087
 20
582.2885908815899
 30
0.0
 41
1.0
  0
SPLINE
  5
114
330
1F
100
AcDbEntity
  8
2D
100
AcDbSpline
210
0.0
220
0.0
230
1.0
 70
    28
 71
     2
 72
     6
 73
     3
 74
     0
 42
0.0000000001
 43
0.0000000001
 40
0.0
 40
0.0
 40
0.0
 40
34.00000000000091
 40
34.00000000000091
 40
34.00000000000091
 10
872.8507833427402
 20
406.872270589633
 30
0.0
 41
1.0
 10
855.8507833427398
 20
406.872270589633
 30
0.0
 41
1.0
 10
838.8507833427393
 20
406.872270589633
 30
0.0
 41
1.0
  0
SPLINE
  5
115
330
1F
100
AcDbEntity
  8
2D
100
AcDbSpline
210
0.0
220
0.0
230
1.0
 70
    28
 71
     2
 72
     6
 73
     3
 74
     0
 42
0.0000000001
 43
0.0000000001
 40
-1761.159046423233
 40
-1761.159046423233
 40
-1761.159046423233
 40
-1648.326405839298
 40
-1648.326405839298
 40
-1648.326405839298
 10
838.8507833427393
 20
623.704911173558
 30
0.0
 41
1.0
 10
838.8507833427394
 20
623.704911173558
 30
0.0
 41
0.7071067811865469
 10
838.8507833427393
 20
567.2885908815906
 30
0.0
 41
1.0
  0
SPLINE
  5
116
330
1F
100
AcDbEntity
  8
2D
100
AcDbSpline
210
0.0
220
0.0
230
1.0
 70
    28
 71
     2
 72
     6
 73
     3
 74
     0
 42
0.0000000001
 43
0.0000000001
 40
0.0
 40
0.0
 40
0.0
 40
34.00000000000091
 40
34.00000000000091
 40
34.00000000000091
 10
838.8507833427393
 20
623.704911173558
 30
0.0
 41
1.0
 10
855.8507833427398
 20
623.704911173558
 30
0.0
 41
1.0
 10
872.8507833427402
 20
623.704911173558
 30
0.0
 41
1.0
  0
SPLINE
  5
117
330
1F
100
AcDbEntity
  8
2D
100
AcDbSpline
210
0.0
220
0.0
230
1.0
 70
    28
 71
     2
 72
     6
 73
     3
 74
     0
 42
0.0000000001
 43
0.0000000001
 40
-1544.326405839308
 40
-1544.326405839308
 40
-1544.326405839308
 40
-1431.493765255373
 40
-1431.493765255373
 40
-1431.493765255373
 10
872.8507833427402
 20
463.2885908816004
 30
0.0
 41
1.0
 10
872.85078334274
 20
406.8722705896332
 30
0.0
 41
0.7071067811865469
 10
872.8507833427402
 20
406.872270589633
 30
0.0
 41
1.0
  0
SPLINE
  5
118
330
1F
100
AcDbEntity
  8
2D
100
AcDbSpline
210
0.0
220
0.0
230
1.0
 70
    28
 71
     2
 72
     6
 73
     3
 74
     0
 42
0.0000000001
 43
0.0000000001
 40
-1544.326405839308
 40
-1544.326405839308
 40
-1544.326405839308
 40
-1431.493765255373
 40
-1431.493765255373
 40
-1431.493765255373
 10
838.8507833427393
 20
463.2885908816004
 30
0.0
 41
1.0
 10
838.8507833427394
 20
406.8722705896332
 30
0.0
 41
0.7071067811865469
 10
838.8507833427393
 20
406.872270589633
 30
0.0
 41
1.0
  0
SPLINE
  5
119
330
1F
100
AcDbEntity
  8
2D
100
AcDbSpline
210
0.0
220
0.0
230
1.0
 70
    28
 71
     2
 72
     6
 73
     3
 74
     0
 42
0.0000000001
 43
0.0000000001
 40
-1648.326405839298
 40
-1648.326405839298
 40
-1648.326405839298
 40
-1544.326405839308
 40
-1544.326405839308
 40
-1544.326405839308
 10
838.8507833427393
 20
567.2885908815906
 30
0.0
 41
1.0
 10
838.8507833427393
 20
515.2885908815956
 30
0.0
 41
1.0
 10
838.8507833427393
 20
463.2885908816004
 30
0.0
 41
1.0
  0
SPLINE
  5
11A
330
1F
100
AcDbEntity
  8
2D
100
AcDbSpline
210
0.0
220
0.0
230
1.0
 70
    28
 71
     2
 72
     6
 73
     3
 74
     0
 42
0.0000000001
 43
0.0000000001
 40
60.0
 40
60.0
 40
60.0
 40
80.0
 40
80.0
 40
80.0
 10
1041.85078334274
 20
602.2885908815904
 30
0.0
 41
1.0
 10
1041.85078334274
 20
602.2885908815903
 30
0.0
 41
0.707106781186548
 10
1051.85078334274
 20
602.2885908815904
 30
0.0
 41
1.0
  0
SPLINE
  5
11B
330
1F
100
AcDbEntity
  8
2D
100
AcDbSpline
210
0.0
220
0.0
230
1.0
 70
    28
 71
     2
 72
     6
 73
     3
 74
     0
 42
0.0000000001
 43
0.0000000001
 40
0.0
 40
0.0
 40
0.0
 40
80.99999999999997
 40
80.99999999999997
 40
80.99999999999997
 10
1061.85078334274
 20
602.2885908815904
 30
0.0
 41
1.0
 10
1061.85078334274
 20
561.7885908815904
 30
0.0
 41
1.0
 10
1061.85078334274
 20
521.2885908815904
 30
0.0
 41
1.0
  0
SPLINE
  5
11C
330
1F
100
AcDbEntity
  8
2D
100
AcDbSpline
210
0.0
220
0.0
230
1.0
 70
    28
 71
     2
 72
     6
 73
     3
 74
     0
 42
0.0000000001
 43
0.0000000001
 40
60.9999999999995
 40
60.9999999999995
 40
60.9999999999995
 40
80.99999999999997
 40
80.99999999999997
 40
80.99999999999997
 10
1041.85078334274
 20
582.2885908815899
 30
0.0
 41
1.0
 10
1041.85078334274
 20
592.2885908815902
 30
0.0
 41
1.0
 10
1041.85078334274
 20
602.2885908815904
 30
0.0
 41
1.0
  0
SPLINE
  5
11D
330
1F
100
AcDbEntity
  8
2D
100
AcDbSpline
210
0.0
220
0.0
230
1.0
 70
    28
 71
     2
 72
     6
 73
     3
 74
     0
 42
0.0000000001
 43
0.0000000001
 40
0.0
 40
0.0
 40
0.0
 40
40.99999999999953
 40
40.99999999999953
 40
40.99999999999953
 10
1041.85078334274
 20
521.2885908815904
 30
0.0
 41
1.0
 10
1041.85078334274
 20
541.7885908815902
 30
0.0
 41
1.0
 10
1041.85078334274
 20
562.2885908815899
 30
0.0
 41
1.0
  0
SPLINE
  5
11E
330
1F
100
AcDbEntity
  8
2D
100
AcDbSpline
210
0.0
220
0.0
230
1.0
 70
     8
 71
     3
 72
    16
 73
    12
 74
     0
 42
0.0000000001
 43
0.0000000001
 40
0.0
 40
0.0
 40
0.0
 40
0.0
 40
2.365716023040243
 40
2.365716023040243
 40
4.731265864055469
 40
4.731265864055469
 40
9.449708156128768
 40
9.449708156128768
 40
14.29616231974283
 40
14.29616231974283
 40
19.23746815972361
 40
19.23746815972361
 40
19.23746815972361
 40
19.23746815972361
 10
1051.850783342739
 20
572.2885908815899
 30
0.0
 10
1051.298461269291
 20
571.7362688081416
 30
0.0
 10
1050.745151887197
 20
571.1829594268477
 30
0.0
 10
1049.648207548619
 20
570.0860150878593
 30
0.0
 10
1049.102491324099
 20
569.5402988629482
 30
0.0
 10
1047.496276104809
 20
567.9340836436584
 30
0.0
 10
1046.445520221511
 20
566.8833277603608
 30
0.0
 10
1044.512376329475
 20
564.9501838683245
 30
0.0
 10
1043.611193338273
 20
564.0490008771228
 30
0.0
 10
1042.26294276184
 20
562.7007503006901
 30
0.0
 10
1041.85078334274
 20
562.2885908815899
 30
0.0
 10
1041.85078334274
 20
562.2885908815899
 30
0.0
  0
SPLINE
  5
11F
330
1F
100
AcDbEntity
  8
2D
100
AcDbSpline
210
0.0
220
0.0
230
1.0
 70
     8
 71
     3
 72
    16
 73
    12
 74
     0
 42
0.0000000001
 43
0.0000000001
 40
0.0
 40
0.0
 40
0.0
 40
0.0
 40
4.941305839979984
 40
4.941305839979984
 40
9.787760003593167
 40
9.787760003593167
 40
14.50620229566556
 40
14.50620229566556
 40
16.87175213668153
 40
16.87175213668153
 40
19.23746815972354
 40
19.23746815972354
 40
19.23746815972354
 40
19.23746815972354
 10
1041.85078334274
 20
582.2885908815899
 30
0.0
 10
1041.85078334274
 20
582.2885908815899
 30
0.0
 10
1042.26294276184
 20
581.87643146249
 30
0.0
 10
1043.611193338273
 20
580.528180886057
 30
0.0
 10
1044.512376329475
 20
579.6269978948553
 30
0.0
 10
1046.445520221511
 20
577.6938540028191
 30
0.0
 10
1047.496276104809
 20
576.6430981195215
 30
0.0
 10
1049.1024913241
 20
575.0368829002311
 30
0.0
 10
1049.648207548578
 20
574.491166675281
 30
0.0
 10
1050.745151887114
 20
573.3942223362494
 30
0.0
 10
1051.29846126929
 20
572.8409129550387
 30
0.0
 10
1051.850783342739
 20
572.2885908815899
 30
0.0
  0
SPLINE
  5
120
330
1F
100
AcDbEntity
  8
2D
100
AcDbSpline
210
0.0
220
0.0
230
1.0
 70
    28
 71
     2
 72
     6
 73
     3
 74
     0
 42
0.0000000001
 43
0.0000000001
 40
0.0
 40
0.0
 40
0.0
 40
19.99999999999999
 40
19.99999999999999
 40
19.99999999999999
 10
1051.85078334274
 20
602.2885908815904
 30
0.0
 41
1.0
 10
1061.85078334274
 20
602.2885908815903
 30
0.0
 41
0.707106781186548
 10
1061.85078334274
 20
602.2885908815904
 30
0.0
 41
1.0
  0
SPLINE
  5
121
330
1F
100
AcDbEntity
  8
2D
100
AcDbSpline
210
0.0
220
0.0
230
1.0
 70
    28
 71
     2
 72
     6
 73
     3
 74
     0
 42
0.0000000001
 43
0.0000000001
 40
-1698.649077311778
 40
-1698.649077311778
 40
-1698.649077311778
 40
-1607.111383293511
 40
-1607.111383293511
 40
-1607.111383293511
 10
1102.60078334274
 20
515.5621695253534
 30
0.0
 41
0.998870560083472
 10
1139.999151394611
 20
515.5621695253532
 30
0.0
 41
0.8871172868099889
 10
1139.99915139463
 20
515.562169525353
 30
0.0
 41
1.0
  0
SPLINE
  5
122
330
1F
100
AcDbEntity
  8
2D
100
AcDbSpline
210
0.0
220
0.0
230
1.0
 70
    28
 71
     2
 72
     6
 73
     3
 74
     0
 42
0.0000000001
 43
0.0000000001
 40
-1288.478433635605
 40
-1288.478433635605
 40
-1288.478433635605
 40
-1282.876773329928
 40
-1282.876773329928
 40
-1282.876773329928
 10
954.3507833427396
 20
515.5621695253533
 30
0.0
 41
1.0
 10
954.3507833427398
 20
515.5621695253535
 30
0.0
 41
0.819152044288988
 10
956.9827027694371
 20
515.5621695253533
 30
0.0
 41
1.0
  0
SPLINE
  5
123
330
1F
100
AcDbEntity
  8
2D
100
AcDbSpline
210
0.0
220
0.0
230
1.0
 70
    28
 71
     2
 72
     6
 73
     3
 74
     0
 42
0.0000000001
 43
0.0000000001
 40
-1288.478433635605
 40
-1288.478433635605
 40
-1288.478433635605
 40
-1282.876773329928
 40
-1282.876773329928
 40
-1282.876773329928
 10
954.3507833427396
 20
498.5063885637378
 30
0.0
 41
1.0
 10
954.3507833427398
 20
498.5063885637379
 30
0.0
 41
0.819152044288988
 10
956.9827027694371
 20
498.5063885637378
 30
0.0
 41
1.0
  0
SPLINE
  5
124
330
1F
100
AcDbEntity
  8
2D
100
AcDbSpline
210
0.0
220
0.0
230
1.0
 70
    28
 71
     2
 72
     6
 73
     3
 74
     0
 42
0.0000000001
 43
0.0000000001
 40
0.0
 40
0.0
 40
0.0
 40
17.05578096161559
 40
17.05578096161559
 40
17.05578096161559
 10
954.3507833427396
 20
498.5063885637378
 30
0.0
 41
1.0
 10
954.3507833427396
 20
507.0342790445455
 30
0.0
 41
1.0
 10
954.3507833427396
 20
515.5621695253533
 30
0.0
 41
1.0
  0
SPLINE
  5
125
330
1F
100
AcDbEntity
  8
2D
100
AcDbSpline
210
0.0
220
0.0
230
1.0
 70
    28
 71
     2
 72
     6
 73
     3
 74
     0
 42
0.0000000001
 43
0.0000000001
 40
0.0
 40
0.0
 40
0.0
 40
17.05578096161559
 40
17.05578096161559
 40
17.05578096161559
 10
1139.99915139463
 20
515.562169525353
 30
0.0
 41
1.0
 10
1139.99915139463
 20
507.0342790445453
 30
0.0
 41
1.0
 10
1139.99915139463
 20
498.5063885637376
 30
0.0
 41
1.0
  0
SPLINE
  5
126
330
1F
100
AcDbEntity
  8
2D
100
AcDbSpline
210
0.0
220
0.0
230
1.0
 70
    28
 71
     2
 72
     6
 73
     3
 74
     0
 42
0.0000000001
 43
0.0000000001
 40
0.0
 40
0.0
 40
0.0
 40
17.05578096161559
 40
17.05578096161559
 40
17.05578096161559
 10
1102.60078334274
 20
515.5621695253533
 30
0.0
 41
0.9542803405932743
 10
1102.60078334274
 20
507.0342790445454
 30
0.0
 41
0.9542803405932743
 10
1102.60078334274
 20
498.5063885637375
 30
0.0
 41
0.9542803405932743
  0
SPLINE
  5
127
330
1F
100
AcDbEntity
  8
2D
100
AcDbSpline
210
0.0
220
0.0
230
1.0
 70
    28
 71
     2
 72
     6
 73
     3
 74
     0
 42
0.0000000001
 43
0.0000000001
 40
-1088.08129330701
 40
-1088.08129330701
 40
-1088.08129330701
 40
-1081.658127503171
 40
-1081.658127503171
 40
-1081.658127503171
 10
1091.109202432731
 20
515.5621695253533
 30
0.0
 41
1.0
 10
1093.569417668363
 20
515.5621695253533
 30
0.0
 41
1.0
 10
1096.029632903994
 20
515.5621695253533
 30
0.0
 41
1.0
  0
SPLINE
  5
128
330
1F
100
AcDbEntity
  8
2D
100
AcDbSpline
210
0.0
220
0.0
230
1.0
 70
    28
 71
     2
 72
     6
 73
     3
 74
     0
 42
0.0000000001
 43
0.0000000001
 40
-1088.08129330701
 40
-1088.08129330701
 40
-1088.08129330701
 40
-1081.658127503171
 40
-1081.658127503171
 40
-1081.658127503171
 10
1091.109202432731
 20
498.5063885637376
 30
0.0
 41
1.0
 10
1093.569417668363
 20
498.5063885637376
 30
0.0
 41
1.0
 10
1096.029632903994
 20
498.5063885637376
 30
0.0
 41
1.0
  0
SPLINE
  5
129
330
1F
100
AcDbEntity
  8
2D
100
AcDbSpline
210
0.0
220
0.0
230
1.0
 70
    28
 71
     2
 72
     6
 73
     3
 74
     0
 42
0.0000000001
 43
0.0000000001
 40
-1090.003102202639
 40
-1090.003102202639
 40
-1090.003102202639
 40
-1088.08129330701
 40
-1088.08129330701
 40
-1088.08129330701
 10
1089.504280335895
 20
515.5621695253533
 30
0.0
 41
1.0
 10
1090.373106920115
 20
515.5621695253532
 30
0.0
 41
0.8420408031879267
 10
1091.109202432731
 20
515.5621695253533
 30
0.0
 41
1.0
  0
SPLINE
  5
12A
330
1F
100
AcDbEntity
  8
2D
100
AcDbSpline
210
0.0
220
0.0
230
1.0
 70
    28
 71
     2
 72
     6
 73
     3
 74
     0
 42
0.0000000001
 43
0.0000000001
 40
-1090.003102202639
 40
-1090.003102202639
 40
-1090.003102202639
 40
-1088.08129330701
 40
-1088.08129330701
 40
-1088.08129330701
 10
1089.504280335895
 20
498.5063885637376
 30
0.0
 41
1.0
 10
1090.373106920115
 20
498.5063885637376
 30
0.0
 41
0.8420408031879267
 10
1091.109202432731
 20
498.5063885637376
 30
0.0
 41
1.0
  0
SPLINE
  5
12B
330
1F
100
AcDbEntity
  8
2D
100
AcDbSpline
210
0.0
220
0.0
230
1.0
 70
    28
 71
     2
 72
     6
 73
     3
 74
     0
 42
0.0000000001
 43
0.0000000001
 40
-1276.453607526089
 40
-1276.453607526089
 40
-1276.453607526089
 40
-1274.53179863046
 40
-1274.53179863046
 40
-1274.53179863046
 10
963.0185042773887
 20
515.5621695253533
 30
0.0
 41
1.0
 10
963.9214590962802
 20
515.5621695253534
 30
0.0
 41
0.8420408031879156
 10
964.0004032711834
 20
515.5621695253533
 30
0.0
 41
1.0
  0
SPLINE
  5
12C
330
1F
100
AcDbEntity
  8
2D
100
AcDbSpline
210
0.0
220
0.0
230
1.0
 70
    28
 71
     2
 72
     6
 73
     3
 74
     0
 42
0.0000000001
 43
0.0000000001
 40
-1276.453607526089
 40
-1276.453607526089
 40
-1276.453607526089
 40
-1274.53179863046
 40
-1274.53179863046
 40
-1274.53179863046
 10
963.0185042773887
 20
498.5063885637378
 30
0.0
 41
1.0
 10
963.9214590962802
 20
498.5063885637378
 30
0.0
 41
0.8420408031879156
 10
964.0004032711832
 20
498.5063885637378
 30
0.0
 41
1.0
  0
SPLINE
  5
12D
330
1F
100
AcDbEntity
  8
2D
100
AcDbSpline
210
0.0
220
0.0
230
1.0
 70
    28
 71
     2
 72
     6
 73
     3
 74
     0
 42
0.0000000001
 43
0.0000000001
 40
-1282.876773329928
 40
-1282.876773329928
 40
-1282.876773329928
 40
-1276.453607526089
 40
-1276.453607526089
 40
-1276.453607526089
 10
956.9827027694371
 20
515.5621695253533
 30
0.0
 41
1.0
 10
960.0006035234129
 20
515.5621695253533
 30
0.0
 41
1.0
 10
963.0185042773887
 20
515.5621695253533
 30
0.0
 41
1.0
  0
SPLINE
  5
12E
330
1F
100
AcDbEntity
  8
2D
100
AcDbSpline
210
0.0
220
0.0
230
1.0
 70
    28
 71
     2
 72
     6
 73
     3
 74
     0
 42
0.0000000001
 43
0.0000000001
 40
-1282.876773329928
 40
-1282.876773329928
 40
-1282.876773329928
 40
-1276.453607526089
 40
-1276.453607526089
 40
-1276.453607526089
 10
956.9827027694371
 20
498.5063885637378
 30
0.0
 41
1.0
 10
960.0006035234129
 20
498.5063885637378
 30
0.0
 41
1.0
 10
963.0185042773887
 20
498.5063885637378
 30
0.0
 41
1.0
  0
SPLINE
  5
12F
330
1F
100
AcDbEntity
  8
2D
100
AcDbSpline
210
0.0
220
0.0
230
1.0
 70
     8
 71
     3
 72
    32
 73
    28
 74
     0
 42
0.0000000001
 43
0.0000000001
 40
-4.532098642408585
 40
-4.532098642408585
 40
-4.532098642408585
 40
-4.532098642408585
 40
-4.378979172583813
 40
-4.378979172583813
 40
-4.378979172583813
 40
-3.279535285935589
 40
-3.279535285935589
 40
-2.182048782524916
 40
-2.182048782524916
 40
-2.182048782524916
 40
-1.090379281273734
 40
-1.090379281273734
 40
-0.5452496977898349
 40
-0.5452496977898349
 40
0.0
 40
0.0
 40
0.0
 40
0.547416930002683
 40
0.547416930002683
 40
1.094634199290358
 40
1.094634199290358
 40
2.189803216456909
 40
2.189803216456909
 40
2.189803216456909
 40
3.285891981262989
 40
3.285891981262989
 40
4.221299129818116
 40
4.221299129818116
 40
4.221299129818116
 40
4.221299129818116
 10
1025.13458638137
 20
562.3028487442823
 30
0.0
 10
1025.134454782933
 20
562.3055600947639
 30
0.0
 10
1025.132918274756
 20
562.308660970574
 30
0.0
 10
1025.129975469318
 20
562.3121537820145
 30
0.0
 10
1025.108890203752
 20
562.3371798526682
 30
0.0
 10
1025.016160544397
 20
562.3821189852408
 30
0.0
 10
1024.701805270361
 20
562.4959259600378
 30
0.0
 10
1024.483023854787
 20
562.5634829458411
 30
0.0
 10
1024.215146024495
 20
562.6272480247101
 30
0.0
 10
1023.948384574745
 20
562.6907473626882
 30
0.0
 10
1023.636460672202
 20
562.7491883898851
 30
0.0
 10
1023.12539648276
 20
562.8078827019135
 30
0.0
 10
1022.949421503415
 20
562.822485259537
 30
0.0
 10
1022.590531657551
 20
562.8397320474335
 30
0.0
 10
1022.40906846824
 20
562.842296370595
 30
0.0
 10
1022.227997258138
 20
562.8386200090224
 30
0.0
 10
1022.046265215411
 20
562.8349302302997
 30
0.0
 10
1021.866472773838
 20
562.8249887444183
 30
0.0
 10
1021.515576611874
 20
562.794072519808
 30
0.0
 10
1021.345703715537
 20
562.773223329765
 30
0.0
 10
1020.859198435559
 20
562.6988050590887
 30
0.0
 10
1020.570104788758
 20
562.634022192646
 30
0.0
 10
1020.331828293995
 20
562.5692737274119
 30
0.0
 10
1020.093544535726
 20
562.504523288417
 30
0.0
 10
1019.908888697374
 20
562.440977074159
 30
0.0
 10
1019.687753514292
 20
562.3496274087474
 30
0.0
 10
1019.635276850552
 20
562.31887132628
 30
0.0
 10
1019.635082994419
 20
562.3024713599302
 30
0.0
  0
SPLINE
  5
130
330
1F
100
AcDbEntity
  8
2D
100
AcDbSpline
210
0.0
220
0.0
230
1.0
 70
     8
 71
     3
 72
    14
 73
    10
 74
     0
 42
0.0000000001
 43
0.0000000001
 40
0.0
 40
0.0
 40
0.0
 40
0.0
 40
1.266052201246663
 40
1.266052201246663
 40
1.266052201246663
 40
5.341217019358702
 40
5.341217019358702
 40
5.341217019358702
 40
9.020808659421837
 40
9.020808659421837
 40
9.020808659421837
 40
9.020808659421837
 10
1004.10131879246
 20
524.6319687927437
 30
0.0
 10
1004.09896486281
 20
524.2092810064703
 30
0.0
 10
1004.09971682696
 20
523.7872042550373
 30
0.0
 10
1004.100214221346
 20
523.3659515331356
 30
0.0
 10
1004.101815727444
 20
522.0096057002643
 30
0.0
 10
1004.101204812313
 20
520.6511912283008
 30
0.0
 10
1004.100868908697
 20
519.2908016223471
 30
0.0
 10
1004.100560344928
 20
518.0411367637093
 30
0.0
 10
1004.100479014206
 20
516.7982591783243
 30
0.0
 10
1004.100502430859
 20
515.5621695253533
 30
0.0
  0
SPLINE
  5
131
330
1F
100
AcDbEntity
  8
2D
100
AcDbSpline
210
0.0
220
0.0
230
1.0
 70
     8
 71
     3
 72
    59
 73
    55
 74
     0
 42
0.0000000001
 43
0.0000000001
 40
0.0
 40
0.0
 40
0.0
 40
0.0
 40
0.313176184323629
 40
0.313176184323629
 40
0.313176184323629
 40
4.646384832097121
 40
4.646384832097121
 40
8.574990974405248
 40
8.574990974405248
 40
8.574990974405248
 40
8.769349462143227
 40
8.769349462143227
 40
8.769349462143227
 40
11.98047955389472
 40
11.98047955389472
 40
15.35079572530315
 40
15.35079572530315
 40
15.35079572530315
 40
20.57556375698573
 40
20.57556375698573
 40
20.57556375698573
 40
25.03327138688872
 40
25.03327138688872
 40
29.68388754498797
 40
29.68388754498797
 40
29.68388754498797
 40
35.82387314374461
 40
35.82387314374461
 40
35.82387314374461
 40
36.72233098627409
 40
36.72233098627409
 40
38.4808659334521
 40
38.4808659334521
 40
39.3437660793165
 40
39.3437660793165
 40
41.03878965116348
 40
41.03878965116348
 40
43.5545110331646
 40
43.5545110331646
 40
46.15007778935535
 40
46.15007778935535
 40
46.15007778935535
 40
47.03645852235279
 40
47.03645852235279
 40
47.03645852235279
 40
49.79208958393646
 40
49.79208958393646
 40
52.81624927294462
 40
52.81624927294462
 40
52.81624927294462
 40
54.56875639494969
 40
54.56875639494969
 40
54.56875639494969
 40
54.7561805822611
 40
54.7561805822611
 40
54.7561805822611
 40
54.7561805822611
 10
1025.13461982524
 20
557.3400359722834
 30
0.0
 10
1025.134689463535
 20
557.2356978522237
 30
0.0
 10
1025.134679390993
 20
557.13130330238
 30
0.0
 10
1025.134249987453
 20
557.0268623646245
 30
0.0
 10
1025.128337236644
 20
555.5887437132194
 30
0.0
 10
1025.042960288404
 20
554.1384965599602
 30
0.0
 10
1024.685476393208
 20
551.4556499563239
 30
0.0
 10
1024.430337689128
 20
550.2042977433068
 30
0.0
 10
1024.065779870607
 20
549.0271003040248
 30
0.0
 10
1024.047697463694
 20
548.9687102159974
 30
0.0
 10
1024.0293440825
 20
548.9105021599016
 30
0.0
 10
1024.010720072199
 20
548.8524940104573
 30
0.0
 10
1023.702811090052
 20
547.8934508203536
 30
0.0
 10
1023.323293828764
 20
546.997970136129
 30
0.0
 10
1022.399288704615
 20
545.3024653131249
 30
0.0
 10
1021.85554184132
 20
544.5239227646041
 30
0.0
 10
1021.257264865677
 20
543.8345450622608
 30
0.0
 10
1020.332243654067
 20
542.7686691829606
 30
0.0
 10
1019.296365551374
 20
541.9359466038152
 30
0.0
 10
1018.238356020671
 20
541.2775520787693
 30
0.0
 10
1017.337107781586
 20
540.7167093934231
 30
0.0
 10
1016.416160764807
 20
540.2787090068521
 30
0.0
 10
1014.618949748956
 20
539.51707674465
 30
0.0
 10
1013.702794044013
 20
539.1818972072977
 30
0.0
 10
1012.834709871876
 20
538.8592195353806
 30
0.0
 10
1011.682705835443
 20
538.431005322466
 30
0.0
 10
1010.572283188652
 20
538.0118189310417
 30
0.0
 10
1009.557273855468
 20
537.4930652592295
 30
0.0
 10
1009.408464887102
 20
537.4170115755687
 30
0.0
 10
1009.261853317416
 20
537.3388572886763
 30
0.0
 10
1008.834855527541
 20
537.0997847816077
 30
0.0
 10
1008.559919903247
 20
536.930786599765
 30
0.0
 10
1008.163995129418
 20
536.6566228688482
 30
0.0
 10
1008.035313132891
 20
536.5623607025038
 30
0.0
 10
1007.659955011775
 20
536.2696673133958
 30
0.0
 10
1007.416150924874
 20
536.0560695202059
 30
0.0
 10
1006.830184567604
 20
535.4646328552737
 30
0.0
 10
1006.492593267613
 20
535.0534426042548
 30
0.0
 10
1005.842082065525
 20
534.0392929426587
 30
0.0
 10
1005.543123366205
 20
533.4501391800343
 30
0.0
 10
1005.27950835938
 20
532.766911487787
 30
0.0
 10
1005.189119998359
 20
532.5326462536113
 30
0.0
 10
1005.104003463292
 20
532.2900796748809
 30
0.0
 10
1005.024028401481
 20
532.0390432526319
 30
0.0
 10
1004.776031695537
 20
531.2605980175792
 30
0.0
 10
1004.583732027093
 20
530.4193337889294
 30
0.0
 10
1004.285664891847
 20
528.5750470490809
 30
0.0
 10
1004.191429416895
 20
527.5706919305642
 30
0.0
 10
1004.145314208226
 20
526.5690049229679
 30
0.0
 10
1004.118743316848
 20
525.9918478973138
 30
0.0
 10
1004.107185390514
 20
525.3984568878136
 30
0.0
 10
1004.102579993771
 20
524.8193764736059
 30
0.0
 10
1004.102083053079
 20
524.7568913854543
 30
0.0
 10
1004.101666586318
 20
524.6944210482886
 30
0.0
 10
1004.10131879246
 20
524.6319687927437
 30
0.0
  0
SPLINE
  5
132
330
1F
100
AcDbEntity
  8
2D
100
AcDbSpline
210
0.0
220
0.0
230
1.0
 70
     8
 71
     3
 72
    55
 73
    51
 74
     0
 42
0.0000000001
 43
0.0000000001
 40
0.0
 40
0.0
 40
0.0
 40
0.0
 40
0.197737074346262
 40
0.197737074346262
 40
0.197737074346262
 40
2.158800687959284
 40
2.158800687959284
 40
2.158800687959284
 40
9.365315130686522
 40
9.365315130686522
 40
9.365315130686522
 40
10.61418449288096
 40
10.61418449288096
 40
10.61418449288096
 40
11.85249852473231
 40
11.85249852473231
 40
14.05178981325993
 40
14.05178981325993
 40
15.31330496689501
 40
15.31330496689501
 40
17.38281339680231
 40
17.38281339680231
 40
23.90840656220636
 40
23.90840656220636
 40
23.90840656220636
 40
30.36579361277479
 40
30.36579361277479
 40
30.36579361277479
 40
34.85621632907478
 40
34.85621632907478
 40
38.82624319013623
 40
38.82624319013623
 40
38.82624319013623
 40
42.9080476385345
 40
42.9080476385345
 40
42.9080476385345
 40
45.33944486975199
 40
45.33944486975199
 40
47.68260872466242
 40
47.68260872466242
 40
47.68260872466242
 40
47.81959997442151
 40
47.81959997442151
 40
47.81959997442151
 40
51.43118516591692
 40
51.43118516591692
 40
54.52263542296976
 40
54.52263542296976
 40
54.52263542296976
 40
54.80580793561037
 40
54.80580793561037
 40
54.80580793561037
 40
54.80580793561037
 10
998.6043325066944
 20
524.6507505310785
 30
0.0
 10
998.6046271986669
 20
524.7167250676798
 30
0.0
 10
998.6049354339303
 20
524.7826358444754
 30
0.0
 10
998.6052571598793
 20
524.848482825297
 30
0.0
 10
998.608455467028
 20
525.5030736970964
 30
0.0
 10
998.6129765820345
 20
526.1545724062462
 30
0.0
 10
998.6384938912327
 20
526.8083576481815
 30
0.0
 10
998.7311504362364
 20
529.1823337293529
 30
0.0
 10
999.106341879541
 20
531.5490596759219
 30
0.0
 10
999.7833694787251
 20
533.674300267689
 30
0.0
 10
999.9018133061397
 20
534.0461043568712
 30
0.0
 10
1000.029944484232
 20
534.4115128009614
 30
0.0
 10
1000.168065747986
 20
534.7682750946014
 30
0.0
 10
1000.305743249116
 20
535.1238911652222
 30
0.0
 10
1000.453097934469
 20
535.4702243721435
 30
0.0
 10
1000.889736145048
 20
536.4053932906932
 30
0.0
 10
1001.19870630673
 20
536.9700363601439
 30
0.0
 10
1001.730834284673
 20
537.8056567688257
 30
0.0
 10
1001.933439070894
 20
538.0977013101894
 30
0.0
 10
1002.489851490147
 20
538.8366041772836
 30
0.0
 10
1002.855685345814
 20
539.260512212378
 30
0.0
 10
1004.444600036318
 20
540.8863337695225
 30
0.0
 10
1005.769977984583
 20
541.7514271205594
 30
0.0
 10
1007.087987678637
 20
542.4218766411977
 30
0.0
 10
1008.430993254863
 20
543.1050411496665
 30
0.0
 10
1009.672726488991
 20
543.54314113445
 30
0.0
 10
1010.909132015579
 20
543.9951012744989
 30
0.0
 10
1011.732953170572
 20
544.2962438337797
 30
0.0
 10
1012.583498408882
 20
544.6157502088647
 30
0.0
 10
1014.046137498754
 20
545.244294860508
 30
0.0
 10
1014.739700626914
 20
545.577679208121
 30
0.0
 10
1015.336834943471
 20
545.9501640499141
 30
0.0
 10
1015.948873048309
 20
546.3319456865249
 30
0.0
 10
1016.556567536709
 20
546.8155871859014
 30
0.0
 10
1017.104499248888
 20
547.4438317014615
 30
0.0
 10
1017.437036956754
 20
547.8251109494777
 30
0.0
 10
1017.748458180553
 20
548.2576974119199
 30
0.0
 10
1018.319715724719
 20
549.305459628436
 30
0.0
 10
1018.56279568533
 20
549.8808445560546
 30
0.0
 10
1018.77562076589
 20
550.5459462086603
 30
0.0
 10
1018.787973536899
 20
550.5845499690381
 30
0.0
 10
1018.800188359024
 20
550.6233510391164
 30
0.0
 10
1018.812260966707
 20
550.6623336093669
 30
0.0
 10
1019.131312741391
 20
551.6925549623004
 30
0.0
 10
1019.34290548336
 20
552.8257059150351
 30
0.0
 10
1019.580426197935
 20
555.0084520797216
 30
0.0
 10
1019.628861706959
 20
556.0478211206305
 30
0.0
 10
1019.634345842972
 20
557.0740616904352
 30
0.0
 10
1019.634851307721
 20
557.1686487741524
 30
0.0
 10
1019.634995632628
 20
557.2630429495705
 30
0.0
 10
1019.635044296622
 20
557.3572273129289
 30
0.0
  0
POLYLINE
  5
133
330
1F
100
AcDbEntity
  8
2D
100
AcDb2dPolyline
 66
     1
 10
0.0
 20
0.0
 30
0.0
  0
VERTEX
  5
134
330
133
100
AcDbEntity
  8
2D
100
AcDbVertex
100
AcDb2dVertex
 10
1089.504280335895
 20
498.5063885637373
 30
0.0
  0
VERTEX
  5
135
330
133
100
AcDbEntity
  8
2D
100
AcDbVertex
100
AcDb2dVertex
 10
1089.504280335895
 20
515.5621695253533
 30
0.0
  0
SEQEND
  5
136
330
133
100
AcDbEntity
  8
2D
  0
POLYLINE
  5
137
330
1F
100
AcDbEntity
  8
2D
100
AcDb2dPolyline
 66
     1
 10
0.0
 20
0.0
 30
964.0004032711438
210
1.0
220
0.0
230
0.0
  0
VERTEX
  5
138
330
137
100
AcDbEntity
  8
2D
100
AcDbVertex
100
AcDb2dVertex
 10
498.5063885637377
 20
0.6754861706091085
 30
964.0004032711438
  0
VERTEX
  5
139
330
137
100
AcDbEntity
  8
2D
100
AcDbVertex
100
AcDb2dVertex
 10
515.5621695253533
 20
0.0
 30
964.0004032711438
  0
SEQEND
  5
13A
330
137
100
AcDbEntity
  8
2D
  0
ENDSEC
  0
SECTION
  2
OBJECTS
  0
DICTIONARY
  5
C
330
0
100
AcDbDictionary
281
     1
  3
ACAD_DETAILVIEWSTYLE
350
176
  3
ACAD_GROUP
350
D
  3
ACAD_LAYOUT
350
1A
  3
ACAD_MATERIAL
350
43
  3
ACAD_MLEADERSTYLE
350
5B
  3
ACAD_MLINESTYLE
350
17
  3
ACAD_PLOTSETTINGS
350
19
  3
ACAD_PLOTSTYLENAME
350
E
  3
ACAD_SCALELIST
350
47
  3
ACAD_SECTIONVIEWSTYLE
350
177
  3
ACAD_TABLESTYLE
350
59
  3
ACAD_VISUALSTYLE
350
2A
  3
ACDB_RECOMPOSE_DATA
350
173
  3
AcDbVariableDictionary
350
13B
  0
SUN
  5
5D
330
29
100
AcDbSun
 90
        1
290
     0
 63
     7
421
 16777215
 40
1.0
291
     1
 91
  2455826
 92
 54000000
292
     0
 70
     2
 71
   256
280
     1
  0
DICTIONARY
  5
176
102
{ACAD_REACTORS
330
C
102
}
330
C
100
AcDbDictionary
281
     1
  0
DICTIONARY
  5
D
102
{ACAD_REACTORS
330
C
102
}
330
C
100
AcDbDictionary
281
     1
  0
DICTIONARY
  5
1A
102
{ACAD_REACTORS
330
C
102
}
330
C
100
AcDbDictionary
281
     1
  3
Layout1
350
1E
  3
Layout2
350
26
  3
Model
350
22
  0
DICTIONARY
  5
43
102
{ACAD_REACTORS
330
C
102
}
330
C
100
AcDbDictionary
281
     1
  3
ByBlock
350
45
  3
ByLayer
350
44
  3
Global
350
46
  0
DICTIONARY
  5
5B
102
{ACAD_REACTORS
330
C
102
}
330
C
100
AcDbDictionary
281
     1
  3
Standard
350
5C
  0
DICTIONARY
  5
17
102
{ACAD_REACTORS
330
C
102
}
330
C
100
AcDbDictionary
281
     1
  3
Standard
350
18
  0
DICTIONARY
  5
19
102
{ACAD_REACTORS
330
C
102
}
330
C
100
AcDbDictionary
281
     1
  0
ACDBDICTIONARYWDFLT
  5
E
102
{ACAD_REACTORS
330
C
102
}
330
C
100
AcDbDictionary
281
     1
  3
Normal
350
F
100
AcDbDictionaryWithDefault
340
F
  0
DICTIONARY
  5
47
102
{ACAD_REACTORS
330
C
102
}
330
C
100
AcDbDictionary
281
     1
  3
A0
350
48
  3
A1
350
49
  3
A2
350
4A
  3
A3
350
4B
  3
A4
350
4C
  3
A5
350
4D
  3
A6
350
4E
  3
A7
350
4F
  3
A8
350
50
  3
A9
350
51
  3
B1
350
52
  3
B2
350
53
  3
B3
350
54
  3
B4
350
55
  3
B5
350
56
  3
B6
350
57
  3
B7
350
58
  0
DICTIONARY
  5
177
102
{ACAD_REACTORS
330
C
102
}
330
C
100
AcDbDictionary
281
     1
  0
DICTIONARY
  5
59
102
{ACAD_REACTORS
330
C
102
}
330
C
100
AcDbDictionary
281
     1
  3
Standard
350
5A
  0
DICTIONARY
  5
2A
102
{ACAD_REACTORS
330
C
102
}
330
C
100
AcDbDictionary
281
     1
  3
2dWireframe
350
2F
  3
Basic
350
32
  3
Brighten
350
36
  3
ColorChange
350
3A
  3
Conceptual
350
34
  3
Dim
350
35
  3
EdgeColorOff
350
3D
  3
Facepattern
350
39
  3
Flat
350
2B
  3
FlatWithEdges
350
2C
  3
Gouraud
350
2D
  3
GouraudWithEdges
350
2E
  3
Hidden
350
31
  3
JitterOff
350
3B
  3
Linepattern
350
38
  3
OverhangOff
350
3C
  3
Realistic
350
33
  3
Shaded
350
42
  3
Shaded with edges
350
41
  3
Shades of Gray
350
3E
  3
Sketchy
350
3F
  3
Thicken
350
37
  3
Wireframe
350
30
  3
X-Ray
350
40
  0
XRECORD
  5
173
102
{ACAD_REACTORS
330
C
102
}
330
C
100
AcDbXrecord
280
     1
 90
        1
330
5A
  0
DICTIONARY
  5
13B
102
{ACAD_REACTORS
330
C
102
}
330
C
100
AcDbDictionary
281
     1
  3
CANNOSCALE
350
13C
  3
CMLEADERSTYLE
350
175
  3
CTABLESTYLE
350
174
  3
XCLIPFRAME
350
13D
  0
LAYOUT
  5
1E
102
{ACAD_REACTORS
330
1A
102
}
330
1A
100
AcDbPlotSettings
  1

  2
none_device
  4

  6

 40
0.0
 41
0.0
 42
0.0
 43
0.0
 44
0.0
 45
0.0
 46
0.0
 47
0.0
 48
0.0
 49
0.0
140
0.0
141
0.0
142
1.0
143
1.0
 70
   688
 72
     0
 73
     0
 74
     5
  7

 75
    16
 76
     0
 77
     2
 78
   300
147
1.0
148
0.0
149
0.0
100
AcDbLayout
  1
Layout1
 70
     1
 71
     1
 10
0.0
 20
0.0
 11
12.0
 21
9.0
 12
0.0
 22
0.0
 32
0.0
 14
1.000000000000000E+20
 24
1.000000000000000E+20
 34
1.000000000000000E+20
 15
-1.000000000000000E+20
 25
-1.000000000000000E+20
 35
-1.000000000000000E+20
146
0.0
 13
0.0
 23
0.0
 33
0.0
 16
1.0
 26
0.0
 36
0.0
 17
0.0
 27
1.0
 37
0.0
 76
     0
330
1B
  0
LAYOUT
  5
26
102
{ACAD_REACTORS
330
1A
102
}
330
1A
100
AcDbPlotSettings
  1

  2
none_device
  4

  6

 40
0.0
 41
0.0
 42
0.0
 43
0.0
 44
0.0
 45
0.0
 46
0.0
 47
0.0
 48
0.0
 49
0.0
140
0.0
141
0.0
142
1.0
143
1.0
 70
   688
 72
     0
 73
     0
 74
     5
  7

 75
    16
 76
     0
 77
     2
 78
   300
147
1.0
148
0.0
149
0.0
100
AcDbLayout
  1
Layout2
 70
     1
 71
     2
 10
0.0
 20
0.0
 11
0.0
 21
0.0
 12
0.0
 22
0.0
 32
0.0
 14
0.0
 24
0.0
 34
0.0
 15
0.0
 25
0.0
 35
0.0
146
0.0
 13
0.0
 23
0.0
 33
0.0
 16
1.0
 26
0.0
 36
0.0
 17
0.0
 27
1.0
 37
0.0
 76
     0
330
23
  0
LAYOUT
  5
22
102
{ACAD_REACTORS
330
1A
102
}
330
1A
100
AcDbPlotSettings
  1

  2
none_device
  4
Letter_(8.50_x_11.00_Inches)
  6

 40
6.35
 41
6.35
 42
6.35000508
 43
6.35000508
 44
215.9
 45
279.4
 46
0.0
 47
0.0
 48
0.0
 49
0.0
140
0.0
141
0.0
142
1.0
143
1.0
 70
  1712
 72
     0
 73
     0
 74
     0
  7

 75
     0
 76
     0
 77
     2
 78
   300
147
1.0
148
0.0
149
0.0
100
AcDbLayout
  1
Model
 70
     1
 71
     0
 10
0.0
 20
0.0
 11
12.0
 21
9.0
 12
0.0
 22
0.0
 32
0.0
 14
544.4523310004403
 24
55.95516360581351
 34
0.0
 15
1442.048091186465
 25
896.3327664828876
 35
0.6754861706091085
146
0.0
 13
0.0
 23
0.0
 33
0.0
 16
1.0
 26
0.0
 36
0.0
 17
0.0
 27
1.0
 37
0.0
 76
     0
330
1F
331
29
  0
MATERIAL
  5
45
102
{ACAD_REACTORS
330
43
102
}
330
43
100
AcDbMaterial
  1
ByBlock
 72
     1
 94
      127
  0
MATERIAL
  5
44
102
{ACAD_REACTORS
330
43
102
}
330
43
100
AcDbMaterial
  1
ByLayer
 72
     1
 94
      127
  0
MATERIAL
  5
46
102
{ACAD_REACTORS
330
43
102
}
330
43
100
AcDbMaterial
  1
Global
 72
     1
 94
      127
  0
MLEADERSTYLE
  5
5C
102
{ACAD_REACTORS
330
5B
102
}
102
{ACAD_XDICTIONARY
360
171
102
}
330
5B
100
AcDbMLeaderStyle
170
     2
171
     1
172
     0
 90
        2
 40
0.0
 41
0.0
173
     1
 91
-1056964608
340
14
 92
       -2
290
     1
 42
0.09
291
     1
 43
0.36
  3
Standard
341
0
 44
0.18
300

342
11
174
     1
178
     6
175
     1
176
     0
 93
-1056964608
 45
0.18
292
     0
297
     0
 46
0.18
343
0
 94
-1056964608
 47
1.0
 49
1.0
140
1.0
293
     1
141
0.0
294
     1
177
     0
142
1.0
295
     0
296
     0
143
0.125
1001
ACAD_MLEADERVER
1070
     2
  0
MLINESTYLE
  5
18
102
{ACAD_REACTORS
330
17
102
}
330
17
100
AcDbMlineStyle
  2
Standard
 70
     0
  3

 62
   256
 51
90.0
 52
90.0
 71
     2
 49
0.5
 62
   256
  6
BYLAYER
 49
-0.5
 62
   256
  6
BYLAYER
  0
ACDBPLACEHOLDER
  5
F
102
{ACAD_REACTORS
330
E
102
}
330
E
  0
SCALE
  5
48
102
{ACAD_REACTORS
330
47
102
}
330
47
100
AcDbScale
 70
     0
300
1:1
140
1.0
141
1.0
290
     1
  0
SCALE
  5
49
102
{ACAD_REACTORS
330
47
102
}
330
47
100
AcDbScale
 70
     0
300
1/128" = 1'-0"
140
0.0078125
141
12.0
290
     0
  0
SCALE
  5
4A
102
{ACAD_REACTORS
330
47
102
}
330
47
100
AcDbScale
 70
     0
300
1/64" = 1'-0"
140
0.015625
141
12.0
290
     0
  0
SCALE
  5
4B
102
{ACAD_REACTORS
330
47
102
}
330
47
100
AcDbScale
 70
     0
300
1/32" = 1'-0"
140
0.03125
141
12.0
290
     0
  0
SCALE
  5
4C
102
{ACAD_REACTORS
330
47
102
}
330
47
100
AcDbScale
 70
     0
300
1/16" = 1'-0"
140
0.0625
141
12.0
290
     0
  0
SCALE
  5
4D
102
{ACAD_REACTORS
330
47
102
}
330
47
100
AcDbScale
 70
     0
300
3/32" = 1'-0"
140
0.09375
141
12.0
290
     0
  0
SCALE
  5
4E
102
{ACAD_REACTORS
330
47
102
}
330
47
100
AcDbScale
 70
     0
300
1/8" = 1'-0"
140
0.125
141
12.0
290
     0
  0
SCALE
  5
4F
102
{ACAD_REACTORS
330
47
102
}
330
47
100
AcDbScale
 70
     0
300
3/16" = 1'-0"
140
0.1875
141
12.0
290
     0
  0
SCALE
  5
50
102
{ACAD_REACTORS
330
47
102
}
330
47
100
AcDbScale
 70
     0
300
1/4" = 1'-0"
140
0.25
141
12.0
290
     0
  0
SCALE
  5
51
102
{ACAD_REACTORS
330
47
102
}
330
47
100
AcDbScale
 70
     0
300
3/8" = 1'-0"
140
0.375
141
12.0
290
     0
  0
SCALE
  5
52
102
{ACAD_REACTORS
330
47
102
}
330
47
100
AcDbScale
 70
     0
300
1/2" = 1'-0"
140
0.5
141
12.0
290
     0
  0
SCALE
  5
53
102
{ACAD_REACTORS
330
47
102
}
330
47
100
AcDbScale
 70
     0
300
3/4" = 1'-0"
140
0.75
141
12.0
290
     0
  0
SCALE
  5
54
102
{ACAD_REACTORS
330
47
102
}
330
47
100
AcDbScale
 70
     0
300
1" = 1'-0"
140
1.0
141
12.0
290
     0
  0
SCALE
  5
55
102
{ACAD_REACTORS
330
47
102
}
330
47
100
AcDbScale
 70
     0
300
1-1/2" = 1'-0"
140
1.5
141
12.0
290
     0
  0
SCALE
  5
56
102
{ACAD_REACTORS
330
47
102
}
330
47
100
AcDbScale
 70
     0
300
3" = 1'-0"
140
3.0
141
12.0
290
     0
  0
SCALE
  5
57
102
{ACAD_REACTORS
330
47
102
}
330
47
100
AcDbScale
 70
     0
300
6" = 1'-0"
140
6.0
141
12.0
290
     0
  0
SCALE
  5
58
102
{ACAD_REACTORS
330
47
102
}
330
47
100
AcDbScale
 70
     0
300
1'-0" = 1'-0"
140
12.0
141
12.0
290
     0
  0
TABLESTYLE
  5
5A
102
{ACAD_REACTORS
330
59
102
}
102
{ACAD_XDICTIONARY
360
16E
102
}
330
59
100
AcDbTableStyle
  3
Standard
 70
     0
 71
     0
 40
0.06
 41
0.06
280
     0
281
     0
  7
Standard
140
0.18
170
     2
 62
     0
 63
   257
283
     0
 90
        4
 91
        0
  1

274
    -2
284
     1
 64
     0
275
    -2
285
     1
 65
     0
276
    -2
286
     1
 66
     0
277
    -2
287
     1
 67
     0
278
    -2
288
     1
 68
     0
279
    -2
289
     1
 69
     0
  7
Standard
140
0.25
170
     5
 62
     0
 63
   257
283
     0
 90
        4
 91
        0
  1

274
    -2
284
     1
 64
     0
275
    -2
285
     1
 65
     0
276
    -2
286
     1
 66
     0
277
    -2
287
     1
 67
     0
278
    -2
288
     1
 68
     0
279
    -2
289
     1
 69
     0
  7
Standard
140
0.18
170
     5
 62
     0
 63
   257
283
     0
 90
        4
 91
        0
  1

274
    -2
284
     1
 64
     0
275
    -2
285
     1
 65
     0
276
    -2
286
     1
 66
     0
277
    -2
287
     1
 67
     0
278
    -2
288
     1
 68
     0
279
    -2
289
     1
 69
     0
  0
VISUALSTYLE
  5
2F
102
{ACAD_REACTORS
330
2A
102
}
102
{ACAD_XDICTIONARY
360
146
102
}
330
2A
100
AcDbVisualStyle
  2
2dWireframe
 70
     4
 71
     0
 72
     2
 73
     0
 90
        0
 40
0.6
 41
30.0
 62
     5
 63
     7
421
 16777215
 74
     1
 91
        4
 64
     7
 65
   257
 75
     1
175
     1
 42
1.0
 92
        0
 66
   257
 43
1.0
 76
     1
 77
     6
 78
     2
 67
     7
 79
     5
170
     0
171
     0
290
     0
174
     0
 93
        1
 44
0.0
173
     0
291
     0
 45
0.0
  0
VISUALSTYLE
  5
32
102
{ACAD_REACTORS
330
2A
102
}
102
{ACAD_XDICTIONARY
360
14C
102
}
330
2A
100
AcDbVisualStyle
  2
Basic
 70
     7
 71
     1
 72
     0
 73
     1
 90
        0
 40
0.6
 41
30.0
 62
     5
 63
     7
421
 16777215
 74
     0
 91
        4
 64
     7
 65
   257
 75
     1
175
     1
 42
1.0
 92
        8
 66
     7
 43
1.0
 76
     1
 77
     6
 78
     2
 67
     7
 79
     5
170
     0
171
     0
290
     0
174
     0
 93
        1
 44
0.0
173
     0
291
     1
 45
0.0
  0
VISUALSTYLE
  5
36
102
{ACAD_REACTORS
330
2A
102
}
102
{ACAD_XDICTIONARY
360
154
102
}
330
2A
100
AcDbVisualStyle
  2
Brighten
 70
    12
 71
     2
 72
     2
 73
     0
 90
        0
 40
0.6
 41
30.0
 62
     5
 63
     7
421
 16777215
 74
     1
 91
        4
 64
     7
 65
   257
 75
     1
175
     1
 42
1.0
 92
        8
 66
     7
 43
1.0
 76
     1
 77
     6
 78
     2
 67
     7
 79
     5
170
     0
171
     0
290
     0
174
     0
 93
        1
 44
50.0
173
     0
291
     1
 45
0.0
  0
VISUALSTYLE
  5
3A
102
{ACAD_REACTORS
330
2A
102
}
102
{ACAD_XDICTIONARY
360
15C
102
}
330
2A
100
AcDbVisualStyle
  2
ColorChange
 70
    16
 71
     2
 72
     2
 73
     3
 90
        0
 40
0.6
 41
30.0
 62
     5
 63
     8
421
  8421504
 74
     1
 91
        4
 64
     7
 65
   257
 75
     1
175
     1
 42
1.0
 92
        8
 66
     8
424
  8421504
 43
1.0
 76
     1
 77
     6
 78
     2
 67
     7
 79
     5
170
     0
171
     0
290
     0
174
     0
 93
        1
 44
0.0
173
     0
291
     1
 45
0.0
  0
VISUALSTYLE
  5
34
102
{ACAD_REACTORS
330
2A
102
}
102
{ACAD_XDICTIONARY
360
150
102
}
330
2A
100
AcDbVisualStyle
  2
Conceptual
 70
     9
 71
     3
 72
     2
 73
     0
 90
        0
 40
0.6
 41
30.0
 62
     5
 63
     7
421
 16777215
 74
     2
 91
        2
 64
     7
 65
   257
 75
     1
175
     1
 42
179.0
 92
        8
 66
     7
 43
1.0
 76
     1
 77
     6
 78
     2
 67
     7
 79
     3
170
     0
171
     0
290
     0
174
     0
 93
        1
 44
0.0
173
     0
291
     0
 45
0.0
  0
VISUALSTYLE
  5
35
102
{ACAD_REACTORS
330
2A
102
}
102
{ACAD_XDICTIONARY
360
152
102
}
330
2A
100
AcDbVisualStyle
  2
Dim
 70
    11
 71
     2
 72
     2
 73
     0
 90
        0
 40
0.6
 41
30.0
 62
     5
 63
     7
421
 16777215
 74
     1
 91
        4
 64
     7
 65
   257
 75
     1
175
     1
 42
1.0
 92
        8
 66
     7
 43
1.0
 76
     1
 77
     6
 78
     2
 67
     7
 79
     5
170
     0
171
     0
290
     0
174
     0
 93
        1
 44
-50.0
173
     0
291
     1
 45
0.0
  0
VISUALSTYLE
  5
3D
102
{ACAD_REACTORS
330
2A
102
}
102
{ACAD_XDICTIONARY
360
162
102
}
330
2A
100
AcDbVisualStyle
  2
EdgeColorOff
 70
    22
 71
     2
 72
     2
 73
     0
 90
        0
 40
0.6
 41
30.0
 62
     5
 63
     7
421
 16777215
 74
     1
 91
        4
 64
     7
 65
   257
 75
     1
175
     1
 42
1.0
 92
        8
 66
     7
 43
1.0
 76
     1
 77
     6
 78
     2
 67
     7
 79
     5
170
     0
171
     0
290
     0
174
     0
 93
        1
 44
0.0
173
     0
291
     1
 45
0.0
  0
VISUALSTYLE
  5
39
102
{ACAD_REACTORS
330
2A
102
}
102
{ACAD_XDICTIONARY
360
15A
102
}
330
2A
100
AcDbVisualStyle
  2
Facepattern
 70
    15
 71
     2
 72
     2
 73
     0
 90
        0
 40
0.6
 41
30.0
 62
     5
 63
     7
421
 16777215
 74
     1
 91
        4
 64
     7
 65
   257
 75
     1
175
     1
 42
1.0
 92
        8
 66
     7
 43
1.0
 76
     1
 77
     6
 78
     2
 67
     7
 79
     5
170
     0
171
     0
290
     0
174
     0
 93
        1
 44
0.0
173
     0
291
     1
 45
0.0
  0
VISUALSTYLE
  5
2B
102
{ACAD_REACTORS
330
2A
102
}
102
{ACAD_XDICTIONARY
360
13E
102
}
330
2A
100
AcDbVisualStyle
  2
Flat
 70
     0
 71
     2
 72
     1
 73
     1
 90
        2
 40
0.6
 41
30.0
 62
     5
 63
     7
421
 16777215
 74
     0
 91
        0
 64
     7
 65
   257
 75
     1
175
     1
 42
1.0
 92
        8
 66
     7
 43
1.0
 76
     1
 77
     6
 78
     2
 67
     7
 79
     5
170
     0
171
     0
290
     0
174
     0
 93
       13
 44
0.0
173
     0
291
     1
 45
0.0
  0
VISUALSTYLE
  5
2C
102
{ACAD_REACTORS
330
2A
102
}
102
{ACAD_XDICTIONARY
360
140
102
}
330
2A
100
AcDbVisualStyle
  2
FlatWithEdges
 70
     1
 71
     2
 72
     1
 73
     1
 90
        2
 40
0.6
 41
30.0
 62
     5
 63
     7
421
 16777215
 74
     1
 91
        0
 64
     7
 65
   257
 75
     1
175
     1
 42
1.0
 92
        0
 66
   257
 43
1.0
 76
     1
 77
     6
 78
     2
 67
     7
 79
     5
170
     0
171
     0
290
     0
174
     0
 93
       13
 44
0.0
173
     0
291
     1
 45
0.0
  0
VISUALSTYLE
  5
2D
102
{ACAD_REACTORS
330
2A
102
}
102
{ACAD_XDICTIONARY
360
142
102
}
330
2A
100
AcDbVisualStyle
  2
Gouraud
 70
     2
 71
     2
 72
     2
 73
     1
 90
        2
 40
0.6
 41
30.0
 62
     5
 63
     7
421
 16777215
 74
     0
 91
        0
 64
     7
 65
   257
 75
     1
175
     1
 42
1.0
 92
        0
 66
     7
 43
1.0
 76
     1
 77
     6
 78
     2
 67
     7
 79
     5
170
     0
171
     0
290
     0
174
     0
 93
       13
 44
0.0
173
     0
291
     1
 45
0.0
  0
VISUALSTYLE
  5
2E
102
{ACAD_REACTORS
330
2A
102
}
102
{ACAD_XDICTIONARY
360
144
102
}
330
2A
100
AcDbVisualStyle
  2
GouraudWithEdges
 70
     3
 71
     2
 72
     2
 73
     1
 90
        2
 40
0.6
 41
30.0
 62
     5
 63
     7
421
 16777215
 74
     1
 91
        0
 64
     7
 65
   257
 75
     1
175
     1
 42
1.0
 92
        0
 66
   257
 43
1.0
 76
     1
 77
     6
 78
     2
 67
     7
 79
     5
170
     0
171
     0
290
     0
174
     0
 93
       13
 44
0.0
173
     0
291
     1
 45
0.0
  0
VISUALSTYLE
  5
31
102
{ACAD_REACTORS
330
2A
102
}
102
{ACAD_XDICTIONARY
360
14A
102
}
330
2A
100
AcDbVisualStyle
  2
Hidden
 70
     6
 71
     1
 72
     2
 73
     2
 90
        0
 40
0.6
 41
30.0
 62
     5
 63
     7
421
 16777215
 74
     2
 91
        2
 64
     7
 65
   257
 75
     2
175
     1
 42
40.0
 92
        0
 66
   257
 43
1.0
 76
     1
 77
     6
 78
     2
 67
     7
 79
     3
170
     0
171
     0
290
     0
174
     0
 93
        1
 44
0.0
173
     0
291
     0
 45
0.0
  0
VISUALSTYLE
  5
3B
102
{ACAD_REACTORS
330
2A
102
}
102
{ACAD_XDICTIONARY
360
15E
102
}
330
2A
100
AcDbVisualStyle
  2
JitterOff
 70
    20
 71
     2
 72
     2
 73
     0
 90
        0
 40
0.6
 41
30.0
 62
     5
 63
     7
421
 16777215
 74
     1
 91
        4
 64
     7
 65
   257
 75
     1
175
     1
 42
1.0
 92
       10
 66
     7
 43
1.0
 76
     1
 77
     6
 78
     2
 67
     7
 79
     5
170
     0
171
     0
290
     0
174
     0
 93
        1
 44
0.0
173
     0
291
     1
 45
0.0
  0
VISUALSTYLE
  5
38
102
{ACAD_REACTORS
330
2A
102
}
102
{ACAD_XDICTIONARY
360
158
102
}
330
2A
100
AcDbVisualStyle
  2
Linepattern
 70
    14
 71
     2
 72
     2
 73
     0
 90
        0
 40
0.6
 41
30.0
 62
     5
 63
     7
421
 16777215
 74
     1
 91
        4
 64
     7
 65
   257
 75
     7
175
     7
 42
1.0
 92
        8
 66
     7
 43
1.0
 76
     1
 77
     6
 78
     2
 67
     7
 79
     5
170
     0
171
     0
290
     0
174
     0
 93
        1
 44
0.0
173
     0
291
     1
 45
0.0
  0
VISUALSTYLE
  5
3C
102
{ACAD_REACTORS
330
2A
102
}
102
{ACAD_XDICTIONARY
360
160
102
}
330
2A
100
AcDbVisualStyle
  2
OverhangOff
 70
    21
 71
     2
 72
     2
 73
     0
 90
        0
 40
0.6
 41
30.0
 62
     5
 63
     7
421
 16777215
 74
     1
 91
        4
 64
     7
 65
   257
 75
     1
175
     1
 42
1.0
 92
        9
 66
     7
 43
1.0
 76
     1
 77
     6
 78
     2
 67
     7
 79
     5
170
     0
171
     0
290
     0
174
     0
 93
        1
 44
0.0
173
     0
291
     1
 45
0.0
  0
VISUALSTYLE
  5
33
102
{ACAD_REACTORS
330
2A
102
}
102
{ACAD_XDICTIONARY
360
14E
102
}
330
2A
100
AcDbVisualStyle
  2
Realistic
 70
     8
 71
     2
 72
     3
 73
     0
 90
        2
 40
0.6
 41
30.0
 62
     5
 63
     7
421
 16777215
 74
     0
 91
        0
 64
     7
 65
   257
 75
     1
175
     1
 42
1.0
 92
        8
 66
   257
 43
1.0
 76
     1
 77
     6
 78
     2
 67
     7
 79
     3
170
     0
171
     0
290
     0
174
     0
 93
       13
 44
0.0
173
     0
291
     0
 45
0.0
  0
VISUALSTYLE
  5
42
102
{ACAD_REACTORS
330
2A
102
}
102
{ACAD_XDICTIONARY
360
16C
102
}
330
2A
100
AcDbVisualStyle
  2
Shaded
 70
    27
 71
     2
 72
     2
 73
     1
 90
        2
 40
0.6
 41
30.0
 62
     5
 63
     7
421
 16777215
 74
     0
 91
        4
 64
     7
 65
   257
 75
     1
175
     1
 42
1.0
 92
        8
 66
   257
 43
1.0
 76
     1
 77
     6
 78
     2
 67
     8
425
  7895160
 79
     3
170
     0
171
     0
290
     0
174
     0
 93
        5
 44
0.0
173
     0
291
     0
 45
0.0
  0
VISUALSTYLE
  5
41
102
{ACAD_REACTORS
330
2A
102
}
102
{ACAD_XDICTIONARY
360
16A
102
}
330
2A
100
AcDbVisualStyle
  2
Shaded with edges
 70
    26
 71
     2
 72
     2
 73
     1
 90
        2
 40
0.6
 41
30.0
 62
     5
 63
     7
421
 16777215
 74
     1
 91
       10
 64
     7
 65
   257
 75
     2
175
     1
 42
1.0
 92
        8
 66
   257
 43
1.0
 76
     1
 77
     6
 78
     2
 67
     7
 79
     3
170
     0
171
     0
290
     0
174
     0
 93
        5
 44
0.0
173
     0
291
     0
 45
0.0
  0
VISUALSTYLE
  5
3E
102
{ACAD_REACTORS
330
2A
102
}
102
{ACAD_XDICTIONARY
360
164
102
}
330
2A
100
AcDbVisualStyle
  2
Shades of Gray
 70
    23
 71
     2
 72
     2
 73
     3
 90
        0
 40
0.6
 41
30.0
 62
     5
 63
     7
421
 16777215
 74
     2
 91
        2
 64
     7
 65
     7
 75
     1
175
     1
 42
40.0
 92
        8
 66
     7
 43
1.0
 76
     1
 77
     6
 78
     2
 67
     7
 79
     3
170
     0
171
     0
290
     0
174
     0
 93
        1
 44
0.0
173
     0
291
     0
 45
0.0
  0
VISUALSTYLE
  5
3F
102
{ACAD_REACTORS
330
2A
102
}
102
{ACAD_XDICTIONARY
360
166
102
}
330
2A
100
AcDbVisualStyle
  2
Sketchy
 70
    24
 71
     1
 72
     2
 73
     2
 90
        0
 40
0.6
 41
30.0
 62
     5
 63
     7
421
 16777215
 74
     2
 91
        2
 64
     7
 65
     7
 75
     1
175
     1
 42
40.0
 92
       11
 66
     7
 43
1.0
 76
     1
 77
     6
 78
     2
 67
     7
 79
     6
170
     0
171
     0
290
     0
174
     0
 93
        1
 44
0.0
173
     0
291
     0
 45
0.0
  0
VISUALSTYLE
  5
37
102
{ACAD_REACTORS
330
2A
102
}
102
{ACAD_XDICTIONARY
360
156
102
}
330
2A
100
AcDbVisualStyle
  2
Thicken
 70
    13
 71
     2
 72
     2
 73
     0
 90
        0
 40
0.6
 41
30.0
 62
     5
 63
     7
421
 16777215
 74
     1
 91
        4
 64
     7
 65
   257
 75
     1
175
     1
 42
1.0
 92
       12
 66
     7
 43
1.0
 76
     1
 77
     6
 78
     2
 67
     7
 79
     5
170
     0
171
     0
290
     0
174
     0
 93
        1
 44
0.0
173
     0
291
     1
 45
0.0
  0
VISUALSTYLE
  5
30
102
{ACAD_REACTORS
330
2A
102
}
102
{ACAD_XDICTIONARY
360
148
102
}
330
2A
100
AcDbVisualStyle
  2
Wireframe
 70
     5
 71
     0
 72
     2
 73
     0
 90
        0
 40
0.6
 41
30.0
 62
     5
 63
     7
421
 16777215
 74
     1
 91
        4
 64
     7
 65
   257
 75
     1
175
     1
 42
1.0
 92
        0
 66
   257
 43
1.0
 76
     1
 77
     6
 78
     2
 67
     7
 79
     3
170
     0
171
     0
290
     0
174
     0
 93
        1
 44
0.0
173
     0
291
     0
 45
0.0
  0
VISUALSTYLE
  5
40
102
{ACAD_REACTORS
330
2A
102
}
102
{ACAD_XDICTIONARY
360
168
102
}
330
2A
100
AcDbVisualStyle
  2
X-Ray
 70
    25
 71
     2
 72
     2
 73
     1
 90
        1
 40
0.5
 41
30.0
 62
     5
 63
     7
421
 16777215
 74
     1
 91
        0
 64
     7
 65
   257
 75
     1
175
     1
 42
1.0
 92
        8
 66
     7
 43
1.0
 76
     1
 77
     6
 78
     2
 67
     7
 79
     3
170
     0
171
     0
290
     0
174
     0
 93
       13
 44
0.0
173
     0
291
     0
 45
0.0
  0
DICTIONARYVAR
  5
13C
102
{ACAD_REACTORS
330
13B
102
}
330
13B
100
DictionaryVariables
280
     0
  1
1:1
  0
DICTIONARYVAR
  5
175
102
{ACAD_REACTORS
330
13B
102
}
330
13B
100
DictionaryVariables
280
     0
  1
Standard
  0
DICTIONARYVAR
  5
174
102
{ACAD_REACTORS
330
13B
102
}
330
13B
100
DictionaryVariables
280
     0
  1
Standard
  0
DICTIONARYVAR
  5
13D
102
{ACAD_REACTORS
330
13B
102
}
330
13B
100
DictionaryVariables
280
     0
  1
2
  0
DICTIONARY
  5
171
330
5C
100
AcDbDictionary
280
     1
281
     1
  3
ACAD_XREC_ROUNDTRIP
360
172
  0
DICTIONARY
  5
16E
330
5A
100
AcDbDictionary
280
     1
281
     1
  3
ACAD_ROUNDTRIP_2008_TABLESTYLE_CELLSTYLEMAP
360
16F
  0
DICTIONARY
  5
146
330
2F
100
AcDbDictionary
280
     1
281
     1
  3
ACAD_XREC_ROUNDTRIP
360
147
  0
DICTIONARY
  5
14C
330
32
100
AcDbDictionary
280
     1
281
     1
  3
ACAD_XREC_ROUNDTRIP
360
14D
  0
DICTIONARY
  5
154
330
36
100
AcDbDictionary
280
     1
281
     1
  3
ACAD_XREC_ROUNDTRIP
360
155
  0
DICTIONARY
  5
15C
330
3A
100
AcDbDictionary
280
     1
281
     1
  3
ACAD_XREC_ROUNDTRIP
360
15D
  0
DICTIONARY
  5
150
330
34
100
AcDbDictionary
280
     1
281
     1
  3
ACAD_XREC_ROUNDTRIP
360
151
  0
DICTIONARY
  5
152
330
35
100
AcDbDictionary
280
     1
281
     1
  3
ACAD_XREC_ROUNDTRIP
360
153
  0
DICTIONARY
  5
162
330
3D
100
AcDbDictionary
280
     1
281
     1
  3
ACAD_XREC_ROUNDTRIP
360
163
  0
DICTIONARY
  5
15A
330
39
100
AcDbDictionary
280
     1
281
     1
  3
ACAD_XREC_ROUNDTRIP
360
15B
  0
DICTIONARY
  5
13E
330
2B
100
AcDbDictionary
280
     1
281
     1
  3
ACAD_XREC_ROUNDTRIP
360
13F
  0
DICTIONARY
  5
140
330
2C
100
AcDbDictionary
280
     1
281
     1
  3
ACAD_XREC_ROUNDTRIP
360
141
  0
DICTIONARY
  5
142
330
2D
100
AcDbDictionary
280
     1
281
     1
  3
ACAD_XREC_ROUNDTRIP
360
143
  0
DICTIONARY
  5
144
330
2E
100
AcDbDictionary
280
     1
281
     1
  3
ACAD_XREC_ROUNDTRIP
360
145
  0
DICTIONARY
  5
14A
330
31
100
AcDbDictionary
280
     1
281
     1
  3
ACAD_XREC_ROUNDTRIP
360
14B
  0
DICTIONARY
  5
15E
330
3B
100
AcDbDictionary
280
     1
281
     1
  3
ACAD_XREC_ROUNDTRIP
360
15F
  0
DICTIONARY
  5
158
330
38
100
AcDbDictionary
280
     1
281
     1
  3
ACAD_XREC_ROUNDTRIP
360
159
  0
DICTIONARY
  5
160
330
3C
100
AcDbDictionary
280
     1
281
     1
  3
ACAD_XREC_ROUNDTRIP
360
161
  0
DICTIONARY
  5
14E
330
33
100
AcDbDictionary
280
     1
281
     1
  3
ACAD_XREC_ROUNDTRIP
360
14F
  0
DICTIONARY
  5
16C
330
42
100
AcDbDictionary
280
     1
281
     1
  3
ACAD_XREC_ROUNDTRIP
360
16D
  0
DICTIONARY
  5
16A
330
41
100
AcDbDictionary
280
     1
281
     1
  3
ACAD_XREC_ROUNDTRIP
360
16B
  0
DICTIONARY
  5
164
330
3E
100
AcDbDictionary
280
     1
281
     1
  3
ACAD_XREC_ROUNDTRIP
360
165
  0
DICTIONARY
  5
166
330
3F
100
AcDbDictionary
280
     1
281
     1
  3
ACAD_XREC_ROUNDTRIP
360
167
  0
DICTIONARY
  5
156
330
37
100
AcDbDictionary
280
     1
281
     1
  3
ACAD_XREC_ROUNDTRIP
360
157
  0
DICTIONARY
  5
148
330
30
100
AcDbDictionary
280
     1
281
     1
  3
ACAD_XREC_ROUNDTRIP
360
149
  0
DICTIONARY
  5
168
330
40
100
AcDbDictionary
280
     1
281
     1
  3
ACAD_XREC_ROUNDTRIP
360
169
  0
XRECORD
  5
172
102
{ACAD_REACTORS
330
171
102
}
330
171
100
AcDbXrecord
280
     1
102
ACAD_ROUNDTRIP_2010_MLEADER_STYLE
  0
CELLSTYLEMAP
  5
16F
102
{ACAD_REACTORS
330
16E
102
}
330
16E
100
AcDbCellStyleMap
 90
        3
300
CELLSTYLE
  1
TABLEFORMAT_BEGIN
 90
        5
170
     1
 91
        0
 92
    32768
 62
   257
 93
        1
300
CONTENTFORMAT
  1
CONTENTFORMAT_BEGIN
 90
        0
 91
        0
 92
        4
 93
        0
300

 40
0.0
140
1.0
 94
        5
 62
     0
340
11
144
0.25
309
CONTENTFORMAT_END
171
     1
301
MARGIN
  1
CELLMARGIN_BEGIN
 40
0.06
 40
0.06
 40
0.06
 40
0.06
 40
0.06
 40
0.06
309
CELLMARGIN_END
 94
        6
 95
        1
302
GRIDFORMAT
  1
GRIDFORMAT_BEGIN
 90
        0
 91
        1
 62
     0
 92
       -2
340
14
 93
        0
 40
0.045
309
GRIDFORMAT_END
 95
        2
302
GRIDFORMAT
  1
GRIDFORMAT_BEGIN
 90
        0
 91
        1
 62
     0
 92
       -2
340
14
 93
        0
 40
0.045
309
GRIDFORMAT_END
 95
        4
302
GRIDFORMAT
  1
GRIDFORMAT_BEGIN
 90
        0
 91
        1
 62
     0
 92
       -2
340
14
 93
        0
 40
0.045
309
GRIDFORMAT_END
 95
        8
302
GRIDFORMAT
  1
GRIDFORMAT_BEGIN
 90
        0
 91
        1
 62
     0
 92
       -2
340
14
 93
        0
 40
0.045
309
GRIDFORMAT_END
 95
       16
302
GRIDFORMAT
  1
GRIDFORMAT_BEGIN
 90
        0
 91
        1
 62
     0
 92
       -2
340
14
 93
        0
 40
0.045
309
GRIDFORMAT_END
 95
       32
302
GRIDFORMAT
  1
GRIDFORMAT_BEGIN
 90
        0
 91
        1
 62
     0
 92
       -2
340
14
 93
        0
 40
0.045
309
GRIDFORMAT_END
309
TABLEFORMAT_END
  1
CELLSTYLE_BEGIN
 90
        1
 91
        1
300
_TITLE
309
CELLSTYLE_END
300
CELLSTYLE
  1
TABLEFORMAT_BEGIN
 90
        5
170
     1
 91
        0
 92
        0
 62
   257
 93
        1
300
CONTENTFORMAT
  1
CONTENTFORMAT_BEGIN
 90
        0
 91
        0
 92
        4
 93
        0
300

 40
0.0
140
1.0
 94
        5
 62
     0
340
11
144
0.18
309
CONTENTFORMAT_END
171
     1
301
MARGIN
  1
CELLMARGIN_BEGIN
 40
0.06
 40
0.06
 40
0.06
 40
0.06
 40
0.06
 40
0.06
309
CELLMARGIN_END
 94
        6
 95
        1
302
GRIDFORMAT
  1
GRIDFORMAT_BEGIN
 90
        0
 91
        1
 62
     0
 92
       -2
340
14
 93
        0
 40
0.045
309
GRIDFORMAT_END
 95
        2
302
GRIDFORMAT
  1
GRIDFORMAT_BEGIN
 90
        0
 91
        1
 62
     0
 92
       -2
340
14
 93
        0
 40
0.045
309
GRIDFORMAT_END
 95
        4
302
GRIDFORMAT
  1
GRIDFORMAT_BEGIN
 90
        0
 91
        1
 62
     0
 92
       -2
340
14
 93
        0
 40
0.045
309
GRIDFORMAT_END
 95
        8
302
GRIDFORMAT
  1
GRIDFORMAT_BEGIN
 90
        0
 91
        1
 62
     0
 92
       -2
340
14
 93
        0
 40
0.045
309
GRIDFORMAT_END
 95
       16
302
GRIDFORMAT
  1
GRIDFORMAT_BEGIN
 90
        0
 91
        1
 62
     0
 92
       -2
340
14
 93
        0
 40
0.045
309
GRIDFORMAT_END
 95
       32
302
GRIDFORMAT
  1
GRIDFORMAT_BEGIN
 90
        0
 91
        1
 62
     0
 92
       -2
340
14
 93
        0
 40
0.045
309
GRIDFORMAT_END
309
TABLEFORMAT_END
  1
CELLSTYLE_BEGIN
 90
        2
 91
        1
300
_HEADER
309
CELLSTYLE_END
300
CELLSTYLE
  1
TABLEFORMAT_BEGIN
 90
        5
170
     1
 91
        0
 92
        0
 62
   257
 93
        1
300
CONTENTFORMAT
  1
CONTENTFORMAT_BEGIN
 90
        0
 91
        0
 92
        4
 93
        0
300

 40
0.0
140
1.0
 94
        2
 62
     0
340
11
144
0.18
309
CONTENTFORMAT_END
171
     1
301
MARGIN
  1
CELLMARGIN_BEGIN
 40
0.06
 40
0.06
 40
0.06
 40
0.06
 40
0.06
 40
0.06
309
CELLMARGIN_END
 94
        6
 95
        1
302
GRIDFORMAT
  1
GRIDFORMAT_BEGIN
 90
        0
 91
        1
 62
     0
 92
       -2
340
14
 93
        0
 40
0.045
309
GRIDFORMAT_END
 95
        2
302
GRIDFORMAT
  1
GRIDFORMAT_BEGIN
 90
        0
 91
        1
 62
     0
 92
       -2
340
14
 93
        0
 40
0.045
309
GRIDFORMAT_END
 95
        4
302
GRIDFORMAT
  1
GRIDFORMAT_BEGIN
 90
        0
 91
        1
 62
     0
 92
       -2
340
14
 93
        0
 40
0.045
309
GRIDFORMAT_END
 95
        8
302
GRIDFORMAT
  1
GRIDFORMAT_BEGIN
 90
        0
 91
        1
 62
     0
 92
       -2
340
14
 93
        0
 40
0.045
309
GRIDFORMAT_END
 95
       16
302
GRIDFORMAT
  1
GRIDFORMAT_BEGIN
 90
        0
 91
        1
 62
     0
 92
       -2
340
14
 93
        0
 40
0.045
309
GRIDFORMAT_END
 95
       32
302
GRIDFORMAT
  1
GRIDFORMAT_BEGIN
 90
        0
 91
        1
 62
     0
 92
       -2
340
14
 93
        0
 40
0.045
309
GRIDFORMAT_END
309
TABLEFORMAT_END
  1
CELLSTYLE_BEGIN
 90
        3
 91
        2
300
_DATA
309
CELLSTYLE_END
  0
XRECORD
  5
147
102
{ACAD_REACTORS
330
146
102
}
330
146
100
AcDbXrecord
280
     1
102
RTVSPropertyOp0
 70
     1
102
RTVSPropertyOp1
 70
     1
102
RTVSPropertyOp2
 70
     1
102
RTVSPropertyOp3
 70
     1
102
RTVSPropertyOp4
 70
     1
102
RTVSPropertyOp5
 70
     1
102
RTVSPropertyOp6
 70
     1
102
RTVSPropertyOp7
 70
     1
102
RTVSPropertyOp8
 70
     1
102
RTVSPropertyOp9
 70
     1
102
RTVSPropertyOp10
 70
     1
102
RTVSPropertyOp11
 70
     1
102
RTVSPropertyOp12
 70
     1
102
RTVSPropertyOp13
 70
     1
102
RTVSPropertyOp14
 70
     1
102
RTVSPropertyOp15
 70
     1
102
RTVSPropertyOp16
 70
     1
102
RTVSPropertyOp17
 70
     1
102
RTVSPropertyOp18
 70
     1
102
RTVSPropertyOp19
 70
     1
102
RTVSPropertyOp20
 70
     1
102
RTVSPropertyOp21
 70
     1
102
RTVSPropertyOp22
 70
     1
102
RTVSPropertyOp23
 70
     1
102
RTVSPropertyOp24
 70
     1
102
RTVSPropertyOp25
 70
     1
102
RTVSPropertyOp26
 70
     1
102
RTVSPropertyOp27
 70
     1
102
RTVSPropertyOp28
 70
     1
102
RTVSPropertyOp29
 70
     1
102
RTVSPropertyOp30
 70
     1
102
RTVSPropertyOp31
 70
     1
102
RTVSPropertyOp32
 70
     1
102
RTVSPropertyOp33
 70
     1
102
RTVSPropertyOp34
 70
     1
102
RTVSPropertyOp35
 70
     1
102
RTVSPropertyOp36
 70
     1
102
RTVSPropertyOp37
 70
     1
102
RTVSPropertyOp38
 70
     1
102
RTVSPropertyOp39
 70
     1
102
RTVSPropertyOp40
 70
     1
102
RTVSPropertyOp41
 70
     1
102
RTVSPropertyOp42
 70
     1
102
RTVSPropertyOp43
 70
     1
102
RTVSPropertyOp44
 70
     1
102
RTVSPropertyOp45
 70
     1
102
RTVSPropertyOp46
 70
     1
102
RTVSPropertyOp47
 70
     1
102
RTVSPropertyOp48
 70
     1
102
RTVSPropertyOp49
 70
     1
102
RTVSPropertyOp50
 70
     1
102
RTVSPropertyOp51
 70
     0
102
RTVSPropertyOp52
 70
     0
102
RTVSPropertyOp53
 70
     1
102
RTVSPropertyOp54
 70
     1
102
RTVSPropertyOp55
 70
     1
102
RTVSPropertyOp56
 70
     1
102
RTVSPropertyOp57
 70
     1
102
RTVSPost2010Prop28
280
     1
102
RTVSPost2010PropOp28
 70
     1
102
RTVSPost2010Prop29
280
     1
102
RTVSPost2010PropOp29
 70
     1
102
RTVSPost2010Prop30
280
     0
102
RTVSPost2010PropOp30
 70
     1
102
RTVSPost2010Prop31
280
     0
102
RTVSPost2010PropOp31
 70
     1
102
RTVSPost2010Prop32
280
     0
102
RTVSPost2010PropOp32
 70
     1
102
RTVSPost2010Prop33
280
     0
102
RTVSPost2010PropOp33
 70
     1
102
RTVSPost2010Prop34
280
     0
102
RTVSPost2010PropOp34
 70
     1
102
RTVSPost2010Prop35
280
     0
102
RTVSPost2010PropOp35
 70
     1
102
RTVSPost2010Prop36
280
     0
102
RTVSPost2010PropOp36
 70
     1
102
RTVSPost2010Prop37
 90
       50
102
RTVSPost2010PropOp37
 70
     1
102
RTVSPost2010Prop38
140
0.0
102
RTVSPost2010PropOp38
 70
     1
102
RTVSPost2010Prop39
140
1.0
102
RTVSPost2010PropOp39
 70
     1
102
RTVSPost2010Prop40
 90
        0
102
RTVSPost2010PropOp40
 70
     1
102
RTVSPost2010Prop41ColorIndex
 90
       18
102
RTVSPost2010Prop41ColorRGB
 90
        0
102
RTVSPost2010PropOp41
 70
     1
102
RTVSPost2010Prop42
 90
       50
102
RTVSPost2010PropOp42
 70
     1
102
RTVSPost2010Prop43
 90
        3
102
RTVSPost2010PropOp43
 70
     1
102
RTVSPost2010Prop44ColorIndex
 90
        5
102
RTVSPost2010Prop44ColorRGB
 90
      255
102
RTVSPost2010PropOp44
 70
     1
102
RTVSPost2010Prop45
280
     0
102
RTVSPost2010PropOp45
 70
     1
102
RTVSPost2010Prop46
 90
       50
102
RTVSPost2010PropOp46
 70
     1
102
RTVSPost2010Prop47
 90
       50
102
RTVSPost2010PropOp47
 70
     1
102
RTVSPost2010Prop48
 90
       50
102
RTVSPost2010PropOp48
 70
     1
102
RTVSPost2010Prop49
280
     0
102
RTVSPost2010PropOp49
 70
     1
102
RTVSPost2010Prop50
 90
       50
102
RTVSPost2010PropOp50
 70
     1
102
RTVSPost2010Prop51ColorIndex
 90
      256
102
RTVSPost2010Prop51ColorRGB
 90
-16777216
102
RTVSPost2010PropOp51
 70
     0
102
RTVSPost2010Prop52
140
1.0
102
RTVSPost2010PropOp52
 70
     0
102
RTVSPost2010Prop53
 90
        2
102
RTVSPost2010PropOp53
 70
     1
102
RTVSPost2010Prop54
  1
strokes_ogs.tif
102
RTVSPost2010PropOp54
 70
     1
102
RTVSPost2010Prop55
280
     0
102
RTVSPost2010PropOp55
 70
     1
102
RTVSPost2010Prop56
140
1.0
102
RTVSPost2010PropOp56
 70
     1
102
RTVSPost2010Prop57
140
1.0
102
RTVSPost2010PropOp57
 70
     1
  0
XRECORD
  5
14D
102
{ACAD_REACTORS
330
14C
102
}
330
14C
100
AcDbXrecord
280
     1
102
RTVSPropertyOp0
 70
     1
102
RTVSPropertyOp1
 70
     1
102
RTVSPropertyOp2
 70
     1
102
RTVSPropertyOp3
 70
     1
102
RTVSPropertyOp4
 70
     1
102
RTVSPropertyOp5
 70
     1
102
RTVSPropertyOp6
 70
     1
102
RTVSPropertyOp7
 70
     1
102
RTVSPropertyOp8
 70
     1
102
RTVSPropertyOp9
 70
     1
102
RTVSPropertyOp10
 70
     1
102
RTVSPropertyOp11
 70
     1
102
RTVSPropertyOp12
 70
     1
102
RTVSPropertyOp13
 70
     1
102
RTVSPropertyOp14
 70
     1
102
RTVSPropertyOp15
 70
     1
102
RTVSPropertyOp16
 70
     1
102
RTVSPropertyOp17
 70
     1
102
RTVSPropertyOp18
 70
     1
102
RTVSPropertyOp19
 70
     1
102
RTVSPropertyOp20
 70
     1
102
RTVSPropertyOp21
 70
     1
102
RTVSPropertyOp22
 70
     1
102
RTVSPropertyOp23
 70
     1
102
RTVSPropertyOp24
 70
     1
102
RTVSPropertyOp25
 70
     1
102
RTVSPropertyOp26
 70
     1
102
RTVSPropertyOp27
 70
     1
102
RTVSPropertyOp28
 70
     1
102
RTVSPropertyOp29
 70
     1
102
RTVSPropertyOp30
 70
     1
102
RTVSPropertyOp31
 70
     1
102
RTVSPropertyOp32
 70
     1
102
RTVSPropertyOp33
 70
     1
102
RTVSPropertyOp34
 70
     1
102
RTVSPropertyOp35
 70
     1
102
RTVSPropertyOp36
 70
     1
102
RTVSPropertyOp37
 70
     1
102
RTVSPropertyOp38
 70
     1
102
RTVSPropertyOp39
 70
     1
102
RTVSPropertyOp40
 70
     1
102
RTVSPropertyOp41
 70
     1
102
RTVSPropertyOp42
 70
     1
102
RTVSPropertyOp43
 70
     1
102
RTVSPropertyOp44
 70
     1
102
RTVSPropertyOp45
 70
     1
102
RTVSPropertyOp46
 70
     1
102
RTVSPropertyOp47
 70
     1
102
RTVSPropertyOp48
 70
     1
102
RTVSPropertyOp49
 70
     1
102
RTVSPropertyOp50
 70
     1
102
RTVSPropertyOp51
 70
     0
102
RTVSPropertyOp52
 70
     0
102
RTVSPropertyOp53
 70
     1
102
RTVSPropertyOp54
 70
     1
102
RTVSPropertyOp55
 70
     1
102
RTVSPropertyOp56
 70
     1
102
RTVSPropertyOp57
 70
     1
102
RTVSPost2010Prop28
280
     0
102
RTVSPost2010PropOp28
 70
     1
102
RTVSPost2010Prop29
280
     1
102
RTVSPost2010PropOp29
 70
     1
102
RTVSPost2010Prop30
280
     1
102
RTVSPost2010PropOp30
 70
     1
102
RTVSPost2010Prop31
280
     0
102
RTVSPost2010PropOp31
 70
     1
102
RTVSPost2010Prop32
280
     0
102
RTVSPost2010PropOp32
 70
     1
102
RTVSPost2010Prop33
280
     0
102
RTVSPost2010PropOp33
 70
     1
102
RTVSPost2010Prop34
280
     0
102
RTVSPost2010PropOp34
 70
     1
102
RTVSPost2010Prop35
280
     0
102
RTVSPost2010PropOp35
 70
     1
102
RTVSPost2010Prop36
280
     0
102
RTVSPost2010PropOp36
 70
     1
102
RTVSPost2010Prop37
 90
       50
102
RTVSPost2010PropOp37
 70
     1
102
RTVSPost2010Prop38
140
0.0
102
RTVSPost2010PropOp38
 70
     1
102
RTVSPost2010Prop39
140
1.0
102
RTVSPost2010PropOp39
 70
     1
102
RTVSPost2010Prop40
 90
        0
102
RTVSPost2010PropOp40
 70
     1
102
RTVSPost2010Prop41ColorIndex
 90
       18
102
RTVSPost2010Prop41ColorRGB
 90
        0
102
RTVSPost2010PropOp41
 70
     1
102
RTVSPost2010Prop42
 90
       50
102
RTVSPost2010PropOp42
 70
     1
102
RTVSPost2010Prop43
 90
        3
102
RTVSPost2010PropOp43
 70
     1
102
RTVSPost2010Prop44ColorIndex
 90
        5
102
RTVSPost2010Prop44ColorRGB
 90
      255
102
RTVSPost2010PropOp44
 70
     1
102
RTVSPost2010Prop45
280
     0
102
RTVSPost2010PropOp45
 70
     1
102
RTVSPost2010Prop46
 90
       50
102
RTVSPost2010PropOp46
 70
     1
102
RTVSPost2010Prop47
 90
       50
102
RTVSPost2010PropOp47
 70
     1
102
RTVSPost2010Prop48
 90
       50
102
RTVSPost2010PropOp48
 70
     1
102
RTVSPost2010Prop49
280
     0
102
RTVSPost2010PropOp49
 70
     1
102
RTVSPost2010Prop50
 90
       50
102
RTVSPost2010PropOp50
 70
     1
102
RTVSPost2010Prop51ColorIndex
 90
      256
102
RTVSPost2010Prop51ColorRGB
 90
-16777216
102
RTVSPost2010PropOp51
 70
     0
102
RTVSPost2010Prop52
140
1.0
102
RTVSPost2010PropOp52
 70
     0
102
RTVSPost2010Prop53
 90
        2
102
RTVSPost2010PropOp53
 70
     1
102
RTVSPost2010Prop54
  1
strokes_ogs.tif
102
RTVSPost2010PropOp54
 70
     1
102
RTVSPost2010Prop55
280
     0
102
RTVSPost2010PropOp55
 70
     1
102
RTVSPost2010Prop56
140
1.0
102
RTVSPost2010PropOp56
 70
     1
102
RTVSPost2010Prop57
140
1.0
102
RTVSPost2010PropOp57
 70
     1
  0
XRECORD
  5
155
102
{ACAD_REACTORS
330
154
102
}
330
154
100
AcDbXrecord
280
     1
102
RTVSPropertyOp0
 70
     1
102
RTVSPropertyOp1
 70
     1
102
RTVSPropertyOp2
 70
     1
102
RTVSPropertyOp3
 70
     1
102
RTVSPropertyOp4
 70
     1
102
RTVSPropertyOp5
 70
     1
102
RTVSPropertyOp6
 70
     1
102
RTVSPropertyOp7
 70
     1
102
RTVSPropertyOp8
 70
     1
102
RTVSPropertyOp9
 70
     1
102
RTVSPropertyOp10
 70
     1
102
RTVSPropertyOp11
 70
     1
102
RTVSPropertyOp12
 70
     1
102
RTVSPropertyOp13
 70
     1
102
RTVSPropertyOp14
 70
     1
102
RTVSPropertyOp15
 70
     1
102
RTVSPropertyOp16
 70
     1
102
RTVSPropertyOp17
 70
     1
102
RTVSPropertyOp18
 70
     1
102
RTVSPropertyOp19
 70
     1
102
RTVSPropertyOp20
 70
     1
102
RTVSPropertyOp21
 70
     1
102
RTVSPropertyOp22
 70
     1
102
RTVSPropertyOp23
 70
     1
102
RTVSPropertyOp24
 70
     1
102
RTVSPropertyOp25
 70
     1
102
RTVSPropertyOp26
 70
     1
102
RTVSPropertyOp27
 70
     1
102
RTVSPropertyOp28
 70
     1
102
RTVSPropertyOp29
 70
     1
102
RTVSPropertyOp30
 70
     1
102
RTVSPropertyOp31
 70
     1
102
RTVSPropertyOp32
 70
     1
102
RTVSPropertyOp33
 70
     1
102
RTVSPropertyOp34
 70
     1
102
RTVSPropertyOp35
 70
     1
102
RTVSPropertyOp36
 70
     1
102
RTVSPropertyOp37
 70
     1
102
RTVSPropertyOp38
 70
     1
102
RTVSPropertyOp39
 70
     1
102
RTVSPropertyOp40
 70
     1
102
RTVSPropertyOp41
 70
     1
102
RTVSPropertyOp42
 70
     1
102
RTVSPropertyOp43
 70
     1
102
RTVSPropertyOp44
 70
     1
102
RTVSPropertyOp45
 70
     1
102
RTVSPropertyOp46
 70
     1
102
RTVSPropertyOp47
 70
     1
102
RTVSPropertyOp48
 70
     1
102
RTVSPropertyOp49
 70
     1
102
RTVSPropertyOp50
 70
     1
102
RTVSPropertyOp51
 70
     0
102
RTVSPropertyOp52
 70
     0
102
RTVSPropertyOp53
 70
     1
102
RTVSPropertyOp54
 70
     1
102
RTVSPropertyOp55
 70
     1
102
RTVSPropertyOp56
 70
     1
102
RTVSPropertyOp57
 70
     1
102
RTVSPost2010Prop28
280
     0
102
RTVSPost2010PropOp28
 70
     1
102
RTVSPost2010Prop29
280
     1
102
RTVSPost2010PropOp29
 70
     1
102
RTVSPost2010Prop30
280
     1
102
RTVSPost2010PropOp30
 70
     1
102
RTVSPost2010Prop31
280
     0
102
RTVSPost2010PropOp31
 70
     1
102
RTVSPost2010Prop32
280
     0
102
RTVSPost2010PropOp32
 70
     1
102
RTVSPost2010Prop33
280
     0
102
RTVSPost2010PropOp33
 70
     1
102
RTVSPost2010Prop34
280
     0
102
RTVSPost2010PropOp34
 70
     1
102
RTVSPost2010Prop35
280
     0
102
RTVSPost2010PropOp35
 70
     1
102
RTVSPost2010Prop36
280
     0
102
RTVSPost2010PropOp36
 70
     1
102
RTVSPost2010Prop37
 90
       50
102
RTVSPost2010PropOp37
 70
     1
102
RTVSPost2010Prop38
140
0.0
102
RTVSPost2010PropOp38
 70
     1
102
RTVSPost2010Prop39
140
1.0
102
RTVSPost2010PropOp39
 70
     1
102
RTVSPost2010Prop40
 90
        0
102
RTVSPost2010PropOp40
 70
     1
102
RTVSPost2010Prop41ColorIndex
 90
       18
102
RTVSPost2010Prop41ColorRGB
 90
        0
102
RTVSPost2010PropOp41
 70
     1
102
RTVSPost2010Prop42
 90
       50
102
RTVSPost2010PropOp42
 70
     1
102
RTVSPost2010Prop43
 90
        3
102
RTVSPost2010PropOp43
 70
     1
102
RTVSPost2010Prop44ColorIndex
 90
        5
102
RTVSPost2010Prop44ColorRGB
 90
      255
102
RTVSPost2010PropOp44
 70
     1
102
RTVSPost2010Prop45
280
     0
102
RTVSPost2010PropOp45
 70
     1
102
RTVSPost2010Prop46
 90
       50
102
RTVSPost2010PropOp46
 70
     1
102
RTVSPost2010Prop47
 90
       50
102
RTVSPost2010PropOp47
 70
     1
102
RTVSPost2010Prop48
 90
       50
102
RTVSPost2010PropOp48
 70
     1
102
RTVSPost2010Prop49
280
     0
102
RTVSPost2010PropOp49
 70
     1
102
RTVSPost2010Prop50
 90
       50
102
RTVSPost2010PropOp50
 70
     1
102
RTVSPost2010Prop51ColorIndex
 90
      256
102
RTVSPost2010Prop51ColorRGB
 90
-16777216
102
RTVSPost2010PropOp51
 70
     0
102
RTVSPost2010Prop52
140
1.0
102
RTVSPost2010PropOp52
 70
     0
102
RTVSPost2010Prop53
 90
        2
102
RTVSPost2010PropOp53
 70
     1
102
RTVSPost2010Prop54
  1
strokes_ogs.tif
102
RTVSPost2010PropOp54
 70
     1
102
RTVSPost2010Prop55
280
     0
102
RTVSPost2010PropOp55
 70
     1
102
RTVSPost2010Prop56
140
1.0
102
RTVSPost2010PropOp56
 70
     1
102
RTVSPost2010Prop57
140
1.0
102
RTVSPost2010PropOp57
 70
     1
  0
XRECORD
  5
15D
102
{ACAD_REACTORS
330
15C
102
}
330
15C
100
AcDbXrecord
280
     1
102
RTVSPropertyOp0
 70
     1
102
RTVSPropertyOp1
 70
     1
102
RTVSPropertyOp2
 70
     1
102
RTVSPropertyOp3
 70
     1
102
RTVSPropertyOp4
 70
     1
102
RTVSPropertyOp5
 70
     1
102
RTVSPropertyOp6
 70
     1
102
RTVSPropertyOp7
 70
     1
102
RTVSPropertyOp8
 70
     1
102
RTVSPropertyOp9
 70
     1
102
RTVSPropertyOp10
 70
     1
102
RTVSPropertyOp11
 70
     1
102
RTVSPropertyOp12
 70
     1
102
RTVSPropertyOp13
 70
     1
102
RTVSPropertyOp14
 70
     1
102
RTVSPropertyOp15
 70
     1
102
RTVSPropertyOp16
 70
     1
102
RTVSPropertyOp17
 70
     1
102
RTVSPropertyOp18
 70
     1
102
RTVSPropertyOp19
 70
     1
102
RTVSPropertyOp20
 70
     1
102
RTVSPropertyOp21
 70
     1
102
RTVSPropertyOp22
 70
     1
102
RTVSPropertyOp23
 70
     1
102
RTVSPropertyOp24
 70
     1
102
RTVSPropertyOp25
 70
     1
102
RTVSPropertyOp26
 70
     1
102
RTVSPropertyOp27
 70
     1
102
RTVSPropertyOp28
 70
     1
102
RTVSPropertyOp29
 70
     1
102
RTVSPropertyOp30
 70
     1
102
RTVSPropertyOp31
 70
     1
102
RTVSPropertyOp32
 70
     1
102
RTVSPropertyOp33
 70
     1
102
RTVSPropertyOp34
 70
     1
102
RTVSPropertyOp35
 70
     1
102
RTVSPropertyOp36
 70
     1
102
RTVSPropertyOp37
 70
     1
102
RTVSPropertyOp38
 70
     1
102
RTVSPropertyOp39
 70
     1
102
RTVSPropertyOp40
 70
     1
102
RTVSPropertyOp41
 70
     1
102
RTVSPropertyOp42
 70
     1
102
RTVSPropertyOp43
 70
     1
102
RTVSPropertyOp44
 70
     1
102
RTVSPropertyOp45
 70
     1
102
RTVSPropertyOp46
 70
     1
102
RTVSPropertyOp47
 70
     1
102
RTVSPropertyOp48
 70
     1
102
RTVSPropertyOp49
 70
     1
102
RTVSPropertyOp50
 70
     1
102
RTVSPropertyOp51
 70
     0
102
RTVSPropertyOp52
 70
     0
102
RTVSPropertyOp53
 70
     1
102
RTVSPropertyOp54
 70
     1
102
RTVSPropertyOp55
 70
     1
102
RTVSPropertyOp56
 70
     1
102
RTVSPropertyOp57
 70
     1
102
RTVSPost2010Prop28
280
     0
102
RTVSPost2010PropOp28
 70
     1
102
RTVSPost2010Prop29
280
     1
102
RTVSPost2010PropOp29
 70
     1
102
RTVSPost2010Prop30
280
     1
102
RTVSPost2010PropOp30
 70
     1
102
RTVSPost2010Prop31
280
     0
102
RTVSPost2010PropOp31
 70
     1
102
RTVSPost2010Prop32
280
     0
102
RTVSPost2010PropOp32
 70
     1
102
RTVSPost2010Prop33
280
     0
102
RTVSPost2010PropOp33
 70
     1
102
RTVSPost2010Prop34
280
     0
102
RTVSPost2010PropOp34
 70
     1
102
RTVSPost2010Prop35
280
     0
102
RTVSPost2010PropOp35
 70
     1
102
RTVSPost2010Prop36
280
     0
102
RTVSPost2010PropOp36
 70
     1
102
RTVSPost2010Prop37
 90
       50
102
RTVSPost2010PropOp37
 70
     1
102
RTVSPost2010Prop38
140
0.0
102
RTVSPost2010PropOp38
 70
     1
102
RTVSPost2010Prop39
140
1.0
102
RTVSPost2010PropOp39
 70
     1
102
RTVSPost2010Prop40
 90
        0
102
RTVSPost2010PropOp40
 70
     1
102
RTVSPost2010Prop41ColorIndex
 90
       18
102
RTVSPost2010Prop41ColorRGB
 90
        0
102
RTVSPost2010PropOp41
 70
     1
102
RTVSPost2010Prop42
 90
       50
102
RTVSPost2010PropOp42
 70
     1
102
RTVSPost2010Prop43
 90
        3
102
RTVSPost2010PropOp43
 70
     1
102
RTVSPost2010Prop44ColorIndex
 90
        5
102
RTVSPost2010Prop44ColorRGB
 90
      255
102
RTVSPost2010PropOp44
 70
     1
102
RTVSPost2010Prop45
280
     0
102
RTVSPost2010PropOp45
 70
     1
102
RTVSPost2010Prop46
 90
       50
102
RTVSPost2010PropOp46
 70
     1
102
RTVSPost2010Prop47
 90
       50
102
RTVSPost2010PropOp47
 70
     1
102
RTVSPost2010Prop48
 90
       50
102
RTVSPost2010PropOp48
 70
     1
102
RTVSPost2010Prop49
280
     0
102
RTVSPost2010PropOp49
 70
     1
102
RTVSPost2010Prop50
 90
       50
102
RTVSPost2010PropOp50
 70
     1
102
RTVSPost2010Prop51ColorIndex
 90
      256
102
RTVSPost2010Prop51ColorRGB
 90
-16777216
102
RTVSPost2010PropOp51
 70
     0
102
RTVSPost2010Prop52
140
1.0
102
RTVSPost2010PropOp52
 70
     0
102
RTVSPost2010Prop53
 90
        2
102
RTVSPost2010PropOp53
 70
     1
102
RTVSPost2010Prop54
  1
strokes_ogs.tif
102
RTVSPost2010PropOp54
 70
     1
102
RTVSPost2010Prop55
280
     0
102
RTVSPost2010PropOp55
 70
     1
102
RTVSPost2010Prop56
140
1.0
102
RTVSPost2010PropOp56
 70
     1
102
RTVSPost2010Prop57
140
1.0
102
RTVSPost2010PropOp57
 70
     1
  0
XRECORD
  5
151
102
{ACAD_REACTORS
330
150
102
}
330
150
100
AcDbXrecord
280
     1
102
RTVSPropertyOp0
 70
     1
102
RTVSPropertyOp1
 70
     1
102
RTVSPropertyOp2
 70
     1
102
RTVSPropertyOp3
 70
     1
102
RTVSPropertyOp4
 70
     1
102
RTVSPropertyOp5
 70
     1
102
RTVSPropertyOp6
 70
     1
102
RTVSPropertyOp7
 70
     1
102
RTVSPropertyOp8
 70
     1
102
RTVSPropertyOp9
 70
     1
102
RTVSPropertyOp10
 70
     1
102
RTVSPropertyOp11
 70
     1
102
RTVSPropertyOp12
 70
     1
102
RTVSPropertyOp13
 70
     1
102
RTVSPropertyOp14
 70
     1
102
RTVSPropertyOp15
 70
     1
102
RTVSPropertyOp16
 70
     1
102
RTVSPropertyOp17
 70
     1
102
RTVSPropertyOp18
 70
     1
102
RTVSPropertyOp19
 70
     1
102
RTVSPropertyOp20
 70
     1
102
RTVSPropertyOp21
 70
     1
102
RTVSPropertyOp22
 70
     1
102
RTVSPropertyOp23
 70
     1
102
RTVSPropertyOp24
 70
     1
102
RTVSPropertyOp25
 70
     1
102
RTVSPropertyOp26
 70
     1
102
RTVSPropertyOp27
 70
     1
102
RTVSPropertyOp28
 70
     1
102
RTVSPropertyOp29
 70
     1
102
RTVSPropertyOp30
 70
     1
102
RTVSPropertyOp31
 70
     1
102
RTVSPropertyOp32
 70
     1
102
RTVSPropertyOp33
 70
     1
102
RTVSPropertyOp34
 70
     1
102
RTVSPropertyOp35
 70
     1
102
RTVSPropertyOp36
 70
     1
102
RTVSPropertyOp37
 70
     1
102
RTVSPropertyOp38
 70
     1
102
RTVSPropertyOp39
 70
     1
102
RTVSPropertyOp40
 70
     1
102
RTVSPropertyOp41
 70
     1
102
RTVSPropertyOp42
 70
     1
102
RTVSPropertyOp43
 70
     1
102
RTVSPropertyOp44
 70
     1
102
RTVSPropertyOp45
 70
     1
102
RTVSPropertyOp46
 70
     1
102
RTVSPropertyOp47
 70
     1
102
RTVSPropertyOp48
 70
     1
102
RTVSPropertyOp49
 70
     1
102
RTVSPropertyOp50
 70
     1
102
RTVSPropertyOp51
 70
     0
102
RTVSPropertyOp52
 70
     0
102
RTVSPropertyOp53
 70
     1
102
RTVSPropertyOp54
 70
     1
102
RTVSPropertyOp55
 70
     1
102
RTVSPropertyOp56
 70
     1
102
RTVSPropertyOp57
 70
     1
102
RTVSPost2010Prop28
280
     0
102
RTVSPost2010PropOp28
 70
     1
102
RTVSPost2010Prop29
280
     1
102
RTVSPost2010PropOp29
 70
     1
102
RTVSPost2010Prop30
280
     1
102
RTVSPost2010PropOp30
 70
     1
102
RTVSPost2010Prop31
280
     0
102
RTVSPost2010PropOp31
 70
     1
102
RTVSPost2010Prop32
280
     0
102
RTVSPost2010PropOp32
 70
     1
102
RTVSPost2010Prop33
280
     0
102
RTVSPost2010PropOp33
 70
     1
102
RTVSPost2010Prop34
280
     0
102
RTVSPost2010PropOp34
 70
     1
102
RTVSPost2010Prop35
280
     0
102
RTVSPost2010PropOp35
 70
     1
102
RTVSPost2010Prop36
280
     0
102
RTVSPost2010PropOp36
 70
     1
102
RTVSPost2010Prop37
 90
       50
102
RTVSPost2010PropOp37
 70
     1
102
RTVSPost2010Prop38
140
0.0
102
RTVSPost2010PropOp38
 70
     1
102
RTVSPost2010Prop39
140
1.0
102
RTVSPost2010PropOp39
 70
     1
102
RTVSPost2010Prop40
 90
        0
102
RTVSPost2010PropOp40
 70
     1
102
RTVSPost2010Prop41ColorIndex
 90
       18
102
RTVSPost2010Prop41ColorRGB
 90
        0
102
RTVSPost2010PropOp41
 70
     1
102
RTVSPost2010Prop42
 90
       50
102
RTVSPost2010PropOp42
 70
     1
102
RTVSPost2010Prop43
 90
        3
102
RTVSPost2010PropOp43
 70
     1
102
RTVSPost2010Prop44ColorIndex
 90
        5
102
RTVSPost2010Prop44ColorRGB
 90
      255
102
RTVSPost2010PropOp44
 70
     1
102
RTVSPost2010Prop45
280
     0
102
RTVSPost2010PropOp45
 70
     1
102
RTVSPost2010Prop46
 90
       50
102
RTVSPost2010PropOp46
 70
     1
102
RTVSPost2010Prop47
 90
       50
102
RTVSPost2010PropOp47
 70
     1
102
RTVSPost2010Prop48
 90
       50
102
RTVSPost2010PropOp48
 70
     1
102
RTVSPost2010Prop49
280
     0
102
RTVSPost2010PropOp49
 70
     1
102
RTVSPost2010Prop50
 90
       50
102
RTVSPost2010PropOp50
 70
     1
102
RTVSPost2010Prop51ColorIndex
 90
      256
102
RTVSPost2010Prop51ColorRGB
 90
-16777216
102
RTVSPost2010PropOp51
 70
     0
102
RTVSPost2010Prop52
140
1.0
102
RTVSPost2010PropOp52
 70
     0
102
RTVSPost2010Prop53
 90
        2
102
RTVSPost2010PropOp53
 70
     1
102
RTVSPost2010Prop54
  1
strokes_ogs.tif
102
RTVSPost2010PropOp54
 70
     1
102
RTVSPost2010Prop55
280
     0
102
RTVSPost2010PropOp55
 70
     1
102
RTVSPost2010Prop56
140
1.0
102
RTVSPost2010PropOp56
 70
     1
102
RTVSPost2010Prop57
140
1.0
102
RTVSPost2010PropOp57
 70
     1
  0
XRECORD
  5
153
102
{ACAD_REACTORS
330
152
102
}
330
152
100
AcDbXrecord
280
     1
102
RTVSPropertyOp0
 70
     1
102
RTVSPropertyOp1
 70
     1
102
RTVSPropertyOp2
 70
     1
102
RTVSPropertyOp3
 70
     1
102
RTVSPropertyOp4
 70
     1
102
RTVSPropertyOp5
 70
     1
102
RTVSPropertyOp6
 70
     1
102
RTVSPropertyOp7
 70
     1
102
RTVSPropertyOp8
 70
     1
102
RTVSPropertyOp9
 70
     1
102
RTVSPropertyOp10
 70
     1
102
RTVSPropertyOp11
 70
     1
102
RTVSPropertyOp12
 70
     1
102
RTVSPropertyOp13
 70
     1
102
RTVSPropertyOp14
 70
     1
102
RTVSPropertyOp15
 70
     1
102
RTVSPropertyOp16
 70
     1
102
RTVSPropertyOp17
 70
     1
102
RTVSPropertyOp18
 70
     1
102
RTVSPropertyOp19
 70
     1
102
RTVSPropertyOp20
 70
     1
102
RTVSPropertyOp21
 70
     1
102
RTVSPropertyOp22
 70
     1
102
RTVSPropertyOp23
 70
     1
102
RTVSPropertyOp24
 70
     1
102
RTVSPropertyOp25
 70
     1
102
RTVSPropertyOp26
 70
     1
102
RTVSPropertyOp27
 70
     1
102
RTVSPropertyOp28
 70
     1
102
RTVSPropertyOp29
 70
     1
102
RTVSPropertyOp30
 70
     1
102
RTVSPropertyOp31
 70
     1
102
RTVSPropertyOp32
 70
     1
102
RTVSPropertyOp33
 70
     1
102
RTVSPropertyOp34
 70
     1
102
RTVSPropertyOp35
 70
     1
102
RTVSPropertyOp36
 70
     1
102
RTVSPropertyOp37
 70
     1
102
RTVSPropertyOp38
 70
     1
102
RTVSPropertyOp39
 70
     1
102
RTVSPropertyOp40
 70
     1
102
RTVSPropertyOp41
 70
     1
102
RTVSPropertyOp42
 70
     1
102
RTVSPropertyOp43
 70
     1
102
RTVSPropertyOp44
 70
     1
102
RTVSPropertyOp45
 70
     1
102
RTVSPropertyOp46
 70
     1
102
RTVSPropertyOp47
 70
     1
102
RTVSPropertyOp48
 70
     1
102
RTVSPropertyOp49
 70
     1
102
RTVSPropertyOp50
 70
     1
102
RTVSPropertyOp51
 70
     0
102
RTVSPropertyOp52
 70
     0
102
RTVSPropertyOp53
 70
     1
102
RTVSPropertyOp54
 70
     1
102
RTVSPropertyOp55
 70
     1
102
RTVSPropertyOp56
 70
     1
102
RTVSPropertyOp57
 70
     1
102
RTVSPost2010Prop28
280
     0
102
RTVSPost2010PropOp28
 70
     1
102
RTVSPost2010Prop29
280
     1
102
RTVSPost2010PropOp29
 70
     1
102
RTVSPost2010Prop30
280
     1
102
RTVSPost2010PropOp30
 70
     1
102
RTVSPost2010Prop31
280
     0
102
RTVSPost2010PropOp31
 70
     1
102
RTVSPost2010Prop32
280
     0
102
RTVSPost2010PropOp32
 70
     1
102
RTVSPost2010Prop33
280
     0
102
RTVSPost2010PropOp33
 70
     1
102
RTVSPost2010Prop34
280
     0
102
RTVSPost2010PropOp34
 70
     1
102
RTVSPost2010Prop35
280
     0
102
RTVSPost2010PropOp35
 70
     1
102
RTVSPost2010Prop36
280
     0
102
RTVSPost2010PropOp36
 70
     1
102
RTVSPost2010Prop37
 90
       50
102
RTVSPost2010PropOp37
 70
     1
102
RTVSPost2010Prop38
140
0.0
102
RTVSPost2010PropOp38
 70
     1
102
RTVSPost2010Prop39
140
1.0
102
RTVSPost2010PropOp39
 70
     1
102
RTVSPost2010Prop40
 90
        0
102
RTVSPost2010PropOp40
 70
     1
102
RTVSPost2010Prop41ColorIndex
 90
       18
102
RTVSPost2010Prop41ColorRGB
 90
        0
102
RTVSPost2010PropOp41
 70
     1
102
RTVSPost2010Prop42
 90
       50
102
RTVSPost2010PropOp42
 70
     1
102
RTVSPost2010Prop43
 90
        3
102
RTVSPost2010PropOp43
 70
     1
102
RTVSPost2010Prop44ColorIndex
 90
        5
102
RTVSPost2010Prop44ColorRGB
 90
      255
102
RTVSPost2010PropOp44
 70
     1
102
RTVSPost2010Prop45
280
     0
102
RTVSPost2010PropOp45
 70
     1
102
RTVSPost2010Prop46
 90
       50
102
RTVSPost2010PropOp46
 70
     1
102
RTVSPost2010Prop47
 90
       50
102
RTVSPost2010PropOp47
 70
     1
102
RTVSPost2010Prop48
 90
       50
102
RTVSPost2010PropOp48
 70
     1
102
RTVSPost2010Prop49
280
     0
102
RTVSPost2010PropOp49
 70
     1
102
RTVSPost2010Prop50
 90
       50
102
RTVSPost2010PropOp50
 70
     1
102
RTVSPost2010Prop51ColorIndex
 90
      256
102
RTVSPost2010Prop51ColorRGB
 90
-16777216
102
RTVSPost2010PropOp51
 70
     0
102
RTVSPost2010Prop52
140
1.0
102
RTVSPost2010PropOp52
 70
     0
102
RTVSPost2010Prop53
 90
        2
102
RTVSPost2010PropOp53
 70
     1
102
RTVSPost2010Prop54
  1
strokes_ogs.tif
102
RTVSPost2010PropOp54
 70
     1
102
RTVSPost2010Prop55
280
     0
102
RTVSPost2010PropOp55
 70
     1
102
RTVSPost2010Prop56
140
1.0
102
RTVSPost2010PropOp56
 70
     1
102
RTVSPost2010Prop57
140
1.0
102
RTVSPost2010PropOp57
 70
     1
  0
XRECORD
  5
163
102
{ACAD_REACTORS
330
162
102
}
330
162
100
AcDbXrecord
280
     1
102
RTVSPropertyOp0
 70
     0
102
RTVSPropertyOp1
 70
     0
102
RTVSPropertyOp2
 70
     0
102
RTVSPropertyOp3
 70
     0
102
RTVSPropertyOp4
 70
     0
102
RTVSPropertyOp5
 70
     0
102
RTVSPropertyOp6
 70
     0
102
RTVSPropertyOp7
 70
     0
102
RTVSPropertyOp8
 70
     0
102
RTVSPropertyOp9
 70
     0
102
RTVSPropertyOp10
 70
     0
102
RTVSPropertyOp11
 70
     0
102
RTVSPropertyOp12
 70
     0
102
RTVSPropertyOp13
 70
     0
102
RTVSPropertyOp14
 70
     2
102
RTVSPropertyOp15
 70
     0
102
RTVSPropertyOp16
 70
     0
102
RTVSPropertyOp17
 70
     0
102
RTVSPropertyOp18
 70
     0
102
RTVSPropertyOp19
 70
     0
102
RTVSPropertyOp20
 70
     0
102
RTVSPropertyOp21
 70
     0
102
RTVSPropertyOp22
 70
     0
102
RTVSPropertyOp23
 70
     0
102
RTVSPropertyOp24
 70
     0
102
RTVSPropertyOp25
 70
     0
102
RTVSPropertyOp26
 70
     0
102
RTVSPropertyOp27
 70
     0
102
RTVSPropertyOp28
 70
     0
102
RTVSPropertyOp29
 70
     0
102
RTVSPropertyOp30
 70
     0
102
RTVSPropertyOp31
 70
     0
102
RTVSPropertyOp32
 70
     0
102
RTVSPropertyOp33
 70
     0
102
RTVSPropertyOp34
 70
     0
102
RTVSPropertyOp35
 70
     0
102
RTVSPropertyOp36
 70
     0
102
RTVSPropertyOp37
 70
     0
102
RTVSPropertyOp38
 70
     0
102
RTVSPropertyOp39
 70
     0
102
RTVSPropertyOp40
 70
     0
102
RTVSPropertyOp41
 70
     0
102
RTVSPropertyOp42
 70
     0
102
RTVSPropertyOp43
 70
     0
102
RTVSPropertyOp44
 70
     0
102
RTVSPropertyOp45
 70
     0
102
RTVSPropertyOp46
 70
     0
102
RTVSPropertyOp47
 70
     0
102
RTVSPropertyOp48
 70
     0
102
RTVSPropertyOp49
 70
     0
102
RTVSPropertyOp50
 70
     0
102
RTVSPropertyOp51
 70
     0
102
RTVSPropertyOp52
 70
     0
102
RTVSPropertyOp53
 70
     0
102
RTVSPropertyOp54
 70
     0
102
RTVSPropertyOp55
 70
     0
102
RTVSPropertyOp56
 70
     0
102
RTVSPropertyOp57
 70
     0
102
RTVSPost2010Prop28
280
     0
102
RTVSPost2010PropOp28
 70
     0
102
RTVSPost2010Prop29
280
     1
102
RTVSPost2010PropOp29
 70
     0
102
RTVSPost2010Prop30
280
     1
102
RTVSPost2010PropOp30
 70
     0
102
RTVSPost2010Prop31
280
     0
102
RTVSPost2010PropOp31
 70
     0
102
RTVSPost2010Prop32
280
     0
102
RTVSPost2010PropOp32
 70
     0
102
RTVSPost2010Prop33
280
     0
102
RTVSPost2010PropOp33
 70
     0
102
RTVSPost2010Prop34
280
     0
102
RTVSPost2010PropOp34
 70
     0
102
RTVSPost2010Prop35
280
     0
102
RTVSPost2010PropOp35
 70
     0
102
RTVSPost2010Prop36
280
     0
102
RTVSPost2010PropOp36
 70
     0
102
RTVSPost2010Prop37
 90
       50
102
RTVSPost2010PropOp37
 70
     0
102
RTVSPost2010Prop38
140
0.0
102
RTVSPost2010PropOp38
 70
     0
102
RTVSPost2010Prop39
140
1.0
102
RTVSPost2010PropOp39
 70
     0
102
RTVSPost2010Prop40
 90
        0
102
RTVSPost2010PropOp40
 70
     0
102
RTVSPost2010Prop41ColorIndex
 90
       18
102
RTVSPost2010Prop41ColorRGB
 90
        0
102
RTVSPost2010PropOp41
 70
     0
102
RTVSPost2010Prop42
 90
       50
102
RTVSPost2010PropOp42
 70
     0
102
RTVSPost2010Prop43
 90
        3
102
RTVSPost2010PropOp43
 70
     0
102
RTVSPost2010Prop44ColorIndex
 90
        5
102
RTVSPost2010Prop44ColorRGB
 90
      255
102
RTVSPost2010PropOp44
 70
     0
102
RTVSPost2010Prop45
280
     0
102
RTVSPost2010PropOp45
 70
     0
102
RTVSPost2010Prop46
 90
       50
102
RTVSPost2010PropOp46
 70
     0
102
RTVSPost2010Prop47
 90
       50
102
RTVSPost2010PropOp47
 70
     0
102
RTVSPost2010Prop48
 90
       50
102
RTVSPost2010PropOp48
 70
     0
102
RTVSPost2010Prop49
280
     0
102
RTVSPost2010PropOp49
 70
     0
102
RTVSPost2010Prop50
 90
       50
102
RTVSPost2010PropOp50
 70
     0
102
RTVSPost2010Prop51ColorIndex
 90
      256
102
RTVSPost2010Prop51ColorRGB
 90
-16777216
102
RTVSPost2010PropOp51
 70
     0
102
RTVSPost2010Prop52
140
1.0
102
RTVSPost2010PropOp52
 70
     0
102
RTVSPost2010Prop53
 90
        2
102
RTVSPost2010PropOp53
 70
     0
102
RTVSPost2010Prop54
  1
strokes_ogs.tif
102
RTVSPost2010PropOp54
 70
     0
102
RTVSPost2010Prop55
280
     0
102
RTVSPost2010PropOp55
 70
     0
102
RTVSPost2010Prop56
140
1.0
102
RTVSPost2010PropOp56
 70
     0
102
RTVSPost2010Prop57
140
1.0
102
RTVSPost2010PropOp57
 70
     0
  0
XRECORD
  5
15B
102
{ACAD_REACTORS
330
15A
102
}
330
15A
100
AcDbXrecord
280
     1
102
RTVSPropertyOp0
 70
     1
102
RTVSPropertyOp1
 70
     1
102
RTVSPropertyOp2
 70
     1
102
RTVSPropertyOp3
 70
     1
102
RTVSPropertyOp4
 70
     1
102
RTVSPropertyOp5
 70
     1
102
RTVSPropertyOp6
 70
     1
102
RTVSPropertyOp7
 70
     1
102
RTVSPropertyOp8
 70
     1
102
RTVSPropertyOp9
 70
     1
102
RTVSPropertyOp10
 70
     1
102
RTVSPropertyOp11
 70
     1
102
RTVSPropertyOp12
 70
     1
102
RTVSPropertyOp13
 70
     1
102
RTVSPropertyOp14
 70
     1
102
RTVSPropertyOp15
 70
     1
102
RTVSPropertyOp16
 70
     1
102
RTVSPropertyOp17
 70
     1
102
RTVSPropertyOp18
 70
     1
102
RTVSPropertyOp19
 70
     1
102
RTVSPropertyOp20
 70
     1
102
RTVSPropertyOp21
 70
     1
102
RTVSPropertyOp22
 70
     1
102
RTVSPropertyOp23
 70
     1
102
RTVSPropertyOp24
 70
     1
102
RTVSPropertyOp25
 70
     1
102
RTVSPropertyOp26
 70
     1
102
RTVSPropertyOp27
 70
     1
102
RTVSPropertyOp28
 70
     1
102
RTVSPropertyOp29
 70
     1
102
RTVSPropertyOp30
 70
     1
102
RTVSPropertyOp31
 70
     1
102
RTVSPropertyOp32
 70
     1
102
RTVSPropertyOp33
 70
     1
102
RTVSPropertyOp34
 70
     1
102
RTVSPropertyOp35
 70
     1
102
RTVSPropertyOp36
 70
     1
102
RTVSPropertyOp37
 70
     1
102
RTVSPropertyOp38
 70
     1
102
RTVSPropertyOp39
 70
     1
102
RTVSPropertyOp40
 70
     1
102
RTVSPropertyOp41
 70
     1
102
RTVSPropertyOp42
 70
     1
102
RTVSPropertyOp43
 70
     1
102
RTVSPropertyOp44
 70
     1
102
RTVSPropertyOp45
 70
     1
102
RTVSPropertyOp46
 70
     1
102
RTVSPropertyOp47
 70
     1
102
RTVSPropertyOp48
 70
     1
102
RTVSPropertyOp49
 70
     1
102
RTVSPropertyOp50
 70
     1
102
RTVSPropertyOp51
 70
     0
102
RTVSPropertyOp52
 70
     0
102
RTVSPropertyOp53
 70
     1
102
RTVSPropertyOp54
 70
     1
102
RTVSPropertyOp55
 70
     1
102
RTVSPropertyOp56
 70
     1
102
RTVSPropertyOp57
 70
     1
102
RTVSPost2010Prop28
280
     0
102
RTVSPost2010PropOp28
 70
     1
102
RTVSPost2010Prop29
280
     1
102
RTVSPost2010PropOp29
 70
     1
102
RTVSPost2010Prop30
280
     1
102
RTVSPost2010PropOp30
 70
     1
102
RTVSPost2010Prop31
280
     0
102
RTVSPost2010PropOp31
 70
     1
102
RTVSPost2010Prop32
280
     0
102
RTVSPost2010PropOp32
 70
     1
102
RTVSPost2010Prop33
280
     0
102
RTVSPost2010PropOp33
 70
     1
102
RTVSPost2010Prop34
280
     0
102
RTVSPost2010PropOp34
 70
     1
102
RTVSPost2010Prop35
280
     0
102
RTVSPost2010PropOp35
 70
     1
102
RTVSPost2010Prop36
280
     0
102
RTVSPost2010PropOp36
 70
     1
102
RTVSPost2010Prop37
 90
       50
102
RTVSPost2010PropOp37
 70
     1
102
RTVSPost2010Prop38
140
0.0
102
RTVSPost2010PropOp38
 70
     1
102
RTVSPost2010Prop39
140
1.0
102
RTVSPost2010PropOp39
 70
     1
102
RTVSPost2010Prop40
 90
        0
102
RTVSPost2010PropOp40
 70
     1
102
RTVSPost2010Prop41ColorIndex
 90
       18
102
RTVSPost2010Prop41ColorRGB
 90
        0
102
RTVSPost2010PropOp41
 70
     1
102
RTVSPost2010Prop42
 90
       50
102
RTVSPost2010PropOp42
 70
     1
102
RTVSPost2010Prop43
 90
        3
102
RTVSPost2010PropOp43
 70
     1
102
RTVSPost2010Prop44ColorIndex
 90
        5
102
RTVSPost2010Prop44ColorRGB
 90
      255
102
RTVSPost2010PropOp44
 70
     1
102
RTVSPost2010Prop45
280
     0
102
RTVSPost2010PropOp45
 70
     1
102
RTVSPost2010Prop46
 90
       50
102
RTVSPost2010PropOp46
 70
     1
102
RTVSPost2010Prop47
 90
       50
102
RTVSPost2010PropOp47
 70
     1
102
RTVSPost2010Prop48
 90
       50
102
RTVSPost2010PropOp48
 70
     1
102
RTVSPost2010Prop49
280
     0
102
RTVSPost2010PropOp49
 70
     1
102
RTVSPost2010Prop50
 90
       50
102
RTVSPost2010PropOp50
 70
     1
102
RTVSPost2010Prop51ColorIndex
 90
      256
102
RTVSPost2010Prop51ColorRGB
 90
-16777216
102
RTVSPost2010PropOp51
 70
     0
102
RTVSPost2010Prop52
140
1.0
102
RTVSPost2010PropOp52
 70
     0
102
RTVSPost2010Prop53
 90
        2
102
RTVSPost2010PropOp53
 70
     1
102
RTVSPost2010Prop54
  1
strokes_ogs.tif
102
RTVSPost2010PropOp54
 70
     1
102
RTVSPost2010Prop55
280
     0
102
RTVSPost2010PropOp55
 70
     1
102
RTVSPost2010Prop56
140
1.0
102
RTVSPost2010PropOp56
 70
     1
102
RTVSPost2010Prop57
140
1.0
102
RTVSPost2010PropOp57
 70
     1
  0
XRECORD
  5
13F
102
{ACAD_REACTORS
330
13E
102
}
330
13E
100
AcDbXrecord
280
     1
102
RTVSPropertyOp0
 70
     1
102
RTVSPropertyOp1
 70
     1
102
RTVSPropertyOp2
 70
     1
102
RTVSPropertyOp3
 70
     1
102
RTVSPropertyOp4
 70
     1
102
RTVSPropertyOp5
 70
     1
102
RTVSPropertyOp6
 70
     1
102
RTVSPropertyOp7
 70
     1
102
RTVSPropertyOp8
 70
     1
102
RTVSPropertyOp9
 70
     1
102
RTVSPropertyOp10
 70
     1
102
RTVSPropertyOp11
 70
     1
102
RTVSPropertyOp12
 70
     1
102
RTVSPropertyOp13
 70
     1
102
RTVSPropertyOp14
 70
     1
102
RTVSPropertyOp15
 70
     1
102
RTVSPropertyOp16
 70
     1
102
RTVSPropertyOp17
 70
     1
102
RTVSPropertyOp18
 70
     1
102
RTVSPropertyOp19
 70
     1
102
RTVSPropertyOp20
 70
     1
102
RTVSPropertyOp21
 70
     1
102
RTVSPropertyOp22
 70
     1
102
RTVSPropertyOp23
 70
     1
102
RTVSPropertyOp24
 70
     1
102
RTVSPropertyOp25
 70
     1
102
RTVSPropertyOp26
 70
     1
102
RTVSPropertyOp27
 70
     1
102
RTVSPropertyOp28
 70
     1
102
RTVSPropertyOp29
 70
     1
102
RTVSPropertyOp30
 70
     1
102
RTVSPropertyOp31
 70
     1
102
RTVSPropertyOp32
 70
     1
102
RTVSPropertyOp33
 70
     1
102
RTVSPropertyOp34
 70
     1
102
RTVSPropertyOp35
 70
     1
102
RTVSPropertyOp36
 70
     1
102
RTVSPropertyOp37
 70
     1
102
RTVSPropertyOp38
 70
     1
102
RTVSPropertyOp39
 70
     1
102
RTVSPropertyOp40
 70
     1
102
RTVSPropertyOp41
 70
     1
102
RTVSPropertyOp42
 70
     1
102
RTVSPropertyOp43
 70
     1
102
RTVSPropertyOp44
 70
     1
102
RTVSPropertyOp45
 70
     1
102
RTVSPropertyOp46
 70
     1
102
RTVSPropertyOp47
 70
     1
102
RTVSPropertyOp48
 70
     1
102
RTVSPropertyOp49
 70
     1
102
RTVSPropertyOp50
 70
     1
102
RTVSPropertyOp51
 70
     0
102
RTVSPropertyOp52
 70
     0
102
RTVSPropertyOp53
 70
     1
102
RTVSPropertyOp54
 70
     1
102
RTVSPropertyOp55
 70
     1
102
RTVSPropertyOp56
 70
     1
102
RTVSPropertyOp57
 70
     1
102
RTVSPost2010Prop28
280
     0
102
RTVSPost2010PropOp28
 70
     1
102
RTVSPost2010Prop29
280
     1
102
RTVSPost2010PropOp29
 70
     1
102
RTVSPost2010Prop30
280
     1
102
RTVSPost2010PropOp30
 70
     1
102
RTVSPost2010Prop31
280
     0
102
RTVSPost2010PropOp31
 70
     1
102
RTVSPost2010Prop32
280
     0
102
RTVSPost2010PropOp32
 70
     1
102
RTVSPost2010Prop33
280
     0
102
RTVSPost2010PropOp33
 70
     1
102
RTVSPost2010Prop34
280
     0
102
RTVSPost2010PropOp34
 70
     1
102
RTVSPost2010Prop35
280
     0
102
RTVSPost2010PropOp35
 70
     1
102
RTVSPost2010Prop36
280
     0
102
RTVSPost2010PropOp36
 70
     1
102
RTVSPost2010Prop37
 90
       50
102
RTVSPost2010PropOp37
 70
     1
102
RTVSPost2010Prop38
140
0.0
102
RTVSPost2010PropOp38
 70
     1
102
RTVSPost2010Prop39
140
1.0
102
RTVSPost2010PropOp39
 70
     1
102
RTVSPost2010Prop40
 90
        0
102
RTVSPost2010PropOp40
 70
     1
102
RTVSPost2010Prop41ColorIndex
 90
       18
102
RTVSPost2010Prop41ColorRGB
 90
        0
102
RTVSPost2010PropOp41
 70
     1
102
RTVSPost2010Prop42
 90
       50
102
RTVSPost2010PropOp42
 70
     1
102
RTVSPost2010Prop43
 90
        3
102
RTVSPost2010PropOp43
 70
     1
102
RTVSPost2010Prop44ColorIndex
 90
        5
102
RTVSPost2010Prop44ColorRGB
 90
      255
102
RTVSPost2010PropOp44
 70
     1
102
RTVSPost2010Prop45
280
     0
102
RTVSPost2010PropOp45
 70
     1
102
RTVSPost2010Prop46
 90
       50
102
RTVSPost2010PropOp46
 70
     1
102
RTVSPost2010Prop47
 90
       50
102
RTVSPost2010PropOp47
 70
     1
102
RTVSPost2010Prop48
 90
       50
102
RTVSPost2010PropOp48
 70
     1
102
RTVSPost2010Prop49
280
     0
102
RTVSPost2010PropOp49
 70
     1
102
RTVSPost2010Prop50
 90
       50
102
RTVSPost2010PropOp50
 70
     1
102
RTVSPost2010Prop51ColorIndex
 90
      256
102
RTVSPost2010Prop51ColorRGB
 90
-16777216
102
RTVSPost2010PropOp51
 70
     0
102
RTVSPost2010Prop52
140
1.0
102
RTVSPost2010PropOp52
 70
     0
102
RTVSPost2010Prop53
 90
        2
102
RTVSPost2010PropOp53
 70
     1
102
RTVSPost2010Prop54
  1
strokes_ogs.tif
102
RTVSPost2010PropOp54
 70
     1
102
RTVSPost2010Prop55
280
     0
102
RTVSPost2010PropOp55
 70
     1
102
RTVSPost2010Prop56
140
1.0
102
RTVSPost2010PropOp56
 70
     1
102
RTVSPost2010Prop57
140
1.0
102
RTVSPost2010PropOp57
 70
     1
  0
XRECORD
  5
141
102
{ACAD_REACTORS
330
140
102
}
330
140
100
AcDbXrecord
280
     1
102
RTVSPropertyOp0
 70
     1
102
RTVSPropertyOp1
 70
     1
102
RTVSPropertyOp2
 70
     1
102
RTVSPropertyOp3
 70
     1
102
RTVSPropertyOp4
 70
     1
102
RTVSPropertyOp5
 70
     1
102
RTVSPropertyOp6
 70
     1
102
RTVSPropertyOp7
 70
     1
102
RTVSPropertyOp8
 70
     1
102
RTVSPropertyOp9
 70
     1
102
RTVSPropertyOp10
 70
     1
102
RTVSPropertyOp11
 70
     1
102
RTVSPropertyOp12
 70
     1
102
RTVSPropertyOp13
 70
     1
102
RTVSPropertyOp14
 70
     1
102
RTVSPropertyOp15
 70
     1
102
RTVSPropertyOp16
 70
     1
102
RTVSPropertyOp17
 70
     1
102
RTVSPropertyOp18
 70
     1
102
RTVSPropertyOp19
 70
     1
102
RTVSPropertyOp20
 70
     1
102
RTVSPropertyOp21
 70
     1
102
RTVSPropertyOp22
 70
     1
102
RTVSPropertyOp23
 70
     1
102
RTVSPropertyOp24
 70
     1
102
RTVSPropertyOp25
 70
     1
102
RTVSPropertyOp26
 70
     1
102
RTVSPropertyOp27
 70
     1
102
RTVSPropertyOp28
 70
     1
102
RTVSPropertyOp29
 70
     1
102
RTVSPropertyOp30
 70
     1
102
RTVSPropertyOp31
 70
     1
102
RTVSPropertyOp32
 70
     1
102
RTVSPropertyOp33
 70
     1
102
RTVSPropertyOp34
 70
     1
102
RTVSPropertyOp35
 70
     1
102
RTVSPropertyOp36
 70
     1
102
RTVSPropertyOp37
 70
     1
102
RTVSPropertyOp38
 70
     1
102
RTVSPropertyOp39
 70
     1
102
RTVSPropertyOp40
 70
     1
102
RTVSPropertyOp41
 70
     1
102
RTVSPropertyOp42
 70
     1
102
RTVSPropertyOp43
 70
     1
102
RTVSPropertyOp44
 70
     1
102
RTVSPropertyOp45
 70
     1
102
RTVSPropertyOp46
 70
     1
102
RTVSPropertyOp47
 70
     1
102
RTVSPropertyOp48
 70
     1
102
RTVSPropertyOp49
 70
     1
102
RTVSPropertyOp50
 70
     1
102
RTVSPropertyOp51
 70
     0
102
RTVSPropertyOp52
 70
     0
102
RTVSPropertyOp53
 70
     1
102
RTVSPropertyOp54
 70
     1
102
RTVSPropertyOp55
 70
     1
102
RTVSPropertyOp56
 70
     1
102
RTVSPropertyOp57
 70
     1
102
RTVSPost2010Prop28
280
     0
102
RTVSPost2010PropOp28
 70
     1
102
RTVSPost2010Prop29
280
     1
102
RTVSPost2010PropOp29
 70
     1
102
RTVSPost2010Prop30
280
     1
102
RTVSPost2010PropOp30
 70
     1
102
RTVSPost2010Prop31
280
     0
102
RTVSPost2010PropOp31
 70
     1
102
RTVSPost2010Prop32
280
     0
102
RTVSPost2010PropOp32
 70
     1
102
RTVSPost2010Prop33
280
     0
102
RTVSPost2010PropOp33
 70
     1
102
RTVSPost2010Prop34
280
     0
102
RTVSPost2010PropOp34
 70
     1
102
RTVSPost2010Prop35
280
     0
102
RTVSPost2010PropOp35
 70
     1
102
RTVSPost2010Prop36
280
     0
102
RTVSPost2010PropOp36
 70
     1
102
RTVSPost2010Prop37
 90
       50
102
RTVSPost2010PropOp37
 70
     1
102
RTVSPost2010Prop38
140
0.0
102
RTVSPost2010PropOp38
 70
     1
102
RTVSPost2010Prop39
140
1.0
102
RTVSPost2010PropOp39
 70
     1
102
RTVSPost2010Prop40
 90
        0
102
RTVSPost2010PropOp40
 70
     1
102
RTVSPost2010Prop41ColorIndex
 90
       18
102
RTVSPost2010Prop41ColorRGB
 90
        0
102
RTVSPost2010PropOp41
 70
     1
102
RTVSPost2010Prop42
 90
       50
102
RTVSPost2010PropOp42
 70
     1
102
RTVSPost2010Prop43
 90
        3
102
RTVSPost2010PropOp43
 70
     1
102
RTVSPost2010Prop44ColorIndex
 90
        5
102
RTVSPost2010Prop44ColorRGB
 90
      255
102
RTVSPost2010PropOp44
 70
     1
102
RTVSPost2010Prop45
280
     0
102
RTVSPost2010PropOp45
 70
     1
102
RTVSPost2010Prop46
 90
       50
102
RTVSPost2010PropOp46
 70
     1
102
RTVSPost2010Prop47
 90
       50
102
RTVSPost2010PropOp47
 70
     1
102
RTVSPost2010Prop48
 90
       50
102
RTVSPost2010PropOp48
 70
     1
102
RTVSPost2010Prop49
280
     0
102
RTVSPost2010PropOp49
 70
     1
102
RTVSPost2010Prop50
 90
       50
102
RTVSPost2010PropOp50
 70
     1
102
RTVSPost2010Prop51ColorIndex
 90
      256
102
RTVSPost2010Prop51ColorRGB
 90
-16777216
102
RTVSPost2010PropOp51
 70
     0
102
RTVSPost2010Prop52
140
1.0
102
RTVSPost2010PropOp52
 70
     0
102
RTVSPost2010Prop53
 90
        2
102
RTVSPost2010PropOp53
 70
     1
102
RTVSPost2010Prop54
  1
strokes_ogs.tif
102
RTVSPost2010PropOp54
 70
     1
102
RTVSPost2010Prop55
280
     0
102
RTVSPost2010PropOp55
 70
     1
102
RTVSPost2010Prop56
140
1.0
102
RTVSPost2010PropOp56
 70
     1
102
RTVSPost2010Prop57
140
1.0
102
RTVSPost2010PropOp57
 70
     1
  0
XRECORD
  5
143
102
{ACAD_REACTORS
330
142
102
}
330
142
100
AcDbXrecord
280
     1
102
RTVSPropertyOp0
 70
     1
102
RTVSPropertyOp1
 70
     1
102
RTVSPropertyOp2
 70
     1
102
RTVSPropertyOp3
 70
     1
102
RTVSPropertyOp4
 70
     1
102
RTVSPropertyOp5
 70
     1
102
RTVSPropertyOp6
 70
     1
102
RTVSPropertyOp7
 70
     1
102
RTVSPropertyOp8
 70
     1
102
RTVSPropertyOp9
 70
     1
102
RTVSPropertyOp10
 70
     1
102
RTVSPropertyOp11
 70
     1
102
RTVSPropertyOp12
 70
     1
102
RTVSPropertyOp13
 70
     1
102
RTVSPropertyOp14
 70
     1
102
RTVSPropertyOp15
 70
     1
102
RTVSPropertyOp16
 70
     1
102
RTVSPropertyOp17
 70
     1
102
RTVSPropertyOp18
 70
     1
102
RTVSPropertyOp19
 70
     1
102
RTVSPropertyOp20
 70
     1
102
RTVSPropertyOp21
 70
     1
102
RTVSPropertyOp22
 70
     1
102
RTVSPropertyOp23
 70
     1
102
RTVSPropertyOp24
 70
     1
102
RTVSPropertyOp25
 70
     1
102
RTVSPropertyOp26
 70
     1
102
RTVSPropertyOp27
 70
     1
102
RTVSPropertyOp28
 70
     1
102
RTVSPropertyOp29
 70
     1
102
RTVSPropertyOp30
 70
     1
102
RTVSPropertyOp31
 70
     1
102
RTVSPropertyOp32
 70
     1
102
RTVSPropertyOp33
 70
     1
102
RTVSPropertyOp34
 70
     1
102
RTVSPropertyOp35
 70
     1
102
RTVSPropertyOp36
 70
     1
102
RTVSPropertyOp37
 70
     1
102
RTVSPropertyOp38
 70
     1
102
RTVSPropertyOp39
 70
     1
102
RTVSPropertyOp40
 70
     1
102
RTVSPropertyOp41
 70
     1
102
RTVSPropertyOp42
 70
     1
102
RTVSPropertyOp43
 70
     1
102
RTVSPropertyOp44
 70
     1
102
RTVSPropertyOp45
 70
     1
102
RTVSPropertyOp46
 70
     1
102
RTVSPropertyOp47
 70
     1
102
RTVSPropertyOp48
 70
     1
102
RTVSPropertyOp49
 70
     1
102
RTVSPropertyOp50
 70
     1
102
RTVSPropertyOp51
 70
     0
102
RTVSPropertyOp52
 70
     0
102
RTVSPropertyOp53
 70
     1
102
RTVSPropertyOp54
 70
     1
102
RTVSPropertyOp55
 70
     1
102
RTVSPropertyOp56
 70
     1
102
RTVSPropertyOp57
 70
     1
102
RTVSPost2010Prop28
280
     0
102
RTVSPost2010PropOp28
 70
     1
102
RTVSPost2010Prop29
280
     1
102
RTVSPost2010PropOp29
 70
     1
102
RTVSPost2010Prop30
280
     1
102
RTVSPost2010PropOp30
 70
     1
102
RTVSPost2010Prop31
280
     0
102
RTVSPost2010PropOp31
 70
     1
102
RTVSPost2010Prop32
280
     0
102
RTVSPost2010PropOp32
 70
     1
102
RTVSPost2010Prop33
280
     0
102
RTVSPost2010PropOp33
 70
     1
102
RTVSPost2010Prop34
280
     0
102
RTVSPost2010PropOp34
 70
     1
102
RTVSPost2010Prop35
280
     0
102
RTVSPost2010PropOp35
 70
     1
102
RTVSPost2010Prop36
280
     0
102
RTVSPost2010PropOp36
 70
     1
102
RTVSPost2010Prop37
 90
       50
102
RTVSPost2010PropOp37
 70
     1
102
RTVSPost2010Prop38
140
0.0
102
RTVSPost2010PropOp38
 70
     1
102
RTVSPost2010Prop39
140
1.0
102
RTVSPost2010PropOp39
 70
     1
102
RTVSPost2010Prop40
 90
        0
102
RTVSPost2010PropOp40
 70
     1
102
RTVSPost2010Prop41ColorIndex
 90
       18
102
RTVSPost2010Prop41ColorRGB
 90
        0
102
RTVSPost2010PropOp41
 70
     1
102
RTVSPost2010Prop42
 90
       50
102
RTVSPost2010PropOp42
 70
     1
102
RTVSPost2010Prop43
 90
        3
102
RTVSPost2010PropOp43
 70
     1
102
RTVSPost2010Prop44ColorIndex
 90
        5
102
RTVSPost2010Prop44ColorRGB
 90
      255
102
RTVSPost2010PropOp44
 70
     1
102
RTVSPost2010Prop45
280
     0
102
RTVSPost2010PropOp45
 70
     1
102
RTVSPost2010Prop46
 90
       50
102
RTVSPost2010PropOp46
 70
     1
102
RTVSPost2010Prop47
 90
       50
102
RTVSPost2010PropOp47
 70
     1
102
RTVSPost2010Prop48
 90
       50
102
RTVSPost2010PropOp48
 70
     1
102
RTVSPost2010Prop49
280
     0
102
RTVSPost2010PropOp49
 70
     1
102
RTVSPost2010Prop50
 90
       50
102
RTVSPost2010PropOp50
 70
     1
102
RTVSPost2010Prop51ColorIndex
 90
      256
102
RTVSPost2010Prop51ColorRGB
 90
-16777216
102
RTVSPost2010PropOp51
 70
     0
102
RTVSPost2010Prop52
140
1.0
102
RTVSPost2010PropOp52
 70
     0
102
RTVSPost2010Prop53
 90
        2
102
RTVSPost2010PropOp53
 70
     1
102
RTVSPost2010Prop54
  1
strokes_ogs.tif
102
RTVSPost2010PropOp54
 70
     1
102
RTVSPost2010Prop55
280
     0
102
RTVSPost2010PropOp55
 70
     1
102
RTVSPost2010Prop56
140
1.0
102
RTVSPost2010PropOp56
 70
     1
102
RTVSPost2010Prop57
140
1.0
102
RTVSPost2010PropOp57
 70
     1
  0
XRECORD
  5
145
102
{ACAD_REACTORS
330
144
102
}
330
144
100
AcDbXrecord
280
     1
102
RTVSPropertyOp0
 70
     1
102
RTVSPropertyOp1
 70
     1
102
RTVSPropertyOp2
 70
     1
102
RTVSPropertyOp3
 70
     1
102
RTVSPropertyOp4
 70
     1
102
RTVSPropertyOp5
 70
     1
102
RTVSPropertyOp6
 70
     1
102
RTVSPropertyOp7
 70
     1
102
RTVSPropertyOp8
 70
     1
102
RTVSPropertyOp9
 70
     1
102
RTVSPropertyOp10
 70
     1
102
RTVSPropertyOp11
 70
     1
102
RTVSPropertyOp12
 70
     1
102
RTVSPropertyOp13
 70
     1
102
RTVSPropertyOp14
 70
     1
102
RTVSPropertyOp15
 70
     1
102
RTVSPropertyOp16
 70
     1
102
RTVSPropertyOp17
 70
     1
102
RTVSPropertyOp18
 70
     1
102
RTVSPropertyOp19
 70
     1
102
RTVSPropertyOp20
 70
     1
102
RTVSPropertyOp21
 70
     1
102
RTVSPropertyOp22
 70
     1
102
RTVSPropertyOp23
 70
     1
102
RTVSPropertyOp24
 70
     1
102
RTVSPropertyOp25
 70
     1
102
RTVSPropertyOp26
 70
     1
102
RTVSPropertyOp27
 70
     1
102
RTVSPropertyOp28
 70
     1
102
RTVSPropertyOp29
 70
     1
102
RTVSPropertyOp30
 70
     1
102
RTVSPropertyOp31
 70
     1
102
RTVSPropertyOp32
 70
     1
102
RTVSPropertyOp33
 70
     1
102
RTVSPropertyOp34
 70
     1
102
RTVSPropertyOp35
 70
     1
102
RTVSPropertyOp36
 70
     1
102
RTVSPropertyOp37
 70
     1
102
RTVSPropertyOp38
 70
     1
102
RTVSPropertyOp39
 70
     1
102
RTVSPropertyOp40
 70
     1
102
RTVSPropertyOp41
 70
     1
102
RTVSPropertyOp42
 70
     1
102
RTVSPropertyOp43
 70
     1
102
RTVSPropertyOp44
 70
     1
102
RTVSPropertyOp45
 70
     1
102
RTVSPropertyOp46
 70
     1
102
RTVSPropertyOp47
 70
     1
102
RTVSPropertyOp48
 70
     1
102
RTVSPropertyOp49
 70
     1
102
RTVSPropertyOp50
 70
     1
102
RTVSPropertyOp51
 70
     0
102
RTVSPropertyOp52
 70
     0
102
RTVSPropertyOp53
 70
     1
102
RTVSPropertyOp54
 70
     1
102
RTVSPropertyOp55
 70
     1
102
RTVSPropertyOp56
 70
     1
102
RTVSPropertyOp57
 70
     1
102
RTVSPost2010Prop28
280
     0
102
RTVSPost2010PropOp28
 70
     1
102
RTVSPost2010Prop29
280
     1
102
RTVSPost2010PropOp29
 70
     1
102
RTVSPost2010Prop30
280
     1
102
RTVSPost2010PropOp30
 70
     1
102
RTVSPost2010Prop31
280
     0
102
RTVSPost2010PropOp31
 70
     1
102
RTVSPost2010Prop32
280
     0
102
RTVSPost2010PropOp32
 70
     1
102
RTVSPost2010Prop33
280
     0
102
RTVSPost2010PropOp33
 70
     1
102
RTVSPost2010Prop34
280
     0
102
RTVSPost2010PropOp34
 70
     1
102
RTVSPost2010Prop35
280
     0
102
RTVSPost2010PropOp35
 70
     1
102
RTVSPost2010Prop36
280
     0
102
RTVSPost2010PropOp36
 70
     1
102
RTVSPost2010Prop37
 90
       50
102
RTVSPost2010PropOp37
 70
     1
102
RTVSPost2010Prop38
140
0.0
102
RTVSPost2010PropOp38
 70
     1
102
RTVSPost2010Prop39
140
1.0
102
RTVSPost2010PropOp39
 70
     1
102
RTVSPost2010Prop40
 90
        0
102
RTVSPost2010PropOp40
 70
     1
102
RTVSPost2010Prop41ColorIndex
 90
       18
102
RTVSPost2010Prop41ColorRGB
 90
        0
102
RTVSPost2010PropOp41
 70
     1
102
RTVSPost2010Prop42
 90
       50
102
RTVSPost2010PropOp42
 70
     1
102
RTVSPost2010Prop43
 90
        3
102
RTVSPost2010PropOp43
 70
     1
102
RTVSPost2010Prop44ColorIndex
 90
        5
102
RTVSPost2010Prop44ColorRGB
 90
      255
102
RTVSPost2010PropOp44
 70
     1
102
RTVSPost2010Prop45
280
     0
102
RTVSPost2010PropOp45
 70
     1
102
RTVSPost2010Prop46
 90
       50
102
RTVSPost2010PropOp46
 70
     1
102
RTVSPost2010Prop47
 90
       50
102
RTVSPost2010PropOp47
 70
     1
102
RTVSPost2010Prop48
 90
       50
102
RTVSPost2010PropOp48
 70
     1
102
RTVSPost2010Prop49
280
     0
102
RTVSPost2010PropOp49
 70
     1
102
RTVSPost2010Prop50
 90
       50
102
RTVSPost2010PropOp50
 70
     1
102
RTVSPost2010Prop51ColorIndex
 90
      256
102
RTVSPost2010Prop51ColorRGB
 90
-16777216
102
RTVSPost2010PropOp51
 70
     0
102
RTVSPost2010Prop52
140
1.0
102
RTVSPost2010PropOp52
 70
     0
102
RTVSPost2010Prop53
 90
        2
102
RTVSPost2010PropOp53
 70
     1
102
RTVSPost2010Prop54
  1
strokes_ogs.tif
102
RTVSPost2010PropOp54
 70
     1
102
RTVSPost2010Prop55
280
     0
102
RTVSPost2010PropOp55
 70
     1
102
RTVSPost2010Prop56
140
1.0
102
RTVSPost2010PropOp56
 70
     1
102
RTVSPost2010Prop57
140
1.0
102
RTVSPost2010PropOp57
 70
     1
  0
XRECORD
  5
14B
102
{ACAD_REACTORS
330
14A
102
}
330
14A
100
AcDbXrecord
280
     1
102
RTVSPropertyOp0
 70
     1
102
RTVSPropertyOp1
 70
     1
102
RTVSPropertyOp2
 70
     1
102
RTVSPropertyOp3
 70
     1
102
RTVSPropertyOp4
 70
     1
102
RTVSPropertyOp5
 70
     1
102
RTVSPropertyOp6
 70
     1
102
RTVSPropertyOp7
 70
     1
102
RTVSPropertyOp8
 70
     1
102
RTVSPropertyOp9
 70
     1
102
RTVSPropertyOp10
 70
     1
102
RTVSPropertyOp11
 70
     1
102
RTVSPropertyOp12
 70
     1
102
RTVSPropertyOp13
 70
     1
102
RTVSPropertyOp14
 70
     1
102
RTVSPropertyOp15
 70
     1
102
RTVSPropertyOp16
 70
     1
102
RTVSPropertyOp17
 70
     1
102
RTVSPropertyOp18
 70
     1
102
RTVSPropertyOp19
 70
     1
102
RTVSPropertyOp20
 70
     1
102
RTVSPropertyOp21
 70
     1
102
RTVSPropertyOp22
 70
     1
102
RTVSPropertyOp23
 70
     1
102
RTVSPropertyOp24
 70
     1
102
RTVSPropertyOp25
 70
     1
102
RTVSPropertyOp26
 70
     1
102
RTVSPropertyOp27
 70
     1
102
RTVSPropertyOp28
 70
     1
102
RTVSPropertyOp29
 70
     1
102
RTVSPropertyOp30
 70
     1
102
RTVSPropertyOp31
 70
     1
102
RTVSPropertyOp32
 70
     1
102
RTVSPropertyOp33
 70
     1
102
RTVSPropertyOp34
 70
     1
102
RTVSPropertyOp35
 70
     1
102
RTVSPropertyOp36
 70
     1
102
RTVSPropertyOp37
 70
     1
102
RTVSPropertyOp38
 70
     1
102
RTVSPropertyOp39
 70
     1
102
RTVSPropertyOp40
 70
     1
102
RTVSPropertyOp41
 70
     1
102
RTVSPropertyOp42
 70
     1
102
RTVSPropertyOp43
 70
     1
102
RTVSPropertyOp44
 70
     1
102
RTVSPropertyOp45
 70
     1
102
RTVSPropertyOp46
 70
     1
102
RTVSPropertyOp47
 70
     1
102
RTVSPropertyOp48
 70
     1
102
RTVSPropertyOp49
 70
     1
102
RTVSPropertyOp50
 70
     1
102
RTVSPropertyOp51
 70
     0
102
RTVSPropertyOp52
 70
     0
102
RTVSPropertyOp53
 70
     1
102
RTVSPropertyOp54
 70
     1
102
RTVSPropertyOp55
 70
     1
102
RTVSPropertyOp56
 70
     1
102
RTVSPropertyOp57
 70
     1
102
RTVSPost2010Prop28
280
     0
102
RTVSPost2010PropOp28
 70
     1
102
RTVSPost2010Prop29
280
     1
102
RTVSPost2010PropOp29
 70
     1
102
RTVSPost2010Prop30
280
     1
102
RTVSPost2010PropOp30
 70
     1
102
RTVSPost2010Prop31
280
     0
102
RTVSPost2010PropOp31
 70
     1
102
RTVSPost2010Prop32
280
     0
102
RTVSPost2010PropOp32
 70
     1
102
RTVSPost2010Prop33
280
     0
102
RTVSPost2010PropOp33
 70
     1
102
RTVSPost2010Prop34
280
     0
102
RTVSPost2010PropOp34
 70
     1
102
RTVSPost2010Prop35
280
     0
102
RTVSPost2010PropOp35
 70
     1
102
RTVSPost2010Prop36
280
     0
102
RTVSPost2010PropOp36
 70
     1
102
RTVSPost2010Prop37
 90
       50
102
RTVSPost2010PropOp37
 70
     1
102
RTVSPost2010Prop38
140
0.0
102
RTVSPost2010PropOp38
 70
     1
102
RTVSPost2010Prop39
140
1.0
102
RTVSPost2010PropOp39
 70
     1
102
RTVSPost2010Prop40
 90
        0
102
RTVSPost2010PropOp40
 70
     1
102
RTVSPost2010Prop41ColorIndex
 90
       18
102
RTVSPost2010Prop41ColorRGB
 90
        0
102
RTVSPost2010PropOp41
 70
     1
102
RTVSPost2010Prop42
 90
       50
102
RTVSPost2010PropOp42
 70
     1
102
RTVSPost2010Prop43
 90
        3
102
RTVSPost2010PropOp43
 70
     1
102
RTVSPost2010Prop44ColorIndex
 90
        5
102
RTVSPost2010Prop44ColorRGB
 90
      255
102
RTVSPost2010PropOp44
 70
     1
102
RTVSPost2010Prop45
280
     0
102
RTVSPost2010PropOp45
 70
     1
102
RTVSPost2010Prop46
 90
       50
102
RTVSPost2010PropOp46
 70
     1
102
RTVSPost2010Prop47
 90
       50
102
RTVSPost2010PropOp47
 70
     1
102
RTVSPost2010Prop48
 90
       50
102
RTVSPost2010PropOp48
 70
     1
102
RTVSPost2010Prop49
280
     0
102
RTVSPost2010PropOp49
 70
     1
102
RTVSPost2010Prop50
 90
       50
102
RTVSPost2010PropOp50
 70
     1
102
RTVSPost2010Prop51ColorIndex
 90
      256
102
RTVSPost2010Prop51ColorRGB
 90
-16777216
102
RTVSPost2010PropOp51
 70
     0
102
RTVSPost2010Prop52
140
1.0
102
RTVSPost2010PropOp52
 70
     0
102
RTVSPost2010Prop53
 90
        2
102
RTVSPost2010PropOp53
 70
     1
102
RTVSPost2010Prop54
  1
strokes_ogs.tif
102
RTVSPost2010PropOp54
 70
     1
102
RTVSPost2010Prop55
280
     0
102
RTVSPost2010PropOp55
 70
     1
102
RTVSPost2010Prop56
140
1.0
102
RTVSPost2010PropOp56
 70
     1
102
RTVSPost2010Prop57
140
1.0
102
RTVSPost2010PropOp57
 70
     1
  0
XRECORD
  5
15F
102
{ACAD_REACTORS
330
15E
102
}
330
15E
100
AcDbXrecord
280
     1
102
RTVSPropertyOp0
 70
     0
102
RTVSPropertyOp1
 70
     0
102
RTVSPropertyOp2
 70
     0
102
RTVSPropertyOp3
 70
     0
102
RTVSPropertyOp4
 70
     0
102
RTVSPropertyOp5
 70
     0
102
RTVSPropertyOp6
 70
     0
102
RTVSPropertyOp7
 70
     0
102
RTVSPropertyOp8
 70
     0
102
RTVSPropertyOp9
 70
     0
102
RTVSPropertyOp10
 70
     0
102
RTVSPropertyOp11
 70
     0
102
RTVSPropertyOp12
 70
     0
102
RTVSPropertyOp13
 70
     0
102
RTVSPropertyOp14
 70
     2
102
RTVSPropertyOp15
 70
     0
102
RTVSPropertyOp16
 70
     0
102
RTVSPropertyOp17
 70
     0
102
RTVSPropertyOp18
 70
     0
102
RTVSPropertyOp19
 70
     0
102
RTVSPropertyOp20
 70
     0
102
RTVSPropertyOp21
 70
     0
102
RTVSPropertyOp22
 70
     0
102
RTVSPropertyOp23
 70
     0
102
RTVSPropertyOp24
 70
     0
102
RTVSPropertyOp25
 70
     0
102
RTVSPropertyOp26
 70
     0
102
RTVSPropertyOp27
 70
     0
102
RTVSPropertyOp28
 70
     0
102
RTVSPropertyOp29
 70
     0
102
RTVSPropertyOp30
 70
     0
102
RTVSPropertyOp31
 70
     0
102
RTVSPropertyOp32
 70
     0
102
RTVSPropertyOp33
 70
     0
102
RTVSPropertyOp34
 70
     0
102
RTVSPropertyOp35
 70
     0
102
RTVSPropertyOp36
 70
     0
102
RTVSPropertyOp37
 70
     0
102
RTVSPropertyOp38
 70
     0
102
RTVSPropertyOp39
 70
     0
102
RTVSPropertyOp40
 70
     0
102
RTVSPropertyOp41
 70
     0
102
RTVSPropertyOp42
 70
     0
102
RTVSPropertyOp43
 70
     0
102
RTVSPropertyOp44
 70
     0
102
RTVSPropertyOp45
 70
     0
102
RTVSPropertyOp46
 70
     0
102
RTVSPropertyOp47
 70
     0
102
RTVSPropertyOp48
 70
     0
102
RTVSPropertyOp49
 70
     0
102
RTVSPropertyOp50
 70
     0
102
RTVSPropertyOp51
 70
     0
102
RTVSPropertyOp52
 70
     0
102
RTVSPropertyOp53
 70
     0
102
RTVSPropertyOp54
 70
     0
102
RTVSPropertyOp55
 70
     0
102
RTVSPropertyOp56
 70
     0
102
RTVSPropertyOp57
 70
     0
102
RTVSPost2010Prop28
280
     0
102
RTVSPost2010PropOp28
 70
     0
102
RTVSPost2010Prop29
280
     1
102
RTVSPost2010PropOp29
 70
     0
102
RTVSPost2010Prop30
280
     1
102
RTVSPost2010PropOp30
 70
     0
102
RTVSPost2010Prop31
280
     0
102
RTVSPost2010PropOp31
 70
     0
102
RTVSPost2010Prop32
280
     0
102
RTVSPost2010PropOp32
 70
     0
102
RTVSPost2010Prop33
280
     0
102
RTVSPost2010PropOp33
 70
     0
102
RTVSPost2010Prop34
280
     0
102
RTVSPost2010PropOp34
 70
     0
102
RTVSPost2010Prop35
280
     0
102
RTVSPost2010PropOp35
 70
     0
102
RTVSPost2010Prop36
280
     0
102
RTVSPost2010PropOp36
 70
     0
102
RTVSPost2010Prop37
 90
       50
102
RTVSPost2010PropOp37
 70
     0
102
RTVSPost2010Prop38
140
0.0
102
RTVSPost2010PropOp38
 70
     0
102
RTVSPost2010Prop39
140
1.0
102
RTVSPost2010PropOp39
 70
     0
102
RTVSPost2010Prop40
 90
        0
102
RTVSPost2010PropOp40
 70
     0
102
RTVSPost2010Prop41ColorIndex
 90
       18
102
RTVSPost2010Prop41ColorRGB
 90
        0
102
RTVSPost2010PropOp41
 70
     0
102
RTVSPost2010Prop42
 90
       50
102
RTVSPost2010PropOp42
 70
     0
102
RTVSPost2010Prop43
 90
        3
102
RTVSPost2010PropOp43
 70
     0
102
RTVSPost2010Prop44ColorIndex
 90
        5
102
RTVSPost2010Prop44ColorRGB
 90
      255
102
RTVSPost2010PropOp44
 70
     0
102
RTVSPost2010Prop45
280
     0
102
RTVSPost2010PropOp45
 70
     0
102
RTVSPost2010Prop46
 90
       50
102
RTVSPost2010PropOp46
 70
     0
102
RTVSPost2010Prop47
 90
       50
102
RTVSPost2010PropOp47
 70
     0
102
RTVSPost2010Prop48
 90
       50
102
RTVSPost2010PropOp48
 70
     0
102
RTVSPost2010Prop49
280
     0
102
RTVSPost2010PropOp49
 70
     0
102
RTVSPost2010Prop50
 90
       50
102
RTVSPost2010PropOp50
 70
     0
102
RTVSPost2010Prop51ColorIndex
 90
      256
102
RTVSPost2010Prop51ColorRGB
 90
-16777216
102
RTVSPost2010PropOp51
 70
     0
102
RTVSPost2010Prop52
140
1.0
102
RTVSPost2010PropOp52
 70
     0
102
RTVSPost2010Prop53
 90
        2
102
RTVSPost2010PropOp53
 70
     0
102
RTVSPost2010Prop54
  1
strokes_ogs.tif
102
RTVSPost2010PropOp54
 70
     0
102
RTVSPost2010Prop55
280
     0
102
RTVSPost2010PropOp55
 70
     0
102
RTVSPost2010Prop56
140
1.0
102
RTVSPost2010PropOp56
 70
     0
102
RTVSPost2010Prop57
140
1.0
102
RTVSPost2010PropOp57
 70
     0
  0
XRECORD
  5
159
102
{ACAD_REACTORS
330
158
102
}
330
158
100
AcDbXrecord
280
     1
102
RTVSPropertyOp0
 70
     1
102
RTVSPropertyOp1
 70
     1
102
RTVSPropertyOp2
 70
     1
102
RTVSPropertyOp3
 70
     1
102
RTVSPropertyOp4
 70
     1
102
RTVSPropertyOp5
 70
     1
102
RTVSPropertyOp6
 70
     1
102
RTVSPropertyOp7
 70
     1
102
RTVSPropertyOp8
 70
     1
102
RTVSPropertyOp9
 70
     1
102
RTVSPropertyOp10
 70
     1
102
RTVSPropertyOp11
 70
     1
102
RTVSPropertyOp12
 70
     1
102
RTVSPropertyOp13
 70
     1
102
RTVSPropertyOp14
 70
     1
102
RTVSPropertyOp15
 70
     1
102
RTVSPropertyOp16
 70
     1
102
RTVSPropertyOp17
 70
     1
102
RTVSPropertyOp18
 70
     1
102
RTVSPropertyOp19
 70
     1
102
RTVSPropertyOp20
 70
     1
102
RTVSPropertyOp21
 70
     1
102
RTVSPropertyOp22
 70
     1
102
RTVSPropertyOp23
 70
     1
102
RTVSPropertyOp24
 70
     1
102
RTVSPropertyOp25
 70
     1
102
RTVSPropertyOp26
 70
     1
102
RTVSPropertyOp27
 70
     1
102
RTVSPropertyOp28
 70
     1
102
RTVSPropertyOp29
 70
     1
102
RTVSPropertyOp30
 70
     1
102
RTVSPropertyOp31
 70
     1
102
RTVSPropertyOp32
 70
     1
102
RTVSPropertyOp33
 70
     1
102
RTVSPropertyOp34
 70
     1
102
RTVSPropertyOp35
 70
     1
102
RTVSPropertyOp36
 70
     1
102
RTVSPropertyOp37
 70
     1
102
RTVSPropertyOp38
 70
     1
102
RTVSPropertyOp39
 70
     1
102
RTVSPropertyOp40
 70
     1
102
RTVSPropertyOp41
 70
     1
102
RTVSPropertyOp42
 70
     1
102
RTVSPropertyOp43
 70
     1
102
RTVSPropertyOp44
 70
     1
102
RTVSPropertyOp45
 70
     1
102
RTVSPropertyOp46
 70
     1
102
RTVSPropertyOp47
 70
     1
102
RTVSPropertyOp48
 70
     1
102
RTVSPropertyOp49
 70
     1
102
RTVSPropertyOp50
 70
     1
102
RTVSPropertyOp51
 70
     0
102
RTVSPropertyOp52
 70
     0
102
RTVSPropertyOp53
 70
     1
102
RTVSPropertyOp54
 70
     1
102
RTVSPropertyOp55
 70
     1
102
RTVSPropertyOp56
 70
     1
102
RTVSPropertyOp57
 70
     1
102
RTVSPost2010Prop28
280
     0
102
RTVSPost2010PropOp28
 70
     1
102
RTVSPost2010Prop29
280
     1
102
RTVSPost2010PropOp29
 70
     1
102
RTVSPost2010Prop30
280
     1
102
RTVSPost2010PropOp30
 70
     1
102
RTVSPost2010Prop31
280
     0
102
RTVSPost2010PropOp31
 70
     1
102
RTVSPost2010Prop32
280
     0
102
RTVSPost2010PropOp32
 70
     1
102
RTVSPost2010Prop33
280
     0
102
RTVSPost2010PropOp33
 70
     1
102
RTVSPost2010Prop34
280
     0
102
RTVSPost2010PropOp34
 70
     1
102
RTVSPost2010Prop35
280
     0
102
RTVSPost2010PropOp35
 70
     1
102
RTVSPost2010Prop36
280
     0
102
RTVSPost2010PropOp36
 70
     1
102
RTVSPost2010Prop37
 90
       50
102
RTVSPost2010PropOp37
 70
     1
102
RTVSPost2010Prop38
140
0.0
102
RTVSPost2010PropOp38
 70
     1
102
RTVSPost2010Prop39
140
1.0
102
RTVSPost2010PropOp39
 70
     1
102
RTVSPost2010Prop40
 90
        0
102
RTVSPost2010PropOp40
 70
     1
102
RTVSPost2010Prop41ColorIndex
 90
       18
102
RTVSPost2010Prop41ColorRGB
 90
        0
102
RTVSPost2010PropOp41
 70
     1
102
RTVSPost2010Prop42
 90
       50
102
RTVSPost2010PropOp42
 70
     1
102
RTVSPost2010Prop43
 90
        3
102
RTVSPost2010PropOp43
 70
     1
102
RTVSPost2010Prop44ColorIndex
 90
        5
102
RTVSPost2010Prop44ColorRGB
 90
      255
102
RTVSPost2010PropOp44
 70
     1
102
RTVSPost2010Prop45
280
     0
102
RTVSPost2010PropOp45
 70
     1
102
RTVSPost2010Prop46
 90
       50
102
RTVSPost2010PropOp46
 70
     1
102
RTVSPost2010Prop47
 90
       50
102
RTVSPost2010PropOp47
 70
     1
102
RTVSPost2010Prop48
 90
       50
102
RTVSPost2010PropOp48
 70
     1
102
RTVSPost2010Prop49
280
     0
102
RTVSPost2010PropOp49
 70
     1
102
RTVSPost2010Prop50
 90
       50
102
RTVSPost2010PropOp50
 70
     1
102
RTVSPost2010Prop51ColorIndex
 90
      256
102
RTVSPost2010Prop51ColorRGB
 90
-16777216
102
RTVSPost2010PropOp51
 70
     0
102
RTVSPost2010Prop52
140
1.0
102
RTVSPost2010PropOp52
 70
     0
102
RTVSPost2010Prop53
 90
        2
102
RTVSPost2010PropOp53
 70
     1
102
RTVSPost2010Prop54
  1
strokes_ogs.tif
102
RTVSPost2010PropOp54
 70
     1
102
RTVSPost2010Prop55
280
     0
102
RTVSPost2010PropOp55
 70
     1
102
RTVSPost2010Prop56
140
1.0
102
RTVSPost2010PropOp56
 70
     1
102
RTVSPost2010Prop57
140
1.0
102
RTVSPost2010PropOp57
 70
     1
  0
XRECORD
  5
161
102
{ACAD_REACTORS
330
160
102
}
330
160
100
AcDbXrecord
280
     1
102
RTVSPropertyOp0
 70
     0
102
RTVSPropertyOp1
 70
     0
102
RTVSPropertyOp2
 70
     0
102
RTVSPropertyOp3
 70
     0
102
RTVSPropertyOp4
 70
     0
102
RTVSPropertyOp5
 70
     0
102
RTVSPropertyOp6
 70
     0
102
RTVSPropertyOp7
 70
     0
102
RTVSPropertyOp8
 70
     0
102
RTVSPropertyOp9
 70
     0
102
RTVSPropertyOp10
 70
     0
102
RTVSPropertyOp11
 70
     0
102
RTVSPropertyOp12
 70
     0
102
RTVSPropertyOp13
 70
     0
102
RTVSPropertyOp14
 70
     2
102
RTVSPropertyOp15
 70
     0
102
RTVSPropertyOp16
 70
     0
102
RTVSPropertyOp17
 70
     0
102
RTVSPropertyOp18
 70
     0
102
RTVSPropertyOp19
 70
     0
102
RTVSPropertyOp20
 70
     0
102
RTVSPropertyOp21
 70
     0
102
RTVSPropertyOp22
 70
     0
102
RTVSPropertyOp23
 70
     0
102
RTVSPropertyOp24
 70
     0
102
RTVSPropertyOp25
 70
     0
102
RTVSPropertyOp26
 70
     0
102
RTVSPropertyOp27
 70
     0
102
RTVSPropertyOp28
 70
     0
102
RTVSPropertyOp29
 70
     0
102
RTVSPropertyOp30
 70
     0
102
RTVSPropertyOp31
 70
     0
102
RTVSPropertyOp32
 70
     0
102
RTVSPropertyOp33
 70
     0
102
RTVSPropertyOp34
 70
     0
102
RTVSPropertyOp35
 70
     0
102
RTVSPropertyOp36
 70
     0
102
RTVSPropertyOp37
 70
     0
102
RTVSPropertyOp38
 70
     0
102
RTVSPropertyOp39
 70
     0
102
RTVSPropertyOp40
 70
     0
102
RTVSPropertyOp41
 70
     0
102
RTVSPropertyOp42
 70
     0
102
RTVSPropertyOp43
 70
     0
102
RTVSPropertyOp44
 70
     0
102
RTVSPropertyOp45
 70
     0
102
RTVSPropertyOp46
 70
     0
102
RTVSPropertyOp47
 70
     0
102
RTVSPropertyOp48
 70
     0
102
RTVSPropertyOp49
 70
     0
102
RTVSPropertyOp50
 70
     0
102
RTVSPropertyOp51
 70
     0
102
RTVSPropertyOp52
 70
     0
102
RTVSPropertyOp53
 70
     0
102
RTVSPropertyOp54
 70
     0
102
RTVSPropertyOp55
 70
     0
102
RTVSPropertyOp56
 70
     0
102
RTVSPropertyOp57
 70
     0
102
RTVSPost2010Prop28
280
     0
102
RTVSPost2010PropOp28
 70
     0
102
RTVSPost2010Prop29
280
     1
102
RTVSPost2010PropOp29
 70
     0
102
RTVSPost2010Prop30
280
     1
102
RTVSPost2010PropOp30
 70
     0
102
RTVSPost2010Prop31
280
     0
102
RTVSPost2010PropOp31
 70
     0
102
RTVSPost2010Prop32
280
     0
102
RTVSPost2010PropOp32
 70
     0
102
RTVSPost2010Prop33
280
     0
102
RTVSPost2010PropOp33
 70
     0
102
RTVSPost2010Prop34
280
     0
102
RTVSPost2010PropOp34
 70
     0
102
RTVSPost2010Prop35
280
     0
102
RTVSPost2010PropOp35
 70
     0
102
RTVSPost2010Prop36
280
     0
102
RTVSPost2010PropOp36
 70
     0
102
RTVSPost2010Prop37
 90
       50
102
RTVSPost2010PropOp37
 70
     0
102
RTVSPost2010Prop38
140
0.0
102
RTVSPost2010PropOp38
 70
     0
102
RTVSPost2010Prop39
140
1.0
102
RTVSPost2010PropOp39
 70
     0
102
RTVSPost2010Prop40
 90
        0
102
RTVSPost2010PropOp40
 70
     0
102
RTVSPost2010Prop41ColorIndex
 90
       18
102
RTVSPost2010Prop41ColorRGB
 90
        0
102
RTVSPost2010PropOp41
 70
     0
102
RTVSPost2010Prop42
 90
       50
102
RTVSPost2010PropOp42
 70
     0
102
RTVSPost2010Prop43
 90
        3
102
RTVSPost2010PropOp43
 70
     0
102
RTVSPost2010Prop44ColorIndex
 90
        5
102
RTVSPost2010Prop44ColorRGB
 90
      255
102
RTVSPost2010PropOp44
 70
     0
102
RTVSPost2010Prop45
280
     0
102
RTVSPost2010PropOp45
 70
     0
102
RTVSPost2010Prop46
 90
       50
102
RTVSPost2010PropOp46
 70
     0
102
RTVSPost2010Prop47
 90
       50
102
RTVSPost2010PropOp47
 70
     0
102
RTVSPost2010Prop48
 90
       50
102
RTVSPost2010PropOp48
 70
     0
102
RTVSPost2010Prop49
280
     0
102
RTVSPost2010PropOp49
 70
     0
102
RTVSPost2010Prop50
 90
       50
102
RTVSPost2010PropOp50
 70
     0
102
RTVSPost2010Prop51ColorIndex
 90
      256
102
RTVSPost2010Prop51ColorRGB
 90
-16777216
102
RTVSPost2010PropOp51
 70
     0
102
RTVSPost2010Prop52
140
1.0
102
RTVSPost2010PropOp52
 70
     0
102
RTVSPost2010Prop53
 90
        2
102
RTVSPost2010PropOp53
 70
     0
102
RTVSPost2010Prop54
  1
strokes_ogs.tif
102
RTVSPost2010PropOp54
 70
     0
102
RTVSPost2010Prop55
280
     0
102
RTVSPost2010PropOp55
 70
     0
102
RTVSPost2010Prop56
140
1.0
102
RTVSPost2010PropOp56
 70
     0
102
RTVSPost2010Prop57
140
1.0
102
RTVSPost2010PropOp57
 70
     0
  0
XRECORD
  5
14F
102
{ACAD_REACTORS
330
14E
102
}
330
14E
100
AcDbXrecord
280
     1
102
RTVSPropertyOp0
 70
     1
102
RTVSPropertyOp1
 70
     1
102
RTVSPropertyOp2
 70
     1
102
RTVSPropertyOp3
 70
     1
102
RTVSPropertyOp4
 70
     1
102
RTVSPropertyOp5
 70
     1
102
RTVSPropertyOp6
 70
     1
102
RTVSPropertyOp7
 70
     1
102
RTVSPropertyOp8
 70
     1
102
RTVSPropertyOp9
 70
     1
102
RTVSPropertyOp10
 70
     1
102
RTVSPropertyOp11
 70
     1
102
RTVSPropertyOp12
 70
     1
102
RTVSPropertyOp13
 70
     1
102
RTVSPropertyOp14
 70
     1
102
RTVSPropertyOp15
 70
     1
102
RTVSPropertyOp16
 70
     1
102
RTVSPropertyOp17
 70
     1
102
RTVSPropertyOp18
 70
     1
102
RTVSPropertyOp19
 70
     1
102
RTVSPropertyOp20
 70
     1
102
RTVSPropertyOp21
 70
     1
102
RTVSPropertyOp22
 70
     1
102
RTVSPropertyOp23
 70
     1
102
RTVSPropertyOp24
 70
     1
102
RTVSPropertyOp25
 70
     1
102
RTVSPropertyOp26
 70
     1
102
RTVSPropertyOp27
 70
     1
102
RTVSPropertyOp28
 70
     1
102
RTVSPropertyOp29
 70
     1
102
RTVSPropertyOp30
 70
     1
102
RTVSPropertyOp31
 70
     1
102
RTVSPropertyOp32
 70
     1
102
RTVSPropertyOp33
 70
     1
102
RTVSPropertyOp34
 70
     1
102
RTVSPropertyOp35
 70
     1
102
RTVSPropertyOp36
 70
     1
102
RTVSPropertyOp37
 70
     1
102
RTVSPropertyOp38
 70
     1
102
RTVSPropertyOp39
 70
     1
102
RTVSPropertyOp40
 70
     1
102
RTVSPropertyOp41
 70
     1
102
RTVSPropertyOp42
 70
     1
102
RTVSPropertyOp43
 70
     1
102
RTVSPropertyOp44
 70
     1
102
RTVSPropertyOp45
 70
     1
102
RTVSPropertyOp46
 70
     1
102
RTVSPropertyOp47
 70
     1
102
RTVSPropertyOp48
 70
     1
102
RTVSPropertyOp49
 70
     1
102
RTVSPropertyOp50
 70
     1
102
RTVSPropertyOp51
 70
     0
102
RTVSPropertyOp52
 70
     0
102
RTVSPropertyOp53
 70
     1
102
RTVSPropertyOp54
 70
     1
102
RTVSPropertyOp55
 70
     1
102
RTVSPropertyOp56
 70
     1
102
RTVSPropertyOp57
 70
     1
102
RTVSPost2010Prop28
280
     0
102
RTVSPost2010PropOp28
 70
     1
102
RTVSPost2010Prop29
280
     1
102
RTVSPost2010PropOp29
 70
     1
102
RTVSPost2010Prop30
280
     1
102
RTVSPost2010PropOp30
 70
     1
102
RTVSPost2010Prop31
280
     0
102
RTVSPost2010PropOp31
 70
     1
102
RTVSPost2010Prop32
280
     0
102
RTVSPost2010PropOp32
 70
     1
102
RTVSPost2010Prop33
280
     0
102
RTVSPost2010PropOp33
 70
     1
102
RTVSPost2010Prop34
280
     0
102
RTVSPost2010PropOp34
 70
     1
102
RTVSPost2010Prop35
280
     0
102
RTVSPost2010PropOp35
 70
     1
102
RTVSPost2010Prop36
280
     0
102
RTVSPost2010PropOp36
 70
     1
102
RTVSPost2010Prop37
 90
       50
102
RTVSPost2010PropOp37
 70
     1
102
RTVSPost2010Prop38
140
0.0
102
RTVSPost2010PropOp38
 70
     1
102
RTVSPost2010Prop39
140
1.0
102
RTVSPost2010PropOp39
 70
     1
102
RTVSPost2010Prop40
 90
        0
102
RTVSPost2010PropOp40
 70
     1
102
RTVSPost2010Prop41ColorIndex
 90
       18
102
RTVSPost2010Prop41ColorRGB
 90
        0
102
RTVSPost2010PropOp41
 70
     1
102
RTVSPost2010Prop42
 90
       50
102
RTVSPost2010PropOp42
 70
     1
102
RTVSPost2010Prop43
 90
        3
102
RTVSPost2010PropOp43
 70
     1
102
RTVSPost2010Prop44ColorIndex
 90
        5
102
RTVSPost2010Prop44ColorRGB
 90
      255
102
RTVSPost2010PropOp44
 70
     1
102
RTVSPost2010Prop45
280
     0
102
RTVSPost2010PropOp45
 70
     1
102
RTVSPost2010Prop46
 90
       50
102
RTVSPost2010PropOp46
 70
     1
102
RTVSPost2010Prop47
 90
       50
102
RTVSPost2010PropOp47
 70
     1
102
RTVSPost2010Prop48
 90
       50
102
RTVSPost2010PropOp48
 70
     1
102
RTVSPost2010Prop49
280
     0
102
RTVSPost2010PropOp49
 70
     1
102
RTVSPost2010Prop50
 90
       50
102
RTVSPost2010PropOp50
 70
     1
102
RTVSPost2010Prop51ColorIndex
 90
      256
102
RTVSPost2010Prop51ColorRGB
 90
-16777216
102
RTVSPost2010PropOp51
 70
     0
102
RTVSPost2010Prop52
140
1.0
102
RTVSPost2010PropOp52
 70
     0
102
RTVSPost2010Prop53
 90
        2
102
RTVSPost2010PropOp53
 70
     1
102
RTVSPost2010Prop54
  1
strokes_ogs.tif
102
RTVSPost2010PropOp54
 70
     1
102
RTVSPost2010Prop55
280
     0
102
RTVSPost2010PropOp55
 70
     1
102
RTVSPost2010Prop56
140
1.0
102
RTVSPost2010PropOp56
 70
     1
102
RTVSPost2010Prop57
140
1.0
102
RTVSPost2010PropOp57
 70
     1
  0
XRECORD
  5
16D
102
{ACAD_REACTORS
330
16C
102
}
330
16C
100
AcDbXrecord
280
     1
102
RTVSPropertyOp0
 70
     1
102
RTVSPropertyOp1
 70
     1
102
RTVSPropertyOp2
 70
     1
102
RTVSPropertyOp3
 70
     1
102
RTVSPropertyOp4
 70
     1
102
RTVSPropertyOp5
 70
     1
102
RTVSPropertyOp6
 70
     1
102
RTVSPropertyOp7
 70
     1
102
RTVSPropertyOp8
 70
     1
102
RTVSPropertyOp9
 70
     1
102
RTVSPropertyOp10
 70
     1
102
RTVSPropertyOp11
 70
     1
102
RTVSPropertyOp12
 70
     1
102
RTVSPropertyOp13
 70
     1
102
RTVSPropertyOp14
 70
     1
102
RTVSPropertyOp15
 70
     1
102
RTVSPropertyOp16
 70
     1
102
RTVSPropertyOp17
 70
     1
102
RTVSPropertyOp18
 70
     1
102
RTVSPropertyOp19
 70
     1
102
RTVSPropertyOp20
 70
     1
102
RTVSPropertyOp21
 70
     1
102
RTVSPropertyOp22
 70
     1
102
RTVSPropertyOp23
 70
     1
102
RTVSPropertyOp24
 70
     1
102
RTVSPropertyOp25
 70
     1
102
RTVSPropertyOp26
 70
     1
102
RTVSPropertyOp27
 70
     1
102
RTVSPropertyOp28
 70
     1
102
RTVSPropertyOp29
 70
     1
102
RTVSPropertyOp30
 70
     1
102
RTVSPropertyOp31
 70
     1
102
RTVSPropertyOp32
 70
     1
102
RTVSPropertyOp33
 70
     1
102
RTVSPropertyOp34
 70
     1
102
RTVSPropertyOp35
 70
     1
102
RTVSPropertyOp36
 70
     1
102
RTVSPropertyOp37
 70
     1
102
RTVSPropertyOp38
 70
     1
102
RTVSPropertyOp39
 70
     1
102
RTVSPropertyOp40
 70
     1
102
RTVSPropertyOp41
 70
     1
102
RTVSPropertyOp42
 70
     1
102
RTVSPropertyOp43
 70
     1
102
RTVSPropertyOp44
 70
     1
102
RTVSPropertyOp45
 70
     1
102
RTVSPropertyOp46
 70
     1
102
RTVSPropertyOp47
 70
     1
102
RTVSPropertyOp48
 70
     1
102
RTVSPropertyOp49
 70
     1
102
RTVSPropertyOp50
 70
     1
102
RTVSPropertyOp51
 70
     0
102
RTVSPropertyOp52
 70
     0
102
RTVSPropertyOp53
 70
     1
102
RTVSPropertyOp54
 70
     1
102
RTVSPropertyOp55
 70
     1
102
RTVSPropertyOp56
 70
     1
102
RTVSPropertyOp57
 70
     1
102
RTVSPost2010Prop28
280
     0
102
RTVSPost2010PropOp28
 70
     1
102
RTVSPost2010Prop29
280
     1
102
RTVSPost2010PropOp29
 70
     1
102
RTVSPost2010Prop30
280
     1
102
RTVSPost2010PropOp30
 70
     1
102
RTVSPost2010Prop31
280
     0
102
RTVSPost2010PropOp31
 70
     1
102
RTVSPost2010Prop32
280
     0
102
RTVSPost2010PropOp32
 70
     1
102
RTVSPost2010Prop33
280
     0
102
RTVSPost2010PropOp33
 70
     1
102
RTVSPost2010Prop34
280
     0
102
RTVSPost2010PropOp34
 70
     1
102
RTVSPost2010Prop35
280
     0
102
RTVSPost2010PropOp35
 70
     1
102
RTVSPost2010Prop36
280
     0
102
RTVSPost2010PropOp36
 70
     1
102
RTVSPost2010Prop37
 90
       50
102
RTVSPost2010PropOp37
 70
     1
102
RTVSPost2010Prop38
140
0.0
102
RTVSPost2010PropOp38
 70
     1
102
RTVSPost2010Prop39
140
1.0
102
RTVSPost2010PropOp39
 70
     1
102
RTVSPost2010Prop40
 90
        0
102
RTVSPost2010PropOp40
 70
     1
102
RTVSPost2010Prop41ColorIndex
 90
       18
102
RTVSPost2010Prop41ColorRGB
 90
        0
102
RTVSPost2010PropOp41
 70
     1
102
RTVSPost2010Prop42
 90
       50
102
RTVSPost2010PropOp42
 70
     1
102
RTVSPost2010Prop43
 90
        3
102
RTVSPost2010PropOp43
 70
     1
102
RTVSPost2010Prop44ColorIndex
 90
        5
102
RTVSPost2010Prop44ColorRGB
 90
      255
102
RTVSPost2010PropOp44
 70
     1
102
RTVSPost2010Prop45
280
     0
102
RTVSPost2010PropOp45
 70
     1
102
RTVSPost2010Prop46
 90
       50
102
RTVSPost2010PropOp46
 70
     1
102
RTVSPost2010Prop47
 90
       50
102
RTVSPost2010PropOp47
 70
     1
102
RTVSPost2010Prop48
 90
       50
102
RTVSPost2010PropOp48
 70
     1
102
RTVSPost2010Prop49
280
     0
102
RTVSPost2010PropOp49
 70
     1
102
RTVSPost2010Prop50
 90
       50
102
RTVSPost2010PropOp50
 70
     1
102
RTVSPost2010Prop51ColorIndex
 90
      256
102
RTVSPost2010Prop51ColorRGB
 90
-16777216
102
RTVSPost2010PropOp51
 70
     0
102
RTVSPost2010Prop52
140
1.0
102
RTVSPost2010PropOp52
 70
     0
102
RTVSPost2010Prop53
 90
        2
102
RTVSPost2010PropOp53
 70
     1
102
RTVSPost2010Prop54
  1
strokes_ogs.tif
102
RTVSPost2010PropOp54
 70
     1
102
RTVSPost2010Prop55
280
     0
102
RTVSPost2010PropOp55
 70
     1
102
RTVSPost2010Prop56
140
1.0
102
RTVSPost2010PropOp56
 70
     1
102
RTVSPost2010Prop57
140
1.0
102
RTVSPost2010PropOp57
 70
     1
  0
XRECORD
  5
16B
102
{ACAD_REACTORS
330
16A
102
}
330
16A
100
AcDbXrecord
280
     1
102
RTVSPropertyOp0
 70
     1
102
RTVSPropertyOp1
 70
     1
102
RTVSPropertyOp2
 70
     1
102
RTVSPropertyOp3
 70
     1
102
RTVSPropertyOp4
 70
     1
102
RTVSPropertyOp5
 70
     1
102
RTVSPropertyOp6
 70
     1
102
RTVSPropertyOp7
 70
     1
102
RTVSPropertyOp8
 70
     1
102
RTVSPropertyOp9
 70
     1
102
RTVSPropertyOp10
 70
     1
102
RTVSPropertyOp11
 70
     1
102
RTVSPropertyOp12
 70
     1
102
RTVSPropertyOp13
 70
     1
102
RTVSPropertyOp14
 70
     1
102
RTVSPropertyOp15
 70
     1
102
RTVSPropertyOp16
 70
     1
102
RTVSPropertyOp17
 70
     1
102
RTVSPropertyOp18
 70
     1
102
RTVSPropertyOp19
 70
     1
102
RTVSPropertyOp20
 70
     1
102
RTVSPropertyOp21
 70
     1
102
RTVSPropertyOp22
 70
     1
102
RTVSPropertyOp23
 70
     1
102
RTVSPropertyOp24
 70
     1
102
RTVSPropertyOp25
 70
     1
102
RTVSPropertyOp26
 70
     1
102
RTVSPropertyOp27
 70
     1
102
RTVSPropertyOp28
 70
     1
102
RTVSPropertyOp29
 70
     1
102
RTVSPropertyOp30
 70
     1
102
RTVSPropertyOp31
 70
     1
102
RTVSPropertyOp32
 70
     1
102
RTVSPropertyOp33
 70
     1
102
RTVSPropertyOp34
 70
     1
102
RTVSPropertyOp35
 70
     1
102
RTVSPropertyOp36
 70
     1
102
RTVSPropertyOp37
 70
     1
102
RTVSPropertyOp38
 70
     1
102
RTVSPropertyOp39
 70
     1
102
RTVSPropertyOp40
 70
     1
102
RTVSPropertyOp41
 70
     1
102
RTVSPropertyOp42
 70
     1
102
RTVSPropertyOp43
 70
     1
102
RTVSPropertyOp44
 70
     1
102
RTVSPropertyOp45
 70
     1
102
RTVSPropertyOp46
 70
     1
102
RTVSPropertyOp47
 70
     1
102
RTVSPropertyOp48
 70
     1
102
RTVSPropertyOp49
 70
     1
102
RTVSPropertyOp50
 70
     1
102
RTVSPropertyOp51
 70
     0
102
RTVSPropertyOp52
 70
     0
102
RTVSPropertyOp53
 70
     1
102
RTVSPropertyOp54
 70
     1
102
RTVSPropertyOp55
 70
     1
102
RTVSPropertyOp56
 70
     1
102
RTVSPropertyOp57
 70
     1
102
RTVSPost2010Prop28
280
     0
102
RTVSPost2010PropOp28
 70
     1
102
RTVSPost2010Prop29
280
     1
102
RTVSPost2010PropOp29
 70
     1
102
RTVSPost2010Prop30
280
     1
102
RTVSPost2010PropOp30
 70
     1
102
RTVSPost2010Prop31
280
     0
102
RTVSPost2010PropOp31
 70
     1
102
RTVSPost2010Prop32
280
     0
102
RTVSPost2010PropOp32
 70
     1
102
RTVSPost2010Prop33
280
     0
102
RTVSPost2010PropOp33
 70
     1
102
RTVSPost2010Prop34
280
     0
102
RTVSPost2010PropOp34
 70
     1
102
RTVSPost2010Prop35
280
     0
102
RTVSPost2010PropOp35
 70
     1
102
RTVSPost2010Prop36
280
     0
102
RTVSPost2010PropOp36
 70
     1
102
RTVSPost2010Prop37
 90
       50
102
RTVSPost2010PropOp37
 70
     1
102
RTVSPost2010Prop38
140
0.0
102
RTVSPost2010PropOp38
 70
     1
102
RTVSPost2010Prop39
140
1.0
102
RTVSPost2010PropOp39
 70
     1
102
RTVSPost2010Prop40
 90
        0
102
RTVSPost2010PropOp40
 70
     1
102
RTVSPost2010Prop41ColorIndex
 90
       18
102
RTVSPost2010Prop41ColorRGB
 90
        0
102
RTVSPost2010PropOp41
 70
     1
102
RTVSPost2010Prop42
 90
       50
102
RTVSPost2010PropOp42
 70
     1
102
RTVSPost2010Prop43
 90
        3
102
RTVSPost2010PropOp43
 70
     1
102
RTVSPost2010Prop44ColorIndex
 90
        5
102
RTVSPost2010Prop44ColorRGB
 90
      255
102
RTVSPost2010PropOp44
 70
     1
102
RTVSPost2010Prop45
280
     0
102
RTVSPost2010PropOp45
 70
     1
102
RTVSPost2010Prop46
 90
       50
102
RTVSPost2010PropOp46
 70
     1
102
RTVSPost2010Prop47
 90
       50
102
RTVSPost2010PropOp47
 70
     1
102
RTVSPost2010Prop48
 90
       50
102
RTVSPost2010PropOp48
 70
     1
102
RTVSPost2010Prop49
280
     0
102
RTVSPost2010PropOp49
 70
     1
102
RTVSPost2010Prop50
 90
       50
102
RTVSPost2010PropOp50
 70
     1
102
RTVSPost2010Prop51ColorIndex
 90
      256
102
RTVSPost2010Prop51ColorRGB
 90
-16777216
102
RTVSPost2010PropOp51
 70
     0
102
RTVSPost2010Prop52
140
1.0
102
RTVSPost2010PropOp52
 70
     0
102
RTVSPost2010Prop53
 90
        2
102
RTVSPost2010PropOp53
 70
     1
102
RTVSPost2010Prop54
  1
strokes_ogs.tif
102
RTVSPost2010PropOp54
 70
     1
102
RTVSPost2010Prop55
280
     0
102
RTVSPost2010PropOp55
 70
     1
102
RTVSPost2010Prop56
140
1.0
102
RTVSPost2010PropOp56
 70
     1
102
RTVSPost2010Prop57
140
1.0
102
RTVSPost2010PropOp57
 70
     1
  0
XRECORD
  5
165
102
{ACAD_REACTORS
330
164
102
}
330
164
100
AcDbXrecord
280
     1
102
RTVSPropertyOp0
 70
     1
102
RTVSPropertyOp1
 70
     1
102
RTVSPropertyOp2
 70
     1
102
RTVSPropertyOp3
 70
     1
102
RTVSPropertyOp4
 70
     1
102
RTVSPropertyOp5
 70
     1
102
RTVSPropertyOp6
 70
     1
102
RTVSPropertyOp7
 70
     1
102
RTVSPropertyOp8
 70
     1
102
RTVSPropertyOp9
 70
     1
102
RTVSPropertyOp10
 70
     1
102
RTVSPropertyOp11
 70
     1
102
RTVSPropertyOp12
 70
     1
102
RTVSPropertyOp13
 70
     1
102
RTVSPropertyOp14
 70
     1
102
RTVSPropertyOp15
 70
     1
102
RTVSPropertyOp16
 70
     1
102
RTVSPropertyOp17
 70
     1
102
RTVSPropertyOp18
 70
     1
102
RTVSPropertyOp19
 70
     1
102
RTVSPropertyOp20
 70
     1
102
RTVSPropertyOp21
 70
     1
102
RTVSPropertyOp22
 70
     1
102
RTVSPropertyOp23
 70
     1
102
RTVSPropertyOp24
 70
     1
102
RTVSPropertyOp25
 70
     1
102
RTVSPropertyOp26
 70
     1
102
RTVSPropertyOp27
 70
     1
102
RTVSPropertyOp28
 70
     1
102
RTVSPropertyOp29
 70
     1
102
RTVSPropertyOp30
 70
     1
102
RTVSPropertyOp31
 70
     1
102
RTVSPropertyOp32
 70
     1
102
RTVSPropertyOp33
 70
     1
102
RTVSPropertyOp34
 70
     1
102
RTVSPropertyOp35
 70
     1
102
RTVSPropertyOp36
 70
     1
102
RTVSPropertyOp37
 70
     1
102
RTVSPropertyOp38
 70
     1
102
RTVSPropertyOp39
 70
     1
102
RTVSPropertyOp40
 70
     1
102
RTVSPropertyOp41
 70
     1
102
RTVSPropertyOp42
 70
     1
102
RTVSPropertyOp43
 70
     1
102
RTVSPropertyOp44
 70
     1
102
RTVSPropertyOp45
 70
     1
102
RTVSPropertyOp46
 70
     1
102
RTVSPropertyOp47
 70
     1
102
RTVSPropertyOp48
 70
     1
102
RTVSPropertyOp49
 70
     1
102
RTVSPropertyOp50
 70
     1
102
RTVSPropertyOp51
 70
     0
102
RTVSPropertyOp52
 70
     0
102
RTVSPropertyOp53
 70
     1
102
RTVSPropertyOp54
 70
     1
102
RTVSPropertyOp55
 70
     1
102
RTVSPropertyOp56
 70
     1
102
RTVSPropertyOp57
 70
     1
102
RTVSPost2010Prop28
280
     0
102
RTVSPost2010PropOp28
 70
     1
102
RTVSPost2010Prop29
280
     1
102
RTVSPost2010PropOp29
 70
     1
102
RTVSPost2010Prop30
280
     1
102
RTVSPost2010PropOp30
 70
     1
102
RTVSPost2010Prop31
280
     0
102
RTVSPost2010PropOp31
 70
     1
102
RTVSPost2010Prop32
280
     0
102
RTVSPost2010PropOp32
 70
     1
102
RTVSPost2010Prop33
280
     0
102
RTVSPost2010PropOp33
 70
     1
102
RTVSPost2010Prop34
280
     0
102
RTVSPost2010PropOp34
 70
     1
102
RTVSPost2010Prop35
280
     0
102
RTVSPost2010PropOp35
 70
     1
102
RTVSPost2010Prop36
280
     0
102
RTVSPost2010PropOp36
 70
     1
102
RTVSPost2010Prop37
 90
       50
102
RTVSPost2010PropOp37
 70
     1
102
RTVSPost2010Prop38
140
0.0
102
RTVSPost2010PropOp38
 70
     1
102
RTVSPost2010Prop39
140
1.0
102
RTVSPost2010PropOp39
 70
     1
102
RTVSPost2010Prop40
 90
        0
102
RTVSPost2010PropOp40
 70
     1
102
RTVSPost2010Prop41ColorIndex
 90
       18
102
RTVSPost2010Prop41ColorRGB
 90
        0
102
RTVSPost2010PropOp41
 70
     1
102
RTVSPost2010Prop42
 90
       50
102
RTVSPost2010PropOp42
 70
     1
102
RTVSPost2010Prop43
 90
        3
102
RTVSPost2010PropOp43
 70
     1
102
RTVSPost2010Prop44ColorIndex
 90
        5
102
RTVSPost2010Prop44ColorRGB
 90
      255
102
RTVSPost2010PropOp44
 70
     1
102
RTVSPost2010Prop45
280
     0
102
RTVSPost2010PropOp45
 70
     1
102
RTVSPost2010Prop46
 90
       50
102
RTVSPost2010PropOp46
 70
     1
102
RTVSPost2010Prop47
 90
       50
102
RTVSPost2010PropOp47
 70
     1
102
RTVSPost2010Prop48
 90
       50
102
RTVSPost2010PropOp48
 70
     1
102
RTVSPost2010Prop49
280
     0
102
RTVSPost2010PropOp49
 70
     1
102
RTVSPost2010Prop50
 90
       50
102
RTVSPost2010PropOp50
 70
     1
102
RTVSPost2010Prop51ColorIndex
 90
      256
102
RTVSPost2010Prop51ColorRGB
 90
-16777216
102
RTVSPost2010PropOp51
 70
     0
102
RTVSPost2010Prop52
140
1.0
102
RTVSPost2010PropOp52
 70
     0
102
RTVSPost2010Prop53
 90
        2
102
RTVSPost2010PropOp53
 70
     1
102
RTVSPost2010Prop54
  1
strokes_ogs.tif
102
RTVSPost2010PropOp54
 70
     1
102
RTVSPost2010Prop55
280
     0
102
RTVSPost2010PropOp55
 70
     1
102
RTVSPost2010Prop56
140
1.0
102
RTVSPost2010PropOp56
 70
     1
102
RTVSPost2010Prop57
140
1.0
102
RTVSPost2010PropOp57
 70
     1
  0
XRECORD
  5
167
102
{ACAD_REACTORS
330
166
102
}
330
166
100
AcDbXrecord
280
     1
102
RTVSPropertyOp0
 70
     1
102
RTVSPropertyOp1
 70
     1
102
RTVSPropertyOp2
 70
     1
102
RTVSPropertyOp3
 70
     1
102
RTVSPropertyOp4
 70
     1
102
RTVSPropertyOp5
 70
     1
102
RTVSPropertyOp6
 70
     1
102
RTVSPropertyOp7
 70
     1
102
RTVSPropertyOp8
 70
     1
102
RTVSPropertyOp9
 70
     1
102
RTVSPropertyOp10
 70
     1
102
RTVSPropertyOp11
 70
     1
102
RTVSPropertyOp12
 70
     1
102
RTVSPropertyOp13
 70
     1
102
RTVSPropertyOp14
 70
     1
102
RTVSPropertyOp15
 70
     1
102
RTVSPropertyOp16
 70
     1
102
RTVSPropertyOp17
 70
     1
102
RTVSPropertyOp18
 70
     1
102
RTVSPropertyOp19
 70
     1
102
RTVSPropertyOp20
 70
     1
102
RTVSPropertyOp21
 70
     1
102
RTVSPropertyOp22
 70
     1
102
RTVSPropertyOp23
 70
     1
102
RTVSPropertyOp24
 70
     1
102
RTVSPropertyOp25
 70
     1
102
RTVSPropertyOp26
 70
     1
102
RTVSPropertyOp27
 70
     1
102
RTVSPropertyOp28
 70
     1
102
RTVSPropertyOp29
 70
     1
102
RTVSPropertyOp30
 70
     1
102
RTVSPropertyOp31
 70
     1
102
RTVSPropertyOp32
 70
     1
102
RTVSPropertyOp33
 70
     1
102
RTVSPropertyOp34
 70
     1
102
RTVSPropertyOp35
 70
     1
102
RTVSPropertyOp36
 70
     1
102
RTVSPropertyOp37
 70
     1
102
RTVSPropertyOp38
 70
     1
102
RTVSPropertyOp39
 70
     1
102
RTVSPropertyOp40
 70
     1
102
RTVSPropertyOp41
 70
     1
102
RTVSPropertyOp42
 70
     1
102
RTVSPropertyOp43
 70
     1
102
RTVSPropertyOp44
 70
     1
102
RTVSPropertyOp45
 70
     1
102
RTVSPropertyOp46
 70
     1
102
RTVSPropertyOp47
 70
     1
102
RTVSPropertyOp48
 70
     1
102
RTVSPropertyOp49
 70
     1
102
RTVSPropertyOp50
 70
     1
102
RTVSPropertyOp51
 70
     0
102
RTVSPropertyOp52
 70
     0
102
RTVSPropertyOp53
 70
     1
102
RTVSPropertyOp54
 70
     1
102
RTVSPropertyOp55
 70
     1
102
RTVSPropertyOp56
 70
     1
102
RTVSPropertyOp57
 70
     1
102
RTVSPost2010Prop28
280
     0
102
RTVSPost2010PropOp28
 70
     1
102
RTVSPost2010Prop29
280
     1
102
RTVSPost2010PropOp29
 70
     1
102
RTVSPost2010Prop30
280
     1
102
RTVSPost2010PropOp30
 70
     1
102
RTVSPost2010Prop31
280
     0
102
RTVSPost2010PropOp31
 70
     1
102
RTVSPost2010Prop32
280
     0
102
RTVSPost2010PropOp32
 70
     1
102
RTVSPost2010Prop33
280
     0
102
RTVSPost2010PropOp33
 70
     1
102
RTVSPost2010Prop34
280
     0
102
RTVSPost2010PropOp34
 70
     1
102
RTVSPost2010Prop35
280
     0
102
RTVSPost2010PropOp35
 70
     1
102
RTVSPost2010Prop36
280
     0
102
RTVSPost2010PropOp36
 70
     1
102
RTVSPost2010Prop37
 90
       50
102
RTVSPost2010PropOp37
 70
     1
102
RTVSPost2010Prop38
140
0.0
102
RTVSPost2010PropOp38
 70
     1
102
RTVSPost2010Prop39
140
1.0
102
RTVSPost2010PropOp39
 70
     1
102
RTVSPost2010Prop40
 90
        0
102
RTVSPost2010PropOp40
 70
     1
102
RTVSPost2010Prop41ColorIndex
 90
       18
102
RTVSPost2010Prop41ColorRGB
 90
        0
102
RTVSPost2010PropOp41
 70
     1
102
RTVSPost2010Prop42
 90
       50
102
RTVSPost2010PropOp42
 70
     1
102
RTVSPost2010Prop43
 90
        3
102
RTVSPost2010PropOp43
 70
     1
102
RTVSPost2010Prop44ColorIndex
 90
        5
102
RTVSPost2010Prop44ColorRGB
 90
      255
102
RTVSPost2010PropOp44
 70
     1
102
RTVSPost2010Prop45
280
     0
102
RTVSPost2010PropOp45
 70
     1
102
RTVSPost2010Prop46
 90
       50
102
RTVSPost2010PropOp46
 70
     1
102
RTVSPost2010Prop47
 90
       50
102
RTVSPost2010PropOp47
 70
     1
102
RTVSPost2010Prop48
 90
       50
102
RTVSPost2010PropOp48
 70
     1
102
RTVSPost2010Prop49
280
     0
102
RTVSPost2010PropOp49
 70
     1
102
RTVSPost2010Prop50
 90
       50
102
RTVSPost2010PropOp50
 70
     1
102
RTVSPost2010Prop51ColorIndex
 90
      256
102
RTVSPost2010Prop51ColorRGB
 90
-16777216
102
RTVSPost2010PropOp51
 70
     0
102
RTVSPost2010Prop52
140
1.0
102
RTVSPost2010PropOp52
 70
     0
102
RTVSPost2010Prop53
 90
        2
102
RTVSPost2010PropOp53
 70
     1
102
RTVSPost2010Prop54
  1
strokes_ogs.tif
102
RTVSPost2010PropOp54
 70
     1
102
RTVSPost2010Prop55
280
     0
102
RTVSPost2010PropOp55
 70
     1
102
RTVSPost2010Prop56
140
1.0
102
RTVSPost2010PropOp56
 70
     1
102
RTVSPost2010Prop57
140
1.0
102
RTVSPost2010PropOp57
 70
     1
  0
XRECORD
  5
157
102
{ACAD_REACTORS
330
156
102
}
330
156
100
AcDbXrecord
280
     1
102
RTVSPropertyOp0
 70
     1
102
RTVSPropertyOp1
 70
     1
102
RTVSPropertyOp2
 70
     1
102
RTVSPropertyOp3
 70
     1
102
RTVSPropertyOp4
 70
     1
102
RTVSPropertyOp5
 70
     1
102
RTVSPropertyOp6
 70
     1
102
RTVSPropertyOp7
 70
     1
102
RTVSPropertyOp8
 70
     1
102
RTVSPropertyOp9
 70
     1
102
RTVSPropertyOp10
 70
     1
102
RTVSPropertyOp11
 70
     1
102
RTVSPropertyOp12
 70
     1
102
RTVSPropertyOp13
 70
     1
102
RTVSPropertyOp14
 70
     1
102
RTVSPropertyOp15
 70
     1
102
RTVSPropertyOp16
 70
     1
102
RTVSPropertyOp17
 70
     1
102
RTVSPropertyOp18
 70
     1
102
RTVSPropertyOp19
 70
     1
102
RTVSPropertyOp20
 70
     1
102
RTVSPropertyOp21
 70
     1
102
RTVSPropertyOp22
 70
     1
102
RTVSPropertyOp23
 70
     1
102
RTVSPropertyOp24
 70
     1
102
RTVSPropertyOp25
 70
     1
102
RTVSPropertyOp26
 70
     1
102
RTVSPropertyOp27
 70
     1
102
RTVSPropertyOp28
 70
     1
102
RTVSPropertyOp29
 70
     1
102
RTVSPropertyOp30
 70
     1
102
RTVSPropertyOp31
 70
     1
102
RTVSPropertyOp32
 70
     1
102
RTVSPropertyOp33
 70
     1
102
RTVSPropertyOp34
 70
     1
102
RTVSPropertyOp35
 70
     1
102
RTVSPropertyOp36
 70
     1
102
RTVSPropertyOp37
 70
     1
102
RTVSPropertyOp38
 70
     1
102
RTVSPropertyOp39
 70
     1
102
RTVSPropertyOp40
 70
     1
102
RTVSPropertyOp41
 70
     1
102
RTVSPropertyOp42
 70
     1
102
RTVSPropertyOp43
 70
     1
102
RTVSPropertyOp44
 70
     1
102
RTVSPropertyOp45
 70
     1
102
RTVSPropertyOp46
 70
     1
102
RTVSPropertyOp47
 70
     1
102
RTVSPropertyOp48
 70
     1
102
RTVSPropertyOp49
 70
     1
102
RTVSPropertyOp50
 70
     1
102
RTVSPropertyOp51
 70
     0
102
RTVSPropertyOp52
 70
     0
102
RTVSPropertyOp53
 70
     1
102
RTVSPropertyOp54
 70
     1
102
RTVSPropertyOp55
 70
     1
102
RTVSPropertyOp56
 70
     1
102
RTVSPropertyOp57
 70
     1
102
RTVSPost2010Prop28
280
     0
102
RTVSPost2010PropOp28
 70
     1
102
RTVSPost2010Prop29
280
     1
102
RTVSPost2010PropOp29
 70
     1
102
RTVSPost2010Prop30
280
     1
102
RTVSPost2010PropOp30
 70
     1
102
RTVSPost2010Prop31
280
     0
102
RTVSPost2010PropOp31
 70
     1
102
RTVSPost2010Prop32
280
     0
102
RTVSPost2010PropOp32
 70
     1
102
RTVSPost2010Prop33
280
     0
102
RTVSPost2010PropOp33
 70
     1
102
RTVSPost2010Prop34
280
     0
102
RTVSPost2010PropOp34
 70
     1
102
RTVSPost2010Prop35
280
     0
102
RTVSPost2010PropOp35
 70
     1
102
RTVSPost2010Prop36
280
     0
102
RTVSPost2010PropOp36
 70
     1
102
RTVSPost2010Prop37
 90
       50
102
RTVSPost2010PropOp37
 70
     1
102
RTVSPost2010Prop38
140
0.0
102
RTVSPost2010PropOp38
 70
     1
102
RTVSPost2010Prop39
140
1.0
102
RTVSPost2010PropOp39
 70
     1
102
RTVSPost2010Prop40
 90
        0
102
RTVSPost2010PropOp40
 70
     1
102
RTVSPost2010Prop41ColorIndex
 90
       18
102
RTVSPost2010Prop41ColorRGB
 90
        0
102
RTVSPost2010PropOp41
 70
     1
102
RTVSPost2010Prop42
 90
       50
102
RTVSPost2010PropOp42
 70
     1
102
RTVSPost2010Prop43
 90
        3
102
RTVSPost2010PropOp43
 70
     1
102
RTVSPost2010Prop44ColorIndex
 90
        5
102
RTVSPost2010Prop44ColorRGB
 90
      255
102
RTVSPost2010PropOp44
 70
     1
102
RTVSPost2010Prop45
280
     0
102
RTVSPost2010PropOp45
 70
     1
102
RTVSPost2010Prop46
 90
       50
102
RTVSPost2010PropOp46
 70
     1
102
RTVSPost2010Prop47
 90
       50
102
RTVSPost2010PropOp47
 70
     1
102
RTVSPost2010Prop48
 90
       50
102
RTVSPost2010PropOp48
 70
     1
102
RTVSPost2010Prop49
280
     0
102
RTVSPost2010PropOp49
 70
     1
102
RTVSPost2010Prop50
 90
       50
102
RTVSPost2010PropOp50
 70
     1
102
RTVSPost2010Prop51ColorIndex
 90
      256
102
RTVSPost2010Prop51ColorRGB
 90
-16777216
102
RTVSPost2010PropOp51
 70
     0
102
RTVSPost2010Prop52
140
1.0
102
RTVSPost2010PropOp52
 70
     0
102
RTVSPost2010Prop53
 90
        2
102
RTVSPost2010PropOp53
 70
     1
102
RTVSPost2010Prop54
  1
strokes_ogs.tif
102
RTVSPost2010PropOp54
 70
     1
102
RTVSPost2010Prop55
280
     0
102
RTVSPost2010PropOp55
 70
     1
102
RTVSPost2010Prop56
140
1.0
102
RTVSPost2010PropOp56
 70
     1
102
RTVSPost2010Prop57
140
1.0
102
RTVSPost2010PropOp57
 70
     1
  0
XRECORD
  5
149
102
{ACAD_REACTORS
330
148
102
}
330
148
100
AcDbXrecord
280
     1
102
RTVSPropertyOp0
 70
     1
102
RTVSPropertyOp1
 70
     1
102
RTVSPropertyOp2
 70
     1
102
RTVSPropertyOp3
 70
     1
102
RTVSPropertyOp4
 70
     1
102
RTVSPropertyOp5
 70
     1
102
RTVSPropertyOp6
 70
     1
102
RTVSPropertyOp7
 70
     1
102
RTVSPropertyOp8
 70
     1
102
RTVSPropertyOp9
 70
     1
102
RTVSPropertyOp10
 70
     1
102
RTVSPropertyOp11
 70
     1
102
RTVSPropertyOp12
 70
     1
102
RTVSPropertyOp13
 70
     1
102
RTVSPropertyOp14
 70
     1
102
RTVSPropertyOp15
 70
     1
102
RTVSPropertyOp16
 70
     1
102
RTVSPropertyOp17
 70
     1
102
RTVSPropertyOp18
 70
     1
102
RTVSPropertyOp19
 70
     1
102
RTVSPropertyOp20
 70
     1
102
RTVSPropertyOp21
 70
     1
102
RTVSPropertyOp22
 70
     1
102
RTVSPropertyOp23
 70
     1
102
RTVSPropertyOp24
 70
     1
102
RTVSPropertyOp25
 70
     1
102
RTVSPropertyOp26
 70
     1
102
RTVSPropertyOp27
 70
     1
102
RTVSPropertyOp28
 70
     1
102
RTVSPropertyOp29
 70
     1
102
RTVSPropertyOp30
 70
     1
102
RTVSPropertyOp31
 70
     1
102
RTVSPropertyOp32
 70
     1
102
RTVSPropertyOp33
 70
     1
102
RTVSPropertyOp34
 70
     1
102
RTVSPropertyOp35
 70
     1
102
RTVSPropertyOp36
 70
     1
102
RTVSPropertyOp37
 70
     1
102
RTVSPropertyOp38
 70
     1
102
RTVSPropertyOp39
 70
     1
102
RTVSPropertyOp40
 70
     1
102
RTVSPropertyOp41
 70
     1
102
RTVSPropertyOp42
 70
     1
102
RTVSPropertyOp43
 70
     1
102
RTVSPropertyOp44
 70
     1
102
RTVSPropertyOp45
 70
     1
102
RTVSPropertyOp46
 70
     1
102
RTVSPropertyOp47
 70
     1
102
RTVSPropertyOp48
 70
     1
102
RTVSPropertyOp49
 70
     1
102
RTVSPropertyOp50
 70
     1
102
RTVSPropertyOp51
 70
     0
102
RTVSPropertyOp52
 70
     0
102
RTVSPropertyOp53
 70
     1
102
RTVSPropertyOp54
 70
     1
102
RTVSPropertyOp55
 70
     1
102
RTVSPropertyOp56
 70
     1
102
RTVSPropertyOp57
 70
     1
102
RTVSPost2010Prop28
280
     0
102
RTVSPost2010PropOp28
 70
     1
102
RTVSPost2010Prop29
280
     1
102
RTVSPost2010PropOp29
 70
     1
102
RTVSPost2010Prop30
280
     1
102
RTVSPost2010PropOp30
 70
     1
102
RTVSPost2010Prop31
280
     0
102
RTVSPost2010PropOp31
 70
     1
102
RTVSPost2010Prop32
280
     0
102
RTVSPost2010PropOp32
 70
     1
102
RTVSPost2010Prop33
280
     0
102
RTVSPost2010PropOp33
 70
     1
102
RTVSPost2010Prop34
280
     0
102
RTVSPost2010PropOp34
 70
     1
102
RTVSPost2010Prop35
280
     0
102
RTVSPost2010PropOp35
 70
     1
102
RTVSPost2010Prop36
280
     0
102
RTVSPost2010PropOp36
 70
     1
102
RTVSPost2010Prop37
 90
       50
102
RTVSPost2010PropOp37
 70
     1
102
RTVSPost2010Prop38
140
0.0
102
RTVSPost2010PropOp38
 70
     1
102
RTVSPost2010Prop39
140
1.0
102
RTVSPost2010PropOp39
 70
     1
102
RTVSPost2010Prop40
 90
        0
102
RTVSPost2010PropOp40
 70
     1
102
RTVSPost2010Prop41ColorIndex
 90
       18
102
RTVSPost2010Prop41ColorRGB
 90
        0
102
RTVSPost2010PropOp41
 70
     1
102
RTVSPost2010Prop42
 90
       50
102
RTVSPost2010PropOp42
 70
     1
102
RTVSPost2010Prop43
 90
        3
102
RTVSPost2010PropOp43
 70
     1
102
RTVSPost2010Prop44ColorIndex
 90
        5
102
RTVSPost2010Prop44ColorRGB
 90
      255
102
RTVSPost2010PropOp44
 70
     1
102
RTVSPost2010Prop45
280
     0
102
RTVSPost2010PropOp45
 70
     1
102
RTVSPost2010Prop46
 90
       50
102
RTVSPost2010PropOp46
 70
     1
102
RTVSPost2010Prop47
 90
       50
102
RTVSPost2010PropOp47
 70
     1
102
RTVSPost2010Prop48
 90
       50
102
RTVSPost2010PropOp48
 70
     1
102
RTVSPost2010Prop49
280
     0
102
RTVSPost2010PropOp49
 70
     1
102
RTVSPost2010Prop50
 90
       50
102
RTVSPost2010PropOp50
 70
     1
102
RTVSPost2010Prop51ColorIndex
 90
      256
102
RTVSPost2010Prop51ColorRGB
 90
-16777216
102
RTVSPost2010PropOp51
 70
     0
102
RTVSPost2010Prop52
140
1.0
102
RTVSPost2010PropOp52
 70
     0
102
RTVSPost2010Prop53
 90
        2
102
RTVSPost2010PropOp53
 70
     1
102
RTVSPost2010Prop54
  1
strokes_ogs.tif
102
RTVSPost2010PropOp54
 70
     1
102
RTVSPost2010Prop55
280
     0
102
RTVSPost2010PropOp55
 70
     1
102
RTVSPost2010Prop56
140
1.0
102
RTVSPost2010PropOp56
 70
     1
102
RTVSPost2010Prop57
140
1.0
102
RTVSPost2010PropOp57
 70
     1
  0
XRECORD
  5
169
102
{ACAD_REACTORS
330
168
102
}
330
168
100
AcDbXrecord
280
     1
102
RTVSPropertyOp0
 70
     1
102
RTVSPropertyOp1
 70
     1
102
RTVSPropertyOp2
 70
     1
102
RTVSPropertyOp3
 70
     1
102
RTVSPropertyOp4
 70
     1
102
RTVSPropertyOp5
 70
     1
102
RTVSPropertyOp6
 70
     1
102
RTVSPropertyOp7
 70
     1
102
RTVSPropertyOp8
 70
     1
102
RTVSPropertyOp9
 70
     1
102
RTVSPropertyOp10
 70
     1
102
RTVSPropertyOp11
 70
     1
102
RTVSPropertyOp12
 70
     1
102
RTVSPropertyOp13
 70
     1
102
RTVSPropertyOp14
 70
     1
102
RTVSPropertyOp15
 70
     1
102
RTVSPropertyOp16
 70
     1
102
RTVSPropertyOp17
 70
     1
102
RTVSPropertyOp18
 70
     1
102
RTVSPropertyOp19
 70
     1
102
RTVSPropertyOp20
 70
     1
102
RTVSPropertyOp21
 70
     1
102
RTVSPropertyOp22
 70
     1
102
RTVSPropertyOp23
 70
     1
102
RTVSPropertyOp24
 70
     1
102
RTVSPropertyOp25
 70
     1
102
RTVSPropertyOp26
 70
     1
102
RTVSPropertyOp27
 70
     1
102
RTVSPropertyOp28
 70
     1
102
RTVSPropertyOp29
 70
     1
102
RTVSPropertyOp30
 70
     1
102
RTVSPropertyOp31
 70
     1
102
RTVSPropertyOp32
 70
     1
102
RTVSPropertyOp33
 70
     1
102
RTVSPropertyOp34
 70
     1
102
RTVSPropertyOp35
 70
     1
102
RTVSPropertyOp36
 70
     1
102
RTVSPropertyOp37
 70
     1
102
RTVSPropertyOp38
 70
     1
102
RTVSPropertyOp39
 70
     1
102
RTVSPropertyOp40
 70
     1
102
RTVSPropertyOp41
 70
     1
102
RTVSPropertyOp42
 70
     1
102
RTVSPropertyOp43
 70
     1
102
RTVSPropertyOp44
 70
     1
102
RTVSPropertyOp45
 70
     1
102
RTVSPropertyOp46
 70
     1
102
RTVSPropertyOp47
 70
     1
102
RTVSPropertyOp48
 70
     1
102
RTVSPropertyOp49
 70
     1
102
RTVSPropertyOp50
 70
     1
102
RTVSPropertyOp51
 70
     0
102
RTVSPropertyOp52
 70
     0
102
RTVSPropertyOp53
 70
     1
102
RTVSPropertyOp54
 70
     1
102
RTVSPropertyOp55
 70
     1
102
RTVSPropertyOp56
 70
     1
102
RTVSPropertyOp57
 70
     1
102
RTVSPost2010Prop28
280
     0
102
RTVSPost2010PropOp28
 70
     1
102
RTVSPost2010Prop29
280
     1
102
RTVSPost2010PropOp29
 70
     1
102
RTVSPost2010Prop30
280
     1
102
RTVSPost2010PropOp30
 70
     1
102
RTVSPost2010Prop31
280
     0
102
RTVSPost2010PropOp31
 70
     1
102
RTVSPost2010Prop32
280
     0
102
RTVSPost2010PropOp32
 70
     1
102
RTVSPost2010Prop33
280
     0
102
RTVSPost2010PropOp33
 70
     1
102
RTVSPost2010Prop34
280
     0
102
RTVSPost2010PropOp34
 70
     1
102
RTVSPost2010Prop35
280
     0
102
RTVSPost2010PropOp35
 70
     1
102
RTVSPost2010Prop36
280
     0
102
RTVSPost2010PropOp36
 70
     1
102
RTVSPost2010Prop37
 90
       50
102
RTVSPost2010PropOp37
 70
     1
102
RTVSPost2010Prop38
140
0.0
102
RTVSPost2010PropOp38
 70
     1
102
RTVSPost2010Prop39
140
1.0
102
RTVSPost2010PropOp39
 70
     1
102
RTVSPost2010Prop40
 90
        0
102
RTVSPost2010PropOp40
 70
     1
102
RTVSPost2010Prop41ColorIndex
 90
       18
102
RTVSPost2010Prop41ColorRGB
 90
        0
102
RTVSPost2010PropOp41
 70
     1
102
RTVSPost2010Prop42
 90
       50
102
RTVSPost2010PropOp42
 70
     1
102
RTVSPost2010Prop43
 90
        3
102
RTVSPost2010PropOp43
 70
     1
102
RTVSPost2010Prop44ColorIndex
 90
        5
102
RTVSPost2010Prop44ColorRGB
 90
      255
102
RTVSPost2010PropOp44
 70
     1
102
RTVSPost2010Prop45
280
     0
102
RTVSPost2010PropOp45
 70
     1
102
RTVSPost2010Prop46
 90
       50
102
RTVSPost2010PropOp46
 70
     1
102
RTVSPost2010Prop47
 90
       50
102
RTVSPost2010PropOp47
 70
     1
102
RTVSPost2010Prop48
 90
       50
102
RTVSPost2010PropOp48
 70
     1
102
RTVSPost2010Prop49
280
     0
102
RTVSPost2010PropOp49
 70
     1
102
RTVSPost2010Prop50
 90
       50
102
RTVSPost2010PropOp50
 70
     1
102
RTVSPost2010Prop51ColorIndex
 90
      256
102
RTVSPost2010Prop51ColorRGB
 90
-16777216
102
RTVSPost2010PropOp51
 70
     0
102
RTVSPost2010Prop52
140
1.0
102
RTVSPost2010PropOp52
 70
     0
102
RTVSPost2010Prop53
 90
        2
102
RTVSPost2010PropOp53
 70
     1
102
RTVSPost2010Prop54
  1
strokes_ogs.tif
102
RTVSPost2010PropOp54
 70
     1
102
RTVSPost2010Prop55
280
     0
102
RTVSPost2010PropOp55
 70
     1
102
RTVSPost2010Prop56
140
1.0
102
RTVSPost2010PropOp56
 70
     1
102
RTVSPost2010Prop57
140
1.0
102
RTVSPost2010PropOp57
 70
     1
  0
ENDSEC
  0
EOF
