  0
SECTION
  2
HEADER
  9
$ACADVER
  1
AC1018
  9
$ACADMAINTVER
 70
     0
  9
$DWGCODEPAGE
  3
ANSI_1252
  9
$INSBASE
 10
0.0
 20
0.0
 30
0.0
  9
$EXTMIN
 10
-0.0000000000000063
 20
0.0000025522453352
 30
0.0
  9
$EXTMAX
 10
2542.816848173035
 20
1556.380905570679
 30
0.0
  9
$LIMMIN
 10
0.0
 20
0.0
  9
$LIMMAX
 10
12.0
 20
9.0
  9
$ORTHOMODE
 70
     0
  9
$REGENMODE
 70
     1
  9
$FILLMODE
 70
     1
  9
$QTEXTMODE
 70
     0
  9
$MIRRTEXT
 70
     1
  9
$LTSCALE
 40
1.0
  9
$ATTMODE
 70
     1
  9
$TEXTSIZE
 40
0.2
  9
$TRACEWID
 40
0.05
  9
$TEXTSTYLE
  7
Standard
  9
$CLAYER
  8
Predefinito
  9
$CELTYPE
  6
ByLayer
  9
$CECOLOR
 62
   256
  9
$CELTSCALE
 40
1.0
  9
$DISPSILH
 70
     0
  9
$DIMSCALE
 40
1.0
  9
$DIMASZ
 40
0.18
  9
$DIMEXO
 40
0.0625
  9
$DIMDLI
 40
0.38
  9
$DIMRND
 40
0.0
  9
$DIMDLE
 40
0.0
  9
$DIMEXE
 40
0.18
  9
$DIMTP
 40
0.0
  9
$DIMTM
 40
0.0
  9
$DIMTXT
 40
0.18
  9
$DIMCEN
 40
0.09
  9
$DIMTSZ
 40
0.0
  9
$DIMTOL
 70
     0
  9
$DIMLIM
 70
     0
  9
$DIMTIH
 70
     1
  9
$DIMTOH
 70
     1
  9
$DIMSE1
 70
     0
  9
$DIMSE2
 70
     0
  9
$DIMTAD
 70
     0
  9
$DIMZIN
 70
     0
  9
$DIMBLK
  1

  9
$DIMASO
 70
     1
  9
$DIMSHO
 70
     1
  9
$DIMPOST
  1

  9
$DIMAPOST
  1

  9
$DIMALT
 70
     0
  9
$DIMALTD
 70
     2
  9
$DIMALTF
 40
25.4
  9
$DIMLFAC
 40
1.0
  9
$DIMTOFL
 70
     0
  9
$DIMTVP
 40
0.0
  9
$DIMTIX
 70
     0
  9
$DIMSOXD
 70
     0
  9
$DIMSAH
 70
     0
  9
$DIMBLK1
  1

  9
$DIMBLK2
  1

  9
$DIMSTYLE
  2
Standard
  9
$DIMCLRD
 70
     0
  9
$DIMCLRE
 70
     0
  9
$DIMCLRT
 70
     0
  9
$DIMTFAC
 40
1.0
  9
$DIMGAP
 40
0.09
  9
$DIMJUST
 70
     0
  9
$DIMSD1
 70
     0
  9
$DIMSD2
 70
     0
  9
$DIMTOLJ
 70
     1
  9
$DIMTZIN
 70
     0
  9
$DIMALTZ
 70
     0
  9
$DIMALTTZ
 70
     0
  9
$DIMUPT
 70
     0
  9
$DIMDEC
 70
     4
  9
$DIMTDEC
 70
     4
  9
$DIMALTU
 70
     2
  9
$DIMALTTD
 70
     2
  9
$DIMTXSTY
  7
Standard
  9
$DIMAUNIT
 70
     0
  9
$DIMADEC
 70
     0
  9
$DIMALTRND
 40
0.0
  9
$DIMAZIN
 70
     0
  9
$DIMDSEP
 70
    46
  9
$DIMATFIT
 70
     3
  9
$DIMFRAC
 70
     0
  9
$DIMLDRBLK
  1

  9
$DIMLUNIT
 70
     2
  9
$DIMLWD
 70
    -2
  9
$DIMLWE
 70
    -2
  9
$DIMTMOVE
 70
     2
  9
$LUNITS
 70
     2
  9
$LUPREC
 70
     3
  9
$SKETCHINC
 40
0.1
  9
$FILLETRAD
 40
0.5
  9
$AUNITS
 70
     0
  9
$AUPREC
 70
     0
  9
$MENU
  1
.
  9
$ELEVATION
 40
0.0
  9
$PELEVATION
 40
0.0
  9
$THICKNESS
 40
0.0
  9
$LIMCHECK
 70
     0
  9
$CHAMFERA
 40
0.5
  9
$CHAMFERB
 40
0.5
  9
$CHAMFERC
 40
1.0
  9
$CHAMFERD
 40
0.0
  9
$SKPOLY
 70
     0
  9
$TDCREATE
 40
2458254.632141794
  9
$TDUCREATE
 40
2458254.548808461
  9
$TDUPDATE
 40
2458254.632141806
  9
$TDUUPDATE
 40
2458254.548808472
  9
$TDINDWG
 40
0.0000000116
  9
$TDUSRTIMER
 40
0.0000000116
  9
$USRTIMER
 70
     1
  9
$ANGBASE
 50
0.0
  9
$ANGDIR
 70
     0
  9
$PDMODE
 70
     0
  9
$PDSIZE
 40
0.0
  9
$PLINEWID
 40
0.0
  9
$SPLFRAME
 70
     0
  9
$SPLINETYPE
 70
     6
  9
$SPLINESEGS
 70
     8
  9
$HANDSEED
  5
261
  9
$SURFTAB1
 70
     6
  9
$SURFTAB2
 70
     6
  9
$SURFTYPE
 70
     6
  9
$SURFU
 70
     6
  9
$SURFV
 70
     6
  9
$UCSBASE
  2

  9
$UCSNAME
  2

  9
$UCSORG
 10
0.0
 20
0.0
 30
0.0
  9
$UCSXDIR
 10
1.0
 20
0.0
 30
0.0
  9
$UCSYDIR
 10
0.0
 20
1.0
 30
0.0
  9
$UCSORTHOREF
  2

  9
$UCSORTHOVIEW
 70
     0
  9
$UCSORGTOP
 10
0.0
 20
0.0
 30
0.0
  9
$UCSORGBOTTOM
 10
0.0
 20
0.0
 30
0.0
  9
$UCSORGLEFT
 10
0.0
 20
0.0
 30
0.0
  9
$UCSORGRIGHT
 10
0.0
 20
0.0
 30
0.0
  9
$UCSORGFRONT
 10
0.0
 20
0.0
 30
0.0
  9
$UCSORGBACK
 10
0.0
 20
0.0
 30
0.0
  9
$PUCSBASE
  2

  9
$PUCSNAME
  2

  9
$PUCSORG
 10
0.0
 20
0.0
 30
0.0
  9
$PUCSXDIR
 10
1.0
 20
0.0
 30
0.0
  9
$PUCSYDIR
 10
0.0
 20
1.0
 30
0.0
  9
$PUCSORTHOREF
  2

  9
$PUCSORTHOVIEW
 70
     0
  9
$PUCSORGTOP
 10
0.0
 20
0.0
 30
0.0
  9
$PUCSORGBOTTOM
 10
0.0
 20
0.0
 30
0.0
  9
$PUCSORGLEFT
 10
0.0
 20
0.0
 30
0.0
  9
$PUCSORGRIGHT
 10
0.0
 20
0.0
 30
0.0
  9
$PUCSORGFRONT
 10
0.0
 20
0.0
 30
0.0
  9
$PUCSORGBACK
 10
0.0
 20
0.0
 30
0.0
  9
$USERI1
 70
     0
  9
$USERI2
 70
     0
  9
$USERI3
 70
     0
  9
$USERI4
 70
     0
  9
$USERI5
 70
     0
  9
$USERR1
 40
0.0
  9
$USERR2
 40
0.0
  9
$USERR3
 40
0.0
  9
$USERR4
 40
0.0
  9
$USERR5
 40
0.0
  9
$WORLDVIEW
 70
     1
  9
$SHADEDGE
 70
     3
  9
$SHADEDIF
 70
    70
  9
$TILEMODE
 70
     0
  9
$MAXACTVP
 70
    64
  9
$PINSBASE
 10
0.0
 20
0.0
 30
0.0
  9
$PLIMCHECK
 70
     0
  9
$PEXTMIN
 10
0.0
 20
0.0
 30
0.0
  9
$PEXTMAX
 10
0.0
 20
0.0
 30
0.0
  9
$PLIMMIN
 10
0.0
 20
0.0
  9
$PLIMMAX
 10
12.0
 20
9.0
  9
$UNITMODE
 70
     0
  9
$VISRETAIN
 70
     1
  9
$PLINEGEN
 70
     0
  9
$PSLTSCALE
 70
     1
  9
$TREEDEPTH
 70
  3020
  9
$CMLSTYLE
  2
Standard
  9
$CMLJUST
 70
     0
  9
$CMLSCALE
 40
1.0
  9
$PROXYGRAPHICS
 70
     1
  9
$MEASUREMENT
 70
     0
  9
$CELWEIGHT
370
    -1
  9
$ENDCAPS
280
     0
  9
$JOINSTYLE
280
     0
  9
$LWDISPLAY
290
     0
  9
$INSUNITS
 70
     4
  9
$HYPERLINKBASE
  1

  9
$STYLESHEET
  1

  9
$XEDIT
290
     1
  9
$CEPSNTYPE
380
     0
  9
$PSTYLEMODE
290
     1
  9
$FINGERPRINTGUID
  2
{81A7A174-0E28-4BD0-A2A6-A839A4807061}
  9
$VERSIONGUID
  2
{FAEB1C32-E019-11D5-929B-00C0DF256EC4}
  9
$EXTNAMES
290
     1
  9
$PSVPSCALE
 40
0.0
  9
$OLESTARTUP
290
     0
  9
$SORTENTS
280
   127
  9
$INDEXCTL
280
     0
  9
$HIDETEXT
280
     1
  9
$XCLIPFRAME
290
     0
  9
$HALOGAP
280
     0
  9
$OBSCOLOR
 70
   257
  9
$OBSLTYPE
280
     0
  9
$INTERSECTIONDISPLAY
280
     0
  9
$INTERSECTIONCOLOR
 70
   257
  9
$DIMASSOC
280
     2
  9
$PROJECTNAME
  1

  0
ENDSEC
  0
SECTION
  2
CLASSES
  0
CLASS
  1
ACDBDICTIONARYWDFLT
  2
AcDbDictionaryWithDefault
  3
ObjectDBX Classes
 90
        0
 91
        4
280
     0
281
     0
  0
CLASS
  1
VISUALSTYLE
  2
AcDbVisualStyle
  3
ObjectDBX Classes
 90
     4095
 91
        4
280
     0
281
     0
  0
CLASS
  1
SCALE
  2
AcDbScale
  3
ObjectDBX Classes
 90
     1153
 91
        4
280
     0
281
     0
  0
CLASS
  1
DICTIONARYVAR
  2
AcDbDictionaryVar
  3
ObjectDBX Classes
 90
        0
 91
        4
280
     0
281
     0
  0
ENDSEC
  0
SECTION
  2
TABLES
  0
TABLE
  2
VPORT
  5
8
330
0
100
AcDbSymbolTable
 70
     1
  0
VPORT
  5
29
330
8
100
AcDbSymbolTableRecord
100
AcDbViewportTableRecord
  2
*Active
 70
     0
 10
0.0
 20
0.0
 11
1.0
 21
1.0
 12
1271.408424086518
 22
778.1904540614622
 13
0.0
 23
0.0
 14
0.5
 24
0.5
 15
0.5
 25
0.5
 16
0.0
 26
0.0
 36
1.0
 17
0.0
 27
0.0
 37
0.0
 40
1587.508521078802
 41
1.633801110795895
 42
50.0
 43
0.0
 44
0.0
 50
0.0
 51
0.0
 71
     0
 72
   100
 73
     1
 74
     3
 75
     0
 76
     0
 77
     0
 78
     0
281
     0
 65
     1
110
0.0
120
0.0
130
0.0
111
1.0
121
0.0
131
0.0
112
0.0
122
1.0
132
0.0
 79
     0
146
0.0
  0
ENDTAB
  0
TABLE
  2
LTYPE
  5
5
330
0
100
AcDbSymbolTable
 70
     1
  0
LTYPE
  5
14
330
5
100
AcDbSymbolTableRecord
100
AcDbLinetypeTableRecord
  2
ByBlock
 70
     0
  3

 72
    65
 73
     0
 40
0.0
  0
LTYPE
  5
15
330
5
100
AcDbSymbolTableRecord
100
AcDbLinetypeTableRecord
  2
ByLayer
 70
     0
  3

 72
    65
 73
     0
 40
0.0
  0
LTYPE
  5
16
330
5
100
AcDbSymbolTableRecord
100
AcDbLinetypeTableRecord
  2
Continuous
 70
     0
  3
Solid line
 72
    65
 73
     0
 40
0.0
  0
ENDTAB
  0
TABLE
  2
LAYER
  5
2
330
0
100
AcDbSymbolTable
 70
     2
  0
LAYER
  5
10
330
2
100
AcDbSymbolTableRecord
100
AcDbLayerTableRecord
  2
0
 70
     0
 62
     7
  6
Continuous
370
    -3
390
F
  0
LAYER
  5
3B
330
2
100
AcDbSymbolTableRecord
100
AcDbLayerTableRecord
  2
Predefinito
 70
     0
 62
     7
  6
Continuous
370
    -3
390
F
  0
ENDTAB
  0
TABLE
  2
STYLE
  5
3
330
0
100
AcDbSymbolTable
 70
     1
  0
STYLE
  5
11
330
3
100
AcDbSymbolTableRecord
100
AcDbTextStyleTableRecord
  2
Standard
 70
     0
 40
0.0
 41
1.0
 50
0.0
 71
     0
 42
0.2
  3
txt
  4

  0
ENDTAB
  0
TABLE
  2
VIEW
  5
6
330
0
100
AcDbSymbolTable
 70
     0
  0
ENDTAB
  0
TABLE
  2
UCS
  5
7
330
0
100
AcDbSymbolTable
 70
     0
  0
ENDTAB
  0
TABLE
  2
APPID
  5
9
330
0
100
AcDbSymbolTable
 70
     1
  0
APPID
  5
12
330
9
100
AcDbSymbolTableRecord
100
AcDbRegAppTableRecord
  2
ACAD
 70
     0
  0
ENDTAB
  0
TABLE
  2
DIMSTYLE
  5
A
330
0
100
AcDbSymbolTable
 70
     1
100
AcDbDimStyleTable
  0
DIMSTYLE
105
27
330
A
100
AcDbSymbolTableRecord
100
AcDbDimStyleTableRecord
  2
Standard
 70
     0
340
11
  0
ENDTAB
  0
TABLE
  2
BLOCK_RECORD
  5
1
330
0
100
AcDbSymbolTable
 70
     3
  0
BLOCK_RECORD
  5
1F
330
1
100
AcDbSymbolTableRecord
100
AcDbBlockTableRecord
  2
*Model_Space
340
22
  0
BLOCK_RECORD
  5
236
330
1
100
AcDbSymbolTableRecord
100
AcDbBlockTableRecord
  2
*Paper_Space
340
237
  0
BLOCK_RECORD
  5
23
330
1
100
AcDbSymbolTableRecord
100
AcDbBlockTableRecord
  2
*Paper_Space0
340
26
  0
BLOCK_RECORD
  5
1B
330
1
100
AcDbSymbolTableRecord
100
AcDbBlockTableRecord
  2
*Paper_Space1
340
1E
  0
BLOCK_RECORD
  5
231
330
1
100
AcDbSymbolTableRecord
100
AcDbBlockTableRecord
  2
*Paper_Space2
340
232
  0
ENDTAB
  0
ENDSEC
  0
SECTION
  2
BLOCKS
  0
BLOCK
  5
20
330
1F
100
AcDbEntity
  8
0
100
AcDbBlockBegin
  2
*Model_Space
 70
     0
 10
0.0
 20
0.0
 30
0.0
  3
*Model_Space
  1

  0
ENDBLK
  5
21
330
1F
100
AcDbEntity
  8
0
100
AcDbBlockEnd
  0
BLOCK
  5
238
330
236
100
AcDbEntity
 67
     1
  8
0
100
AcDbBlockBegin
  2
*Paper_Space
 70
     0
 10
0.0
 20
0.0
 30
0.0
  3
*Paper_Space
  1

  0
ENDBLK
  5
239
330
236
100
AcDbEntity
 67
     1
  8
0
100
AcDbBlockEnd
  0
BLOCK
  5
24
330
23
100
AcDbEntity
  8
0
100
AcDbBlockBegin
  2
*Paper_Space0
 70
     0
 10
0.0
 20
0.0
 30
0.0
  3
*Paper_Space0
  1

  0
ENDBLK
  5
25
330
23
100
AcDbEntity
  8
0
100
AcDbBlockEnd
  0
BLOCK
  5
1C
330
1B
100
AcDbEntity
  8
0
100
AcDbBlockBegin
  2
*Paper_Space1
 70
     0
 10
0.0
 20
0.0
 30
0.0
  3
*Paper_Space1
  1

  0
ENDBLK
  5
1D
330
1B
100
AcDbEntity
  8
0
100
AcDbBlockEnd
  0
BLOCK
  5
233
330
231
100
AcDbEntity
  8
0
100
AcDbBlockBegin
  2
*Paper_Space2
 70
     0
 10
0.0
 20
0.0
 30
0.0
  3
*Paper_Space2
  1

  0
VIEWPORT
  5
235
330
231
100
AcDbEntity
  8
0
100
AcDbViewport
 10
6.0
 20
4.5
 30
0.0
 40
12.696
 41
9.522
 68
     1
 69
     1
 12
6.0
 22
4.5
 13
0.0
 23
0.0
 14
0.5
 24
0.5
 15
0.5
 25
0.5
 16
0.0
 26
0.0
 36
1.0
 17
0.0
 27
0.0
 37
0.0
 42
50.0
 43
0.0
 44
0.0
 45
9.522
 50
0.0
 51
0.0
 72
   100
 90
   557152
  1

281
     0
 71
     1
 74
     0
110
0.0
120
0.0
130
0.0
111
1.0
121
0.0
131
0.0
112
0.0
122
1.0
132
0.0
 79
     0
146
0.0
170
     0
  0
ENDBLK
  5
234
330
231
100
AcDbEntity
  8
0
100
AcDbBlockEnd
  0
ENDSEC
  0
SECTION
  2
ENTITIES
  0
SPLINE
  5
3C
330
1F
100
AcDbEntity
  8
Predefinito
100
AcDbSpline
210
0.0
220
0.0
230
1.0
 70
    24
 71
     2
 72
     6
 73
     3
 74
     0
 42
0.0000000001
 43
0.0000000001
 40
0.0
 40
0.0
 40
0.0
 40
55.60312520331462
 40
55.60312520331462
 40
55.60312520331462
 10
25.00017040917925
 20
1506.480900595022
 30
0.0
 10
52.80173301083656
 20
1506.480900595022
 30
0.0
 10
81.27133470627271
 20
1506.480900595022
 30
0.0
  0
SPLINE
  5
3D
330
1F
100
AcDbEntity
  8
Predefinito
100
AcDbSpline
210
0.0
220
0.0
230
1.0
 70
    24
 71
     2
 72
     6
 73
     3
 74
     0
 42
0.0000000001
 43
0.0000000001
 40
-356.377162884947
 40
-356.377162884947
 40
-356.377162884947
 40
0.0
 40
0.0
 40
0.0
 10
81.27133470627271
 20
1506.480900595022
 30
0.0
 10
260.1279552425251
 20
1506.480900595022
 30
0.0
 10
438.3165366849986
 20
1506.480900595022
 30
0.0
  0
POLYLINE
  5
3E
330
1F
100
AcDbEntity
  8
Predefinito
100
AcDb2dPolyline
 66
     1
 10
0.0
 20
0.0
 30
0.0
  0
VERTEX
  5
3F
330
3E
100
AcDbEntity
  8
Predefinito
100
AcDbVertex
100
AcDb2dVertex
 10
2481.581909441298
 20
675.6077636223282
 30
0.0
  0
VERTEX
  5
40
330
3E
100
AcDbEntity
  8
Predefinito
100
AcDbVertex
100
AcDb2dVertex
 10
2481.082087634422
 20
676.474075185051
 30
0.0
  0
SEQEND
  5
41
330
3E
100
AcDbEntity
  8
Predefinito
  0
SPLINE
  5
42
330
1F
100
AcDbEntity
  8
Predefinito
100
AcDbSpline
210
0.0
220
0.0
230
1.0
 70
    24
 71
     2
 72
     6
 73
     3
 74
     0
 42
0.0000000001
 43
0.0000000001
 40
0.0
 40
0.0
 40
0.0
 40
43.00145929179247
 40
43.00145929179247
 40
43.00145929179247
 10
332.0837756164933
 20
1513.330900595022
 30
0.0
 10
331.8961616110175
 20
1534.83081167137
 30
0.0
 10
331.7085476055418
 20
1556.330722747718
 30
0.0
  0
SPLINE
  5
43
330
1F
100
AcDbEntity
  8
Predefinito
100
AcDbSpline
210
0.0
220
0.0
230
1.0
 70
    24
 71
     2
 72
     6
 73
     3
 74
     0
 42
0.0000000001
 43
0.0000000001
 40
0.0
 40
0.0
 40
0.0
 40
43.00145966461101
 40
43.00145966461101
 40
43.00145966461101
 10
568.2919795465522
 20
1556.330723129604
 30
0.0
 10
568.1043660598609
 20
1534.830811862313
 30
0.0
 10
567.9167525731696
 20
1513.330900595022
 30
0.0
  0
SPLINE
  5
44
330
1F
100
AcDbEntity
  8
Predefinito
100
AcDbSpline
210
0.0
220
0.0
230
1.0
 70
    24
 71
     2
 72
     6
 73
     3
 74
     0
 42
0.0000000001
 43
0.0000000001
 40
0.0
 40
0.0
 40
0.0
 40
1.0
 40
1.0
 40
1.0
 10
868.9915652960866
 20
1555.380900595022
 30
0.0
 10
868.9915652960866
 20
1555.880900595022
 30
0.0
 10
868.9915652960866
 20
1556.380900595022
 30
0.0
  0
SPLINE
  5
45
330
1F
100
AcDbEntity
  8
Predefinito
100
AcDbSpline
210
0.0
220
0.0
230
1.0
 70
    24
 71
     2
 72
     6
 73
     3
 74
     0
 42
0.0000000001
 43
0.0000000001
 40
0.0
 40
0.0
 40
0.0
 40
0.6637086526705133
 40
0.6637086526705133
 40
0.6637086526705133
 10
886.7108781851215
 20
1513.850213484057
 30
0.0
 10
886.4762217406037
 20
1513.615557039539
 30
0.0
 10
886.241565296086
 20
1513.380900595022
 30
0.0
  0
SPLINE
  5
46
330
1F
100
AcDbEntity
  8
Predefinito
100
AcDbSpline
210
0.0
220
0.0
230
1.0
 70
    24
 71
     2
 72
     6
 73
     3
 74
     0
 42
0.0000000001
 43
0.0000000001
 40
0.0
 40
0.0
 40
0.0
 40
41.5
 40
41.5
 40
41.5
 10
886.7415652960858
 20
1555.380900595022
 30
0.0
 10
886.7415652960858
 20
1534.630900595022
 30
0.0
 10
886.7415652960858
 20
1513.880900595022
 30
0.0
  0
SPLINE
  5
47
330
1F
100
AcDbEntity
  8
Predefinito
100
AcDbSpline
210
0.0
220
0.0
230
1.0
 70
    24
 71
     2
 72
     6
 73
     3
 74
     0
 42
0.0000000001
 43
0.0000000001
 40
0.0
 40
0.0
 40
0.0
 40
8.933549437112271
 40
8.933549437112271
 40
8.933549437112271
 10
886.8238887038997
 20
1512.880883687547
 30
0.0
 10
886.7849092356016
 20
1508.414279050086
 30
0.0
 10
886.7459297673036
 20
1503.947674412626
 30
0.0
  0
SPLINE
  5
48
330
1F
100
AcDbEntity
  8
Predefinito
100
AcDbSpline
210
0.0
220
0.0
230
1.0
 70
    24
 71
     2
 72
     6
 73
     3
 74
     0
 42
0.0000000001
 43
0.0000000001
 40
0.0
 40
0.0
 40
0.0
 40
1.0
 40
1.0
 40
1.0
 10
880.9915652960856
 20
1556.380900595022
 30
0.0
 10
880.9915652960856
 20
1555.880900595022
 30
0.0
 10
880.9915652960857
 20
1555.380900595022
 30
0.0
  0
SPLINE
  5
49
330
1F
100
AcDbEntity
  8
Predefinito
100
AcDbSpline
210
0.0
220
0.0
230
1.0
 70
    24
 71
     2
 72
     6
 73
     3
 74
     0
 42
0.0000000001
 43
0.0000000001
 40
0.0
 40
0.0
 40
0.0
 40
0.0033004285374623
 40
0.0033004285374623
 40
0.0033004285374623
 10
863.2452318488342
 20
1513.877234042274
 30
0.0
 10
863.2440649711345
 20
1513.878400919974
 30
0.0
 10
863.2428980934347
 20
1513.879567797673
 30
0.0
  0
SPLINE
  5
4A
330
1F
100
AcDbEntity
  8
Predefinito
100
AcDbSpline
210
0.0
220
0.0
230
1.0
 70
    24
 71
     2
 72
     6
 73
     3
 74
     0
 42
0.0000000001
 43
0.0000000001
 40
0.0
 40
0.0
 40
0.0
 40
0.663708652670433
 40
0.663708652670433
 40
0.663708652670433
 10
863.7415652960863
 20
1513.380900595022
 30
0.0
 10
863.5069088515685
 20
1513.615557039539
 30
0.0
 10
863.2722524070507
 20
1513.850213484057
 30
0.0
  0
SPLINE
  5
4B
330
1F
100
AcDbEntity
  8
Predefinito
100
AcDbSpline
210
0.0
220
0.0
230
1.0
 70
    24
 71
     2
 72
     6
 73
     3
 74
     0
 42
0.0000000001
 43
0.0000000001
 40
0.0
 40
0.0
 40
0.0
 40
41.5
 40
41.5
 40
41.5
 10
863.2415652960864
 20
1513.880900595022
 30
0.0
 10
863.2415652960864
 20
1534.630900595022
 30
0.0
 10
863.2415652960864
 20
1555.380900595022
 30
0.0
  0
SPLINE
  5
4C
330
1F
100
AcDbEntity
  8
Predefinito
100
AcDbSpline
210
0.0
220
0.0
230
1.0
 70
    24
 71
     2
 72
     6
 73
     3
 74
     0
 42
0.0000000001
 43
0.0000000001
 40
0.0
 40
0.0
 40
0.0
 40
0.5000000001759872
 40
0.5000000001759872
 40
0.5000000001759872
 10
865.4751915614881
 20
1512.880900594846
 30
0.0
 10
865.4751915614881
 20
1513.130900594934
 30
0.0
 10
865.4751915614881
 20
1513.380900595022
 30
0.0
  0
SPLINE
  5
4D
330
1F
100
AcDbEntity
  8
Predefinito
100
AcDbSpline
210
0.0
220
0.0
230
1.0
 70
    24
 71
     2
 72
     6
 73
     3
 74
     0
 42
0.0000000001
 43
0.0000000001
 40
0.0
 40
0.0
 40
0.0
 40
0.5000000001759872
 40
0.5000000001759872
 40
0.5000000001759872
 10
884.4776450947411
 20
1513.380900595022
 30
0.0
 10
884.4776450947411
 20
1513.130900594934
 30
0.0
 10
884.4776450947411
 20
1512.880900594846
 30
0.0
  0
SPLINE
  5
4E
330
1F
100
AcDbEntity
  8
Predefinito
100
AcDbSpline
210
0.0
220
0.0
230
1.0
 70
    12
 71
     2
 72
     6
 73
     3
 74
     0
 42
0.0000000001
 43
0.0000000001
 40
0.0
 40
0.0
 40
0.0
 40
0.3870173470454221
 40
0.3870173470454221
 40
0.3870173470454221
 10
886.7453245183301
 20
1503.93753805913
 30
0.0
 41
1.0
 10
886.7434897436679
 20
1503.7116911153
 30
0.0
 41
0.7983938726242055
 10
886.525837504309
 20
1503.651377674532
 30
0.0
 41
1.0
  0
SPLINE
  5
4F
330
1F
100
AcDbEntity
  8
Predefinito
100
AcDbSpline
210
0.0
220
0.0
230
1.0
 70
    24
 71
     2
 72
     6
 73
     3
 74
     0
 42
0.0000000001
 43
0.0000000001
 40
0.0
 40
0.0
 40
0.0
 40
6.400257126573816
 40
6.400257126573816
 40
6.400257126573816
 10
863.2150937284376
 20
1506.480900595022
 30
0.0
 10
863.1871676928988
 20
1509.680907307219
 30
0.0
 10
863.1592416573601
 20
1512.880914019415
 30
0.0
  0
SPLINE
  5
50
330
1F
100
AcDbEntity
  8
Predefinito
100
AcDbSpline
210
0.0
220
0.0
230
1.0
 70
    12
 71
     2
 72
     6
 73
     3
 74
     0
 42
0.0000000001
 43
0.0000000001
 40
0.0
 40
0.0
 40
0.0
 40
0.0180639491851701
 40
0.0180639491851701
 40
0.0180639491851701
 10
886.6313250716344
 20
1503.610433823115
 30
0.0
 41
1.0
 10
886.6233301321898
 20
1503.614635907769
 30
0.0
 41
0.9999999345298096
 10
886.6153321537332
 20
1503.618832205276
 30
0.0
 41
1.0
  0
SPLINE
  5
51
330
1F
100
AcDbEntity
  8
Predefinito
100
AcDbSpline
210
0.0
220
0.0
230
1.0
 70
    24
 71
     2
 72
     6
 73
     3
 74
     0
 42
0.0000000001
 43
0.0000000001
 40
0.0
 40
0.0
 40
0.0
 40
413.3431159206913
 40
413.3431159206913
 40
413.3431159206913
 10
875.0001704095366
 20
1506.480900595022
 30
0.0
 10
668.3286124491909
 20
1506.480900595022
 30
0.0
 10
461.6570544888453
 20
1506.480900595022
 30
0.0
  0
SPLINE
  5
52
330
1F
100
AcDbEntity
  8
Predefinito
100
AcDbSpline
210
0.0
220
0.0
230
1.0
 70
    24
 71
     2
 72
     6
 73
     3
 74
     0
 42
0.0000000001
 43
0.0000000001
 40
0.0
 40
0.0
 40
0.0
 40
0.5979448457385388
 40
0.5979448457385388
 40
0.5979448457385388
 10
886.7501704084566
 20
1503.427141731036
 30
0.0
 10
886.7501704084566
 20
1503.128169308167
 30
0.0
 10
886.7501704084566
 20
1502.829196885298
 30
0.0
  0
SPLINE
  5
53
330
1F
100
AcDbEntity
  8
Predefinito
100
AcDbSpline
210
0.0
220
0.0
230
1.0
 70
    12
 71
     2
 72
     6
 73
     3
 74
     0
 42
0.0000000001
 43
0.0000000001
 40
0.0
 40
0.0
 40
0.0
 40
0.2167616813985179
 40
0.2167616813985179
 40
0.2167616813985179
 10
886.6433155697471
 20
1503.604127546649
 30
0.0
 41
1.0
 10
886.7486371014335
 20
1503.546965607282
 30
0.0
 41
0.8626173276581415
 10
886.7501704084567
 20
1503.427141731036
 30
0.0
 41
1.0
  0
SPLINE
  5
54
330
1F
100
AcDbEntity
  8
Predefinito
100
AcDbSpline
210
0.0
220
0.0
230
1.0
 70
    12
 71
     2
 72
     6
 73
     3
 74
     0
 42
0.0000000001
 43
0.0000000001
 40
0.0
 40
0.0
 40
0.0
 40
0.006133029454949
 40
0.006133029454949
 40
0.006133029454949
 10
13.36568497578445
 20
1503.608682891426
 30
0.0
 41
1.0
 10
13.36297077266357
 20
1503.60725579154
 30
0.0
 41
0.9999999925752528
 10
13.36025691743179
 20
1503.605828030199
 30
0.0
 41
1.0
  0
SPLINE
  5
55
330
1F
100
AcDbEntity
  8
Predefinito
100
AcDbSpline
210
0.0
220
0.0
230
1.0
 70
    12
 71
     2
 72
     6
 73
     3
 74
     0
 42
0.0000000001
 43
0.0000000001
 40
0.0
 40
0.0
 40
0.0
 40
0.0574138971081113
 40
0.0574138971081113
 40
0.0574138971081113
 10
13.45793612996799
 20
1503.656943897105
 30
0.0
 41
1.0
 10
13.43247214008328
 20
1503.643689658772
 30
0.0
 41
0.9999993453252682
 10
13.40703854966024
 20
1503.630377179934
 30
0.0
 41
1.0
  0
SPLINE
  5
56
330
1F
100
AcDbEntity
  8
Predefinito
100
AcDbSpline
210
0.0
220
0.0
230
1.0
 70
    24
 71
     2
 72
     6
 73
     3
 74
     0
 42
0.0000000001
 43
0.0000000001
 40
0.0
 40
0.0
 40
0.0
 40
0.5979448457385388
 40
0.5979448457385388
 40
0.5979448457385388
 10
13.2501704084566
 20
1502.829196885298
 30
0.0
 10
13.2501704084566
 20
1503.128169308167
 30
0.0
 10
13.2501704084566
 20
1503.427141731036
 30
0.0
  0
SPLINE
  5
57
330
1F
100
AcDbEntity
  8
Predefinito
100
AcDbSpline
210
0.0
220
0.0
230
1.0
 70
    12
 71
     2
 72
     6
 73
     3
 74
     0
 42
0.0000000001
 43
0.0000000001
 40
0.0
 40
0.0
 40
0.0
 40
0.2167616813973471
 40
0.2167616813973471
 40
0.2167616813973471
 10
13.25017040845614
 20
1503.427141731036
 30
0.0
 41
1.0
 10
13.25170371548286
 20
1503.54696560728
 30
0.0
 41
0.8626173276725035
 10
13.35702524716609
 20
1503.604127546649
 30
0.0
 41
1.0
  0
SPLINE
  5
58
330
1F
100
AcDbEntity
  8
Predefinito
100
AcDbSpline
210
0.0
220
0.0
230
1.0
 70
    24
 71
     2
 72
     6
 73
     3
 74
     0
 42
0.0000000001
 43
0.0000000001
 40
0.0
 40
0.0
 40
0.0
 40
0.8425365450534255
 40
0.8425365450534255
 40
0.8425365450534255
 10
663.4915524698383
 20
1456.517069642451
 30
0.0
 10
663.0703697477479
 20
1456.508580116542
 30
0.0
 10
662.6491870256575
 20
1456.500090590634
 30
0.0
  0
SPLINE
  5
59
330
1F
100
AcDbEntity
  8
Predefinito
100
AcDbSpline
210
0.0
220
0.0
230
1.0
 70
    24
 71
     2
 72
     6
 73
     3
 74
     0
 42
0.0000000001
 43
0.0000000001
 40
0.0
 40
0.0
 40
0.0
 40
0.0939321990281314
 40
0.0939321990281314
 40
0.0939321990281314
 10
887.2176590083186
 20
1502.856410514976
 30
0.0
 10
887.2646251078327
 20
1502.856410514976
 30
0.0
 10
887.3115912073467
 20
1502.856410514976
 30
0.0
  0
SPLINE
  5
5A
330
1F
100
AcDbEntity
  8
Predefinito
100
AcDbSpline
210
0.0
220
0.0
230
1.0
 70
    24
 71
     2
 72
     6
 73
     3
 74
     0
 42
0.0000000001
 43
0.0000000001
 40
0.0
 40
0.0
 40
0.0
 40
210.1126828055311
 40
210.1126828055311
 40
210.1126828055311
 10
874.989484410166
 20
1456.230900595099
 30
0.0
 10
769.9331430074005
 20
1456.230900595099
 30
0.0
 10
664.8768016046349
 20
1456.230900595099
 30
0.0
  0
SPLINE
  5
5B
330
1F
100
AcDbEntity
  8
Predefinito
100
AcDbSpline
210
0.0
220
0.0
230
1.0
 70
    24
 71
     2
 72
     6
 73
     3
 74
     0
 42
0.0000000001
 43
0.0000000001
 40
0.0
 40
0.0
 40
0.0
 40
0.5195481142596419
 40
0.5195481142596419
 40
0.5195481142596419
 10
237.2794914435296
 20
1456.492640215381
 30
0.0
 10
237.0197701408686
 20
1456.487405169847
 30
0.0
 10
236.7600488382075
 20
1456.482170124314
 30
0.0
  0
SPLINE
  5
5C
330
1F
100
AcDbEntity
  8
Predefinito
100
AcDbSpline
210
0.0
220
0.0
230
1.0
 70
    12
 71
     2
 72
     6
 73
     3
 74
     0
 42
0.0000000001
 43
0.0000000001
 40
0.0
 40
0.0
 40
0.0
 40
0.2728351816387149
 40
0.2728351816387149
 40
0.2728351816387149
 10
229.616784559268
 20
1502.519837672407
 30
0.0
 41
1.0
 10
229.75311799225
 20
1502.52462872001
 30
0.0
 41
0.9999999999674868
 10
229.8894515024832
 20
1502.529417568856
 30
0.0
 41
1.0
  0
SPLINE
  5
5D
330
1F
100
AcDbEntity
  8
Predefinito
100
AcDbSpline
210
0.0
220
0.0
230
1.0
 70
    24
 71
     2
 72
     6
 73
     3
 74
     0
 42
0.0000000001
 43
0.0000000001
 40
0.0
 40
0.0
 40
0.0
 40
0.5666666666672882
 40
0.5666666666672882
 40
0.5666666666672882
 10
426.0001845556438
 20
1512.797567261688
 30
0.0
 10
426.0001845556438
 20
1513.080900595022
 30
0.0
 10
426.0001845556438
 20
1513.364233928355
 30
0.0
  0
SPLINE
  5
5E
330
1F
100
AcDbEntity
  8
Predefinito
100
AcDbSpline
210
0.0
220
0.0
230
1.0
 70
    24
 71
     2
 72
     6
 73
     3
 74
     0
 42
0.0000000001
 43
0.0000000001
 40
0.0
 40
0.0
 40
0.0
 40
0.5666666666672882
 40
0.5666666666672882
 40
0.5666666666672882
 10
474.0001845556438
 20
1513.364233928355
 30
0.0
 10
474.0001845556438
 20
1513.080900595022
 30
0.0
 10
474.0001845556438
 20
1512.797567261688
 30
0.0
  0
SPLINE
  5
5F
330
1F
100
AcDbEntity
  8
Predefinito
100
AcDbSpline
210
0.0
220
0.0
230
1.0
 70
    24
 71
     2
 72
     6
 73
     3
 74
     0
 42
0.0000000001
 43
0.0000000001
 40
0.0
 40
0.0
 40
0.0
 40
1.0
 40
1.0
 40
1.0
 10
31.00880381522558
 20
1556.380900595022
 30
0.0
 10
31.00880381522558
 20
1555.880900595022
 30
0.0
 10
31.00880381522558
 20
1555.380900595022
 30
0.0
  0
SPLINE
  5
60
330
1F
100
AcDbEntity
  8
Predefinito
100
AcDbSpline
210
0.0
220
0.0
230
1.0
 70
    24
 71
     2
 72
     6
 73
     3
 74
     0
 42
0.0000000001
 43
0.0000000001
 40
0.0
 40
0.0
 40
0.0
 40
0.6770505287875294
 40
0.6770505287875294
 40
0.6770505287875294
 10
13.75880381522529
 20
1513.380900595022
 30
0.0
 10
13.51943030516958
 20
1513.620274105078
 30
0.0
 10
13.28005679511386
 20
1513.859647615134
 30
0.0
  0
SPLINE
  5
61
330
1F
100
AcDbEntity
  8
Predefinito
100
AcDbSpline
210
0.0
220
0.0
230
1.0
 70
    24
 71
     2
 72
     6
 73
     3
 74
     0
 42
0.0000000001
 43
0.0000000001
 40
0.0
 40
0.0
 40
0.0
 40
41.5
 40
41.5
 40
41.5
 10
13.25880381522541
 20
1513.880900595022
 30
0.0
 10
13.25880381522541
 20
1534.630900595022
 30
0.0
 10
13.25880381522541
 20
1555.380900595022
 30
0.0
  0
SPLINE
  5
62
330
1F
100
AcDbEntity
  8
Predefinito
100
AcDbSpline
210
0.0
220
0.0
230
1.0
 70
    24
 71
     2
 72
     6
 73
     3
 74
     0
 42
0.0000000001
 43
0.0000000001
 40
0.0
 40
0.0
 40
0.0
 40
8.931687591424488
 40
8.931687591424488
 40
8.931687591424488
 10
13.25442309654607
 20
1503.94953618742
 30
0.0
 10
13.2154517519791
 20
1508.415209937484
 30
0.0
 10
13.17648040741213
 20
1512.880883687547
 30
0.0
  0
SPLINE
  5
63
330
1F
100
AcDbEntity
  8
Predefinito
100
AcDbSpline
210
0.0
220
0.0
230
1.0
 70
    24
 71
     2
 72
     6
 73
     3
 74
     0
 42
0.0000000001
 43
0.0000000001
 40
0.0
 40
0.0
 40
0.0
 40
1.0
 40
1.0
 40
1.0
 10
19.0088038152266
 20
1555.380900595022
 30
0.0
 10
19.00880381522657
 20
1555.880900595022
 30
0.0
 10
19.00880381522654
 20
1556.380900595022
 30
0.0
  0
SPLINE
  5
64
330
1F
100
AcDbEntity
  8
Predefinito
100
AcDbSpline
210
0.0
220
0.0
230
1.0
 70
    24
 71
     2
 72
     6
 73
     3
 74
     0
 42
0.0000000001
 43
0.0000000001
 40
0.0
 40
0.0
 40
0.0
 40
0.6770505287868887
 40
0.6770505287868887
 40
0.6770505287868887
 10
36.73755083533707
 20
1513.859647615133
 30
0.0
 10
36.49817732528146
 20
1513.620274105077
 30
0.0
 10
36.25880381522586
 20
1513.380900595022
 30
0.0
  0
SPLINE
  5
65
330
1F
100
AcDbEntity
  8
Predefinito
100
AcDbSpline
210
0.0
220
0.0
230
1.0
 70
    24
 71
     2
 72
     6
 73
     3
 74
     0
 42
0.0000000001
 43
0.0000000001
 40
0.0
 40
0.0
 40
0.0
 40
41.5
 40
41.5
 40
41.5
 10
36.75880381522586
 20
1555.380900595022
 30
0.0
 10
36.75880381522586
 20
1534.630900595022
 30
0.0
 10
36.75880381522586
 20
1513.880900595022
 30
0.0
  0
SPLINE
  5
66
330
1F
100
AcDbEntity
  8
Predefinito
100
AcDbSpline
210
0.0
220
0.0
230
1.0
 70
    24
 71
     2
 72
     6
 73
     3
 74
     0
 42
0.0000000001
 43
0.0000000001
 40
0.0
 40
0.0
 40
0.0
 40
0.5000000001759872
 40
0.5000000001759872
 40
0.5000000001759872
 10
34.52517754982398
 20
1513.380900595022
 30
0.0
 10
34.52517754982404
 20
1513.130900594934
 30
0.0
 10
34.52517754982409
 20
1512.880900594846
 30
0.0
  0
SPLINE
  5
67
330
1F
100
AcDbEntity
  8
Predefinito
100
AcDbSpline
210
0.0
220
0.0
230
1.0
 70
    24
 71
     2
 72
     6
 73
     3
 74
     0
 42
0.0000000001
 43
0.0000000001
 40
0.0
 40
0.0
 40
0.0
 40
0.5000000001759872
 40
0.5000000001759872
 40
0.5000000001759872
 10
15.5227240165712
 20
1512.880900594846
 30
0.0
 10
15.5227240165712
 20
1513.130900594934
 30
0.0
 10
15.5227240165712
 20
1513.380900595022
 30
0.0
  0
SPLINE
  5
68
330
1F
100
AcDbEntity
  8
Predefinito
100
AcDbSpline
210
0.0
220
0.0
230
1.0
 70
    12
 71
     2
 72
     6
 73
     3
 74
     0
 42
0.0000000001
 43
0.0000000001
 40
0.0
 40
0.0
 40
0.0
 40
0.4651496372180249
 40
0.4651496372180249
 40
0.4651496372180249
 10
13.55193004614249
 20
1503.640361475889
 30
0.0
 41
1.0
 10
13.25821627628351
 20
1503.643821039518
 30
0.0
 41
0.7150434394725245
 10
13.25504459298192
 20
1503.93753805913
 30
0.0
 41
1.0
  0
SPLINE
  5
69
330
1F
100
AcDbEntity
  8
Predefinito
100
AcDbSpline
210
0.0
220
0.0
230
1.0
 70
    24
 71
     2
 72
     6
 73
     3
 74
     0
 42
0.0000000001
 43
0.0000000001
 40
0.0
 40
0.0
 40
0.0
 40
6.400257126572452
 40
6.400257126572452
 40
6.400257126572452
 10
36.8411274539521
 20
1512.880914019415
 30
0.0
 10
36.81320141841339
 20
1509.680907307219
 30
0.0
 10
36.78527538287468
 20
1506.480900595023
 30
0.0
  0
SPLINE
  5
6A
330
1F
100
AcDbEntity
  8
Predefinito
100
AcDbSpline
210
0.0
220
0.0
230
1.0
 70
    24
 71
     2
 72
     6
 73
     3
 74
     0
 42
0.0000000001
 43
0.0000000001
 40
0.0
 40
0.0
 40
0.0
 40
0.6943279234416195
 40
0.6943279234416195
 40
0.6943279234416195
 10
657.2398124161972
 20
1502.856410514976
 30
0.0
 10
657.5869763779181
 20
1502.856410514976
 30
0.0
 10
657.9341403396388
 20
1502.856410514976
 30
0.0
  0
SPLINE
  5
6B
330
1F
100
AcDbEntity
  8
Predefinito
100
AcDbSpline
210
0.0
220
0.0
230
1.0
 70
    24
 71
     2
 72
     6
 73
     3
 74
     0
 42
0.0000000001
 43
0.0000000001
 40
0.0
 40
0.0
 40
0.0
 40
0.3774913852564623
 40
0.3774913852564623
 40
0.3774913852564623
 10
244.4923111673006
 20
1502.856410514976
 30
0.0
 10
244.6810568599288
 20
1502.856410514976
 30
0.0
 10
244.8698025525571
 20
1502.856410514976
 30
0.0
  0
SPLINE
  5
6C
330
1F
100
AcDbEntity
  8
Predefinito
100
AcDbSpline
210
0.0
220
0.0
230
1.0
 70
    24
 71
     2
 72
     6
 73
     3
 74
     0
 42
0.0000000001
 43
0.0000000001
 40
0.0
 40
0.0
 40
0.0
 40
0.3815703074580767
 40
0.3815703074580767
 40
0.3815703074580767
 10
242.7428052903768
 20
1502.856410514976
 30
0.0
 10
242.9335904441058
 20
1502.856410514976
 30
0.0
 10
243.1243755978349
 20
1502.856410514976
 30
0.0
  0
SPLINE
  5
6D
330
1F
100
AcDbEntity
  8
Predefinito
100
AcDbSpline
210
0.0
220
0.0
230
1.0
 70
    24
 71
     2
 72
     6
 73
     3
 74
     0
 42
0.0000000001
 43
0.0000000001
 40
0.0
 40
0.0
 40
0.0
 40
421.5164314588609
 40
421.5164314588609
 40
421.5164314588609
 10
660.7569428577295
 20
1456.230900595099
 30
0.0
 10
449.998727128299
 20
1456.230900595099
 30
0.0
 10
239.2405113988686
 20
1456.230900595099
 30
0.0
  0
SPLINE
  5
6E
330
1F
100
AcDbEntity
  8
Predefinito
100
AcDbSpline
210
0.0
220
0.0
230
1.0
 70
    24
 71
     2
 72
     6
 73
     3
 74
     0
 42
0.0000000001
 43
0.0000000001
 40
0.0
 40
0.0
 40
0.0
 40
0.1773228610655835
 40
0.1773228610655835
 40
0.1773228610655835
 10
37.21745506509318
 20
1502.856410514976
 30
0.0
 10
37.30611649562597
 20
1502.856410514976
 30
0.0
 10
37.39477792615877
 20
1502.856410514976
 30
0.0
  0
SPLINE
  5
6F
330
1F
100
AcDbEntity
  8
Predefinito
100
AcDbSpline
210
0.0
220
0.0
230
1.0
 70
    24
 71
     2
 72
     6
 73
     3
 74
     0
 42
0.0000000001
 43
0.0000000001
 40
0.0
 40
0.0
 40
0.0
 40
0.0979178643416034
 40
0.0979178643416034
 40
0.0979178643416034
 10
12.74763480521471
 20
1502.856410514976
 30
0.0
 10
12.79659373738551
 20
1502.856410514976
 30
0.0
 10
12.84555266955631
 20
1502.856410514976
 30
0.0
  0
SPLINE
  5
70
330
1F
100
AcDbEntity
  8
Predefinito
100
AcDbSpline
210
0.0
220
0.0
230
1.0
 70
    24
 71
     2
 72
     6
 73
     3
 74
     0
 42
0.0000000001
 43
0.0000000001
 40
0.0
 40
0.0
 40
0.0
 40
210.1126828055357
 40
210.1126828055357
 40
210.1126828055357
 10
235.1234682148404
 20
1456.230900595099
 30
0.0
 10
130.0671268120725
 20
1456.230900595099
 30
0.0
 10
25.0107854093047
 20
1456.230900595099
 30
0.0
  0
SPLINE
  5
71
330
1F
100
AcDbEntity
  8
Predefinito
100
AcDbSpline
210
0.0
220
0.0
230
1.0
 70
    24
 71
     2
 72
     6
 73
     3
 74
     0
 42
0.0000000001
 43
0.0000000001
 40
0.0
 40
0.0
 40
0.0
 40
0.6786973032780043
 40
0.6786973032780043
 40
0.6786973032780043
 10
461.7293671567061
 20
1513.860812060543
 30
0.0
 10
461.4894114239456
 20
1513.620856327782
 30
0.0
 10
461.2494556911852
 20
1513.380900595022
 30
0.0
  0
SPLINE
  5
72
330
1F
100
AcDbEntity
  8
Predefinito
100
AcDbSpline
210
0.0
220
0.0
230
1.0
 70
    24
 71
     2
 72
     6
 73
     3
 74
     0
 42
0.0000000001
 43
0.0000000001
 40
0.0
 40
0.0
 40
0.0
 40
41.5
 40
41.5
 40
41.5
 10
461.7494556911851
 20
1555.380900595022
 30
0.0
 10
461.7494556911851
 20
1534.630900595022
 30
0.0
 10
461.7494556911851
 20
1513.880900595022
 30
0.0
  0
SPLINE
  5
73
330
1F
100
AcDbEntity
  8
Predefinito
100
AcDbSpline
210
0.0
220
0.0
230
1.0
 70
    24
 71
     2
 72
     6
 73
     3
 74
     0
 42
0.0000000001
 43
0.0000000001
 40
0.0
 40
0.0
 40
0.0
 40
1.0
 40
1.0
 40
1.0
 10
455.9994556911848
 20
1556.380900595022
 30
0.0
 10
455.9994556911848
 20
1555.880900595022
 30
0.0
 10
455.9994556911848
 20
1555.380900595022
 30
0.0
  0
SPLINE
  5
74
330
1F
100
AcDbEntity
  8
Predefinito
100
AcDbSpline
210
0.0
220
0.0
230
1.0
 70
    24
 71
     2
 72
     6
 73
     3
 74
     0
 42
0.0000000001
 43
0.0000000001
 40
0.0
 40
0.0
 40
0.0
 40
0.678697303277964
 40
0.678697303277964
 40
0.678697303277964
 10
438.7494556911851
 20
1513.380900595022
 30
0.0
 10
438.5094999584247
 20
1513.620856327782
 30
0.0
 10
438.2695442256643
 20
1513.860812060543
 30
0.0
  0
SPLINE
  5
75
330
1F
100
AcDbEntity
  8
Predefinito
100
AcDbSpline
210
0.0
220
0.0
230
1.0
 70
    24
 71
     2
 72
     6
 73
     3
 74
     0
 42
0.0000000001
 43
0.0000000001
 40
0.0
 40
0.0
 40
0.0
 40
0.5000000001759872
 40
0.5000000001759872
 40
0.5000000001759872
 10
459.4969491578192
 20
1513.380900595022
 30
0.0
 10
459.4969491578192
 20
1513.130900594934
 30
0.0
 10
459.4969491578192
 20
1512.880900594846
 30
0.0
  0
SPLINE
  5
76
330
1F
100
AcDbEntity
  8
Predefinito
100
AcDbSpline
210
0.0
220
0.0
230
1.0
 70
    12
 71
     2
 72
     6
 73
     3
 74
     0
 42
0.0000000001
 43
0.0000000001
 40
0.0
 40
0.0
 40
0.0
 40
0.1653942447168158
 40
0.1653942447168158
 40
0.1653942447168158
 10
438.3013263622212
 20
1506.509328071938
 30
0.0
 41
1.0
 10
438.253104183005
 20
1506.57908616084
 30
0.0
 41
0.9631619311188446
 10
438.2479936287185
 20
1506.66373515239
 30
0.0
 41
1.0
  0
SPLINE
  5
77
330
1F
100
AcDbEntity
  8
Predefinito
100
AcDbSpline
210
0.0
220
0.0
230
1.0
 70
    28
 71
     3
 72
    10
 73
     6
 74
     0
 42
0.0000000001
 43
0.0000000001
 40
-496.1997331641336
 40
-496.1997331641336
 40
-496.1997331641336
 40
-496.1997331641336
 40
-463.086464497173
 40
-414.921710072502
 40
-370.469171597738
 40
-370.469171597738
 40
-370.469171597738
 40
-370.469171597738
 10
332.104093195789
 20
1513.330900595022
 30
0.0
 41
1.0
 10
331.899723398138
 20
1513.330900595022
 30
0.0
 41
1.0
 10
335.1837566580155
 20
1513.330900595022
 30
0.0
 41
1.0
 10
354.4152373782963
 20
1513.330900595022
 30
0.0
 41
1.0
 10
378.2066127767292
 20
1513.330900595022
 30
0.0
 41
1.0
 10
391.0380553057175
 20
1513.330900595022
 30
0.0
 41
1.0
  0
SPLINE
  5
78
330
1F
100
AcDbEntity
  8
Predefinito
100
AcDbSpline
210
0.0
220
0.0
230
1.0
 70
    24
 71
     2
 72
     6
 73
     3
 74
     0
 42
0.0000000001
 43
0.0000000001
 40
0.0
 40
0.0
 40
0.0
 40
106.6832604906224
 40
106.6832604906224
 40
106.6832604906224
 10
461.2132180744111
 20
1513.330900595022
 30
0.0
 10
514.5548483197223
 20
1513.330900595022
 30
0.0
 10
567.8964785650335
 20
1513.330900595022
 30
0.0
  0
SPLINE
  5
79
330
1F
100
AcDbEntity
  8
Predefinito
100
AcDbSpline
210
0.0
220
0.0
230
1.0
 70
    24
 71
     2
 72
     6
 73
     3
 74
     0
 42
0.0000000001
 43
0.0000000001
 40
0.0
 40
0.0
 40
0.0
 40
47.74763799259131
 40
47.74763799259131
 40
47.74763799259131
 10
391.0380553057175
 20
1513.330900595022
 30
0.0
 10
414.9118743020132
 20
1513.330900595022
 30
0.0
 10
438.7856932983088
 20
1513.330900595022
 30
0.0
  0
SPLINE
  5
7A
330
1F
100
AcDbEntity
  8
Predefinito
100
AcDbSpline
210
0.0
220
0.0
230
1.0
 70
    24
 71
     2
 72
     6
 73
     3
 74
     0
 42
0.0000000001
 43
0.0000000001
 40
0.0
 40
0.0
 40
0.0
 40
112.3037820003571
 40
112.3037820003571
 40
112.3037820003571
 10
455.9678605715434
 20
1556.330900595022
 30
0.0
 10
512.119751571722
 20
1556.330900595022
 30
0.0
 10
568.2716425719005
 20
1556.330900595022
 30
0.0
  0
SPLINE
  5
7B
330
1F
100
AcDbEntity
  8
Predefinito
100
AcDbSpline
210
0.0
220
0.0
230
1.0
 70
    24
 71
     2
 72
     6
 73
     3
 74
     0
 42
0.0000000001
 43
0.0000000001
 40
0.0
 40
0.0
 40
0.0
 40
53.17041608836382
 40
53.17041608836382
 40
53.17041608836382
 10
390.850427648212
 20
1556.330900595022
 30
0.0
 10
417.4356356923939
 20
1556.330900595022
 30
0.0
 10
444.0208437365758
 20
1556.330900595022
 30
0.0
  0
SPLINE
  5
7C
330
1F
100
AcDbEntity
  8
Predefinito
100
AcDbSpline
210
0.0
220
0.0
230
1.0
 70
    28
 71
     3
 72
    10
 73
     6
 74
     0
 42
0.0000000001
 43
0.0000000001
 40
-496.1997331641336
 40
-496.1997331641336
 40
-496.1997331641336
 40
-496.1997331641336
 40
-463.086464497173
 40
-414.921710072502
 40
-370.469171597738
 40
-370.469171597738
 40
-370.469171597738
 40
-370.469171597738
 10
331.7289282866668
 20
1556.330900595022
 30
0.0
 41
1.0
 10
331.5239081517771
 20
1556.330900595022
 30
0.0
 41
1.0
 10
334.8183917284107
 20
1556.330900595022
 30
0.0
 41
1.0
 10
354.111070082614
 20
1556.330900595022
 30
0.0
 41
1.0
 10
377.9781534259177
 20
1556.330900595022
 30
0.0
 41
1.0
 10
390.850427648212
 20
1556.330900595022
 30
0.0
 41
1.0
  0
SPLINE
  5
7D
330
1F
100
AcDbEntity
  8
Predefinito
100
AcDbSpline
210
0.0
220
0.0
230
1.0
 70
    12
 71
     2
 72
     6
 73
     3
 74
     0
 42
0.0000000001
 43
0.0000000001
 40
0.0
 40
0.0
 40
0.0
 40
0.5000478537726688
 40
0.5000478537726688
 40
0.5000478537726688
 10
900.0002039438339
 20
1481.480900548081
 30
0.0
 41
1.0
 10
900.000203943365
 20
1481.230868285136
 30
0.0
 41
0.9999499908455991
 10
899.9952031525019
 20
1480.980886036556
 30
0.0
 41
1.0
  0
SPLINE
  5
7E
330
1F
100
AcDbEntity
  8
Predefinito
100
AcDbSpline
210
0.0
220
0.0
230
1.0
 70
    12
 71
     2
 72
     6
 73
     3
 74
     0
 42
0.0000000001
 43
0.0000000001
 40
0.0
 40
0.0
 40
0.0
 40
1.326997204889907
 40
1.326997204889907
 40
1.326997204889907
 10
899.9631581950327
 20
1482.841383984329
 30
0.0
 41
1.0
 10
899.9992738281019
 20
1482.178712978456
 30
0.0
 41
0.9996478363554606
 10
900.0001806076594
 20
1481.515059169059
 30
0.0
 41
1.0
  0
SPLINE
  5
7F
330
1F
100
AcDbEntity
  8
Predefinito
100
AcDbSpline
210
0.0
220
0.0
230
1.0
 70
    12
 71
     2
 72
     6
 73
     3
 74
     0
 42
0.0000000001
 43
0.0000000001
 40
0.0
 40
0.0
 40
0.0
 40
21.42063369200878
 40
21.42063369200878
 40
21.42063369200878
 10
887.5177536939027
 20
1503.121393848529
 30
0.0
 41
1.0
 10
897.4009934903536
 20
1497.404613533276
 30
0.0
 41
0.9096263142101935
 10
899.5523781783403
 20
1486.191605463569
 30
0.0
 41
1.0
  0
SPLINE
  5
80
330
1F
100
AcDbEntity
  8
Predefinito
100
AcDbSpline
210
0.0
220
0.0
230
1.0
 70
    24
 71
     2
 72
     6
 73
     3
 74
     0
 42
0.0000000001
 43
0.0000000001
 40
0.0
 40
0.0
 40
0.0
 40
0.0606083240561475
 40
0.0606083240561475
 40
0.0606083240561475
 10
887.2176590087618
 20
1502.887687946047
 30
0.0
 10
887.2176590087618
 20
1502.917992108075
 30
0.0
 10
887.2176590087616
 20
1502.948296270103
 30
0.0
  0
SPLINE
  5
81
330
1F
100
AcDbEntity
  8
Predefinito
100
AcDbSpline
210
0.0
220
0.0
230
1.0
 70
    12
 71
     2
 72
     8
 73
     5
 74
     0
 42
0.0000000001
 43
0.0000000001
 40
0.0
 40
0.0
 40
0.0
 40
0.2094886924475598
 40
0.2094886924475598
 40
0.4189773848951196
 40
0.4189773848951196
 40
0.4189773848951196
 10
887.2176590087616
 20
1502.948296270103
 30
0.0
 41
1.0
 10
887.217658986264
 20
1503.063802800245
 30
0.0
 41
0.8659239900398447
 10
887.3177139799865
 20
1503.121515508868
 30
0.0
 41
1.0
 10
887.417768973709
 20
1503.17922821749
 30
0.0
 41
0.8659239900398447
 10
887.5177536939027
 20
1503.121393848529
 30
0.0
 41
1.0
  0
SPLINE
  5
82
330
1F
100
AcDbEntity
  8
Predefinito
100
AcDbSpline
210
0.0
220
0.0
230
1.0
 70
    24
 71
     2
 72
     6
 73
     3
 74
     0
 42
0.0000000001
 43
0.0000000001
 40
0.0
 40
0.0
 40
0.0
 40
10.77689543280781
 40
10.77689543280781
 40
10.77689543280781
 10
875.9620042685816
 20
1513.880900595022
 30
0.0
 10
881.3504519849855
 20
1513.880900595022
 30
0.0
 10
886.7388997013894
 20
1513.880900595022
 30
0.0
  0
SPLINE
  5
83
330
1F
100
AcDbEntity
  8
Predefinito
100
AcDbSpline
210
0.0
220
0.0
230
1.0
 70
    12
 71
     2
 72
     6
 73
     3
 74
     0
 42
0.0000000001
 43
0.0000000001
 40
0.0
 40
0.0
 40
0.0
 40
12.15422623605493
 40
12.15422623605493
 40
12.15422623605493
 10
874.9915652960856
 20
1506.673955460628
 30
0.0
 41
1.0
 10
881.1778203860462
 20
1506.682662264395
 30
0.0
 41
0.9737434694332122
 10
886.7267468569825
 20
1503.947841819349
 30
0.0
 41
1.0
  0
SPLINE
  5
84
330
1F
100
AcDbEntity
  8
Predefinito
100
AcDbSpline
210
0.0
220
0.0
230
1.0
 70
    28
 71
     2
 72
     8
 73
     5
 74
     0
 42
0.0000000001
 43
0.0000000001
 40
-29.44843676887621
 40
-29.44843676887621
 40
-29.44843676887621
 40
-28.2743338823081
 40
-28.2743338823081
 40
-18.8495559215388
 40
-18.8495559215388
 40
-18.8495559215388
 10
869.0330497973802
 20
1556.380900595022
 30
0.0
 41
0.9363003683069153
 10
868.9781433004838
 20
1556.380900595022
 30
0.0
 41
0.9636002104610945
 10
869.0233138033882
 20
1556.380900595022
 30
0.0
 41
1.0
 10
869.5169437940524
 20
1556.380900595022
 30
0.0
 41
0.707106781186548
 10
875.4976317578855
 20
1556.380900595022
 30
0.0
 41
1.0
  0
SPLINE
  5
85
330
1F
100
AcDbEntity
  8
Predefinito
100
AcDbSpline
210
0.0
220
0.0
230
1.0
 70
    24
 71
     2
 72
     6
 73
     3
 74
     0
 42
0.0000000001
 43
0.0000000001
 40
0.0
 40
0.0
 40
0.0
 40
5.47702597017701
 40
5.47702597017701
 40
5.47702597017701
 10
875.4976317578855
 20
1556.380900595022
 30
0.0
 10
878.236144742974
 20
1556.380900595022
 30
0.0
 10
880.9746577280625
 20
1556.380900595022
 30
0.0
  0
SPLINE
  5
86
330
1F
100
AcDbEntity
  8
Predefinito
100
AcDbSpline
210
0.0
220
0.0
230
1.0
 70
    12
 71
     2
 72
     8
 73
     5
 74
     0
 42
0.0000000001
 43
0.0000000001
 40
0.0
 40
0.0
 40
0.0
 40
0.0398403650807495
 40
0.0398403650807495
 40
1.610636691875649
 40
1.610636691875649
 40
1.610636691875649
 10
863.2442308907829
 20
1513.880900621414
 30
0.0
 41
1.0
 10
863.2641510733233
 20
1513.880900621415
 30
0.0
 41
1.0
 10
863.2840712558636
 20
1513.880900621416
 30
0.0
 41
1.0
 10
864.2545102283585
 20
1513.880900595022
 30
0.0
 41
0.707106781186547
 10
875.9620042685816
 20
1513.880900595022
 30
0.0
 41
1.0
  0
SPLINE
  5
87
330
1F
100
AcDbEntity
  8
Predefinito
100
AcDbSpline
210
0.0
220
0.0
230
1.0
 70
    28
 71
     2
 72
     8
 73
     5
 74
     0
 42
0.0000000001
 43
0.0000000001
 40
17.33326363657228
 40
17.33326363657228
 40
17.33326363657228
 40
18.4850548155801
 40
18.4850548155801
 40
36.9137136797053
 40
36.9137136797053
 40
36.9137136797053
 10
863.2418680040292
 20
1555.380900595022
 30
0.0
 41
0.965775945996124
 10
863.2380758439332
 20
1555.380900595022
 30
0.0
 41
0.9817471711979329
 10
863.2817086455117
 20
1555.380900595022
 30
0.0
 41
1.0
 10
864.2498243094298
 20
1555.380900595022
 30
0.0
 41
0.707954739166925
 10
875.9339026569506
 20
1555.380900595022
 30
0.0
 41
1.0
  0
SPLINE
  5
88
330
1F
100
AcDbEntity
  8
Predefinito
100
AcDbSpline
210
0.0
220
0.0
230
1.0
 70
    24
 71
     2
 72
     6
 73
     3
 74
     0
 42
0.0000000001
 43
0.0000000001
 40
0.0
 40
0.0
 40
0.0
 40
10.7509330919703
 40
10.7509330919703
 40
10.7509330919703
 10
875.9901058802127
 20
1555.380900595022
 30
0.0
 10
881.3655724261978
 20
1555.380900595022
 30
0.0
 10
886.741038972183
 20
1555.380900595022
 30
0.0
  0
SPLINE
  5
89
330
1F
100
AcDbEntity
  8
Predefinito
100
AcDbSpline
210
0.0
220
0.0
230
1.0
 70
    28
 71
     2
 72
     6
 73
     3
 74
     0
 42
0.0000000001
 43
0.0000000001
 40
-17.6714586764426
 40
-17.6714586764426
 40
-17.6714586764426
 40
-0.0463618773456821
 40
-0.0463618773456821
 40
-0.0463618773456821
 10
886.2053276787186
 20
1513.380900595022
 30
0.0
 41
1.0
 10
887.1042216797177
 20
1513.380900595022
 30
0.0
 41
0.7078751998968899
 10
875.9354347308481
 20
1513.380900595022
 30
0.0
 41
0.9984671945423422
  0
SPLINE
  5
8A
330
1F
100
AcDbEntity
  8
Predefinito
100
AcDbSpline
210
0.0
220
0.0
230
1.0
 70
    24
 71
     2
 72
     6
 73
     3
 74
     0
 42
0.0000000001
 43
0.0000000001
 40
0.0
 40
0.0
 40
0.0
 40
12.11600028133398
 40
12.11600028133398
 40
12.11600028133398
 10
875.8938031947866
 20
1513.380900595022
 30
0.0
 10
869.8358030541197
 20
1513.380900595022
 30
0.0
 10
863.7778029134527
 20
1513.380900595022
 30
0.0
  0
SPLINE
  5
8B
330
1F
100
AcDbEntity
  8
Predefinito
100
AcDbSpline
210
0.0
220
0.0
230
1.0
 70
    24
 71
     2
 72
     6
 73
     3
 74
     0
 42
0.0000000001
 43
0.0000000001
 40
0.0
 40
0.0
 40
0.0
 40
11.82897811250439
 40
11.82897811250439
 40
11.82897811250439
 10
874.9929732019018
 20
1512.880900594756
 30
0.0
 10
880.907462258154
 20
1512.880900594822
 30
0.0
 10
886.8219513144062
 20
1512.880900594889
 30
0.0
  0
SPLINE
  5
8C
330
1F
100
AcDbEntity
  8
Predefinito
100
AcDbSpline
210
0.0
220
0.0
230
1.0
 70
    12
 71
     2
 72
     6
 73
     3
 74
     0
 42
0.0000000001
 43
0.0000000001
 40
0.0
 40
0.0
 40
0.0
 40
11.83425277007442
 40
11.83425277007442
 40
11.83425277007442
 10
863.1573122225227
 20
1512.880899980664
 30
0.0
 41
1.0
 10
869.0744386075595
 20
1512.880900900815
 30
0.0
 41
0.9999999999999946
 10
874.9915649925971
 20
1512.880900597801
 30
0.0
 41
1.0
  0
SPLINE
  5
8D
330
1F
100
AcDbEntity
  8
Predefinito
100
AcDbSpline
210
0.0
220
0.0
230
1.0
 70
    28
 71
     2
 72
     8
 73
     5
 74
     0
 42
0.0000000001
 43
0.0000000001
 40
-1778.497325474626
 40
-1778.497325474626
 40
-1778.497325474626
 40
-1335.17687777567
 40
-1335.17687777567
 40
-667.588438887837
 40
-667.588438887837
 40
-667.588438887837
 10
886.6280105364895
 20
1503.604127546649
 30
0.0
 41
0.8693207135298867
 10
888.7591886423753
 20
1503.604127546649
 30
0.0
 41
0.8055005968816922
 10
668.3217429891016
 20
1503.604127546649
 30
0.0
 41
1.0
 10
290.1776868910878
 20
1503.604127546649
 30
0.0
 41
0.707106781186548
 10
71.85611431044282
 20
1503.604127546649
 30
0.0
 41
1.0
  0
SPLINE
  5
8E
330
1F
100
AcDbEntity
  8
Predefinito
100
AcDbSpline
210
0.0
220
0.0
230
1.0
 70
    28
 71
     2
 72
     8
 73
     5
 74
     0
 42
0.0000000001
 43
0.0000000001
 40
916.0939401176188
 40
916.0939401176188
 40
916.0939401176188
 40
1371.46227292462
 40
1371.46227292462
 40
2057.19340938694
 40
2057.19340938694
 40
2057.19340938694
 10
886.734861629768
 20
1503.427141731036
 30
0.0
 41
0.8693207135298867
 10
888.866561275257
 20
1503.427141731036
 30
0.0
 41
0.8055005968816922
 10
668.3751704084568
 20
1503.427141731036
 30
0.0
 41
1.0
 10
290.1385753056029
 20
1503.427141731036
 30
0.0
 41
0.707106781186548
 10
71.7635753056029
 20
1503.427141731036
 30
0.0
 41
1.0
  0
SPLINE
  5
8F
330
1F
100
AcDbEntity
  8
Predefinito
100
AcDbSpline
210
0.0
220
0.0
230
1.0
 70
    24
 71
     2
 72
     6
 73
     3
 74
     0
 42
0.0000000001
 43
0.0000000001
 40
0.0
 40
0.0
 40
0.0
 40
58.48842166505852
 40
58.48842166505852
 40
58.48842166505852
 10
13.36769264538429
 20
1503.604127546649
 30
0.0
 10
42.61190347791356
 20
1503.604127546649
 30
0.0
 10
71.85611431044282
 20
1503.604127546649
 30
0.0
  0
SPLINE
  5
90
330
1F
100
AcDbEntity
  8
Predefinito
100
AcDbSpline
210
0.0
220
0.0
230
1.0
 70
    24
 71
     2
 72
     6
 73
     3
 74
     0
 42
0.0000000001
 43
0.0000000001
 40
0.0
 40
0.0
 40
0.0
 40
58.4980961184577
 40
58.4980961184577
 40
58.4980961184577
 10
71.7635753056029
 20
1503.427141731036
 30
0.0
 10
42.51452724637405
 20
1503.427141731036
 30
0.0
 10
13.2654791871452
 20
1503.427141731036
 30
0.0
  0
SPLINE
  5
91
330
1F
100
AcDbEntity
  8
Predefinito
100
AcDbSpline
210
0.0
220
0.0
230
1.0
 70
    12
 71
     2
 72
     8
 73
     5
 74
     0
 42
0.0000000001
 43
0.0000000001
 40
0.0
 40
0.0
 40
0.0
 40
6.036678013966193
 40
6.036678013966193
 40
31.53577186322071
 40
31.53577186322071
 40
31.53577186322071
 10
676.4622495351974
 20
1480.980921246711
 30
0.0
 41
1.0
 10
676.433154550582
 20
1477.958687281244
 30
0.0
 41
0.9979986358783606
 10
676.0228325416801
 20
1474.964295772244
 30
0.0
 41
1.0
 10
674.1342611765373
 20
1461.288006112486
 30
0.0
 41
0.8364940810300026
 10
667.2662977531406
 20
1457.768688205598
 30
0.0
 41
0.9347486721227567
  0
SPLINE
  5
92
330
1F
100
AcDbEntity
  8
Predefinito
100
AcDbSpline
210
0.0
220
0.0
230
1.0
 70
    12
 71
     2
 72
     6
 73
     3
 74
     0
 42
0.0000000001
 43
0.0000000001
 40
0.0
 40
0.0
 40
0.0
 40
25.03000383549964
 40
25.03000383549964
 40
25.03000383549964
 10
670.5140249309001
 20
1502.494005105892
 30
0.0
 41
1.0
 10
676.4640216907493
 20
1495.367220395847
 30
0.0
 41
0.8395019915946709
 10
676.464854940407
 20
1481.48914477498
 30
0.0
 41
0.9312222086801832
  0
SPLINE
  5
93
330
1F
100
AcDbEntity
  8
Predefinito
100
AcDbSpline
210
0.0
220
0.0
230
1.0
 70
    12
 71
     2
 72
     8
 73
     5
 74
     0
 42
0.0000000001
 43
0.0000000001
 40
0.524409553685064
 40
0.524409553685064
 40
0.524409553685064
 40
1.83300110363743
 40
1.83300110363743
 40
3.003353162968525
 40
3.003353162968525
 40
3.003353162968525
 10
667.8929198797001
 20
1503.121393848529
 30
0.0
 41
1.0
 10
676.1921031315536
 20
1493.520370616469
 30
0.0
 41
0.793476716599578
 10
673.7069053111235
 20
1475.000635605752
 30
0.0
 41
1.0
 10
671.5437215461822
 20
1458.880554629964
 30
0.0
 41
0.815293817206522
 10
663.2702389585016
 20
1456.695969965782
 30
0.0
 41
0.9609753117771546
  0
SPLINE
  5
94
330
1F
100
AcDbEntity
  8
Predefinito
100
AcDbSpline
210
0.0
220
0.0
230
1.0
 70
    12
 71
     2
 72
     8
 73
     5
 74
     0
 42
0.0000000001
 43
0.0000000001
 40
3.575206907576942
 40
3.575206907576942
 40
3.575206907576942
 40
4.44399159072157
 40
4.44399159072157
 40
5.74639052785335
 40
5.74639052785335
 40
5.74639052785335
 10
666.6985803442734
 20
1459.191867747857
 30
0.0
 41
0.9091021017826593
 10
671.9170789145105
 20
1463.934783021035
 30
0.0
 41
0.8634900433539658
 10
673.4371447252609
 20
1474.988459075759
 30
0.0
 41
1.0
 10
675.9110856114297
 20
1492.978562491576
 30
0.0
 41
0.795357323980235
 10
667.8941384523353
 20
1502.520029251878
 30
0.0
 41
1.0
  0
SPLINE
  5
95
330
1F
100
AcDbEntity
  8
Predefinito
100
AcDbSpline
210
0.0
220
0.0
230
1.0
 70
    12
 71
     2
 72
     8
 73
     5
 74
     0
 42
0.0000000001
 43
0.0000000001
 40
-130.554313166301
 40
-130.554313166301
 40
-130.554313166301
 40
-97.9157348747257
 40
-97.9157348747257
 40
-65.54620522593997
 40
-65.54620522593997
 40
-65.54620522593997
 10
669.6426372663826
 20
1503.060540140588
 30
0.0
 41
1.0
 10
677.9080100361384
 20
1493.444600416043
 30
0.0
 41
0.793848667223862
 10
675.4181321339746
 20
1474.980205570562
 30
0.0
 41
1.0
 10
672.9540537276681
 20
1456.707134194366
 30
0.0
 41
0.7955480285072234
 10
663.4915521747505
 20
1456.517069652162
 30
0.0
 41
0.9966292940241235
  0
SPLINE
  5
96
330
1F
100
AcDbEntity
  8
Predefinito
100
AcDbSpline
210
0.0
220
0.0
230
1.0
 70
    24
 71
     2
 72
     6
 73
     3
 74
     0
 42
0.0000000001
 43
0.0000000001
 40
0.0
 40
0.0
 40
0.0
 40
0.4262893763664124
 40
0.4262893763664124
 40
0.4262893763664124
 10
667.74287253713
 20
1502.522006893737
 30
0.0
 10
667.7428725371301
 20
1502.73515158192
 30
0.0
 10
667.7428725371301
 20
1502.948296270103
 30
0.0
  0
SPLINE
  5
97
330
1F
100
AcDbEntity
  8
Predefinito
100
AcDbSpline
210
0.0
220
0.0
230
1.0
 70
    12
 71
     2
 72
     6
 73
     3
 74
     0
 42
0.0000000001
 43
0.0000000001
 40
0.0
 40
0.0
 40
0.0
 40
0.4174888684619636
 40
0.4174888684619636
 40
0.4174888684619636
 10
670.0965159742271
 20
1502.506287020358
 30
0.0
 41
1.0
 10
670.3051702244346
 20
1502.50015165586
 30
0.0
 41
0.9999999999199113
 10
670.5138243192747
 20
1502.494011009854
 30
0.0
 41
1.0
  0
SPLINE
  5
98
330
1F
100
AcDbEntity
  8
Predefinito
100
AcDbSpline
210
0.0
220
0.0
230
1.0
 70
    12
 71
     2
 72
     6
 73
     3
 74
     0
 42
0.0000000001
 43
0.0000000001
 40
0.0
 40
0.0
 40
0.0
 40
0.5621970768658643
 40
0.5621970768658643
 40
0.5621970768658643
 10
667.331987966013
 20
1502.503353311628
 30
0.0
 41
1.0
 10
667.6129627603356
 20
1502.511693172549
 30
0.0
 41
0.9999999998501282
 10
667.8939378432678
 20
1502.520023304373
 30
0.0
 41
1.0
  0
SPLINE
  5
99
330
1F
100
AcDbEntity
  8
Predefinito
100
AcDbSpline
210
0.0
220
0.0
230
1.0
 70
    12
 71
     2
 72
     6
 73
     3
 74
     0
 42
0.0000000001
 43
0.0000000001
 40
0.0
 40
0.0
 40
0.0
 40
1.750574624436681
 40
1.750574624436681
 40
1.750574624436681
 10
667.8929198797002
 20
1503.121393848527
 30
0.0
 41
1.0
 10
668.7676798075828
 20
1503.0910137769
 30
0.0
 41
0.9999999987754701
 10
669.6424367242842
 20
1503.060547125225
 30
0.0
 41
1.0
  0
SPLINE
  5
9A
330
1F
100
AcDbEntity
  8
Predefinito
100
AcDbSpline
210
0.0
220
0.0
230
1.0
 70
     8
 71
     3
 72
    10
 73
     6
 74
     0
 42
0.0000000001
 43
0.0000000001
 40
0.0
 40
0.0
 40
0.0
 40
0.0
 40
0.183901678429197
 40
0.243209602151882
 40
0.3000707575384443
 40
0.3000707575384443
 40
0.3000707575384443
 40
0.3000707575384443
 10
667.7428725371301
 20
1502.948296270103
 30
0.0
 10
667.7454503606816
 20
1503.007742816269
 30
0.0
 10
667.7549908110103
 20
1503.096204377156
 30
0.0
 10
667.8408087649804
 20
1503.161236819724
 30
0.0
 10
667.8829175720177
 20
1503.135234552635
 30
0.0
 10
667.8928338421085
 20
1503.121493267153
 30
0.0
  0
SPLINE
  5
9B
330
1F
100
AcDbEntity
  8
Predefinito
100
AcDbSpline
210
0.0
220
0.0
230
1.0
 70
    24
 71
     2
 72
     6
 73
     3
 74
     0
 42
0.0000000001
 43
0.0000000001
 40
0.0
 40
0.0
 40
0.0
 40
0.2493260549933248
 40
0.2493260549933248
 40
0.2493260549933248
 10
676.7292566829584
 20
1481.480904515279
 30
0.0
 10
676.6046632415429
 20
1481.485069221855
 30
0.0
 10
676.4800698001274
 20
1481.489233928432
 30
0.0
  0
SPLINE
  5
9C
330
1F
100
AcDbEntity
  8
Predefinito
100
AcDbSpline
210
0.0
220
0.0
230
1.0
 70
    24
 71
     2
 72
     6
 73
     3
 74
     0
 42
0.0000000001
 43
0.0000000001
 40
0.0
 40
0.0
 40
0.0
 40
223.2650923626155
 40
223.2650923626155
 40
223.2650923626155
 10
676.7293835605461
 20
1481.480900595098
 30
0.0
 10
788.3619297418538
 20
1481.480900595098
 30
0.0
 10
899.9944759231616
 20
1481.480900595098
 30
0.0
  0
SPLINE
  5
9D
330
1F
100
AcDbEntity
  8
Predefinito
100
AcDbSpline
210
0.0
220
0.0
230
1.0
 70
    12
 71
     3
 72
    10
 73
     6
 74
     0
 42
0.0000000001
 43
0.0000000001
 40
-1.0
 40
-1.0
 40
-1.0
 40
-1.0
 40
-0.4999237927867715
 40
-0.4999237927867715
 40
-0.0001538761279635
 40
-0.0001538761279635
 40
-0.0001538761279635
 40
-0.0001538761279635
 10
670.5250451213661
 20
1502.829196885298
 30
0.0
 41
1.0
 10
672.3030531574402
 20
1500.756322688305
 30
0.0
 41
1.0
 10
673.9319756856746
 20
1497.599298606186
 30
0.0
 41
1.0
 10
676.1438028119941
 20
1489.987481747824
 30
0.0
 41
1.0
 10
676.7084519849795
 20
1485.598221759799
 30
0.0
 41
1.0
 10
676.7293548081171
 20
1481.484700101807
 30
0.0
 41
1.0
  0
SPLINE
  5
9E
330
1F
100
AcDbEntity
  8
Predefinito
100
AcDbSpline
210
0.0
220
0.0
230
1.0
 70
    12
 71
     2
 72
     6
 73
     3
 74
     0
 42
0.0000000001
 43
0.0000000001
 40
0.0
 40
0.0
 40
0.0
 40
25.8257093336942
 40
25.8257093336942
 40
25.8257093336942
 10
899.9944759231616
 20
1481.480900595098
 30
0.0
 41
1.0
 10
899.8524574929842
 20
1495.678755451853
 30
0.0
 41
0.8695456441992271
 10
887.58581821913
 20
1502.829196885298
 30
0.0
 41
1.0
  0
SPLINE
  5
9F
330
1F
100
AcDbEntity
  8
Predefinito
100
AcDbSpline
210
0.0
220
0.0
230
1.0
 70
    24
 71
     2
 72
     6
 73
     3
 74
     0
 42
0.0000000001
 43
0.0000000001
 40
0.0
 40
0.0
 40
0.0
 40
0.2644513718091027
 40
0.2644513718091027
 40
0.2644513718091027
 10
676.4800685572995
 20
1481.489091849301
 30
0.0
 10
676.4789119660695
 20
1481.356871221902
 30
0.0
 10
676.4777553748395
 20
1481.224650594504
 30
0.0
  0
SPLINE
  5
A0
330
1F
100
AcDbEntity
  8
Predefinito
100
AcDbSpline
210
0.0
220
0.0
230
1.0
 70
    24
 71
     2
 72
     6
 73
     3
 74
     0
 42
0.0000000001
 43
0.0000000001
 40
0.0
 40
0.0
 40
0.0
 40
0.2646236402151547
 40
0.2646236402151547
 40
0.2646236402151547
 10
899.4912479745101
 20
1481.224650594504
 30
0.0
 10
899.4935572150877
 20
1481.356942261468
 30
0.0
 10
899.4958664556652
 20
1481.489233928432
 30
0.0
  0
SPLINE
  5
A1
330
1F
100
AcDbEntity
  8
Predefinito
100
AcDbSpline
210
0.0
220
0.0
230
1.0
 70
    24
 71
     2
 72
     6
 73
     3
 74
     0
 42
0.0000000001
 43
0.0000000001
 40
0.0
 40
0.0
 40
0.0
 40
217.0607730977639
 40
217.0607730977639
 40
217.0607730977639
 10
670.5250451213661
 20
1502.829196885298
 30
0.0
 10
779.055431670248
 20
1502.829196885298
 30
0.0
 10
887.58581821913
 20
1502.829196885298
 30
0.0
  0
SPLINE
  5
A2
330
1F
100
AcDbEntity
  8
Predefinito
100
AcDbSpline
210
0.0
220
0.0
230
1.0
 70
    12
 71
     2
 72
    10
 73
     7
 74
     0
 42
0.0000000001
 43
0.0000000001
 40
0.0
 40
0.0
 40
0.0
 40
0.1815638285353866
 40
0.1815638285353866
 40
0.2403575607616736
 40
0.2403575607616736
 40
0.2991512929879605
 40
0.2991512929879605
 40
0.2991512929879605
 10
670.37430222662
 20
1502.659900996261
 30
0.0
 41
1.0
 10
670.3701907493864
 20
1502.754114177345
 30
0.0
 41
0.9449247988195091
 10
670.4252332237596
 20
1502.830686716483
 30
0.0
 41
1.0
 10
670.4435670914486
 20
1502.856878076803
 30
0.0
 41
0.8835071779804383
 10
670.4755341117296
 20
1502.856400924631
 30
0.0
 41
1.0
 10
670.5075011320107
 20
1502.855923772459
 30
0.0
 41
0.8835071779804383
 10
670.5250451213661
 20
1502.829196885298
 30
0.0
 41
1.0
  0
SPLINE
  5
A3
330
1F
100
AcDbEntity
  8
Predefinito
100
AcDbSpline
210
0.0
220
0.0
230
1.0
 70
    12
 71
     3
 72
    10
 73
     6
 74
     0
 42
0.0000000001
 43
0.0000000001
 40
-1.0
 40
-1.0
 40
-1.0
 40
-1.0
 40
-0.4999238479374364
 40
-0.4999238479374364
 40
-0.4569411118196828
 40
-0.4569411118196828
 40
-0.4569411118196828
 40
-0.4569411118196828
 10
676.7293739610338
 20
1480.980900595176
 30
0.0
 41
1.0
 10
676.6608143074052
 20
1467.269790900145
 30
0.0
 41
1.0
 10
671.0855283967735
 20
1456.227960088072
 30
0.0
 41
1.0
 10
663.6441143311845
 20
1456.231153963225
 30
0.0
 41
1.0
 10
663.0644937373133
 20
1456.312997194394
 30
0.0
 41
1.0
 10
662.4969358238662
 20
1456.471110789291
 30
0.0
 41
1.0
  0
SPLINE
  5
A4
330
1F
100
AcDbEntity
  8
Predefinito
100
AcDbSpline
210
0.0
220
0.0
230
1.0
 70
    24
 71
     2
 72
     6
 73
     3
 74
     0
 42
0.0000000001
 43
0.0000000001
 40
0.0
 40
0.0
 40
0.0
 40
0.2437950332283327
 40
0.2437950332283327
 40
0.2437950332283327
 10
899.495720782718
 20
1480.980896595124
 30
0.0
 10
899.4934843786141
 20
1481.102773594814
 30
0.0
 10
899.4912479745101
 20
1481.224650594504
 30
0.0
  0
SPLINE
  5
A5
330
1F
100
AcDbEntity
  8
Predefinito
100
AcDbSpline
210
0.0
220
0.0
230
1.0
 70
    24
 71
     2
 72
     6
 73
     3
 74
     0
 42
0.0000000001
 43
0.0000000001
 40
0.0
 40
0.0
 40
0.0
 40
0.2436853062367887
 40
0.2436853062367887
 40
0.2436853062367887
 10
676.4777554325951
 20
1481.224644312493
 30
0.0
 10
676.4788755837733
 20
1481.102806808495
 30
0.0
 10
676.4799957349514
 20
1480.980969304498
 30
0.0
  0
SPLINE
  5
A6
330
1F
100
AcDbEntity
  8
Predefinito
100
AcDbSpline
210
0.0
220
0.0
230
1.0
 70
    24
 71
     2
 72
     6
 73
     3
 74
     0
 42
0.0000000001
 43
0.0000000001
 40
0.0
 40
0.0
 40
0.0
 40
223.0134925996706
 40
223.0134925996706
 40
223.0134925996706
 10
899.4912479745101
 20
1481.224650594504
 30
0.0
 10
787.9845016746748
 20
1481.224650594504
 30
0.0
 10
676.4777553748395
 20
1481.224650594504
 30
0.0
  0
SPLINE
  5
A7
330
1F
100
AcDbEntity
  8
Predefinito
100
AcDbSpline
210
0.0
220
0.0
230
1.0
 70
    24
 71
     2
 72
     6
 73
     3
 74
     0
 42
0.0000000001
 43
0.0000000001
 40
0.0
 40
0.0
 40
0.0
 40
223.2651019374368
 40
223.2651019374368
 40
223.2651019374368
 10
676.7293739610338
 20
1480.980900595176
 30
0.0
 10
788.3619249297523
 20
1480.980900595176
 30
0.0
 10
899.9944758984707
 20
1480.980900595176
 30
0.0
  0
SPLINE
  5
A8
330
1F
100
AcDbEntity
  8
Predefinito
100
AcDbSpline
210
0.0
220
0.0
230
1.0
 70
    24
 71
     2
 72
     6
 73
     3
 74
     0
 42
0.0000000001
 43
0.0000000001
 40
0.0
 40
0.0
 40
0.0
 40
0.2493775576381478
 40
0.2493775576381478
 40
0.2493775576381478
 10
676.4799964034278
 20
1480.980896595124
 30
0.0
 10
676.6046851822308
 20
1480.98089859515
 30
0.0
 10
676.7293739610338
 20
1480.980900595176
 30
0.0
  0
SPLINE
  5
A9
330
1F
100
AcDbEntity
  8
Predefinito
100
AcDbSpline
210
0.0
220
0.0
230
1.0
 70
    24
 71
     2
 72
     6
 73
     3
 74
     0
 42
0.0000000001
 43
0.0000000001
 40
0.0
 40
0.0
 40
0.0
 40
0.1658307490649561
 40
0.1658307490649561
 40
0.1658307490649561
 10
670.372862298102
 20
1502.494076498851
 30
0.0
 10
670.373582262361
 20
1502.576988747556
 30
0.0
 10
670.37430222662
 20
1502.659900996261
 30
0.0
  0
SPLINE
  5
AA
330
1F
100
AcDbEntity
  8
Predefinito
100
AcDbSpline
210
0.0
220
0.0
230
1.0
 70
    12
 71
     2
 72
     6
 73
     3
 74
     0
 42
0.0000000001
 43
0.0000000001
 40
102.3494390642121
 40
102.3494390642121
 40
102.3494390642121
 40
127.391300213991
 40
127.391300213991
 40
127.391300213991
 10
223.5441580569668
 20
1481.489232522995
 30
0.0
 41
0.9312906616760177
 10
223.545022612614
 20
1495.37724961899
 30
0.0
 41
0.8392407734275483
 10
229.5036557164259
 20
1502.494461653517
 30
0.0
 41
1.0
  0
SPLINE
  5
AB
330
1F
100
AcDbEntity
  8
Predefinito
100
AcDbSpline
210
0.0
220
0.0
230
1.0
 70
    12
 71
     2
 72
     8
 73
     5
 74
     0
 42
0.0000000001
 43
0.0000000001
 40
70.87776611273526
 40
70.87776611273526
 40
70.87776611273526
 40
95.5434751604931
 40
95.5434751604931
 40
101.5611004815546
 40
101.5611004815546
 40
101.5611004815546
 10
232.3365453649822
 20
1458.004851921409
 30
0.0
 41
0.928582352307487
 10
225.7953346680228
 20
1461.833934577217
 30
0.0
 41
0.8416555268930676
 10
223.9838622398615
 20
1474.983445308799
 30
0.0
 41
1.0
 10
223.5757858114127
 20
1477.968495343248
 30
0.0
 41
0.9980088745092184
 10
223.5467625555777
 20
1480.981169857736
 30
0.0
 41
1.0
  0
SPLINE
  5
AC
330
1F
100
AcDbEntity
  8
Predefinito
100
AcDbSpline
210
0.0
220
0.0
230
1.0
 70
    12
 71
     2
 72
    10
 73
     7
 74
     0
 42
0.0000000001
 43
0.0000000001
 40
0.524409553685064
 40
0.524409553685064
 40
0.524409553685064
 40
1.83300110363743
 40
1.83300110363743
 40
3.1415926535898
 40
3.1415926535898
 40
3.267247306790036
 40
3.267247306790036
 40
3.267247306790036
 10
230.3753028828802
 20
1503.121393848529
 30
0.0
 41
1.0
 10
222.0761196310287
 20
1493.520370616469
 30
0.0
 41
0.793476716599578
 10
224.5613174514586
 20
1475.000635605752
 30
0.0
 41
1.0
 10
227.0465152718884
 20
1456.480900595034
 30
0.0
 41
0.793476716599578
 10
236.6340777579138
 20
1456.480900595034
 30
0.0
 41
1.0
 10
236.6969072002762
 20
1456.480900630882
 30
0.0
 41
0.9999494887225927
 10
236.7597239478571
 20
1456.482163584141
 30
0.0
 41
1.0
  0
SPLINE
  5
AD
330
1F
100
AcDbEntity
  8
Predefinito
100
AcDbSpline
210
0.0
220
0.0
230
1.0
 70
    12
 71
     2
 72
     8
 73
     5
 74
     0
 42
0.0000000001
 43
0.0000000001
 40
-130.554313166301
 40
-130.554313166301
 40
-130.554313166301
 40
-97.9157348747257
 40
-97.9157348747257
 40
-68.44612525219935
 40
-68.44612525219935
 40
-68.44612525219935
 10
232.0896871113424
 20
1503.060540140588
 30
0.0
 41
1.0
 10
223.8243143415892
 20
1493.444600416043
 30
0.0
 41
0.793848667223862
 10
226.3141922437523
 20
1474.980205570562
 30
0.0
 41
1.0
 10
228.5070316906711
 20
1458.718583526577
 30
0.0
 41
0.8138644629124528
 10
236.8674340830585
 20
1456.696401979809
 30
0.0
 41
0.9638551851151388
  0
SPLINE
  5
AE
330
1F
100
AcDbEntity
  8
Predefinito
100
AcDbSpline
210
0.0
220
0.0
230
1.0
 70
    12
 71
     2
 72
     8
 73
     5
 74
     0
 42
0.0000000001
 43
0.0000000001
 40
-53.27231893488803
 40
-53.27231893488803
 40
-53.27231893488803
 40
-31.89370231787113
 40
-31.89370231787113
 40
0.0
 40
0.0
 40
0.0
 10
233.3485036661843
 20
1459.130424951863
 30
0.0
 41
0.9096323516210545
 10
228.0890165828546
 20
1463.853390810511
 30
0.0
 41
0.8629512417416639
 10
226.556714416313
 20
1474.969299423958
 30
0.0
 41
1.0
 10
224.077055446761
 20
1492.957698252802
 30
0.0
 41
0.79554372590011
 10
232.0887248916766
 20
1502.519598569593
 30
0.0
 41
1.0
  0
SPLINE
  5
AF
330
1F
100
AcDbEntity
  8
Predefinito
100
AcDbSpline
210
0.0
220
0.0
230
1.0
 70
    24
 71
     2
 72
     6
 73
     3
 74
     0
 42
0.0000000001
 43
0.0000000001
 40
0.0
 40
0.0
 40
0.0
 40
0.3659271219230504
 40
0.3659271219230504
 40
0.3659271219230504
 10
232.2399459680943
 20
1502.887687946047
 30
0.0
 10
232.2399459680934
 20
1502.704724385086
 30
0.0
 10
232.2399459680926
 20
1502.521760824124
 30
0.0
  0
SPLINE
  5
B0
330
1F
100
AcDbEntity
  8
Predefinito
100
AcDbSpline
210
0.0
220
0.0
230
1.0
 70
    12
 71
     2
 72
     6
 73
     3
 74
     0
 42
0.0000000001
 43
0.0000000001
 40
0.0
 40
0.0
 40
0.0
 40
0.5791139944500516
 40
0.5791139944500516
 40
0.5791139944500516
 10
232.0887248916766
 20
1502.519598569594
 30
0.0
 41
1.0
 10
232.378154462736
 20
1502.511009154234
 30
0.0
 41
0.9999999998400537
 10
232.6675837263575
 20
1502.50240938567
 30
0.0
 41
1.0
  0
SPLINE
  5
B1
330
1F
100
AcDbEntity
  8
Predefinito
100
AcDbSpline
210
0.0
220
0.0
230
1.0
 70
    12
 71
     2
 72
     6
 73
     3
 74
     0
 42
0.0000000001
 43
0.0000000001
 40
0.0
 40
0.0
 40
0.0
 40
0.3671332314872702
 40
0.3671332314872702
 40
0.3671332314872702
 10
229.5036557164259
 20
1502.494461653518
 30
0.0
 41
1.0
 10
229.6871430502622
 20
1502.49985616369
 30
0.0
 41
0.9999999999384035
 10
229.8706305038031
 20
1502.505246600723
 30
0.0
 41
1.0
  0
SPLINE
  5
B2
330
1F
100
AcDbEntity
  8
Predefinito
100
AcDbSpline
210
0.0
220
0.0
230
1.0
 70
     8
 71
     3
 72
    10
 73
     6
 74
     0
 42
0.0000000001
 43
0.0000000001
 40
0.0
 40
0.0
 40
0.0
 40
0.0
 40
0.0254345148432201
 40
0.1297096562983623
 40
0.3015045524710681
 40
0.3015045524710681
 40
0.3015045524710681
 40
0.3015045524710681
 10
232.0896871113424
 20
1503.060540140588
 30
0.0
 10
232.0926389232534
 20
1503.064207926313
 30
0.0
 10
232.1338213121757
 20
1503.106187984869
 30
0.0
 10
232.2317600960839
 20
1503.043921413039
 30
0.0
 10
232.2365281353045
 20
1502.942798705606
 30
0.0
 10
232.2399459680943
 20
1502.887687946047
 30
0.0
  0
SPLINE
  5
B3
330
1F
100
AcDbEntity
  8
Predefinito
100
AcDbSpline
210
0.0
220
0.0
230
1.0
 70
    12
 71
     2
 72
     6
 73
     3
 74
     0
 42
0.0000000001
 43
0.0000000001
 40
0.0
 40
0.0
 40
0.0
 40
1.715463919490638
 40
1.715463919490638
 40
1.715463919490638
 10
230.3753028828803
 20
1503.121393848529
 30
0.0
 41
1.0
 10
231.2324965343792
 20
1503.091010302807
 30
0.0
 41
0.9999999987236937
 10
232.0896871113425
 20
1503.060540140589
 30
0.0
 41
1.0
  0
SPLINE
  5
B4
330
1F
100
AcDbEntity
  8
Predefinito
100
AcDbSpline
210
0.0
220
0.0
230
1.0
 70
    24
 71
     2
 72
     6
 73
     3
 74
     0
 42
0.0000000001
 43
0.0000000001
 40
0.0
 40
0.0
 40
0.0
 40
12.19327395053494
 40
12.19327395053494
 40
12.19327395053494
 10
426.0001845556438
 20
1512.797567261688
 30
0.0
 10
432.0968215309113
 20
1512.797567261689
 30
0.0
 10
438.1934585061788
 20
1512.797567261689
 30
0.0
  0
SPLINE
  5
B5
330
1F
100
AcDbEntity
  8
Predefinito
100
AcDbSpline
210
0.0
220
0.0
230
1.0
 70
    24
 71
     2
 72
     6
 73
     3
 74
     0
 42
0.0000000001
 43
0.0000000001
 40
0.0
 40
0.0
 40
0.0
 40
12.19473176474958
 40
12.19473176474958
 40
12.19473176474958
 10
461.8054527908943
 20
1512.797567261688
 30
0.0
 10
467.9028186732691
 20
1512.797567261688
 30
0.0
 10
474.0001845556438
 20
1512.797567261688
 30
0.0
  0
SPLINE
  5
B6
330
1F
100
AcDbEntity
  8
Predefinito
100
AcDbSpline
210
0.0
220
0.0
230
1.0
 70
    28
 71
     2
 72
     6
 73
     3
 74
     0
 42
0.0000000001
 43
0.0000000001
 40
1.5707963267949
 40
1.5707963267949
 40
1.5707963267949
 40
3.14159265358979
 40
3.14159265358979
 40
3.14159265358979
 10
13.30130977500232
 20
1513.880900595022
 30
0.0
 41
1.0
 10
12.33087080250719
 20
1513.880900595022
 30
0.0
 41
0.707106781186548
 10
24.03836484273012
 20
1513.880900595022
 30
0.0
 41
1.0
  0
SPLINE
  5
B7
330
1F
100
AcDbEntity
  8
Predefinito
100
AcDbSpline
210
0.0
220
0.0
230
1.0
 70
    12
 71
     2
 72
     6
 73
     3
 74
     0
 42
0.0000000001
 43
0.0000000001
 40
0.0
 40
0.0
 40
0.0
 40
12.16065324265353
 40
12.16065324265353
 40
12.16065324265353
 10
13.2655448895721
 20
1503.949633245838
 30
0.0
 41
1.0
 10
18.82041795433592
 20
1506.677180715617
 30
0.0
 41
0.9740120110480621
 10
25.00880381522609
 20
1506.673955460628
 30
0.0
 41
1.0
  0
SPLINE
  5
B8
330
1F
100
AcDbEntity
  8
Predefinito
100
AcDbSpline
210
0.0
220
0.0
230
1.0
 70
    28
 71
     2
 72
     6
 73
     3
 74
     0
 42
0.0000000001
 43
0.0000000001
 40
9.42477796076938
 40
9.42477796076938
 40
9.42477796076938
 40
18.8495559215388
 40
18.8495559215388
 40
18.8495559215388
 10
19.01568857665745
 20
1556.380900595022
 30
0.0
 41
1.0
 10
18.52205857277188
 20
1556.380900595022
 30
0.0
 41
0.707106781186548
 10
24.50273735342631
 20
1556.380900595022
 30
0.0
 41
1.0
  0
SPLINE
  5
B9
330
1F
100
AcDbEntity
  8
Predefinito
100
AcDbSpline
210
0.0
220
0.0
230
1.0
 70
    24
 71
     2
 72
     6
 73
     3
 74
     0
 42
0.0000000001
 43
0.0000000001
 40
0.0
 40
0.0
 40
0.0
 40
6.474317954498531
 40
6.474317954498531
 40
6.474317954498531
 10
24.50273735342631
 20
1556.380900595022
 30
0.0
 10
27.73989633067558
 20
1556.380900595022
 30
0.0
 10
30.97705530792484
 20
1556.380900595022
 30
0.0
  0
SPLINE
  5
BA
330
1F
100
AcDbEntity
  8
Predefinito
100
AcDbSpline
210
0.0
220
0.0
230
1.0
 70
    24
 71
     2
 72
     6
 73
     3
 74
     0
 42
0.0000000001
 43
0.0000000001
 40
0.0
 40
0.0
 40
0.0
 40
12.67793301271826
 40
12.67793301271826
 40
12.67793301271826
 10
24.03836484273012
 20
1513.880900595022
 30
0.0
 10
30.37733134908925
 20
1513.880900595022
 30
0.0
 10
36.71629785544837
 20
1513.880900595022
 30
0.0
  0
SPLINE
  5
BB
330
1F
100
AcDbEntity
  8
Predefinito
100
AcDbSpline
210
0.0
220
0.0
230
1.0
 70
    28
 71
     2
 72
     6
 73
     3
 74
     0
 42
0.0000000001
 43
0.0000000001
 40
-55.3705705195201
 40
-55.3705705195201
 40
-55.3705705195201
 40
-36.9762917472618
 40
-36.9762917472618
 40
-36.9762917472618
 10
13.29665199336461
 20
1555.380900595022
 30
0.0
 41
1.0
 10
12.3588267076036
 20
1555.380900595022
 30
0.0
 41
0.70880167783909
 10
24.0102632310996
 20
1555.380900595022
 30
0.0
 41
1.0
  0
SPLINE
  5
BC
330
1F
100
AcDbEntity
  8
Predefinito
100
AcDbSpline
210
0.0
220
0.0
230
1.0
 70
    24
 71
     2
 72
     6
 73
     3
 74
     0
 42
0.0000000001
 43
0.0000000001
 40
0.0
 40
0.0
 40
0.0
 40
12.65219401143895
 40
12.65219401143895
 40
12.65219401143895
 10
24.0664664543616
 20
1555.380900595022
 30
0.0
 10
30.39256346008108
 20
1555.380900595022
 30
0.0
 10
36.71866046580055
 20
1555.380900595022
 30
0.0
  0
SPLINE
  5
BD
330
1F
100
AcDbEntity
  8
Predefinito
100
AcDbSpline
210
0.0
220
0.0
230
1.0
 70
    28
 71
     2
 72
     8
 73
     5
 74
     0
 42
0.0000000001
 43
0.0000000001
 40
51.90990986205014
 40
51.90990986205014
 40
51.90990986205014
 40
53.0143760293278
 40
53.0143760293278
 40
70.6858347057703
 40
70.6858347057703
 40
70.6858347057703
 10
36.25827558346606
 20
1513.380900595021
 30
0.0
 41
0.9656765759202988
 10
36.26318338760062
 20
1513.380900595021
 30
0.0
 41
0.9816941738241594
 10
36.22256619785958
 20
1513.380900595022
 30
0.0
 41
1.0
 10
35.32032829915957
 20
1513.380900595022
 30
0.0
 41
0.707106781186548
 10
24.10656591652554
 20
1513.380900595022
 30
0.0
 41
1.0
  0
SPLINE
  5
BE
330
1F
100
AcDbEntity
  8
Predefinito
100
AcDbSpline
210
0.0
220
0.0
230
1.0
 70
    24
 71
     2
 72
     6
 73
     3
 74
     0
 42
0.0000000001
 43
0.0000000001
 40
0.0
 40
0.0
 40
0.0
 40
10.30560233347696
 40
10.30560233347696
 40
10.30560233347696
 10
24.06493438046409
 20
1513.380900595022
 30
0.0
 10
18.91213321372561
 20
1513.380900595022
 30
0.0
 10
13.75933204698713
 20
1513.380900595022
 30
0.0
  0
SPLINE
  5
BF
330
1F
100
AcDbEntity
  8
Predefinito
100
AcDbSpline
210
0.0
220
0.0
230
1.0
 70
    12
 71
     2
 72
     6
 73
     3
 74
     0
 42
0.0000000001
 43
0.0000000001
 40
0.0
 40
0.0
 40
0.0
 40
11.83425277007391
 40
11.83425277007391
 40
11.83425277007391
 10
25.0088041187152
 20
1512.880900591612
 30
0.0
 41
1.0
 10
30.92593050375216
 20
1512.880900894779
 30
0.0
 41
0.9999999999999946
 10
36.84305688878908
 20
1512.880899974781
 30
0.0
 41
1.0
  0
SPLINE
  5
C0
330
1F
100
AcDbEntity
  8
Predefinito
100
AcDbSpline
210
0.0
220
0.0
230
1.0
 70
    28
 71
     2
 72
     6
 73
     3
 74
     0
 42
0.0000000001
 43
0.0000000001
 40
0.0
 40
0.0
 40
0.0
 40
11.82897811250444
 40
11.82897811250444
 40
11.82897811250444
 10
13.17841779690605
 20
1512.880889892578
 30
0.0
 41
1.0
 10
19.09290685315827
 20
1512.880889892378
 30
0.0
 41
1.0
 10
25.00739590941049
 20
1512.880889892179
 30
0.0
 41
1.0
  0
SPLINE
  5
C1
330
1F
100
AcDbEntity
  8
Predefinito
100
AcDbSpline
210
0.0
220
0.0
230
1.0
 70
    24
 71
     2
 72
     6
 73
     3
 74
     0
 42
0.0000000001
 43
0.0000000001
 40
0.0
 40
0.0
 40
0.0
 40
446.5300098379597
 40
446.5300098379597
 40
446.5300098379597
 10
226.735062035017
 20
1481.480900595098
 30
0.0
 10
450.0000669539968
 20
1481.480900595098
 30
0.0
 10
673.2650718729767
 20
1481.480900595098
 30
0.0
  0
SPLINE
  5
C2
330
1F
100
AcDbEntity
  8
Predefinito
100
AcDbSpline
210
0.0
220
0.0
230
1.0
 70
    12
 71
     3
 72
    10
 73
     6
 74
     0
 42
0.0000000001
 43
0.0000000001
 40
-0.9999921938575432
 40
-0.9999921938575432
 40
-0.9999921938575432
 40
-0.9999921938575432
 40
-0.4999237927936687
 40
-0.4999237927936687
 40
-0.000093068164993
 40
-0.000093068164993
 40
-0.000093068164993
 40
-0.000093068164993
 10
232.9393102964985
 20
1502.829099812393
 30
0.0
 41
1.0
 10
231.1613343219862
 20
1500.756224126924
 30
0.0
 41
1.0
 10
229.533772179843
 20
1497.599239179533
 30
0.0
 41
1.0
 10
227.3219351836022
 20
1489.987018819472
 30
0.0
 41
1.0
 10
226.7558475389804
 20
1485.597153653134
 30
0.0
 41
1.0
 10
226.7350735825895
 20
1481.483198613539
 30
0.0
 41
1.0
  0
SPLINE
  5
C3
330
1F
100
AcDbEntity
  8
Predefinito
100
AcDbSpline
210
0.0
220
0.0
230
1.0
 70
    12
 71
     3
 72
    10
 73
     6
 74
     0
 42
0.0000000001
 43
0.0000000001
 40
0.0000000397808269
 40
0.0000000397808269
 40
0.0000000397808269
 40
0.0000000397808269
 40
0.5000762072132285
 40
0.5000762072132285
 40
1.0
 40
1.0
 40
1.0
 40
1.0
 10
673.2652685903081
 20
1481.480901577346
 30
0.0
 41
1.0
 10
673.2446879092752
 20
1485.596773995654
 30
0.0
 41
1.0
 10
672.6782339090402
 20
1489.988987442766
 30
0.0
 41
1.0
 10
670.4655624091679
 20
1497.601262856695
 30
0.0
 41
1.0
 10
668.8384058860718
 20
1500.756954463877
 30
0.0
 41
1.0
 10
667.0609397555518
 20
1502.829196885298
 30
0.0
 41
1.0
  0
SPLINE
  5
C4
330
1F
100
AcDbEntity
  8
Predefinito
100
AcDbSpline
210
0.0
220
0.0
230
1.0
 70
    24
 71
     2
 72
     6
 73
     3
 74
     0
 42
0.0000000001
 43
0.0000000001
 40
0.0
 40
0.0
 40
0.0
 40
0.2558407983873829
 40
0.2558407983873829
 40
0.2558407983873829
 10
226.9843976212262
 20
1481.486062337867
 30
0.0
 10
226.9855115408637
 20
1481.358146788723
 30
0.0
 10
226.9866254605012
 20
1481.230231239578
 30
0.0
  0
SPLINE
  5
C5
330
1F
100
AcDbEntity
  8
Predefinito
100
AcDbSpline
210
0.0
220
0.0
230
1.0
 70
    24
 71
     2
 72
     6
 73
     3
 74
     0
 42
0.0000000001
 43
0.0000000001
 40
0.0
 40
0.0
 40
0.0
 40
0.264591655318836
 40
0.264591655318836
 40
0.264591655318836
 10
673.0136592574562
 20
1481.224650594504
 30
0.0
 10
673.0148112779427
 20
1481.356941406221
 30
0.0
 10
673.0159632984293
 20
1481.489232217939
 30
0.0
  0
SPLINE
  5
C6
330
1F
100
AcDbEntity
  8
Predefinito
100
AcDbSpline
210
0.0
220
0.0
230
1.0
 70
    24
 71
     2
 72
     6
 73
     3
 74
     0
 42
0.0000000001
 43
0.0000000001
 40
0.0
 40
0.0
 40
0.0
 40
434.1213494817362
 40
434.1213494817362
 40
434.1213494817362
 10
232.9393935600202
 20
1502.829196885298
 30
0.0
 10
450.0000683008883
 20
1502.829196885298
 30
0.0
 10
667.0607430417564
 20
1502.829196885298
 30
0.0
  0
SPLINE
  5
C7
330
1F
100
AcDbEntity
  8
Predefinito
100
AcDbSpline
210
0.0
220
0.0
230
1.0
 70
    12
 71
     3
 72
    10
 73
     6
 74
     0
 42
0.0000000001
 43
0.0000000001
 40
0.4999412351038116
 40
0.4999412351038116
 40
0.4999412351038116
 40
0.4999412351038116
 40
0.5000763862837005
 40
0.5000763862837005
 40
1.0
 40
1.0
 40
1.0
 40
1.0
 10
660.7569427889481
 20
1456.230901205899
 30
0.0
 41
1.0
 10
660.7587963918379
 20
1456.230900387309
 30
0.0
 41
1.0
 10
660.7606500890937
 20
1456.230900375275
 30
0.0
 41
1.0
 10
667.6196705428976
 20
1456.233840717845
 30
0.0
 41
1.0
 10
673.1967298545113
 20
1467.273973233353
 30
0.0
 41
1.0
 10
673.2652685952214
 20
1480.980900595176
 30
0.0
 41
1.0
  0
SPLINE
  5
C8
330
1F
100
AcDbEntity
  8
Predefinito
100
AcDbSpline
210
0.0
220
0.0
230
1.0
 70
    12
 71
     3
 72
    10
 73
     6
 74
     0
 42
0.0000000001
 43
0.0000000001
 40
0.6562622515407922
 40
0.6562622515407922
 40
0.6562622515407922
 40
0.6562622515407922
 40
0.750061016245222
 40
0.750061016245222
 40
1.0
 40
1.0
 40
1.0
 40
1.0
 10
233.3803475557612
 20
1459.165869081812
 30
0.0
 41
1.0
 10
232.3016890901174
 20
1460.304105101418
 30
0.0
 41
1.0
 10
231.3051301824368
 20
1461.751321995174
 30
0.0
 41
1.0
 10
228.1285321793423
 20
1468.043570182439
 30
0.0
 41
1.0
 10
226.7675741300317
 20
1474.47940797223
 30
0.0
 41
1.0
 10
226.735064720348
 20
1480.980900595176
 30
0.0
 41
1.0
  0
SPLINE
  5
C9
330
1F
100
AcDbEntity
  8
Predefinito
100
AcDbSpline
210
0.0
220
0.0
230
1.0
 70
    12
 71
     2
 72
     6
 73
     3
 74
     0
 42
0.0000000001
 43
0.0000000001
 40
0.0
 40
0.0
 40
0.0
 40
1.836661800281117
 40
1.836661800281117
 40
1.836661800281117
 10
239.2373640273491
 20
1456.230901212393
 30
0.0
 41
1.0
 10
238.3124196169105
 20
1456.233148859159
 30
0.0
 41
0.9893048036477619
 10
237.4274821352121
 20
1456.502245250444
 30
0.0
 41
1.0
  0
SPLINE
  5
CA
330
1F
100
AcDbEntity
  8
Predefinito
100
AcDbSpline
210
0.0
220
0.0
230
1.0
 70
    24
 71
     2
 72
     6
 73
     3
 74
     0
 42
0.0000000001
 43
0.0000000001
 40
0.0
 40
0.0
 40
0.0
 40
0.2437624176281499
 40
0.2437624176281499
 40
0.2437624176281499
 10
673.0158910206086
 20
1480.980898393527
 30
0.0
 10
673.0147751390324
 20
1481.102774494015
 30
0.0
 10
673.0136592574562
 20
1481.224650594504
 30
0.0
  0
SPLINE
  5
CB
330
1F
100
AcDbEntity
  8
Predefinito
100
AcDbSpline
210
0.0
220
0.0
230
1.0
 70
    24
 71
     2
 72
     6
 73
     3
 74
     0
 42
0.0000000001
 43
0.0000000001
 40
0.0
 40
0.0
 40
0.0
 40
0.2437640827244404
 40
0.2437640827244404
 40
0.2437640827244404
 10
226.9866740581125
 20
1481.224650594504
 30
0.0
 10
226.9855581689139
 20
1481.102773661502
 30
0.0
 10
226.9844422797154
 20
1480.9808967285
 30
0.0
  0
SPLINE
  5
CC
330
1F
100
AcDbEntity
  8
Predefinito
100
AcDbSpline
210
0.0
220
0.0
230
1.0
 70
    24
 71
     2
 72
     6
 73
     3
 74
     0
 42
0.0000000001
 43
0.0000000001
 40
0.0
 40
0.0
 40
0.0
 40
446.0267887621516
 40
446.0267887621516
 40
446.0267887621516
 10
673.0134628202641
 20
1481.224650594504
 30
0.0
 10
450.0000684391883
 20
1481.224650594504
 30
0.0
 10
226.9866740581125
 20
1481.224650594504
 30
0.0
  0
SPLINE
  5
CD
330
1F
100
AcDbEntity
  8
Predefinito
100
AcDbSpline
210
0.0
220
0.0
230
1.0
 70
    24
 71
     2
 72
     6
 73
     3
 74
     0
 42
0.0000000001
 43
0.0000000001
 40
0.0
 40
0.0
 40
0.0
 40
446.53000715263
 40
446.53000715263
 40
446.53000715263
 10
226.735064720348
 20
1480.980900595176
 30
0.0
 10
450.000068296663
 20
1480.980900595176
 30
0.0
 10
673.265071872978
 20
1480.980900595175
 30
0.0
  0
SPLINE
  5
CE
330
1F
100
AcDbEntity
  8
Predefinito
100
AcDbSpline
210
0.0
220
0.0
230
1.0
 70
    12
 71
     2
 72
     6
 73
     3
 74
     0
 42
0.0000000001
 43
0.0000000001
 40
0.0
 40
0.0
 40
0.0
 40
21.41484015794279
 40
21.41484015794279
 40
21.41484015794279
 10
0.4478281700222624
 20
1486.191617995946
 30
0.0
 41
1.0
 10
2.598558934544857
 20
1497.401186899478
 30
0.0
 41
0.9096744439657319
 10
12.47744663336653
 20
1503.118498825425
 30
0.0
 41
1.0
  0
SPLINE
  5
CF
330
1F
100
AcDbEntity
  8
Predefinito
100
AcDbSpline
210
0.0
220
0.0
230
1.0
 70
    12
 71
     2
 72
     6
 73
     3
 74
     0
 42
0.0000000001
 43
0.0000000001
 40
0.0
 40
0.0
 40
0.0
 40
1.326997252891102
 40
1.326997252891102
 40
1.326997252891102
 10
0.0000233366353015
 20
1481.51505950633
 30
0.0
 41
1.0
 10
0.000930125178787
 20
1482.178713339732
 30
0.0
 41
0.99964783632998
 10
0.0370457697672578
 20
1482.84138436903
 30
0.0
 41
1.0
  0
SPLINE
  5
D0
330
1F
100
AcDbEntity
  8
Predefinito
100
AcDbSpline
210
0.0
220
0.0
230
1.0
 70
    12
 71
     2
 72
     6
 73
     3
 74
     0
 42
0.0000000001
 43
0.0000000001
 40
0.0
 40
0.0
 40
0.0
 40
0.5000491713651802
 40
0.5000491713651802
 40
0.5000491713651802
 10
0.0050008176847527
 20
1480.980884719226
 30
0.0
 41
1.0
 10
0.0000000004695929
 20
1481.230867626272
 30
0.0
 41
0.9999499905820723
 10
-0.0000000000000063
 20
1481.48090054808
 30
0.0
 41
1.0
  0
SPLINE
  5
D1
330
1F
100
AcDbEntity
  8
Predefinito
100
AcDbSpline
210
0.0
220
0.0
230
1.0
 70
    24
 71
     2
 72
     6
 73
     3
 74
     0
 42
0.0000000001
 43
0.0000000001
 40
0.0
 40
0.0
 40
0.0
 40
0.0547821335928802
 40
0.0547821335928802
 40
0.0547821335928802
 10
12.78254493507159
 20
1502.94247007964
 30
0.0
 10
12.78254493507158
 20
1502.915079012844
 30
0.0
 10
12.78254493507156
 20
1502.887687946047
 30
0.0
  0
SPLINE
  5
D2
330
1F
100
AcDbEntity
  8
Predefinito
100
AcDbSpline
210
0.0
220
0.0
230
1.0
 70
    12
 71
     2
 72
     8
 73
     5
 74
     0
 42
0.0000000001
 43
0.0000000001
 40
0.0
 40
0.0
 40
0.0
 40
0.209488692447286
 40
0.209488692447286
 40
0.418977384894572
 40
0.418977384894572
 40
0.418977384894572
 10
12.48245024993059
 20
1503.121393848529
 30
0.0
 41
1.0
 10
12.58243497012424
 20
1503.17922821749
 30
0.0
 41
0.8659239900404608
 10
12.68248996384659
 20
1503.121515508867
 30
0.0
 41
1.0
 10
12.78254495756893
 20
1503.063802800245
 30
0.0
 41
0.8659239900404608
 10
12.78254493507152
 20
1502.948296270103
 30
0.0
 41
1.0
  0
SPLINE
  5
D3
330
1F
100
AcDbEntity
  8
Predefinito
100
AcDbSpline
210
0.0
220
0.0
230
1.0
 70
    24
 71
     2
 72
     6
 73
     3
 74
     0
 42
0.0000000001
 43
0.0000000001
 40
0.0
 40
0.0
 40
0.0
 40
0.2493247879804377
 40
0.2493247879804377
 40
0.2493247879804377
 10
223.520200019348
 20
1481.489233928432
 30
0.0
 10
223.3956072110853
 20
1481.48506924302
 30
0.0
 10
223.2710144028226
 20
1481.480904557607
 30
0.0
  0
SPLINE
  5
D4
330
1F
100
AcDbEntity
  8
Predefinito
100
AcDbSpline
210
0.0
220
0.0
230
1.0
 70
    24
 71
     2
 72
     6
 73
     3
 74
     0
 42
0.0000000001
 43
0.0000000001
 40
0.0
 40
0.0
 40
0.0
 40
223.2650920747201
 40
223.2650920747201
 40
223.2650920747201
 10
0.0057938963136053
 20
1481.480900595098
 30
0.0
 10
111.6383399336736
 20
1481.480900595098
 30
0.0
 10
223.2708859710337
 20
1481.480900595099
 30
0.0
  0
SPLINE
  5
D5
330
1F
100
AcDbEntity
  8
Predefinito
100
AcDbSpline
210
0.0
220
0.0
230
1.0
 70
    12
 71
     2
 72
     6
 73
     3
 74
     0
 42
0.0000000001
 43
0.0000000001
 40
0.0
 40
0.0
 40
0.0
 40
25.8257093336945
 40
25.8257093336945
 40
25.8257093336945
 10
12.41445160034561
 20
1502.829196885298
 30
0.0
 41
1.0
 10
0.1478123264908481
 20
1495.678755451853
 30
0.0
 41
0.8695456441992065
 10
0.0057938963138113
 20
1481.480900595098
 30
0.0
 41
1.0
  0
SPLINE
  5
D6
330
1F
100
AcDbEntity
  8
Predefinito
100
AcDbSpline
210
0.0
220
0.0
230
1.0
 70
    12
 71
     3
 72
    10
 73
     6
 74
     0
 42
0.0000000001
 43
0.0000000001
 40
0.0001557607431319
 40
0.0001557607431319
 40
0.0001557607431319
 40
0.0001557607431319
 40
0.5000762072132285
 40
0.5000762072132285
 40
1.0
 40
1.0
 40
1.0
 40
1.0
 10
223.2709152478598
 20
1481.484746637665
 30
0.0
 41
1.0
 10
223.2918284835214
 20
1485.599509360999
 30
0.0
 41
1.0
 10
223.8568389143552
 20
1489.990172833666
 30
0.0
 41
1.0
 10
226.0692753435991
 20
1497.601262856695
 30
0.0
 41
1.0
 10
227.6977585675909
 20
1500.756954463877
 30
0.0
 41
1.0
 10
229.4752246981091
 20
1502.829196885298
 30
0.0
 41
1.0
  0
SPLINE
  5
D7
330
1F
100
AcDbEntity
  8
Predefinito
100
AcDbSpline
210
0.0
220
0.0
230
1.0
 70
    24
 71
     2
 72
     6
 73
     3
 74
     0
 42
0.0000000001
 43
0.0000000001
 40
0.0
 40
0.0
 40
0.0
 40
0.2646236402151527
 40
0.2646236402151527
 40
0.2646236402151527
 10
0.5044033638099563
 20
1481.489233928432
 30
0.0
 10
0.5067126043874737
 20
1481.356942261468
 30
0.0
 10
0.509021844964991
 20
1481.224650594504
 30
0.0
  0
SPLINE
  5
D8
330
1F
100
AcDbEntity
  8
Predefinito
100
AcDbSpline
210
0.0
220
0.0
230
1.0
 70
    24
 71
     2
 72
     6
 73
     3
 74
     0
 42
0.0000000001
 43
0.0000000001
 40
0.0
 40
0.0
 40
0.0
 40
0.2645934563759113
 40
0.2645934563759113
 40
0.2645934563759113
 10
223.5225144446357
 20
1481.224650594504
 30
0.0
 10
223.5213572319919
 20
1481.356942261468
 30
0.0
 10
223.520200019348
 20
1481.489233928432
 30
0.0
  0
SPLINE
  5
D9
330
1F
100
AcDbEntity
  8
Predefinito
100
AcDbSpline
210
0.0
220
0.0
230
1.0
 70
    12
 71
     2
 72
    10
 73
     7
 74
     0
 42
0.0000000001
 43
0.0000000001
 40
0.0
 40
0.0
 40
0.0
 40
0.0587937322262997
 40
0.0587937322262997
 40
0.1175874644525994
 40
0.1175874644525994
 40
0.2991512929879929
 40
0.2991512929879929
 40
0.2991512929879929
 10
229.4752246981091
 20
1502.829196885298
 30
0.0
 41
1.0
 10
229.4927686874645
 20
1502.855923772459
 30
0.0
 41
0.8835071779804701
 10
229.5247357077456
 20
1502.856400924631
 30
0.0
 41
1.0
 10
229.5567027280266
 20
1502.856878076803
 30
0.0
 41
0.8835071779804701
 10
229.5750365957157
 20
1502.830686716483
 30
0.0
 41
1.0
 10
229.6300790700887
 20
1502.754114177345
 30
0.0
 41
0.9449247988201946
 10
229.6259675928553
 20
1502.659900996261
 30
0.0
 41
1.0
  0
SPLINE
  5
DA
330
1F
100
AcDbEntity
  8
Predefinito
100
AcDbSpline
210
0.0
220
0.0
230
1.0
 70
    24
 71
     2
 72
     6
 73
     3
 74
     0
 42
0.0000000001
 43
0.0000000001
 40
0.0
 40
0.0
 40
0.0
 40
217.0607730977635
 40
217.0607730977635
 40
217.0607730977635
 10
12.41445160034561
 20
1502.829196885298
 30
0.0
 10
120.9448381492274
 20
1502.829196885298
 30
0.0
 10
229.4752246981091
 20
1502.829196885298
 30
0.0
  0
SPLINE
  5
DB
330
1F
100
AcDbEntity
  8
Predefinito
100
AcDbSpline
210
0.0
220
0.0
230
1.0
 70
    12
 71
     3
 72
    10
 73
     6
 74
     0
 42
0.0000000001
 43
0.0000000001
 40
0.458820344709309
 40
0.458820344709309
 40
0.458820344709309
 40
0.458820344709309
 40
0.5000763862937065
 40
0.5000763862937065
 40
1.0
 40
1.0
 40
1.0
 40
1.0
 10
237.4295555599447
 20
1456.450988228641
 30
0.0
 41
1.0
 10
236.8838455975476
 20
1456.305588568177
 30
0.0
 41
1.0
 10
236.3271354902928
 20
1456.230658584683
 30
0.0
 41
1.0
 10
228.911475353836
 20
1456.233840717845
 30
0.0
 41
1.0
 10
223.3394345991517
 20
1467.273973233353
 30
0.0
 41
1.0
 10
223.2708958584407
 20
1480.980900595176
 30
0.0
 41
1.0
  0
SPLINE
  5
DC
330
1F
100
AcDbEntity
  8
Predefinito
100
AcDbSpline
210
0.0
220
0.0
230
1.0
 70
    24
 71
     2
 72
     6
 73
     3
 74
     0
 42
0.0000000001
 43
0.0000000001
 40
0.0
 40
0.0
 40
0.0
 40
0.2437643009600932
 40
0.2437643009600932
 40
0.2437643009600932
 10
223.5202734160472
 20
1480.980896595124
 30
0.0
 10
223.5213939303414
 20
1481.102773594814
 30
0.0
 10
223.5225144446357
 20
1481.224650594504
 30
0.0
  0
SPLINE
  5
DD
330
1F
100
AcDbEntity
  8
Predefinito
100
AcDbSpline
210
0.0
220
0.0
230
1.0
 70
    24
 71
     2
 72
     6
 73
     3
 74
     0
 42
0.0000000001
 43
0.0000000001
 40
0.0
 40
0.0
 40
0.0
 40
0.2437950332283295
 40
0.2437950332283295
 40
0.2437950332283295
 10
0.509021844964991
 20
1481.224650594504
 30
0.0
 10
0.5067854408611367
 20
1481.102773594814
 30
0.0
 10
0.5045490367572825
 20
1480.980896595124
 30
0.0
  0
SPLINE
  5
DE
330
1F
100
AcDbEntity
  8
Predefinito
100
AcDbSpline
210
0.0
220
0.0
230
1.0
 70
    24
 71
     2
 72
     6
 73
     3
 74
     0
 42
0.0000000001
 43
0.0000000001
 40
0.0
 40
0.0
 40
0.0
 40
223.0134925996707
 40
223.0134925996707
 40
223.0134925996707
 10
223.5225144446357
 20
1481.224650594504
 30
0.0
 10
112.0157681448003
 20
1481.224650594504
 30
0.0
 10
0.509021844964991
 20
1481.224650594504
 30
0.0
  0
SPLINE
  5
DF
330
1F
100
AcDbEntity
  8
Predefinito
100
AcDbSpline
210
0.0
220
0.0
230
1.0
 70
    24
 71
     2
 72
     6
 73
     3
 74
     0
 42
0.0000000001
 43
0.0000000001
 40
0.0
 40
0.0
 40
0.0
 40
0.2493775576386025
 40
0.2493775576386025
 40
0.2493775576386025
 10
223.2708958584407
 20
1480.980900595176
 30
0.0
 10
223.3955846372439
 20
1480.98089859515
 30
0.0
 10
223.5202734160472
 20
1480.980896595124
 30
0.0
  0
SPLINE
  5
E0
330
1F
100
AcDbEntity
  8
Predefinito
100
AcDbSpline
210
0.0
220
0.0
230
1.0
 70
    24
 71
     2
 72
     6
 73
     3
 74
     0
 42
0.0000000001
 43
0.0000000001
 40
0.0
 40
0.0
 40
0.0
 40
223.2651019374362
 40
223.2651019374362
 40
223.2651019374362
 10
0.0057939210045674
 20
1480.980900595176
 30
0.0
 10
111.6383448897226
 20
1480.980900595176
 30
0.0
 10
223.2708958584407
 20
1480.980900595176
 30
0.0
  0
SPLINE
  5
E1
330
1F
100
AcDbEntity
  8
Predefinito
100
AcDbSpline
210
0.0
220
0.0
230
1.0
 70
    24
 71
     2
 72
     6
 73
     3
 74
     0
 42
0.0000000001
 43
0.0000000001
 40
0.0
 40
0.0
 40
0.0
 40
0.1651507079004003
 40
0.1651507079004003
 40
0.1651507079004003
 10
229.6259675928553
 20
1502.659900996261
 30
0.0
 10
229.6266846046743
 20
1502.57732875532
 30
0.0
 10
229.6274016164934
 20
1502.494756514379
 30
0.0
  0
SPLINE
  5
E2
330
1F
100
AcDbEntity
  8
Predefinito
100
AcDbSpline
210
0.0
220
0.0
230
1.0
 70
    24
 71
     2
 72
     6
 73
     3
 74
     0
 42
0.0000000001
 43
0.0000000001
 40
0.0
 40
0.0
 40
0.0
 40
23.41964586215096
 40
23.41964586215096
 40
23.41964586215096
 10
438.2896327601433
 20
1513.880900595022
 30
0.0
 10
449.9994556912188
 20
1513.880900595022
 30
0.0
 10
461.7092786222943
 20
1513.880900595022
 30
0.0
  0
SPLINE
  5
E3
330
1F
100
AcDbEntity
  8
Predefinito
100
AcDbSpline
210
0.0
220
0.0
230
1.0
 70
    24
 71
     2
 72
     6
 73
     3
 74
     0
 42
0.0000000001
 43
0.0000000001
 40
0.0
 40
0.0
 40
0.0
 40
6.206771196947519
 40
6.206771196947519
 40
6.206771196947519
 10
461.7519891040442
 20
1506.674365974598
 30
0.0
 10
461.779084752857
 20
1509.77763328481
 30
0.0
 10
461.8061804016699
 20
1512.880900595022
 30
0.0
  0
SPLINE
  5
E4
330
1F
100
AcDbEntity
  8
Predefinito
100
AcDbSpline
210
0.0
220
0.0
230
1.0
 70
     8
 71
     3
 72
    12
 73
     8
 74
     0
 42
0.0000000001
 43
0.0000000001
 40
0.0
 40
0.0
 40
0.0
 40
0.0
 40
3.136204489772882
 40
6.310489330025331
 40
11.90515674133879
 40
17.94314477291449
 40
24.19292574171929
 40
24.19292574171929
 40
24.19292574171929
 40
24.19292574171929
 10
438.2724090406845
 20
1506.658502145261
 30
0.0
 10
439.2221909791813
 20
1506.221567836007
 30
0.0
 10
441.1913563357522
 20
1505.4749293742
 30
0.0
 10
444.9960300443574
 20
1504.339173789513
 30
0.0
 10
449.9251325745184
 20
1503.693769690942
 30
0.0
 10
455.885448152457
 20
1504.45269887133
 30
0.0
 10
459.7709920725081
 20
1505.786543107623
 30
0.0
 10
461.6723286678474
 20
1506.643197753708
 30
0.0
  0
SPLINE
  5
E5
330
1F
100
AcDbEntity
  8
Predefinito
100
AcDbSpline
210
0.0
220
0.0
230
1.0
 70
    24
 71
     2
 72
     6
 73
     3
 74
     0
 42
0.0000000001
 43
0.0000000001
 40
0.0
 40
0.0
 40
0.0
 40
1.00000000804549
 40
1.00000000804549
 40
1.00000000804549
 10
444.0208437365769
 20
1556.380900595022
 30
0.0
 10
444.0209071616886
 20
1555.880900595022
 30
0.0
 10
444.0209705868003
 20
1555.380900595022
 30
0.0
  0
SPLINE
  5
E6
330
1F
100
AcDbEntity
  8
Predefinito
100
AcDbSpline
210
0.0
220
0.0
230
1.0
 70
    24
 71
     2
 72
     6
 73
     3
 74
     0
 42
0.0000000001
 43
0.0000000001
 40
0.0
 40
0.0
 40
0.0
 40
11.94701682444253
 40
11.94701682444253
 40
11.94701682444253
 10
444.0208437365769
 20
1556.380900595022
 30
0.0
 10
449.9943521487982
 20
1556.380900595022
 30
0.0
 10
455.9678605610194
 20
1556.380900595022
 30
0.0
  0
SPLINE
  5
E7
330
1F
100
AcDbEntity
  8
Predefinito
100
AcDbSpline
210
0.0
220
0.0
230
1.0
 70
    24
 71
     2
 72
     6
 73
     3
 74
     0
 42
0.0000000001
 43
0.0000000001
 40
0.0
 40
0.0
 40
0.0
 40
0.7043266768253815
 40
0.7043266768253815
 40
0.7043266768253815
 10
461.709278622227
 20
1513.880900595022
 30
0.0
 10
461.4612483480224
 20
1513.630900595022
 30
0.0
 10
461.2132180738179
 20
1513.380900595022
 30
0.0
  0
SPLINE
  5
E8
330
1F
100
AcDbEntity
  8
Predefinito
100
AcDbSpline
210
0.0
220
0.0
230
1.0
 70
    24
 71
     2
 72
     6
 73
     3
 74
     0
 42
0.0000000001
 43
0.0000000001
 40
0.0
 40
0.0
 40
0.0
 40
0.7043266768254616
 40
0.7043266768254616
 40
0.7043266768254616
 10
438.7856933085525
 20
1513.380900595022
 30
0.0
 10
438.5376630343479
 20
1513.630900595022
 30
0.0
 10
438.2896327601433
 20
1513.880900595022
 30
0.0
  0
SPLINE
  5
E9
330
1F
100
AcDbEntity
  8
Predefinito
100
AcDbSpline
210
0.0
220
0.0
230
1.0
 70
    24
 71
     2
 72
     6
 73
     3
 74
     0
 42
0.0000000001
 43
0.0000000001
 40
0.0
 40
0.0
 40
0.0
 40
41.50000006534618
 40
41.50000006534618
 40
41.50000006534618
 10
461.7069497314079
 20
1555.380900595022
 30
0.0
 10
461.7081141768174
 20
1534.630900595022
 30
0.0
 10
461.709278622227
 20
1513.880900595022
 30
0.0
  0
SPLINE
  5
EA
330
1F
100
AcDbEntity
  8
Predefinito
100
AcDbSpline
210
0.0
220
0.0
230
1.0
 70
    24
 71
     2
 72
     6
 73
     3
 74
     0
 42
0.0000000001
 43
0.0000000001
 40
0.0
 40
0.0
 40
0.0
 40
41.49999980396149
 40
41.49999980396149
 40
41.49999980396149
 10
438.2896327601433
 20
1513.880900595022
 30
0.0
 10
438.2907972055455
 20
1534.630900464329
 30
0.0
 10
438.2919616509477
 20
1555.380900333637
 30
0.0
  0
SPLINE
  5
EB
330
1F
100
AcDbEntity
  8
Predefinito
100
AcDbSpline
210
0.0
220
0.0
230
1.0
 70
    24
 71
     2
 72
     6
 73
     3
 74
     0
 42
0.0000000001
 43
0.0000000001
 40
0.0
 40
0.0
 40
0.0
 40
23.45694233149504
 40
23.45694233149504
 40
23.45694233149504
 10
438.2919616509623
 20
1555.380900595022
 30
0.0
 10
450.0204328167098
 20
1555.380900595022
 30
0.0
 10
461.7489039824574
 20
1555.380900595022
 30
0.0
  0
SPLINE
  5
EC
330
1F
100
AcDbEntity
  8
Predefinito
100
AcDbSpline
210
0.0
220
0.0
230
1.0
 70
    28
 71
     2
 72
     8
 73
     5
 74
     0
 42
0.0000000001
 43
0.0000000001
 40
-35.3429173528852
 40
-35.3429173528852
 40
-35.3429173528852
 40
-17.6714586764426
 40
-17.6714586764426
 40
0.0
 40
0.0
 40
0.0
 10
461.2132180738179
 20
1513.380900595022
 30
0.0
 41
1.0
 10
462.1154559725184
 20
1513.380900595022
 30
0.0
 41
0.707106781186548
 10
450.9016935898856
 20
1513.380900595022
 30
0.0
 41
1.0
 10
439.6879312072523
 20
1513.380900595022
 30
0.0
 41
0.707106781186548
 10
438.7856933085525
 20
1513.380900595022
 30
0.0
 41
1.0
  0
SPLINE
  5
ED
330
1F
100
AcDbEntity
  8
Predefinito
100
AcDbSpline
210
0.0
220
0.0
230
1.0
 70
    24
 71
     2
 72
     6
 73
     3
 74
     0
 42
0.0000000001
 43
0.0000000001
 40
0.0
 40
0.0
 40
0.0
 40
0.5000000001173248
 40
0.5000000001173248
 40
0.5000000001173248
 10
440.5300563458516
 20
1513.380900595022
 30
0.0
 10
440.5300563458516
 20
1513.130900594963
 30
0.0
 10
440.5300563458516
 20
1512.880900594904
 30
0.0
  0
SPLINE
  5
EE
330
1F
100
AcDbEntity
  8
Predefinito
100
AcDbSpline
210
0.0
220
0.0
230
1.0
 70
    12
 71
     2
 72
     6
 73
     3
 74
     0
 42
0.0000000001
 43
0.0000000001
 40
0.0
 40
0.0
 40
0.0
 40
0.1985586696700201
 40
0.1985586696700201
 40
0.1985586696700201
 10
461.6570544888451
 20
1506.480900595022
 30
0.0
 41
1.0
 10
461.7209682916668
 20
1506.561774195926
 30
0.0
 41
0.9455983113899302
 10
461.7215928035391
 20
1506.664852435622
 30
0.0
 41
1.0
  0
SPLINE
  5
EF
330
1F
100
AcDbEntity
  8
Predefinito
100
AcDbSpline
210
0.0
220
0.0
230
1.0
 70
    24
 71
     2
 72
     6
 73
     3
 74
     0
 42
0.0000000001
 43
0.0000000001
 40
0.0
 40
0.0
 40
0.0
 40
6.207181482662367
 40
6.207181482662367
 40
6.207181482662367
 10
438.2468982401178
 20
1506.673955460628
 30
0.0
 10
438.2198147551323
 20
1509.777428027692
 30
0.0
 10
438.1927312701468
 20
1512.880900594756
 30
0.0
  0
SPLINE
  5
F0
330
1F
100
AcDbEntity
  8
Predefinito
100
AcDbSpline
210
0.0
220
0.0
230
1.0
 70
    24
 71
     2
 72
     6
 73
     3
 74
     0
 42
0.0000000001
 43
0.0000000001
 40
0.0
 40
0.0
 40
0.0
 40
23.61344913152311
 40
23.61344913152311
 40
23.61344913152311
 10
438.1927312701468
 20
1512.880900594756
 30
0.0
 10
449.9994558359083
 20
1512.880900594889
 30
0.0
 10
461.8061804016699
 20
1512.880900595022
 30
0.0
  0
SPLINE
  5
F1
330
1F
100
AcDbEntity
  8
Predefinito
100
AcDbSpline
210
0.0
220
0.0
230
1.0
 70
    24
 71
     2
 72
     6
 73
     3
 74
     0
 42
0.0000000001
 43
0.0000000001
 40
0.0
 40
0.0
 40
0.0
 40
43.0014615822888
 40
43.0014615822888
 40
43.0014615822888
 10
1549.899015842807
 20
1513.330905570679
 30
0.0
 10
1549.711397869649
 20
1534.830817757695
 30
0.0
 10
1549.523779896492
 20
1556.330729944711
 30
0.0
  0
SPLINE
  5
F2
330
1F
100
AcDbEntity
  8
Predefinito
100
AcDbSpline
210
0.0
220
0.0
230
1.0
 70
    24
 71
     2
 72
     6
 73
     3
 74
     0
 42
0.0000000001
 43
0.0000000001
 40
0.0
 40
0.0
 40
0.0
 40
43.00145929333797
 40
43.00145929333797
 40
43.00145929333797
 10
1786.110030848866
 20
1556.33072772505
 30
0.0
 10
1785.922416850823
 20
1534.830816647864
 30
0.0
 10
1785.734802852781
 20
1513.330905570679
 30
0.0
  0
SPLINE
  5
F3
330
1F
100
AcDbEntity
  8
Predefinito
100
AcDbSpline
210
0.0
220
0.0
230
1.0
 70
    24
 71
     2
 72
     6
 73
     3
 74
     0
 42
0.0000000001
 43
0.0000000001
 40
0.0
 40
0.0
 40
0.0
 40
365.0464309186762
 40
365.0464309186762
 40
365.0464309186762
 10
2090.811253942838
 20
1456.230905570756
 30
0.0
 10
1908.2880384835
 20
1456.230905570756
 30
0.0
 10
1725.764823024162
 20
1456.230905570756
 30
0.0
  0
SPLINE
  5
F4
330
1F
100
AcDbEntity
  8
Predefinito
100
AcDbSpline
210
0.0
220
0.0
230
1.0
 70
    12
 71
     2
 72
     6
 73
     3
 74
     0
 42
0.0000000001
 43
0.0000000001
 40
0.0
 40
0.0
 40
0.0
 40
0.0180639491847627
 40
0.0180639491847627
 40
0.0180639491847627
 10
2529.44925008472
 20
1503.610438798772
 30
0.0
 41
1.0
 10
2529.441255145276
 20
1503.614640883426
 30
0.0
 41
0.999999934529808
 10
2529.43325716682
 20
1503.618837180933
 30
0.0
 41
1.0
  0
SPLINE
  5
F5
330
1F
100
AcDbEntity
  8
Predefinito
100
AcDbSpline
210
0.0
220
0.0
230
1.0
 70
    24
 71
     2
 72
     6
 73
     3
 74
     0
 42
0.0000000001
 43
0.0000000001
 40
0.0
 40
0.0
 40
0.0
 40
211.7133450049137
 40
211.7133450049137
 40
211.7133450049137
 10
2517.818095422159
 20
1506.480905570679
 30
0.0
 10
2411.961422919702
 20
1506.480905570679
 30
0.0
 10
2306.104750417246
 20
1506.480905570679
 30
0.0
  0
SPLINE
  5
F6
330
1F
100
AcDbEntity
  8
Predefinito
100
AcDbSpline
210
0.0
220
0.0
230
1.0
 70
    24
 71
     2
 72
     6
 73
     3
 74
     0
 42
0.0000000001
 43
0.0000000001
 40
0.0
 40
0.0
 40
0.0
 40
0.5979448457385388
 40
0.5979448457385388
 40
0.5979448457385388
 10
2529.568095421542
 20
1503.427146706693
 30
0.0
 10
2529.568095421542
 20
1503.128174283824
 30
0.0
 10
2529.568095421542
 20
1502.829201860955
 30
0.0
  0
SPLINE
  5
F7
330
1F
100
AcDbEntity
  8
Predefinito
100
AcDbSpline
210
0.0
220
0.0
230
1.0
 70
    12
 71
     2
 72
     6
 73
     3
 74
     0
 42
0.0000000001
 43
0.0000000001
 40
0.0
 40
0.0
 40
0.0
 40
0.2167616813966245
 40
0.2167616813966245
 40
0.2167616813966245
 10
2529.461240582833
 20
1503.604132522306
 30
0.0
 41
1.0
 10
2529.566562114512
 20
1503.546970582935
 30
0.0
 41
0.8626173276849957
 10
2529.568095421543
 20
1503.427146706693
 30
0.0
 41
1.0
  0
SPLINE
  5
F8
330
1F
100
AcDbEntity
  8
Predefinito
100
AcDbSpline
210
0.0
220
0.0
230
1.0
 70
    12
 71
     2
 72
     6
 73
     3
 74
     0
 42
0.0000000001
 43
0.0000000001
 40
0.0
 40
0.0
 40
0.0
 40
0.0061330294549497
 40
0.0061330294549497
 40
0.0061330294549497
 10
1656.18360998887
 20
1503.608687867083
 30
0.0
 41
1.0
 10
1656.180895785749
 20
1503.607260767197
 30
0.0
 41
0.9999999925752495
 10
1656.178181930517
 20
1503.605833005855
 30
0.0
 41
1.0
  0
SPLINE
  5
F9
330
1F
100
AcDbEntity
  8
Predefinito
100
AcDbSpline
210
0.0
220
0.0
230
1.0
 70
    12
 71
     2
 72
     6
 73
     3
 74
     0
 42
0.0000000001
 43
0.0000000001
 40
0.0
 40
0.0
 40
0.0
 40
0.0535797298217953
 40
0.0535797298217953
 40
0.0535797298217953
 10
1656.272460249141
 20
1503.6551783476
 30
0.0
 41
1.0
 10
1656.248698667504
 20
1503.642805609602
 30
0.0
 41
0.9999994299233739
 10
1656.224963562745
 20
1503.63038215559
 30
0.0
 41
1.0
  0
SPLINE
  5
FA
330
1F
100
AcDbEntity
  8
Predefinito
100
AcDbSpline
210
0.0
220
0.0
230
1.0
 70
    24
 71
     2
 72
     6
 73
     3
 74
     0
 42
0.0000000001
 43
0.0000000001
 40
0.0
 40
0.0
 40
0.0
 40
200.8071097436587
 40
200.8071097436587
 40
200.8071097436587
 10
2104.510985677884
 20
1506.480905570679
 30
0.0
 10
2204.914540549713
 20
1506.480905570679
 30
0.0
 10
2305.318095421542
 20
1506.480905570679
 30
0.0
  0
SPLINE
  5
FB
330
1F
100
AcDbEntity
  8
Predefinito
100
AcDbSpline
210
0.0
220
0.0
230
1.0
 70
    24
 71
     3
 72
     8
 73
     4
 74
     0
 42
0.0000000001
 43
0.0000000001
 40
0.0
 40
0.0
 40
0.0
 40
0.0
 40
413.3201322583279
 40
413.3201322583279
 40
413.3201322583279
 40
413.3201322583279
 10
1667.818095432763
 20
1506.480905570679
 30
0.0
 10
1805.591472852203
 20
1506.480905570681
 30
0.0
 10
1943.364850271646
 20
1506.480905570677
 30
0.0
 10
2081.138227691091
 20
1506.480905570679
 30
0.0
  0
SPLINE
  5
FC
330
1F
100
AcDbEntity
  8
Predefinito
100
AcDbSpline
210
0.0
220
0.0
230
1.0
 70
    24
 71
     2
 72
     6
 73
     3
 74
     0
 42
0.0000000001
 43
0.0000000001
 40
0.0
 40
0.0
 40
0.0
 40
0.5979448457385388
 40
0.5979448457385388
 40
0.5979448457385388
 10
1656.068095421543
 20
1502.829201860955
 30
0.0
 10
1656.068095421543
 20
1503.128174283824
 30
0.0
 10
1656.068095421543
 20
1503.427146706693
 30
0.0
  0
SPLINE
  5
FD
330
1F
100
AcDbEntity
  8
Predefinito
100
AcDbSpline
210
0.0
220
0.0
230
1.0
 70
    12
 71
     2
 72
     6
 73
     3
 74
     0
 42
0.0000000001
 43
0.0000000001
 40
0.0
 40
0.0
 40
0.0
 40
0.2167616813969155
 40
0.2167616813969155
 40
0.2167616813969155
 10
1656.068095421543
 20
1503.427146706693
 30
0.0
 41
1.0
 10
1656.069628728568
 20
1503.546970582937
 30
0.0
 41
0.8626173276702483
 10
1656.174950260252
 20
1503.604132522306
 30
0.0
 41
1.0
  0
SPLINE
  5
FE
330
1F
100
AcDbEntity
  8
Predefinito
100
AcDbSpline
210
0.0
220
0.0
230
1.0
 70
    12
 71
     2
 72
     6
 73
     3
 74
     0
 42
0.0000000001
 43
0.0000000001
 40
0.0
 40
0.0
 40
0.0
 40
0.0962938075588581
 40
0.0962938075588581
 40
0.0962938075588581
 10
2471.982636309104
 20
1503.098555728198
 30
0.0
 41
1.0
 10
2472.03069996399
 20
1503.095725635839
 30
0.0
 41
0.9999999999699193
 10
2472.078763574965
 20
1503.092894797879
 30
0.0
 41
1.0
  0
SPLINE
  5
FF
330
1F
100
AcDbEntity
  8
Predefinito
100
AcDbSpline
210
0.0
220
0.0
230
1.0
 70
    24
 71
     2
 72
     6
 73
     3
 74
     0
 42
0.0000000001
 43
0.0000000001
 40
0.0
 40
0.0
 40
0.0
 40
6.316907195137061
 40
6.316907195137061
 40
6.316907195137061
 10
1679.649686643557
 20
1512.797572237346
 30
0.0
 10
1679.622124286086
 20
1509.639238904012
 30
0.0
 10
1679.594561928616
 20
1506.480905570679
 30
0.0
  0
SPLINE
  5
100
330
1F
100
AcDbEntity
  8
Predefinito
100
AcDbSpline
210
0.0
220
0.0
230
1.0
 70
    24
 71
     2
 72
     6
 73
     3
 74
     0
 42
0.0000000001
 43
0.0000000001
 40
0.0
 40
0.0
 40
0.0
 40
8.84836799299927
 40
8.84836799299927
 40
8.84836799299927
 10
1656.063709642286
 20
1503.949541163081
 30
0.0
 10
1656.025101843438
 20
1508.37355670021
 30
0.0
 10
1655.98649404459
 20
1512.797572237338
 30
0.0
  0
SPLINE
  5
101
330
1F
100
AcDbEntity
  8
Predefinito
100
AcDbSpline
210
0.0
220
0.0
230
1.0
 70
    12
 71
     2
 72
     6
 73
     3
 74
     0
 42
0.0000000001
 43
0.0000000001
 40
0.0
 40
0.0
 40
0.0
 40
0.3748531429845296
 40
0.3748531429845296
 40
0.3748531429845296
 10
1656.272460249141
 20
1503.6551783476
 30
0.0
 41
1.0
 10
1656.066135861262
 20
1503.720985656843
 30
0.0
 41
0.809875783028722
 10
1656.064331138718
 20
1503.937543034828
 30
0.0
 41
1.0
  0
SPLINE
  5
102
330
1F
100
AcDbEntity
  8
Predefinito
100
AcDbSpline
210
0.0
220
0.0
230
1.0
 70
    24
 71
     2
 72
     6
 73
     3
 74
     0
 42
0.0000000001
 43
0.0000000001
 40
0.0
 40
0.0
 40
0.0
 40
0.678697303278165
 40
0.678697303278165
 40
0.678697303278165
 10
2081.568819225443
 20
1513.380905570679
 30
0.0
 10
2081.328863492683
 20
1513.620861303439
 30
0.0
 10
2081.088907759922
 20
1513.8608170362
 30
0.0
  0
SPLINE
  5
103
330
1F
100
AcDbEntity
  8
Predefinito
100
AcDbSpline
210
0.0
220
0.0
230
1.0
 70
    24
 71
     2
 72
     6
 73
     3
 74
     0
 42
0.0000000001
 43
0.0000000001
 40
0.0
 40
0.0
 40
0.0
 40
41.5
 40
41.5
 40
41.5
 10
2081.068819225443
 20
1513.880905570679
 30
0.0
 10
2081.068819225443
 20
1534.630905570679
 30
0.0
 10
2081.068819225443
 20
1555.380905570679
 30
0.0
  0
SPLINE
  5
104
330
1F
100
AcDbEntity
  8
Predefinito
100
AcDbSpline
210
0.0
220
0.0
230
1.0
 70
    24
 71
     2
 72
     6
 73
     3
 74
     0
 42
0.0000000001
 43
0.0000000001
 40
0.0
 40
0.0
 40
0.0
 40
1.0
 40
1.0
 40
1.0
 10
2086.818819225444
 20
1555.380905570679
 30
0.0
 10
2086.818819225444
 20
1555.880905570679
 30
0.0
 10
2086.818819225444
 20
1556.380905570679
 30
0.0
  0
SPLINE
  5
105
330
1F
100
AcDbEntity
  8
Predefinito
100
AcDbSpline
210
0.0
220
0.0
230
1.0
 70
    24
 71
     2
 72
     6
 73
     3
 74
     0
 42
0.0000000001
 43
0.0000000001
 40
0.0
 40
0.0
 40
0.0
 40
0.5000000001759872
 40
0.5000000001759872
 40
0.5000000001759872
 10
2083.32132575881
 20
1512.880905570503
 30
0.0
 10
2083.32132575881
 20
1513.130905570591
 30
0.0
 10
2083.32132575881
 20
1513.380905570679
 30
0.0
  0
SPLINE
  5
106
330
1F
100
AcDbEntity
  8
Predefinito
100
AcDbSpline
210
0.0
220
0.0
230
1.0
 70
    12
 71
     2
 72
     6
 73
     3
 74
     0
 42
0.0000000001
 43
0.0000000001
 40
0.0
 40
0.0
 40
0.0
 40
0.2143531901490237
 40
0.2143531901490237
 40
0.2143531901490237
 10
2104.566104035359
 20
1506.628512512187
 30
0.0
 41
1.0
 10
2104.546618065042
 20
1506.518262941422
 30
0.0
 41
0.937149095555928
 10
2104.459774064762
 20
1506.447603260497
 30
0.0
 41
1.0
  0
SPLINE
  5
107
330
1F
100
AcDbEntity
  8
Predefinito
100
AcDbSpline
210
0.0
220
0.0
230
1.0
 70
    12
 71
     2
 72
     6
 73
     3
 74
     0
 42
0.0000000001
 43
0.0000000001
 40
0.0
 40
0.0
 40
0.0
 40
25.82560834419925
 40
25.82560834419925
 40
25.82560834419925
 10
2530.408315907603
 20
1502.829201860955
 30
0.0
 41
1.0
 10
2542.674783843074
 20
1495.678661676612
 30
0.0
 41
0.8695494331426883
 10
2542.816847555736
 20
1481.480905570755
 30
0.0
 41
1.0
  0
SPLINE
  5
108
330
1F
100
AcDbEntity
  8
Predefinito
100
AcDbSpline
210
0.0
220
0.0
230
1.0
 70
    24
 71
     2
 72
     6
 73
     3
 74
     0
 42
0.0000000001
 43
0.0000000001
 40
0.0
 40
0.0
 40
0.0
 40
0.264624095361337
 40
0.264624095361337
 40
0.264624095361337
 10
2542.318243057539
 20
1481.489239572953
 30
0.0
 10
2542.315933893906
 20
1481.356947677039
 30
0.0
 10
2542.313624730273
 20
1481.224655781124
 30
0.0
  0
SPLINE
  5
109
330
1F
100
AcDbEntity
  8
Predefinito
100
AcDbSpline
210
0.0
220
0.0
230
1.0
 70
    24
 71
     2
 72
     6
 73
     3
 74
     0
 42
0.0000000001
 43
0.0000000001
 40
0.0
 40
0.0
 40
0.0
 40
54.82941857899596
 40
54.82941857899596
 40
54.82941857899596
 10
2517.818115872742
 20
1456.230905570756
 30
0.0
 10
2490.403406583244
 20
1456.230905570756
 30
0.0
 10
2462.988697293746
 20
1456.230905570756
 30
0.0
  0
SPLINE
  5
10A
330
1F
100
AcDbEntity
  8
Predefinito
100
AcDbSpline
210
0.0
220
0.0
230
1.0
 70
    12
 71
     2
 72
     6
 73
     3
 74
     0
 42
0.0000000001
 43
0.0000000001
 40
0.0
 40
0.0
 40
0.0
 40
39.01986635514302
 40
39.01986635514302
 40
39.01986635514302
 10
2542.816847555736
 20
1480.980905570833
 30
0.0
 41
1.0
 10
2542.569284111863
 20
1456.230975438646
 30
0.0
 41
0.7106353186685038
 10
2517.818115872742
 20
1456.230900661528
 30
0.0
 41
1.0
  0
SPLINE
  5
10B
330
1F
100
AcDbEntity
  8
Predefinito
100
AcDbSpline
210
0.0
220
0.0
230
1.0
 70
    24
 71
     2
 72
     6
 73
     3
 74
     0
 42
0.0000000001
 43
0.0000000001
 40
0.0
 40
0.0
 40
0.0
 40
0.2437927269841585
 40
0.2437927269841585
 40
0.2437927269841585
 10
2542.313842852145
 20
1481.22465916653
 30
0.0
 10
2542.315970237023
 20
1481.102781368444
 30
0.0
 10
2542.318097621902
 20
1480.980903570359
 30
0.0
  0
SPLINE
  5
10C
330
1F
100
AcDbEntity
  8
Predefinito
100
AcDbSpline
210
0.0
220
0.0
230
1.0
 70
    24
 71
     2
 72
     6
 73
     3
 74
     0
 42
0.0000000001
 43
0.0000000001
 40
0.0
 40
0.0
 40
0.0
 40
1.00015232804356
 40
1.00015232804356
 40
1.00015232804356
 10
2091.818153506549
 20
1456.980905570671
 30
0.0
 10
2091.318153506549
 20
1456.989633103125
 30
0.0
 10
2090.818153506549
 20
1456.99836063558
 30
0.0
  0
SPLINE
  5
10D
330
1F
100
AcDbEntity
  8
Predefinito
100
AcDbSpline
210
0.0
220
0.0
230
1.0
 70
    24
 71
     2
 72
     6
 73
     3
 74
     0
 42
0.0000000001
 43
0.0000000001
 40
0.0
 40
0.0
 40
0.0
 40
2.000304656088483
 40
2.000304656088483
 40
2.000304656088483
 10
2093.81815350655
 20
1456.480905570691
 30
0.0
 10
2092.818153506549
 20
1456.4983606356
 30
0.0
 10
2091.818153506548
 20
1456.515815700508
 30
0.0
  0
SPLINE
  5
10E
330
1F
100
AcDbEntity
  8
Predefinito
100
AcDbSpline
210
0.0
220
0.0
230
1.0
 70
    24
 71
     2
 72
     6
 73
     3
 74
     0
 42
0.0000000001
 43
0.0000000001
 40
0.0
 40
0.0
 40
0.0
 40
0.9996173925954598
 40
0.9996173925954598
 40
0.9996173925954598
 10
2094.817618652574
 20
1457.015806364597
 30
0.0
 10
2094.317886079562
 20
1457.007083500098
 30
0.0
 10
2093.818153506549
 20
1456.9983606356
 30
0.0
  0
SPLINE
  5
10F
330
1F
100
AcDbEntity
  8
Predefinito
100
AcDbSpline
210
0.0
220
0.0
230
1.0
 70
    12
 71
     2
 72
     6
 73
     3
 74
     0
 42
0.0000000001
 43
0.0000000001
 40
0.0
 40
0.0
 40
0.0
 40
25.82562696835168
 40
25.82562696835168
 40
25.82562696835168
 10
1642.819229874296
 20
1481.480905570755
 30
0.0
 41
1.0
 10
1642.96123551581
 20
1495.678695430016
 30
0.0
 41
0.8695474016851233
 10
1655.227761522429
 20
1502.829201860955
 30
0.0
 41
1.0
  0
SPLINE
  5
110
330
1F
100
AcDbEntity
  8
Predefinito
100
AcDbSpline
210
0.0
220
0.0
230
1.0
 70
    24
 71
     2
 72
     6
 73
     3
 74
     0
 42
0.0000000001
 43
0.0000000001
 40
0.0
 40
0.0
 40
0.0
 40
0.2646240953613211
 40
0.2646240953613211
 40
0.2646240953613211
 10
1643.322452699759
 20
1481.224655781124
 30
0.0
 10
1643.320143536126
 20
1481.356947677039
 30
0.0
 10
1643.317834372494
 20
1481.489239572953
 30
0.0
  0
SPLINE
  5
111
330
1F
100
AcDbEntity
  8
Predefinito
100
AcDbSpline
210
0.0
220
0.0
230
1.0
 70
    12
 71
     2
 72
     6
 73
     3
 74
     0
 42
0.0000000001
 43
0.0000000001
 40
0.0
 40
0.0
 40
0.0
 40
39.01982967207721
 40
39.01982967207721
 40
39.01982967207721
 10
1667.817979841041
 20
1456.230911375679
 30
0.0
 41
1.0
 10
1643.066906667684
 20
1456.231071642813
 30
0.0
 41
0.7106381583144877
 10
1642.819229874297
 20
1480.980905570833
 30
0.0
 41
1.0
  0
SPLINE
  5
112
330
1F
100
AcDbEntity
  8
Predefinito
100
AcDbSpline
210
0.0
220
0.0
230
1.0
 70
    24
 71
     2
 72
     6
 73
     3
 74
     0
 42
0.0000000001
 43
0.0000000001
 40
0.0
 40
0.0
 40
0.0
 40
54.8383296121724
 40
54.8383296121724
 40
54.8383296121724
 10
1667.81797984161
 20
1456.230905570756
 30
0.0
 10
1695.237144647696
 20
1456.230905570756
 30
0.0
 10
1722.656309453783
 20
1456.230905570756
 30
0.0
  0
SPLINE
  5
113
330
1F
100
AcDbEntity
  8
Predefinito
100
AcDbSpline
210
0.0
220
0.0
230
1.0
 70
    24
 71
     2
 72
     6
 73
     3
 74
     0
 42
0.0000000001
 43
0.0000000001
 40
0.0
 40
0.0
 40
0.0
 40
0.2437947267055167
 40
0.2437947267055167
 40
0.2437947267055167
 10
1643.31797977323
 20
1480.980901570942
 30
0.0
 10
1643.320107175559
 20
1481.102780368736
 30
0.0
 10
1643.322234577888
 20
1481.22465916653
 30
0.0
  0
SPLINE
  5
114
330
1F
100
AcDbEntity
  8
Predefinito
100
AcDbSpline
210
0.0
220
0.0
230
1.0
 70
    24
 71
     2
 72
     6
 73
     3
 74
     0
 42
0.0000000001
 43
0.0000000001
 40
0.0
 40
0.0
 40
0.0
 40
0.5701216595753067
 40
0.5701216595753067
 40
0.5701216595753067
 10
2450.197913020674
 20
1502.856415490633
 30
0.0
 10
2450.482973850461
 20
1502.856415490633
 30
0.0
 10
2450.768034680249
 20
1502.856415490633
 30
0.0
  0
SPLINE
  5
115
330
1F
100
AcDbEntity
  8
Predefinito
100
AcDbSpline
210
0.0
220
0.0
230
1.0
 70
    24
 71
     2
 72
     6
 73
     3
 74
     0
 42
0.0000000001
 43
0.0000000001
 40
0.0
 40
0.0
 40
0.0
 40
0.6534781607870173
 40
0.6534781607870173
 40
0.6534781607870173
 10
2449.144789578766
 20
1502.856415490633
 30
0.0
 10
2449.471528659159
 20
1502.856415490633
 30
0.0
 10
2449.798267739553
 20
1502.856415490633
 30
0.0
  0
SPLINE
  5
116
330
1F
100
AcDbEntity
  8
Predefinito
100
AcDbSpline
210
0.0
220
0.0
230
1.0
 70
    24
 71
     2
 72
     6
 73
     3
 74
     0
 42
0.0000000001
 43
0.0000000001
 40
0.0
 40
0.0
 40
0.0
 40
365.0464309186787
 40
365.0464309186787
 40
365.0464309186787
 10
2459.871367818939
 20
1456.230905570756
 30
0.0
 10
2277.348152359599
 20
1456.230905570756
 30
0.0
 10
2094.82493690026
 20
1456.230905570756
 30
0.0
  0
SPLINE
  5
117
330
1F
100
AcDbEntity
  8
Predefinito
100
AcDbSpline
210
0.0
220
0.0
230
1.0
 70
    24
 71
     2
 72
     6
 73
     3
 74
     0
 42
0.0000000001
 43
0.0000000001
 40
0.0
 40
0.0
 40
0.0
 40
1.0
 40
1.0
 40
1.0
 10
2511.809471101403
 20
1555.380905570679
 30
0.0
 10
2511.809471101403
 20
1555.880905570679
 30
0.0
 10
2511.809471101403
 20
1556.380905570679
 30
0.0
  0
SPLINE
  5
118
330
1F
100
AcDbEntity
  8
Predefinito
100
AcDbSpline
210
0.0
220
0.0
230
1.0
 70
    24
 71
     2
 72
     6
 73
     3
 74
     0
 42
0.0000000001
 43
0.0000000001
 40
0.0
 40
0.0
 40
0.0
 40
0.6637086526713977
 40
0.6637086526713977
 40
0.6637086526713977
 10
2529.528783990439
 20
1513.850218459715
 30
0.0
 10
2529.294127545921
 20
1513.615562015197
 30
0.0
 10
2529.059471101402
 20
1513.380905570679
 30
0.0
  0
SPLINE
  5
119
330
1F
100
AcDbEntity
  8
Predefinito
100
AcDbSpline
210
0.0
220
0.0
230
1.0
 70
    24
 71
     2
 72
     6
 73
     3
 74
     0
 42
0.0000000001
 43
0.0000000001
 40
0.0
 40
0.0
 40
0.0
 40
41.5
 40
41.5
 40
41.5
 10
2529.559471101403
 20
1555.380905570679
 30
0.0
 10
2529.559471101403
 20
1534.630905570679
 30
0.0
 10
2529.559471101403
 20
1513.880905570679
 30
0.0
  0
SPLINE
  5
11A
330
1F
100
AcDbEntity
  8
Predefinito
100
AcDbSpline
210
0.0
220
0.0
230
1.0
 70
    24
 71
     2
 72
     6
 73
     3
 74
     0
 42
0.0000000001
 43
0.0000000001
 40
0.0
 40
0.0
 40
0.0
 40
8.933549437112278
 40
8.933549437112278
 40
8.933549437112278
 10
2529.641794509217
 20
1512.880888663204
 30
0.0
 10
2529.602815040918
 20
1508.414284025743
 30
0.0
 10
2529.56383557262
 20
1503.947679388283
 30
0.0
  0
SPLINE
  5
11B
330
1F
100
AcDbEntity
  8
Predefinito
100
AcDbSpline
210
0.0
220
0.0
230
1.0
 70
    24
 71
     2
 72
     6
 73
     3
 74
     0
 42
0.0000000001
 43
0.0000000001
 40
0.0
 40
0.0
 40
0.0
 40
1.0
 40
1.0
 40
1.0
 10
2523.809471101402
 20
1556.380905570679
 30
0.0
 10
2523.809471101402
 20
1555.880905570679
 30
0.0
 10
2523.809471101402
 20
1555.380905570679
 30
0.0
  0
SPLINE
  5
11C
330
1F
100
AcDbEntity
  8
Predefinito
100
AcDbSpline
210
0.0
220
0.0
230
1.0
 70
    24
 71
     2
 72
     6
 73
     3
 74
     0
 42
0.0000000001
 43
0.0000000001
 40
0.0
 40
0.0
 40
0.0
 40
0.0033004285377035
 40
0.0033004285377035
 40
0.0033004285377035
 10
2506.063137654151
 20
1513.877239017931
 30
0.0
 10
2506.061970776451
 20
1513.878405895631
 30
0.0
 10
2506.060803898751
 20
1513.87957277333
 30
0.0
  0
SPLINE
  5
11D
330
1F
100
AcDbEntity
  8
Predefinito
100
AcDbSpline
210
0.0
220
0.0
230
1.0
 70
    24
 71
     2
 72
     6
 73
     3
 74
     0
 42
0.0000000001
 43
0.0000000001
 40
0.0
 40
0.0
 40
0.0
 40
0.6637086526702722
 40
0.6637086526702722
 40
0.6637086526702722
 10
2506.559471101403
 20
1513.380905570679
 30
0.0
 10
2506.324814656885
 20
1513.615562015196
 30
0.0
 10
2506.090158212367
 20
1513.850218459714
 30
0.0
  0
SPLINE
  5
11E
330
1F
100
AcDbEntity
  8
Predefinito
100
AcDbSpline
210
0.0
220
0.0
230
1.0
 70
    24
 71
     2
 72
     6
 73
     3
 74
     0
 42
0.0000000001
 43
0.0000000001
 40
0.0
 40
0.0
 40
0.0
 40
41.5
 40
41.5
 40
41.5
 10
2506.059471101403
 20
1513.880905570679
 30
0.0
 10
2506.059471101403
 20
1534.630905570679
 30
0.0
 10
2506.059471101403
 20
1555.380905570679
 30
0.0
  0
SPLINE
  5
11F
330
1F
100
AcDbEntity
  8
Predefinito
100
AcDbSpline
210
0.0
220
0.0
230
1.0
 70
    24
 71
     2
 72
     6
 73
     3
 74
     0
 42
0.0000000001
 43
0.0000000001
 40
0.0
 40
0.0
 40
0.0
 40
0.5000000001759872
 40
0.5000000001759872
 40
0.5000000001759872
 10
2508.293097366805
 20
1512.880905570503
 30
0.0
 10
2508.293097366805
 20
1513.130905570591
 30
0.0
 10
2508.293097366805
 20
1513.380905570679
 30
0.0
  0
SPLINE
  5
120
330
1F
100
AcDbEntity
  8
Predefinito
100
AcDbSpline
210
0.0
220
0.0
230
1.0
 70
    24
 71
     2
 72
     6
 73
     3
 74
     0
 42
0.0000000001
 43
0.0000000001
 40
0.0
 40
0.0
 40
0.0
 40
0.5000000001759872
 40
0.5000000001759872
 40
0.5000000001759872
 10
2527.295550900058
 20
1513.380905570679
 30
0.0
 10
2527.295550900058
 20
1513.130905570591
 30
0.0
 10
2527.295550900058
 20
1512.880905570503
 30
0.0
  0
SPLINE
  5
121
330
1F
100
AcDbEntity
  8
Predefinito
100
AcDbSpline
210
0.0
220
0.0
230
1.0
 70
    12
 71
     2
 72
     6
 73
     3
 74
     0
 42
0.0000000001
 43
0.0000000001
 40
0.0
 40
0.0
 40
0.0
 40
0.3877740738494526
 40
0.3877740738494526
 40
0.3877740738494526
 10
2529.563230323647
 20
1503.937543034787
 30
0.0
 41
1.0
 10
2529.56138753892
 20
1503.71110406657
 30
0.0
 41
0.7976427932334444
 10
2529.343013827481
 20
1503.65117974484
 30
0.0
 41
1.0
  0
SPLINE
  5
122
330
1F
100
AcDbEntity
  8
Predefinito
100
AcDbSpline
210
0.0
220
0.0
230
1.0
 70
    24
 71
     2
 72
     6
 73
     3
 74
     0
 42
0.0000000001
 43
0.0000000001
 40
0.0
 40
0.0
 40
0.0
 40
6.400257126573821
 40
6.400257126573821
 40
6.400257126573821
 10
2506.032999533754
 20
1506.480905570679
 30
0.0
 10
2506.005073498215
 20
1509.680912282876
 30
0.0
 10
2505.977147462676
 20
1512.880918995072
 30
0.0
  0
SPLINE
  5
123
330
1F
100
AcDbEntity
  8
Predefinito
100
AcDbSpline
210
0.0
220
0.0
230
1.0
 70
    24
 71
     3
 72
    10
 73
     6
 74
     0
 42
0.0000000001
 43
0.0000000001
 40
0.0
 40
0.0
 40
0.0
 40
0.0
 40
0.1008026362444525
 40
0.6982199857538944
 40
220.062696974273
 40
220.062696974273
 40
220.062696974273
 40
220.062696974273
 10
1549.919079229634
 20
1513.330905570679
 30
0.0
 10
1549.903557860614
 20
1513.330905570679
 30
0.0
 10
1550.147990261827
 20
1513.330905570678
 30
0.0
 10
1623.501279300045
 20
1513.330905570679
 30
0.0
 10
1696.822789099544
 20
1513.330905570678
 30
0.0
 10
1769.943980129428
 20
1513.330905570679
 30
0.0
  0
SPLINE
  5
124
330
1F
100
AcDbEntity
  8
Predefinito
100
AcDbSpline
210
0.0
220
0.0
230
1.0
 70
    24
 71
     2
 72
     6
 73
     3
 74
     0
 42
0.0000000001
 43
0.0000000001
 40
0.0
 40
0.0
 40
0.0
 40
15.77050533459419
 40
15.77050533459419
 40
15.77050533459419
 10
1769.943980129428
 20
1513.330905570679
 30
0.0
 10
1777.829232796725
 20
1513.330905570679
 30
0.0
 10
1785.714485464022
 20
1513.330905570679
 30
0.0
  0
SPLINE
  5
125
330
1F
100
AcDbEntity
  8
Predefinito
100
AcDbSpline
210
0.0
220
0.0
230
1.0
 70
    24
 71
     2
 72
     6
 73
     3
 74
     0
 42
0.0000000001
 43
0.0000000001
 40
0.0
 40
0.0
 40
0.0
 40
15.82068959374283
 40
15.82068959374283
 40
15.82068959374283
 10
1770.268960765127
 20
1556.330905570679
 30
0.0
 10
1778.179305561998
 20
1556.330905570679
 30
0.0
 10
1786.08965035887
 20
1556.330905570679
 30
0.0
  0
SPLINE
  5
126
330
1F
100
AcDbEntity
  8
Predefinito
100
AcDbSpline
210
0.0
220
0.0
230
1.0
 70
    24
 71
     3
 72
    11
 73
     7
 74
     0
 42
0.0000000001
 43
0.0000000001
 40
0.0
 40
0.0
 40
0.0
 40
0.0
 40
0.0505798610386137
 40
0.3914669537734881
 40
0.8894985530621398
 40
220.762971517114
 40
220.762971517114
 40
220.762971517114
 40
220.762971517114
 10
1549.54390559562
 20
1556.330905570679
 30
0.0
 10
1549.516058683259
 20
1556.330905570676
 30
0.0
 10
1549.656374828914
 20
1556.33090557068
 30
0.0
 10
1549.949763104703
 20
1556.330905570679
 30
0.0
 10
1623.520751909152
 20
1556.330905570678
 30
0.0
 10
1696.977742084832
 20
1556.330905570679
 30
0.0
 10
1770.268960765127
 20
1556.330905570679
 30
0.0
  0
SPLINE
  5
127
330
1F
100
AcDbEntity
  8
Predefinito
100
AcDbSpline
210
0.0
220
0.0
230
1.0
 70
    24
 71
     2
 72
     6
 73
     3
 74
     0
 42
0.0000000001
 43
0.0000000001
 40
0.0
 40
0.0
 40
0.0
 40
386.7065031991801
 40
386.7065031991801
 40
386.7065031991801
 10
1704.111595308859
 20
1481.480905570755
 30
0.0
 10
1897.464846908449
 20
1481.480905570755
 30
0.0
 10
2090.818098508039
 20
1481.480905570755
 30
0.0
  0
SPLINE
  5
128
330
1F
100
AcDbEntity
  8
Predefinito
100
AcDbSpline
210
0.0
220
0.0
230
1.0
 70
    12
 71
     3
 72
    10
 73
     6
 74
     0
 42
0.0000000001
 43
0.0000000001
 40
-1.0
 40
-1.0
 40
-1.0
 40
-1.0
 40
-0.4999237927867715
 40
-0.4999237927867715
 40
-0.0000524516506357
 40
-0.0000524516506357
 40
-0.0000524516506357
 40
-0.0000524516506357
 10
1714.857808086032
 20
1502.829201860955
 30
0.0
 41
1.0
 10
1711.778207831285
 20
1500.756327663962
 30
0.0
 41
1.0
 10
1708.958363902329
 20
1497.599303581843
 30
0.0
 41
1.0
 10
1705.127103423211
 20
1489.98671458012
 30
0.0
 41
1.0
 10
1704.14743666516
 20
1485.596445177979
 30
0.0
 41
1.0
 10
1704.111606556676
 20
1481.482200688384
 30
0.0
 41
1.0
  0
SPLINE
  5
129
330
1F
100
AcDbEntity
  8
Predefinito
100
AcDbSpline
210
0.0
220
0.0
230
1.0
 70
    12
 71
     2
 72
     6
 73
     3
 74
     0
 42
0.0000000001
 43
0.0000000001
 40
0.0
 40
0.0
 40
0.0
 40
21.33996304375369
 40
21.33996304375369
 40
21.33996304375369
 10
2090.818098506003
 20
1481.489238900527
 30
0.0
 41
1.0
 10
2090.816463796225
 20
1492.159220380504
 30
0.0
 41
0.999999988286029
 10
2090.818095421532
 20
1502.829201860955
 30
0.0
 41
1.0
  0
SPLINE
  5
12A
330
1F
100
AcDbEntity
  8
Predefinito
100
AcDbSpline
210
0.0
220
0.0
230
1.0
 70
    24
 71
     2
 72
     6
 73
     3
 74
     0
 42
0.0000000001
 43
0.0000000001
 40
0.0
 40
0.0
 40
0.0
 40
0.2567121544778032
 40
0.2567121544778032
 40
0.2567121544778032
 10
1704.543460485798
 20
1481.485504609655
 30
0.0
 10
1704.54539917891
 20
1481.357163174283
 30
0.0
 10
1704.547337872023
 20
1481.228821738912
 30
0.0
  0
SPLINE
  5
12B
330
1F
100
AcDbEntity
  8
Predefinito
100
AcDbSpline
210
0.0
220
0.0
230
1.0
 70
    24
 71
     2
 72
     6
 73
     3
 74
     0
 42
0.0000000001
 43
0.0000000001
 40
0.0
 40
0.0
 40
0.0
 40
0.2412146944090135
 40
0.2412146944090135
 40
0.2412146944090135
 10
2090.818100232359
 20
1481.248024209742
 30
0.0
 10
2090.818097503349
 20
1481.368631556915
 30
0.0
 10
2090.818094774339
 20
1481.489238904089
 30
0.0
  0
SPLINE
  5
12C
330
1F
100
AcDbEntity
  8
Predefinito
100
AcDbSpline
210
0.0
220
0.0
230
1.0
 70
    24
 71
     2
 72
     6
 73
     3
 74
     0
 42
0.0000000001
 43
0.0000000001
 40
0.0
 40
0.0
 40
0.0
 40
375.9602873355107
 40
375.9602873355107
 40
375.9602873355107
 10
1714.857808086032
 20
1502.829201860955
 30
0.0
 10
1902.837951753787
 20
1502.829201860955
 30
0.0
 10
2090.818095421542
 20
1502.829201860955
 30
0.0
  0
SPLINE
  5
12D
330
1F
100
AcDbEntity
  8
Predefinito
100
AcDbSpline
210
0.0
220
0.0
230
1.0
 70
    12
 71
     3
 72
     8
 73
     4
 74
     0
 42
0.0000000001
 43
0.0000000001
 40
-1.0
 40
-1.0
 40
-1.0
 40
-1.0
 40
-0.5000542242669777
 40
-0.5000542242669777
 40
-0.5000542242669777
 40
-0.5000542242669777
 10
1704.111595308859
 20
1480.980905570833
 30
0.0
 41
1.0
 10
1704.230313152941
 20
1467.273370539753
 30
0.0
 41
1.0
 10
1713.887790534797
 20
1456.233722741884
 30
0.0
 41
1.0
 10
1725.760179019018
 20
1456.230906097567
 30
0.0
 41
1.0
  0
SPLINE
  5
12E
330
1F
100
AcDbEntity
  8
Predefinito
100
AcDbSpline
210
0.0
220
0.0
230
1.0
 70
    24
 71
     2
 72
     6
 73
     3
 74
     0
 42
0.0000000001
 43
0.0000000001
 40
0.0
 40
0.0
 40
0.0
 40
24.71873515625157
 40
24.71873515625157
 40
24.71873515625157
 10
2090.818095421544
 20
1480.980901570803
 30
0.0
 10
2090.818095421544
 20
1468.621533992677
 30
0.0
 10
2090.818095421544
 20
1456.262166414551
 30
0.0
  0
SPLINE
  5
12F
330
1F
100
AcDbEntity
  8
Predefinito
100
AcDbSpline
210
0.0
220
0.0
230
1.0
 70
    24
 71
     2
 72
     6
 73
     3
 74
     0
 42
0.0000000001
 43
0.0000000001
 40
0.0
 40
0.0
 40
0.0
 40
0.243753999437841
 40
0.243753999437841
 40
0.243753999437841
 10
2090.818095421232
 20
1480.980901570781
 30
0.0
 10
2090.818098091179
 20
1481.102778570471
 30
0.0
 10
2090.818100761127
 20
1481.224655570161
 30
0.0
  0
SPLINE
  5
130
330
1F
100
AcDbEntity
  8
Predefinito
100
AcDbSpline
210
0.0
220
0.0
230
1.0
 70
    24
 71
     2
 72
     6
 73
     3
 74
     0
 42
0.0000000001
 43
0.0000000001
 40
0.0
 40
0.0
 40
0.0
 40
0.2437827333026223
 40
0.2437827333026223
 40
0.2437827333026223
 10
1704.547400805109
 20
1481.224655570161
 30
0.0
 10
1704.545465373192
 20
1481.102779570196
 30
0.0
 10
1704.543529941276
 20
1480.980903570231
 30
0.0
  0
SPLINE
  5
131
330
1F
100
AcDbEntity
  8
Predefinito
100
AcDbSpline
210
0.0
220
0.0
230
1.0
 70
    24
 71
     2
 72
     6
 73
     3
 74
     0
 42
0.0000000001
 43
0.0000000001
 40
0.0
 40
0.0
 40
0.0
 40
386.2706999560178
 40
386.2706999560178
 40
386.2706999560178
 10
2090.818100761127
 20
1481.224655570161
 30
0.0
 10
1897.682750783118
 20
1481.224655570161
 30
0.0
 10
1704.547400805109
 20
1481.224655570161
 30
0.0
  0
SPLINE
  5
132
330
1F
100
AcDbEntity
  8
Predefinito
100
AcDbSpline
210
0.0
220
0.0
230
1.0
 70
    24
 71
     2
 72
     6
 73
     3
 74
     0
 42
0.0000000001
 43
0.0000000001
 40
0.0
 40
0.0
 40
0.0
 40
386.7065001126848
 40
386.7065001126848
 40
386.7065001126848
 10
1704.111595308859
 20
1480.980905570833
 30
0.0
 10
1897.464845365202
 20
1480.980905570833
 30
0.0
 10
2090.818095421544
 20
1480.980905570833
 30
0.0
  0
SPLINE
  5
133
330
1F
100
AcDbEntity
  8
Predefinito
100
AcDbSpline
210
0.0
220
0.0
230
1.0
 70
    28
 71
     2
 72
     6
 73
     3
 74
     0
 42
0.0000000001
 43
0.0000000001
 40
-1110.908886586788
 40
-1110.908886586788
 40
-1110.908886586788
 40
-667.588438887837
 40
-667.588438887837
 40
-667.588438887837
 10
2529.445935549575
 20
1503.604132522306
 30
0.0
 41
0.8693207135298868
 10
2531.577113655462
 20
1503.604132522307
 30
0.0
 41
0.8055005968816921
 10
2311.139668002188
 20
1503.604132522306
 30
0.0
 41
1.0
  0
SPLINE
  5
134
330
1F
100
AcDbEntity
  8
Predefinito
100
AcDbSpline
210
0.0
220
0.0
230
1.0
 70
    28
 71
     2
 72
     6
 73
     3
 74
     0
 42
0.0000000001
 43
0.0000000001
 40
1601.825076579931
 40
1601.825076579931
 40
1601.825076579931
 40
2057.19340938694
 40
2057.19340938694
 40
2057.19340938694
 10
2529.552786642854
 20
1503.427146706694
 30
0.0
 41
0.8693207135298869
 10
2531.684486288343
 20
1503.427146706693
 30
0.0
 41
0.805500596881692
 10
2311.193095421542
 20
1503.427146706693
 30
0.0
 41
1.0
  0
SPLINE
  5
135
330
1F
100
AcDbEntity
  8
Predefinito
100
AcDbSpline
210
0.0
220
0.0
230
1.0
 70
    24
 71
     2
 72
     6
 73
     3
 74
     0
 42
0.0000000001
 43
0.0000000001
 40
0.0
 40
0.0
 40
0.0
 40
654.9540503437186
 40
654.9540503437186
 40
654.9540503437186
 10
1656.185617658469
 20
1503.604132522306
 30
0.0
 10
1983.662642830329
 20
1503.604132522306
 30
0.0
 10
2311.139668002188
 20
1503.604132522306
 30
0.0
  0
SPLINE
  5
136
330
1F
100
AcDbEntity
  8
Predefinito
100
AcDbSpline
210
0.0
220
0.0
230
1.0
 70
    24
 71
     2
 72
     6
 73
     3
 74
     0
 42
0.0000000001
 43
0.0000000001
 40
0.0
 40
0.0
 40
0.0
 40
655.1096912213109
 40
655.1096912213109
 40
655.1096912213109
 10
2311.193095421542
 20
1503.427146706693
 30
0.0
 10
1983.638249810887
 20
1503.427146706693
 30
0.0
 10
1656.083404200231
 20
1503.427146706693
 30
0.0
  0
SPLINE
  5
137
330
1F
100
AcDbEntity
  8
Predefinito
100
AcDbSpline
210
0.0
220
0.0
230
1.0
 70
    12
 71
     2
 72
     6
 73
     3
 74
     0
 42
0.0000000001
 43
0.0000000001
 40
0.0
 40
0.0
 40
0.0
 40
0.2476088547491123
 40
0.2476088547491123
 40
0.2476088547491123
 10
1704.570804924051
 20
1481.229035441559
 30
0.0
 41
1.0
 10
1704.571930391387
 20
1481.105235339385
 30
0.0
 41
0.9999904223880718
 10
1704.574139466554
 20
1480.981449831502
 30
0.0
 41
1.0
  0
SPLINE
  5
138
330
1F
100
AcDbEntity
  8
Predefinito
100
AcDbSpline
210
0.0
220
0.0
230
1.0
 70
    12
 71
     2
 72
     6
 73
     3
 74
     0
 42
0.0000000001
 43
0.0000000001
 40
0.0
 40
0.0
 40
0.0
 40
0.2482134867353995
 40
0.2482134867353995
 40
0.2482134867353995
 10
1704.569636465484
 20
1481.480905570755
 30
0.0
 41
1.0
 10
1704.569659723363
 20
1481.356798033383
 30
0.0
 41
0.9999903771088469
 10
1704.570771887158
 20
1481.232695477142
 30
0.0
 41
1.0
  0
SPLINE
  5
139
330
1F
100
AcDbEntity
  8
Predefinito
100
AcDbSpline
210
0.0
220
0.0
230
1.0
 70
    12
 71
     2
 72
     8
 73
     5
 74
     0
 42
0.0000000001
 43
0.0000000001
 40
0.524409553685064
 40
0.524409553685064
 40
0.524409553685064
 40
1.83300110363743
 40
1.83300110363743
 40
3.02546607145799
 40
3.02546607145799
 40
3.02546607145799
 10
1713.416663165903
 20
1503.121398824186
 30
0.0
 41
1.0
 10
1699.042056112369
 20
1493.520375592126
 30
0.0
 41
0.793476716599578
 10
1703.346545004214
 20
1475.000640581409
 30
0.0
 41
1.0
 10
1707.180492353668
 20
1458.505374652989
 30
0.0
 41
0.8118039349228228
 10
1721.882082764419
 20
1456.631789779063
 30
0.0
 41
0.9665983387881972
  0
SPLINE
  5
13A
330
1F
100
AcDbEntity
  8
Predefinito
100
AcDbSpline
210
0.0
220
0.0
230
1.0
 70
    12
 71
     2
 72
     8
 73
     5
 74
     0
 42
0.0000000001
 43
0.0000000001
 40
-130.554313166301
 40
-130.554313166301
 40
-130.554313166301
 40
-97.9157348747257
 40
-97.9157348747257
 40
-78.29242012494417
 40
-78.29242012494417
 40
-78.29242012494417
 10
1714.386063753291
 20
1503.060545116245
 30
0.0
 41
1.0
 10
1700.070018172579
 20
1493.444605391699
 30
0.0
 41
0.793848667223862
 10
1704.382613203769
 20
1474.980210546219
 30
0.0
 41
1.0
 10
1706.732169838082
 20
1464.920573345414
 30
0.0
 41
0.8760554931953848
 10
1714.577715096312
 20
1459.774045527263
 30
0.0
 41
0.9011494675896404
  0
SPLINE
  5
13B
330
1F
100
AcDbEntity
  8
Predefinito
100
AcDbSpline
210
0.0
220
0.0
230
1.0
 70
    12
 71
     2
 72
     6
 73
     3
 74
     0
 42
0.0000000001
 43
0.0000000001
 40
-26.87777662410958
 40
-26.87777662410958
 40
-26.87777662410958
 40
-2.662369221840511
 40
-2.662369221840511
 40
-2.662369221840511
 10
1704.095656450002
 20
1479.700473751475
 30
0.0
 41
0.9458042788511944
 10
1703.250624046191
 20
1493.092110754179
 30
0.0
 41
0.8393975044873041
 10
1712.571704336364
 20
1501.119854164528
 30
0.0
 41
0.9687149055184572
  0
SPLINE
  5
13C
330
1F
100
AcDbEntity
  8
Predefinito
100
AcDbSpline
210
0.0
220
0.0
230
1.0
 70
    24
 71
     2
 72
     6
 73
     3
 74
     0
 42
0.0000000001
 43
0.0000000001
 40
0.0
 40
0.0
 40
0.0
 40
0.2289504435455001
 40
0.2289504435455001
 40
0.2289504435455001
 10
1714.646319727473
 20
1502.887692921704
 30
0.0
 10
1714.646319727473
 20
1502.773217699932
 30
0.0
 10
1714.646319727472
 20
1502.658742478159
 30
0.0
  0
SPLINE
  5
13D
330
1F
100
AcDbEntity
  8
Predefinito
100
AcDbSpline
210
0.0
220
0.0
230
1.0
 70
    12
 71
     2
 72
     8
 73
     5
 74
     0
 42
0.0000000001
 43
0.0000000001
 40
0.0
 40
0.0
 40
0.0
 40
0.1936859638375276
 40
0.1936859638375276
 40
0.3873719276750551
 40
0.3873719276750551
 40
0.3873719276750551
 10
1714.386063753291
 20
1503.060545116245
 30
0.0
 41
1.0
 10
1714.479706240052
 20
1503.114781125307
 30
0.0
 41
0.8495741023173818
 10
1714.56985052241
 20
1503.054910695512
 30
0.0
 41
1.0
 10
1714.659994804769
 20
1502.995040265718
 30
0.0
 41
0.8495741023173818
 10
1714.646319727473
 20
1502.887692921704
 30
0.0
 41
1.0
  0
SPLINE
  5
13E
330
1F
100
AcDbEntity
  8
Predefinito
100
AcDbSpline
210
0.0
220
0.0
230
1.0
 70
    12
 71
     2
 72
     6
 73
     3
 74
     0
 42
0.0000000001
 43
0.0000000001
 40
0.0
 40
0.0
 40
0.0
 40
0.9713087434466644
 40
0.9713087434466644
 40
0.9713087434466644
 10
1713.416663165903
 20
1503.121398824185
 30
0.0
 41
1.0
 10
1713.901366171677
 20
1503.09101517369
 30
0.0
 41
0.9999999960275283
 10
1714.386063753291
 20
1503.060545116244
 30
0.0
 41
1.0
  0
SPLINE
  5
13F
330
1F
100
AcDbEntity
  8
Predefinito
100
AcDbSpline
210
0.0
220
0.0
230
1.0
 70
    12
 71
     2
 72
     6
 73
     3
 74
     0
 42
0.0000000001
 43
0.0000000001
 40
0.0
 40
0.0
 40
0.0
 40
6.072519038911975
 40
6.072519038911975
 40
6.072519038911975
 10
2483.061933973809
 20
1480.981449965232
 30
0.0
 41
1.0
 10
2483.008733890892
 20
1477.933731070231
 30
0.0
 41
0.9941427237396708
 10
2482.301869614861
 20
1474.968640244129
 30
0.0
 41
1.0
  0
SPLINE
  5
140
330
1F
100
AcDbEntity
  8
Predefinito
100
AcDbSpline
210
0.0
220
0.0
230
1.0
 70
    12
 71
     2
 72
     6
 73
     3
 74
     0
 42
0.0000000001
 43
0.0000000001
 40
0.0
 40
0.0
 40
0.0
 40
7.60715005993754
 40
7.60715005993754
 40
7.60715005993754
 10
2482.042927040354
 20
1489.003615874473
 30
0.0
 41
1.0
 10
2483.068360757736
 20
1485.316392579188
 30
0.0
 41
0.9907829954226556
 10
2483.06643730728
 20
1481.489236162426
 30
0.0
 41
1.0
  0
SPLINE
  5
141
330
1F
100
AcDbEntity
  8
Predefinito
100
AcDbSpline
210
0.0
220
0.0
230
1.0
 70
    12
 71
     2
 72
     8
 73
     5
 74
     0
 42
0.0000000001
 43
0.0000000001
 40
0.524409553685064
 40
0.524409553685064
 40
0.524409553685064
 40
1.83300110363743
 40
1.83300110363743
 40
2.66690784675366
 40
2.66690784675366
 40
2.66690784675366
 10
2471.219410272072
 20
1503.121398824186
 30
0.0
 41
1.0
 10
2485.594017325608
 20
1493.520375592127
 30
0.0
 41
0.793476716599578
 10
2481.289528433763
 20
1475.000640581409
 30
0.0
 41
1.0
 10
2478.783111274314
 20
1464.216972000627
 30
0.0
 41
0.8683919679563997
 10
2470.15571627019
 20
1459.175039373135
 30
0.0
 41
0.9045197360918694
  0
SPLINE
  5
142
330
1F
100
AcDbEntity
  8
Predefinito
100
AcDbSpline
210
0.0
220
0.0
230
1.0
 70
    12
 71
     2
 72
     6
 73
     3
 74
     0
 42
0.0000000001
 43
0.0000000001
 40
4.648096783188481
 40
4.648096783188481
 40
4.648096783188481
 40
5.636549746594604
 40
5.636549746594604
 40
5.636549746594604
 10
2481.525322094181
 20
1479.701451723833
 30
0.0
 41
0.9459107824380274
 10
2482.370012121227
 20
1493.085465989658
 30
0.0
 41
0.8392773833167576
 10
2473.05346763102
 20
1501.107467269862
 30
0.0
 41
0.96839314269322
  0
SPLINE
  5
143
330
1F
100
AcDbEntity
  8
Predefinito
100
AcDbSpline
210
0.0
220
0.0
230
1.0
 70
    12
 71
     2
 72
     8
 73
     5
 74
     0
 42
0.0000000001
 43
0.0000000001
 40
-130.554313166301
 40
-130.554313166301
 40
-130.554313166301
 40
-97.9157348747257
 40
-97.9157348747257
 40
-68.69725443220293
 40
-68.69725443220293
 40
-68.69725443220293
 10
2472.250009684689
 20
1503.060545116245
 30
0.0
 41
1.0
 10
2486.566055265403
 20
1493.444605391699
 30
0.0
 41
0.793848667223862
 10
2482.253460234212
 20
1474.980210546219
 30
0.0
 41
1.0
 10
2478.49504194852
 20
1458.888525906332
 30
0.0
 41
0.8154506415350088
 10
2464.183250232066
 20
1456.726717470344
 30
0.0
 41
0.9613232624110319
  0
SPLINE
  5
144
330
1F
100
AcDbEntity
  8
Predefinito
100
AcDbSpline
210
0.0
220
0.0
230
1.0
 70
    24
 71
     2
 72
     6
 73
     3
 74
     0
 42
0.0000000001
 43
0.0000000001
 40
0.0
 40
0.0
 40
0.0
 40
0.2424797404987658
 40
0.2424797404987658
 40
0.2424797404987658
 10
2470.9595206512
 20
1502.705821505262
 30
0.0
 10
2470.9595206512
 20
1502.827061375511
 30
0.0
 10
2470.9595206512
 20
1502.94830124576
 30
0.0
  0
SPLINE
  5
145
330
1F
100
AcDbEntity
  8
Predefinito
100
AcDbSpline
210
0.0
220
0.0
230
1.0
 70
    12
 71
     2
 72
     6
 73
     3
 74
     0
 42
0.0000000001
 43
0.0000000001
 40
0.0
 40
0.0
 40
0.0
 40
0.5161947066592922
 40
0.5161947066592922
 40
0.5161947066592922
 10
2471.219410272072
 20
1503.121398824186
 30
0.0
 41
1.0
 10
2471.477060138567
 20
1503.106207044516
 30
0.0
 41
0.9999999991255278
 10
2471.734708733505
 20
1503.090993714866
 30
0.0
 41
1.0
  0
SPLINE
  5
146
330
1F
100
AcDbEntity
  8
Predefinito
100
AcDbSpline
210
0.0
220
0.0
230
1.0
 70
    12
 71
     2
 72
     8
 73
     5
 74
     0
 42
0.0000000001
 43
0.0000000001
 40
0.0
 40
0.0
 40
0.0
 40
0.1931449170221539
 40
0.1931449170221539
 40
0.3862898340443077
 40
0.3862898340443077
 40
0.3862898340443077
 10
2470.9595206512
 20
1502.94830124576
 30
0.0
 41
1.0
 10
2470.946358198829
 20
1503.05527749077
 30
0.0
 41
0.8510441623620613
 10
2471.036064871839
 20
1503.115025963274
 30
0.0
 41
1.0
 10
2471.125771544848
 20
1503.174774435777
 30
0.0
 41
0.8510441623620613
 10
2471.219410272072
 20
1503.121398824185
 30
0.0
 41
1.0
  0
SPLINE
  5
147
330
1F
100
AcDbEntity
  8
Predefinito
100
AcDbSpline
210
0.0
220
0.0
230
1.0
 70
    24
 71
     2
 72
     6
 73
     3
 74
     0
 42
0.0000000001
 43
0.0000000001
 40
0.0
 40
0.0
 40
0.0
 40
48.0
 40
48.0
 40
48.0
 10
1643.818090360967
 20
1512.797572237345
 30
0.0
 10
1667.818090360967
 20
1512.797572237345
 30
0.0
 10
1691.818090360967
 20
1512.797572237345
 30
0.0
  0
SPLINE
  5
148
330
1F
100
AcDbEntity
  8
Predefinito
100
AcDbSpline
210
0.0
220
0.0
230
1.0
 70
    12
 71
     3
 72
    12
 73
     8
 74
     0
 42
0.0000000001
 43
0.0000000001
 40
0.2257074369033425
 40
0.2257074369033425
 40
0.2257074369033425
 40
0.2257074369033425
 40
0.2407655032024067
 40
0.2407655032024067
 40
0.3613139244398716
 40
0.3613139244398716
 40
0.481870729977775
 40
0.481870729977775
 40
0.481870729977775
 40
0.481870729977775
 10
1656.074831435298
 20
1503.949638221499
 30
0.0
 41
1.0
 10
1656.059083146128
 20
1503.939774188803
 30
0.0
 41
1.0
 10
1656.061528999287
 20
1503.938831092724
 30
0.0
 41
1.0
 10
1656.254066316741
 20
1504.020022641234
 30
0.0
 41
1.0
 10
1657.612588940334
 20
1504.746218904736
 30
0.0
 41
1.0
 10
1661.867011816781
 20
1506.099055101856
 30
0.0
 41
1.0
 10
1664.76457314077
 20
1506.657753342423
 30
0.0
 41
1.0
 10
1667.818090360967
 20
1506.673960436285
 30
0.0
 41
1.0
  0
SPLINE
  5
149
330
1F
100
AcDbEntity
  8
Predefinito
100
AcDbSpline
210
0.0
220
0.0
230
1.0
 70
    24
 71
     2
 72
     6
 73
     3
 74
     0
 42
0.0000000001
 43
0.0000000001
 40
0.0
 40
0.0
 40
0.0
 40
0.5666666666668334
 40
0.5666666666668334
 40
0.5666666666668334
 10
1691.818090360967
 20
1513.364238904012
 30
0.0
 10
1691.818090360967
 20
1513.080905570679
 30
0.0
 10
1691.818090360967
 20
1512.797572237345
 30
0.0
  0
SPLINE
  5
14A
330
1F
100
AcDbEntity
  8
Predefinito
100
AcDbSpline
210
0.0
220
0.0
230
1.0
 70
    24
 71
     2
 72
     6
 73
     3
 74
     0
 42
0.0000000001
 43
0.0000000001
 40
0.0
 40
0.0
 40
0.0
 40
0.5666666666668334
 40
0.5666666666668334
 40
0.5666666666668334
 10
1643.818090360967
 20
1512.797572237345
 30
0.0
 10
1643.818090360967
 20
1513.080905570679
 30
0.0
 10
1643.818090360967
 20
1513.364238904012
 30
0.0
  0
SPLINE
  5
14B
330
1F
100
AcDbEntity
  8
Predefinito
100
AcDbSpline
210
0.0
220
0.0
230
1.0
 70
    28
 71
     2
 72
     8
 73
     5
 74
     0
 42
0.0000000001
 43
0.0000000001
 40
0.0
 40
0.0
 40
0.0
 40
1.5707963267949
 40
1.5707963267949
 40
3.14159265358979
 40
3.14159265358979
 40
3.14159265358979
 10
2081.108996294402
 20
1513.880905570679
 30
0.0
 41
1.0
 10
2080.110455710275
 20
1513.880905570679
 30
0.0
 41
0.707106781186548
 10
2091.820278641317
 20
1513.880905570679
 30
0.0
 41
1.0
 10
2103.530101572359
 20
1513.880905570679
 30
0.0
 41
0.707106781186548
 10
2104.528642156485
 20
1513.880905570679
 30
0.0
 41
1.0
  0
SPLINE
  5
14C
330
1F
100
AcDbEntity
  8
Predefinito
100
AcDbSpline
210
0.0
220
0.0
230
1.0
 70
    24
 71
     2
 72
     6
 73
     3
 74
     0
 42
0.0000000001
 43
0.0000000001
 40
0.0
 40
0.0
 40
0.0
 40
6.206771196947516
 40
6.206771196947516
 40
6.206771196947516
 10
2081.012094514959
 20
1512.880905570679
 30
0.0
 10
2081.039190163771
 20
1509.777638260467
 30
0.0
 10
2081.066285812584
 20
1506.674370950255
 30
0.0
  0
SPLINE
  5
14D
330
1F
100
AcDbEntity
  8
Predefinito
100
AcDbSpline
210
0.0
220
0.0
230
1.0
 70
     8
 71
     3
 72
    11
 73
     7
 74
     0
 42
0.0000000001
 43
0.0000000001
 40
0.0
 40
0.0
 40
0.0
 40
0.0
 40
3.073524407076091
 40
6.24978096880518
 40
12.2877690003807
 40
24.22280210545293
 40
24.22280210545293
 40
24.22280210545293
 40
24.22280210545293
 10
2081.145946248781
 20
1506.643202729365
 30
0.0
 10
2082.078715672842
 20
1506.226701172056
 30
0.0
 10
2084.02325851839
 20
1505.448398076449
 30
0.0
 10
2087.951110766829
 20
1504.324833277733
 30
0.0
 10
2095.022729012797
 20
1503.420839234578
 30
0.0
 10
2100.954604687444
 20
1505.062628660532
 30
0.0
 10
2104.571376676511
 20
1506.673960436285
 30
0.0
  0
SPLINE
  5
14E
330
1F
100
AcDbEntity
  8
Predefinito
100
AcDbSpline
210
0.0
220
0.0
230
1.0
 70
    12
 71
     2
 72
     6
 73
     3
 74
     0
 42
0.0000000001
 43
0.0000000001
 40
0.0
 40
0.0
 40
0.0
 40
0.0333304042277515
 40
0.0333304042277515
 40
0.0333304042277515
 10
2081.09668211309
 20
1506.664857411279
 30
0.0
 41
1.0
 10
2081.111978385593
 20
1506.658242560687
 30
0.0
 41
0.9999912523124453
 10
2081.127218786978
 20
1506.651499982066
 30
0.0
 41
1.0
  0
SPLINE
  5
14F
330
1F
100
AcDbEntity
  8
Predefinito
100
AcDbSpline
210
0.0
220
0.0
230
1.0
 70
    24
 71
     2
 72
     6
 73
     3
 74
     0
 42
0.0000000001
 43
0.0000000001
 40
0.0
 40
0.0
 40
0.0
 40
1.00000000804549
 40
1.00000000804549
 40
1.00000000804549
 10
2098.797304329828
 20
1555.380905570679
 30
0.0
 10
2098.79736775494
 20
1555.880905570679
 30
0.0
 10
2098.797431180052
 20
1556.380905570679
 30
0.0
  0
SPLINE
  5
150
330
1F
100
AcDbEntity
  8
Predefinito
100
AcDbSpline
210
0.0
220
0.0
230
1.0
 70
    28
 71
     2
 72
     8
 73
     5
 74
     0
 42
0.0000000001
 43
0.0000000001
 40
0.0
 40
0.0
 40
0.0
 40
9.42477796076938
 40
9.42477796076938
 40
18.8495559215388
 40
18.8495559215388
 40
18.8495559215388
 10
2086.838145954706
 20
1556.380905570679
 30
0.0
 41
1.0
 10
2086.356951952105
 20
1556.380905570679
 30
0.0
 41
0.707106781186548
 10
2092.336594564777
 20
1556.380905570679
 30
0.0
 41
1.0
 10
2098.31623717745
 20
1556.380905570679
 30
0.0
 41
0.707106781186548
 10
2098.797431180052
 20
1556.380905570679
 30
0.0
 41
1.0
  0
SPLINE
  5
151
330
1F
100
AcDbEntity
  8
Predefinito
100
AcDbSpline
210
0.0
220
0.0
230
1.0
 70
    24
 71
     2
 72
     6
 73
     3
 74
     0
 42
0.0000000001
 43
0.0000000001
 40
0.0
 40
0.0
 40
0.0
 40
0.7043266768252614
 40
0.7043266768252614
 40
0.7043266768252614
 10
2104.528642156485
 20
1513.880905570679
 30
0.0
 10
2104.280611882281
 20
1513.630905570679
 30
0.0
 10
2104.032581608076
 20
1513.380905570679
 30
0.0
  0
SPLINE
  5
152
330
1F
100
AcDbEntity
  8
Predefinito
100
AcDbSpline
210
0.0
220
0.0
230
1.0
 70
    24
 71
     2
 72
     6
 73
     3
 74
     0
 42
0.0000000001
 43
0.0000000001
 40
0.0
 40
0.0
 40
0.0
 40
41.49999980396149
 40
41.49999980396149
 40
41.49999980396149
 10
2104.526313265681
 20
1555.380905309294
 30
0.0
 10
2104.527477711083
 20
1534.630905439986
 30
0.0
 10
2104.528642156485
 20
1513.880905570679
 30
0.0
  0
SPLINE
  5
153
330
1F
100
AcDbEntity
  8
Predefinito
100
AcDbSpline
210
0.0
220
0.0
230
1.0
 70
    28
 71
     2
 72
     8
 73
     5
 74
     0
 42
0.0000000001
 43
0.0000000001
 40
-73.8274273593601
 40
-73.8274273593601
 40
-73.8274273593601
 40
-55.3705705195201
 40
-55.3705705195201
 40
-36.9762917472618
 40
-36.9762917472618
 40
-36.9762917472618
 10
2081.106667403582
 20
1555.380905570679
 30
0.0
 41
1.0
 10
2080.164330042719
 20
1555.380905570679
 30
0.0
 41
0.707106781186548
 10
2091.876481864579
 20
1555.380905570679
 30
0.0
 41
1.0
 10
2103.532553867445
 20
1555.380905570679
 30
0.0
 41
0.70880167783909
 10
2104.526313265666
 20
1555.380905570679
 30
0.0
 41
1.0
  0
SPLINE
  5
154
330
1F
100
AcDbEntity
  8
Predefinito
100
AcDbSpline
210
0.0
220
0.0
230
1.0
 70
    24
 71
     2
 72
     6
 73
     3
 74
     0
 42
0.0000000001
 43
0.0000000001
 40
0.0
 40
0.0
 40
0.0
 40
22.46323415087181
 40
22.46323415087181
 40
22.46323415087181
 10
2104.032581608076
 20
1513.380905570679
 30
0.0
 10
2092.80096453264
 20
1513.380905570679
 30
0.0
 10
2081.569347457204
 20
1513.380905570679
 30
0.0
  0
SPLINE
  5
155
330
1F
100
AcDbEntity
  8
Predefinito
100
AcDbSpline
210
0.0
220
0.0
230
1.0
 70
    24
 71
     2
 72
     6
 73
     3
 74
     0
 42
0.0000000001
 43
0.0000000001
 40
0.0
 40
0.0
 40
0.0
 40
0.5000000001173248
 40
0.5000000001173248
 40
0.5000000001173248
 10
2102.288218570777
 20
1512.880905570561
 30
0.0
 10
2102.288218570777
 20
1513.13090557062
 30
0.0
 10
2102.288218570777
 20
1513.380905570679
 30
0.0
  0
SPLINE
  5
156
330
1F
100
AcDbEntity
  8
Predefinito
100
AcDbSpline
210
0.0
220
0.0
230
1.0
 70
    12
 71
     2
 72
     6
 73
     3
 74
     0
 42
0.0000000001
 43
0.0000000001
 40
0.0
 40
0.0
 40
0.0
 40
0.2150952982671839
 40
0.2150952982671839
 40
0.2150952982671839
 10
2081.097416021967
 20
1506.645699432916
 30
0.0
 41
1.0
 10
2081.105260627397
 20
1506.533546735668
 30
0.0
 41
0.9361567754682826
 10
2081.184993009142
 20
1506.454284432925
 30
0.0
 41
1.0
  0
SPLINE
  5
157
330
1F
100
AcDbEntity
  8
Predefinito
100
AcDbSpline
210
0.0
220
0.0
230
1.0
 70
    24
 71
     2
 72
     6
 73
     3
 74
     0
 42
0.0000000001
 43
0.0000000001
 40
0.0
 40
0.0
 40
0.0
 40
6.207181482662367
 40
6.207181482662367
 40
6.207181482662367
 10
2104.625543646482
 20
1512.880905570413
 30
0.0
 10
2104.598460161496
 20
1509.777433003349
 30
0.0
 10
2104.571376676511
 20
1506.673960436285
 30
0.0
  0
SPLINE
  5
158
330
1F
100
AcDbEntity
  8
Predefinito
100
AcDbSpline
210
0.0
220
0.0
230
1.0
 70
    28
 71
     3
 72
    14
 73
    10
 74
     0
 42
0.0000000001
 43
0.0000000001
 40
0.0
 40
0.0
 40
0.0
 40
0.0
 40
0.125
 40
0.125
 40
0.249999999999999
 40
0.249999999999999
 40
0.374999999999999
 40
0.374999999999999
 40
0.5
 40
0.5
 40
0.5
 40
0.5
 10
2081.012094514959
 20
1512.880905570679
 30
0.0
 41
1.0
 10
2081.012077804894
 20
1512.880905570679
 30
0.0
 41
1.0
 10
2082.288666113036
 20
1512.880905570664
 30
0.0
 41
1.0
 10
2086.643408212748
 20
1512.880905570615
 30
0.0
 41
1.0
 10
2089.728184858357
 20
1512.880905570581
 30
0.0
 41
1.0
 10
2095.894062470094
 20
1512.880905570511
 30
0.0
 41
1.0
 10
2098.962390702526
 20
1512.880905570476
 30
0.0
 41
1.0
 10
2103.37088795172
 20
1512.880905570427
 30
0.0
 41
1.0
 10
2104.62416872098
 20
1512.880905570413
 30
0.0
 41
1.0
 10
2104.625543646482
 20
1512.880905570413
 30
0.0
 41
1.0
  0
SPLINE
  5
159
330
1F
100
AcDbEntity
  8
Predefinito
100
AcDbSpline
210
0.0
220
0.0
230
1.0
 70
    24
 71
     2
 72
     6
 73
     3
 74
     0
 42
0.0000000001
 43
0.0000000001
 40
0.0
 40
0.0
 40
0.0
 40
0.4318594028505848
 40
0.4318594028505848
 40
0.4318594028505848
 10
2483.524568583176
 20
1481.480906103297
 30
0.0
 10
2483.308679081196
 20
1481.485072503693
 30
0.0
 10
2483.092789579215
 20
1481.489238904089
 30
0.0
  0
SPLINE
  5
15A
330
1F
100
AcDbEntity
  8
Predefinito
100
AcDbSpline
210
0.0
220
0.0
230
1.0
 70
    24
 71
     2
 72
     6
 73
     3
 74
     0
 42
0.0000000001
 43
0.0000000001
 40
0.0
 40
0.0
 40
0.0
 40
59.29223121046925
 40
59.29223121046925
 40
59.29223121046925
 10
2483.524616962566
 20
1481.480905570755
 30
0.0
 10
2513.170732567801
 20
1481.480905570755
 30
0.0
 10
2542.816848173035
 20
1481.480905570756
 30
0.0
  0
SPLINE
  5
15B
330
1F
100
AcDbEntity
  8
Predefinito
100
AcDbSpline
210
0.0
220
0.0
230
1.0
 70
    12
 71
     3
 72
    10
 73
     6
 74
     0
 42
0.0000000001
 43
0.0000000001
 40
-1.0
 40
-1.0
 40
-1.0
 40
-1.0
 40
-0.4999237927936687
 40
-0.4999237927936687
 40
-0.0001015417587458
 40
-0.0001015417587458
 40
-0.0001015417587458
 40
-0.0001015417587458
 10
2472.778384922477
 20
1502.829201860955
 30
0.0
 41
1.0
 10
2475.85798495599
 20
1500.756327664436
 30
0.0
 41
1.0
 10
2478.678594941322
 20
1497.599303583261
 30
0.0
 41
1.0
 10
2482.509729339514
 20
1489.9870883045
 30
0.0
 41
1.0
 10
2483.488562952536
 20
1485.597307470749
 30
0.0
 41
1.0
 10
2483.524574346759
 20
1481.483412820171
 30
0.0
 41
1.0
  0
SPLINE
  5
15C
330
1F
100
AcDbEntity
  8
Predefinito
100
AcDbSpline
210
0.0
220
0.0
230
1.0
 70
    24
 71
     2
 72
     6
 73
     3
 74
     0
 42
0.0000000001
 43
0.0000000001
 40
0.0
 40
0.0
 40
0.0
 40
0.2646136094820453
 40
0.2646136094820453
 40
0.2646136094820453
 10
2483.092789579215
 20
1481.489238904089
 30
0.0
 10
2483.090788221515
 20
1481.356947237125
 30
0.0
 10
2483.088786863815
 20
1481.224655570161
 30
0.0
  0
SPLINE
  5
15D
330
1F
100
AcDbEntity
  8
Predefinito
100
AcDbSpline
210
0.0
220
0.0
230
1.0
 70
    12
 71
     2
 72
     6
 73
     3
 74
     0
 42
0.0000000001
 43
0.0000000001
 40
0.0
 40
0.0
 40
0.0
 40
0.1830689815779347
 40
0.1830689815779347
 40
0.1830689815779347
 10
2472.605956352626
 20
1502.83069169216
 30
0.0
 41
1.0
 10
2472.692675486497
 20
1502.888376470665
 30
0.0
 41
0.8278006633716437
 10
2472.778384922477
 20
1502.829201860955
 30
0.0
 41
1.0
  0
SPLINE
  5
15E
330
1F
100
AcDbEntity
  8
Predefinito
100
AcDbSpline
210
0.0
220
0.0
230
1.0
 70
    24
 71
     2
 72
     6
 73
     3
 74
     0
 42
0.0000000001
 43
0.0000000001
 40
0.0
 40
0.0
 40
0.0
 40
57.62993098512607
 40
57.62993098512607
 40
57.62993098512607
 10
2472.778384922477
 20
1502.829201860955
 30
0.0
 10
2501.59335041504
 20
1502.829201860955
 30
0.0
 10
2530.408315907603
 20
1502.829201860955
 30
0.0
  0
SPLINE
  5
15F
330
1F
100
AcDbEntity
  8
Predefinito
100
AcDbSpline
210
0.0
220
0.0
230
1.0
 70
    12
 71
     3
 72
    12
 73
     8
 74
     0
 42
0.0000000001
 43
0.0000000001
 40
0.4867807950622853
 40
0.4867807950622853
 40
0.4867807950622853
 40
0.4867807950622853
 40
0.499923792786771
 40
0.499923792786771
 40
0.750061016245222
 40
0.750061016245222
 40
1.0
 40
1.0
 40
1.0
 40
1.0
 10
2460.981886271769
 20
1456.253086125252
 30
0.0
 41
1.0
 10
2461.277557877662
 20
1456.238416846406
 30
0.0
 41
1.0
 10
2461.573551385831
 20
1456.230987618152
 30
0.0
 41
1.0
 10
2467.504788520814
 20
1456.229358219828
 30
0.0
 41
1.0
 10
2473.106584739729
 20
1458.889492947351
 30
0.0
 41
1.0
 10
2481.111041261978
 20
1468.043575158096
 30
0.0
 41
1.0
 10
2483.468289750354
 20
1474.479412947887
 30
0.0
 41
1.0
 10
2483.52459769965
 20
1480.980905570833
 30
0.0
 41
1.0
  0
SPLINE
  5
160
330
1F
100
AcDbEntity
  8
Predefinito
100
AcDbSpline
210
0.0
220
0.0
230
1.0
 70
    24
 71
     2
 72
     6
 73
     3
 74
     0
 42
0.0000000001
 43
0.0000000001
 40
0.0
 40
0.0
 40
0.0
 40
0.2437848178515915
 40
0.2437848178515915
 40
0.2437848178515915
 10
2483.088786863815
 20
1481.224655570161
 30
0.0
 10
2483.090724981555
 20
1481.102778570471
 30
0.0
 10
2483.092663099296
 20
1480.980901570781
 30
0.0
  0
SPLINE
  5
161
330
1F
100
AcDbEntity
  8
Predefinito
100
AcDbSpline
210
0.0
220
0.0
230
1.0
 70
    24
 71
     2
 72
     6
 73
     3
 74
     0
 42
0.0000000001
 43
0.0000000001
 40
0.0
 40
0.0
 40
0.0
 40
59.22484995249761
 40
59.22484995249761
 40
59.22484995249761
 10
2542.313636816312
 20
1481.224655570161
 30
0.0
 10
2512.701211840063
 20
1481.224655570161
 30
0.0
 10
2483.088786863815
 20
1481.224655570161
 30
0.0
  0
SPLINE
  5
162
330
1F
100
AcDbEntity
  8
Predefinito
100
AcDbSpline
210
0.0
220
0.0
230
1.0
 70
    24
 71
     2
 72
     6
 73
     3
 74
     0
 42
0.0000000001
 43
0.0000000001
 40
0.0
 40
0.0
 40
0.0
 40
59.29224985608471
 40
59.29224985608471
 40
59.29224985608471
 10
2483.52459769965
 20
1480.980905570833
 30
0.0
 10
2513.170722627692
 20
1480.980905570833
 30
0.0
 10
2542.816847555735
 20
1480.980905570833
 30
0.0
  0
SPLINE
  5
163
330
1F
100
AcDbEntity
  8
Predefinito
100
AcDbSpline
210
0.0
220
0.0
230
1.0
 70
    24
 71
     2
 72
     6
 73
     3
 74
     0
 42
0.0000000001
 43
0.0000000001
 40
0.0
 40
0.0
 40
0.0
 40
0.4319346003725195
 40
0.4319346003725195
 40
0.4319346003725195
 10
2483.092663099296
 20
1480.980901570781
 30
0.0
 10
2483.308630399473
 20
1480.980903570807
 30
0.0
 10
2483.52459769965
 20
1480.980905570833
 30
0.0
  0
SPLINE
  5
164
330
1F
100
AcDbEntity
  8
Predefinito
100
AcDbSpline
210
0.0
220
0.0
230
1.0
 70
    24
 71
     2
 72
     6
 73
     3
 74
     0
 42
0.0000000001
 43
0.0000000001
 40
0.0
 40
0.0
 40
0.0
 40
46.64049325349447
 40
46.64049325349447
 40
46.64049325349447
 10
2093.818153506549
 20
1456.480905570691
 30
0.0
 10
2093.818153506549
 20
1479.801152197439
 30
0.0
 10
2093.818153506549
 20
1503.121398824186
 30
0.0
  0
SPLINE
  5
165
330
1F
100
AcDbEntity
  8
Predefinito
100
AcDbSpline
210
0.0
220
0.0
230
1.0
 70
    24
 71
     2
 72
     6
 73
     3
 74
     0
 42
0.0000000001
 43
0.0000000001
 40
0.0
 40
0.0
 40
0.0
 40
46.54472941550534
 40
46.54472941550534
 40
46.54472941550534
 10
2091.818153506546
 20
1456.515815700739
 30
0.0
 10
2091.818153506546
 20
1479.788180408492
 30
0.0
 10
2091.818153506546
 20
1503.060545116245
 30
0.0
  0
SPLINE
  5
166
330
1F
100
AcDbEntity
  8
Predefinito
100
AcDbSpline
210
0.0
220
0.0
230
1.0
 70
    12
 71
     2
 72
     6
 73
     3
 74
     0
 42
0.0000000001
 43
0.0000000001
 40
0.0
 40
0.0
 40
0.0
 40
1.000327459165758
 40
1.000327459165758
 40
1.000327459165758
 10
2090.818153506549
 20
1502.494010081547
 30
0.0
 41
1.0
 10
2091.318153212758
 20
1502.506818292528
 30
0.0
 41
0.9999999997364593
 10
2091.818153506549
 20
1502.519603545253
 30
0.0
 41
1.0
  0
SPLINE
  5
167
330
1F
100
AcDbEntity
  8
Predefinito
100
AcDbSpline
210
0.0
220
0.0
230
1.0
 70
    12
 71
     2
 72
     6
 73
     3
 74
     0
 42
0.0000000001
 43
0.0000000001
 40
0.0
 40
0.0
 40
0.0
 40
1.00020076696529
 40
1.00020076696529
 40
1.00020076696529
 10
2093.818153506549
 20
1502.520034227535
 30
0.0
 41
1.0
 10
2094.318090804374
 20
1502.507263483988
 30
0.0
 41
0.9999999997380236
 10
2094.818027517029
 20
1502.49446985331
 30
0.0
 41
1.0
  0
SPLINE
  5
168
330
1F
100
AcDbEntity
  8
Predefinito
100
AcDbSpline
210
0.0
220
0.0
230
1.0
 70
    12
 71
     2
 72
     6
 73
     3
 74
     0
 42
0.0000000001
 43
0.0000000001
 40
0.0
 40
0.0
 40
0.0
 40
2.000056998008257
 40
2.000056998008257
 40
2.000056998008257
 10
2091.818153506546
 20
1503.060545116245
 30
0.0
 41
1.0
 10
2092.817718099054
 20
1503.091002060895
 30
0.0
 41
0.9999999990626113
 10
2093.817285325303
 20
1503.121372445735
 30
0.0
 41
1.0
  0
SPLINE
  5
169
330
1F
100
AcDbEntity
  8
Predefinito
100
AcDbSpline
210
0.0
220
0.0
230
1.0
 70
    24
 71
     2
 72
     6
 73
     3
 74
     0
 42
0.0000000001
 43
0.0000000001
 40
0.0
 40
0.0
 40
0.0
 40
0.431857881155463
 40
0.431857881155463
 40
0.431857881155463
 10
1702.543287850816
 20
1481.489238904089
 30
0.0
 10
1702.327399109542
 20
1481.485072518374
 30
0.0
 10
1702.111510368267
 20
1481.480906132658
 30
0.0
  0
SPLINE
  5
16A
330
1F
100
AcDbEntity
  8
Predefinito
100
AcDbSpline
210
0.0
220
0.0
230
1.0
 70
    24
 71
     2
 72
     6
 73
     3
 74
     0
 42
0.0000000001
 43
0.0000000001
 40
0.0
 40
0.0
 40
0.0
 40
59.29223273235925
 40
59.29223273235925
 40
59.29223273235925
 10
1642.819229256997
 20
1481.480905570756
 30
0.0
 10
1672.465345623177
 20
1481.480905570756
 30
0.0
 10
1702.111461989356
 20
1481.480905570755
 30
0.0
  0
SPLINE
  5
16B
330
1F
100
AcDbEntity
  8
Predefinito
100
AcDbSpline
210
0.0
220
0.0
230
1.0
 70
    12
 71
     3
 72
    10
 73
     6
 74
     0
 42
0.0000000001
 43
0.0000000001
 40
0.0001015425348893
 40
0.0001015425348893
 40
0.0001015425348893
 40
0.0001015425348893
 40
0.5000762072201236
 40
0.5000762072201236
 40
1.0
 40
1.0
 40
1.0
 40
1.0
 10
1702.111503083444
 20
1481.483412839336
 30
0.0
 41
1.0
 10
1702.147525478056
 20
1485.598561963947
 30
0.0
 41
1.0
 10
1703.126985292486
 20
1489.989765087333
 30
0.0
 41
1.0
 10
1706.959181639118
 20
1497.60126783377
 30
0.0
 41
1.0
 10
1709.77903108193
 20
1500.756959440008
 30
0.0
 41
1.0
 10
1712.857692507555
 20
1502.829201860955
 30
0.0
 41
1.0
  0
SPLINE
  5
16C
330
1F
100
AcDbEntity
  8
Predefinito
100
AcDbSpline
210
0.0
220
0.0
230
1.0
 70
    24
 71
     2
 72
     6
 73
     3
 74
     0
 42
0.0000000001
 43
0.0000000001
 40
0.0
 40
0.0
 40
0.0
 40
0.2646136094820488
 40
0.2646136094820488
 40
0.2646136094820488
 10
1702.547290566217
 20
1481.224655570161
 30
0.0
 10
1702.545289208516
 20
1481.356947237125
 30
0.0
 10
1702.543287850816
 20
1481.489238904089
 30
0.0
  0
SPLINE
  5
16D
330
1F
100
AcDbEntity
  8
Predefinito
100
AcDbSpline
210
0.0
220
0.0
230
1.0
 70
    24
 71
     2
 72
     6
 73
     3
 74
     0
 42
0.0000000001
 43
0.0000000001
 40
0.0
 40
0.0
 40
0.0
 40
57.62993098512561
 40
57.62993098512561
 40
57.62993098512561
 10
1655.227761522429
 20
1502.829201860955
 30
0.0
 10
1684.042727014992
 20
1502.829201860955
 30
0.0
 10
1712.857692507555
 20
1502.829201860955
 30
0.0
  0
SPLINE
  5
16E
330
1F
100
AcDbEntity
  8
Predefinito
100
AcDbSpline
210
0.0
220
0.0
230
1.0
 70
    12
 71
     2
 72
     6
 73
     3
 74
     0
 42
0.0000000001
 43
0.0000000001
 40
0.0
 40
0.0
 40
0.0
 40
0.1830689816154578
 40
0.1830689816154578
 40
0.1830689816154578
 10
1712.857692507555
 20
1502.829201860955
 30
0.0
 41
1.0
 10
1712.943401943558
 20
1502.88837647068
 30
0.0
 41
0.827800663312243
 10
1713.030121077438
 20
1502.83069169214
 30
0.0
 41
1.0
  0
SPLINE
  5
16F
330
1F
100
AcDbEntity
  8
Predefinito
100
AcDbSpline
210
0.0
220
0.0
230
1.0
 70
    12
 71
     3
 72
    12
 73
     8
 74
     0
 42
0.0000000001
 43
0.0000000001
 40
-0.9999999743727629
 40
-0.9999999743727629
 40
-0.9999999743727629
 40
-0.9999999743727629
 40
-0.750061016245222
 40
-0.750061016245222
 40
-0.499923792786771
 40
-0.499923792786771
 40
-0.4867800137418864
 40
-0.4867800137418864
 40
-0.4867800137418864
 40
-0.4867800137418864
 10
1702.111479747703
 20
1480.980903570961
 30
0.0
 41
1.0
 10
1702.167788163075
 20
1474.479411628103
 30
0.0
 41
1.0
 10
1704.525036578257
 20
1468.043574688979
 30
0.0
 41
1.0
 10
1712.529492690304
 20
1458.889492947351
 30
0.0
 41
1.0
 10
1718.131288909219
 20
1456.229358219828
 30
0.0
 41
1.0
 10
1724.062543645966
 20
1456.230987622988
 30
0.0
 41
1.0
 10
1724.35855474461
 20
1456.238417729732
 30
0.0
 41
1.0
 10
1724.654243889211
 20
1456.253088741491
 30
0.0
 41
1.0
  0
SPLINE
  5
170
330
1F
100
AcDbEntity
  8
Predefinito
100
AcDbSpline
210
0.0
220
0.0
230
1.0
 70
    24
 71
     2
 72
     6
 73
     3
 74
     0
 42
0.0000000001
 43
0.0000000001
 40
0.0
 40
0.0
 40
0.0
 40
0.06038996873788
 40
0.06038996873788
 40
0.06038996873788
 10
1702.607680406249
 20
1481.224780250133
 30
0.0
 10
1702.577485486233
 20
1481.224717910147
 30
0.0
 10
1702.547290566217
 20
1481.224655570161
 30
0.0
  0
SPLINE
  5
171
330
1F
100
AcDbEntity
  8
Predefinito
100
AcDbSpline
210
0.0
220
0.0
230
1.0
 70
    24
 71
     2
 72
     6
 73
     3
 74
     0
 42
0.0000000001
 43
0.0000000001
 40
0.0
 40
0.0
 40
0.0
 40
0.2437848178515915
 40
0.2437848178515915
 40
0.2437848178515915
 10
1702.543414330736
 20
1480.980901570781
 30
0.0
 10
1702.545352448476
 20
1481.102778570471
 30
0.0
 10
1702.547290566217
 20
1481.224655570161
 30
0.0
  0
SPLINE
  5
172
330
1F
100
AcDbEntity
  8
Predefinito
100
AcDbSpline
210
0.0
220
0.0
230
1.0
 70
    24
 71
     2
 72
     6
 73
     3
 74
     0
 42
0.0000000001
 43
0.0000000001
 40
0.0
 40
0.0
 40
0.0
 40
59.22484995249783
 40
59.22484995249783
 40
59.22484995249783
 10
1702.547290566217
 20
1481.224655570161
 30
0.0
 10
1672.934865589968
 20
1481.224655570161
 30
0.0
 10
1643.322440613719
 20
1481.224655570161
 30
0.0
  0
SPLINE
  5
173
330
1F
100
AcDbEntity
  8
Predefinito
100
AcDbSpline
210
0.0
220
0.0
230
1.0
 70
    24
 71
     2
 72
     6
 73
     3
 74
     0
 42
0.0000000001
 43
0.0000000001
 40
0.0
 40
0.0
 40
0.0
 40
0.43193460037161
 40
0.43193460037161
 40
0.43193460037161
 10
1702.111479730383
 20
1480.980905570833
 30
0.0
 10
1702.327447030559
 20
1480.980903570807
 30
0.0
 10
1702.543414330736
 20
1480.980901570781
 30
0.0
  0
SPLINE
  5
174
330
1F
100
AcDbEntity
  8
Predefinito
100
AcDbSpline
210
0.0
220
0.0
230
1.0
 70
    24
 71
     2
 72
     6
 73
     3
 74
     0
 42
0.0000000001
 43
0.0000000001
 40
0.0
 40
0.0
 40
0.0
 40
59.29224985608494
 40
59.29224985608494
 40
59.29224985608494
 10
1642.819229874298
 20
1480.980905570833
 30
0.0
 10
1672.46535480234
 20
1480.980905570833
 30
0.0
 10
1702.111479730383
 20
1480.980905570833
 30
0.0
  0
SPLINE
  5
175
330
1F
100
AcDbEntity
  8
Predefinito
100
AcDbSpline
210
0.0
220
0.0
230
1.0
 70
    24
 71
     2
 72
     6
 73
     3
 74
     0
 42
0.0000000001
 43
0.0000000001
 40
0.0
 40
0.0
 40
0.0
 40
386.7064994654561
 40
386.7064994654561
 40
386.7064994654561
 10
2094.818096068784
 20
1481.480905570755
 30
0.0
 10
2288.171345801512
 20
1481.480905570755
 30
0.0
 10
2481.52459553424
 20
1481.480905570755
 30
0.0
  0
SPLINE
  5
176
330
1F
100
AcDbEntity
  8
Predefinito
100
AcDbSpline
210
0.0
220
0.0
230
1.0
 70
    12
 71
     2
 72
     6
 73
     3
 74
     0
 42
0.0000000001
 43
0.0000000001
 40
0.0
 40
0.0
 40
0.0
 40
21.33996304373821
 40
21.33996304373821
 40
21.33996304373821
 10
2094.81809542155
 20
1502.829201860955
 30
0.0
 41
1.0
 10
2094.819727046637
 20
1492.159220380512
 30
0.0
 41
0.9999999882860323
 10
2094.818092337088
 20
1481.489238900542
 30
0.0
 41
1.0
  0
SPLINE
  5
177
330
1F
100
AcDbEntity
  8
Predefinito
100
AcDbSpline
210
0.0
220
0.0
230
1.0
 70
    12
 71
     3
 72
    10
 73
     6
 74
     0
 42
0.0000000001
 43
0.0000000001
 40
0.0
 40
0.0
 40
0.0
 40
0.0
 40
0.5000762072132285
 40
0.5000762072132285
 40
1.0
 40
1.0
 40
1.0
 40
1.0
 10
2481.52459553424
 20
1481.480905570755
 30
0.0
 41
1.0
 10
2481.488948896628
 20
1485.596778272514
 30
0.0
 41
1.0
 10
2480.508650978739
 20
1489.9889921156
 30
0.0
 41
1.0
 10
2476.67612814485
 20
1497.601267832352
 30
0.0
 41
1.0
 10
2473.857044403859
 20
1500.756959439534
 30
0.0
 41
1.0
 10
2470.778382757067
 20
1502.829201860955
 30
0.0
 41
1.0
  0
SPLINE
  5
178
330
1F
100
AcDbEntity
  8
Predefinito
100
AcDbSpline
210
0.0
220
0.0
230
1.0
 70
    24
 71
     2
 72
     6
 73
     3
 74
     0
 42
0.0000000001
 43
0.0000000001
 40
0.0
 40
0.0
 40
0.0
 40
0.2645833339958902
 40
0.2645833339958902
 40
0.2645833339958902
 10
2094.818096068759
 20
1481.489238904089
 30
0.0
 10
2094.818093075365
 20
1481.356947237125
 30
0.0
 10
2094.818090081971
 20
1481.224655570161
 30
0.0
  0
SPLINE
  5
179
330
1F
100
AcDbEntity
  8
Predefinito
100
AcDbSpline
210
0.0
220
0.0
230
1.0
 70
    24
 71
     2
 72
     6
 73
     3
 74
     0
 42
0.0000000001
 43
0.0000000001
 40
0.0
 40
0.0
 40
0.0
 40
0.2646135189897887
 40
0.2646135189897887
 40
0.2646135189897887
 10
2481.088790037989
 20
1481.224655570161
 30
0.0
 10
2481.090788402296
 20
1481.356947237125
 30
0.0
 10
2481.092786766604
 20
1481.489238904089
 30
0.0
  0
SPLINE
  5
17A
330
1F
100
AcDbEntity
  8
Predefinito
100
AcDbSpline
210
0.0
220
0.0
230
1.0
 70
    24
 71
     2
 72
     6
 73
     3
 74
     0
 42
0.0000000001
 43
0.0000000001
 40
0.0
 40
0.0
 40
0.0
 40
375.9602873355116
 40
375.9602873355116
 40
375.9602873355116
 10
2094.818095421556
 20
1502.829201860955
 30
0.0
 10
2282.798239089312
 20
1502.829201860955
 30
0.0
 10
2470.778382757067
 20
1502.829201860955
 30
0.0
  0
SPLINE
  5
17B
330
1F
100
AcDbEntity
  8
Predefinito
100
AcDbSpline
210
0.0
220
0.0
230
1.0
 70
    12
 71
     3
 72
     8
 73
     4
 74
     0
 42
0.0000000001
 43
0.0000000001
 40
0.5000763862937065
 40
0.5000763862937065
 40
0.5000763862937065
 40
0.5000763862937065
 40
1.0
 40
1.0
 40
1.0
 40
1.0
 10
2459.876011748968
 20
1456.23090614562
 30
0.0
 41
1.0
 10
2471.749030333695
 20
1456.233845693502
 30
0.0
 41
1.0
 10
2481.405882953043
 20
1467.27397820901
 30
0.0
 41
1.0
 10
2481.524595534239
 20
1480.980905570833
 30
0.0
 41
1.0
  0
SPLINE
  5
17C
330
1F
100
AcDbEntity
  8
Predefinito
100
AcDbSpline
210
0.0
220
0.0
230
1.0
 70
    28
 71
     3
 72
    12
 73
     8
 74
     0
 42
0.0000000001
 43
0.0000000001
 40
0.4842998722322441
 40
0.4842998722322441
 40
0.4842998722322441
 40
0.4842998722322441
 40
0.499923792786771
 40
0.499923792786771
 40
0.750061016245222
 40
0.750061016245222
 40
0.9999999487418478
 40
0.9999999487418478
 40
0.9999999487418478
 40
0.9999999487418478
 10
2094.818095421555
 20
1456.262166416418
 30
0.0
 41
1.0
 10
2094.818095421555
 20
1456.241483404257
 30
0.0
 41
1.0
 10
2094.818095421555
 20
1456.231002972179
 30
0.0
 41
1.0
 10
2094.818095421555
 20
1456.229358219828
 30
0.0
 41
1.0
 10
2094.818095421555
 20
1458.889492947351
 30
0.0
 41
1.0
 10
2094.818095421555
 20
1468.043574219796
 30
0.0
 41
1.0
 10
2094.818095421555
 20
1474.479410308129
 30
0.0
 41
1.0
 10
2094.818095421555
 20
1480.980901570803
 30
0.0
 41
1.0
  0
SPLINE
  5
17D
330
1F
100
AcDbEntity
  8
Predefinito
100
AcDbSpline
210
0.0
220
0.0
230
1.0
 70
    24
 71
     2
 72
     6
 73
     3
 74
     0
 42
0.0000000001
 43
0.0000000001
 40
0.0
 40
0.0
 40
0.0
 40
0.2437827332309797
 40
0.2437827332309797
 40
0.2437827332309797
 10
2481.092660901821
 20
1480.980903570303
 30
0.0
 10
2481.090725469905
 20
1481.102779570232
 30
0.0
 10
2481.088790037989
 20
1481.224655570161
 30
0.0
  0
SPLINE
  5
17E
330
1F
100
AcDbEntity
  8
Predefinito
100
AcDbSpline
210
0.0
220
0.0
230
1.0
 70
    24
 71
     2
 72
     6
 73
     3
 74
     0
 42
0.0000000001
 43
0.0000000001
 40
0.0
 40
0.0
 40
0.0
 40
0.243753999437841
 40
0.243753999437841
 40
0.243753999437841
 10
2094.818090081971
 20
1481.224655570161
 30
0.0
 10
2094.818092751919
 20
1481.102778570471
 30
0.0
 10
2094.818095421866
 20
1480.980901570781
 30
0.0
  0
SPLINE
  5
17F
330
1F
100
AcDbEntity
  8
Predefinito
100
AcDbSpline
210
0.0
220
0.0
230
1.0
 70
    24
 71
     2
 72
     6
 73
     3
 74
     0
 42
0.0000000001
 43
0.0000000001
 40
0.0
 40
0.0
 40
0.0
 40
386.2706999560178
 40
386.2706999560178
 40
386.2706999560178
 10
2481.088790037989
 20
1481.224655570161
 30
0.0
 10
2287.95344005998
 20
1481.224655570161
 30
0.0
 10
2094.818090081971
 20
1481.224655570161
 30
0.0
  0
SPLINE
  5
180
330
1F
100
AcDbEntity
  8
Predefinito
100
AcDbSpline
210
0.0
220
0.0
230
1.0
 70
    24
 71
     2
 72
     6
 73
     3
 74
     0
 42
0.0000000001
 43
0.0000000001
 40
0.0
 40
0.0
 40
0.0
 40
386.7065001126839
 40
386.7065001126839
 40
386.7065001126839
 10
2094.818095421555
 20
1480.980905570833
 30
0.0
 10
2288.171345477896
 20
1480.980905570833
 30
0.0
 10
2481.524595534238
 20
1480.980905570833
 30
0.0
  0
SPLINE
  5
181
330
1F
100
AcDbEntity
  8
Predefinito
100
AcDbSpline
210
0.0
220
0.0
230
1.0
 70
    24
 71
     2
 72
     6
 73
     3
 74
     0
 42
0.0000000001
 43
0.0000000001
 40
0.0
 40
0.0
 40
0.0
 40
10.77689543280849
 40
10.77689543280849
 40
10.77689543280849
 10
2518.779910073898
 20
1513.880905570679
 30
0.0
 10
2524.168357790303
 20
1513.880905570679
 30
0.0
 10
2529.556805506707
 20
1513.880905570679
 30
0.0
  0
SPLINE
  5
182
330
1F
100
AcDbEntity
  8
Predefinito
100
AcDbSpline
210
0.0
220
0.0
230
1.0
 70
    12
 71
     2
 72
     6
 73
     3
 74
     0
 42
0.0000000001
 43
0.0000000001
 40
0.0
 40
0.0
 40
0.0
 40
12.15422623605402
 40
12.15422623605402
 40
12.15422623605402
 10
2517.809471101403
 20
1506.673960436285
 30
0.0
 41
1.0
 10
2523.995726191363
 20
1506.682667240049
 30
0.0
 41
0.9737434694332776
 10
2529.544652662299
 20
1503.947846795006
 30
0.0
 41
1.0
  0
SPLINE
  5
183
330
1F
100
AcDbEntity
  8
Predefinito
100
AcDbSpline
210
0.0
220
0.0
230
1.0
 70
    28
 71
     2
 72
     8
 73
     5
 74
     0
 42
0.0000000001
 43
0.0000000001
 40
-29.44843676887621
 40
-29.44843676887621
 40
-29.44843676887621
 40
-28.2743338823081
 40
-28.2743338823081
 40
-18.8495559215388
 40
-18.8495559215388
 40
-18.8495559215388
 10
2511.850955602697
 20
1556.380905570679
 30
0.0
 41
0.9363003683069153
 10
2511.7960491058
 20
1556.380905570679
 30
0.0
 41
0.9636002104610945
 10
2511.841219608704
 20
1556.380905570679
 30
0.0
 41
1.0
 10
2512.334849599368
 20
1556.380905570679
 30
0.0
 41
0.707106781186548
 10
2518.315537563202
 20
1556.380905570679
 30
0.0
 41
1.0
  0
SPLINE
  5
184
330
1F
100
AcDbEntity
  8
Predefinito
100
AcDbSpline
210
0.0
220
0.0
230
1.0
 70
    24
 71
     2
 72
     6
 73
     3
 74
     0
 42
0.0000000001
 43
0.0000000001
 40
0.0
 40
0.0
 40
0.0
 40
5.477025970176328
 40
5.477025970176328
 40
5.477025970176328
 10
2518.315537563202
 20
1556.380905570679
 30
0.0
 10
2521.05405054829
 20
1556.380905570679
 30
0.0
 10
2523.792563533379
 20
1556.380905570679
 30
0.0
  0
SPLINE
  5
185
330
1F
100
AcDbEntity
  8
Predefinito
100
AcDbSpline
210
0.0
220
0.0
230
1.0
 70
    28
 71
     2
 72
     8
 73
     5
 74
     0
 42
0.0000000001
 43
0.0000000001
 40
-4.81056375080937
 40
-4.81056375080937
 40
-4.81056375080937
 40
-4.71238898038469
 40
-4.71238898038469
 40
-3.14159265358979
 40
-3.14159265358979
 40
-3.14159265358979
 10
2506.0621366961
 20
1513.880905570679
 30
0.0
 41
0.9656765759202987
 10
2506.058289577054
 20
1513.880905570679
 30
0.0
 41
0.9816941738241592
 10
2506.10197706118
 20
1513.880905570679
 30
0.0
 41
1.0
 10
2507.072416033677
 20
1513.880905570679
 30
0.0
 41
0.707106781186547
 10
2518.779910073898
 20
1513.880905570679
 30
0.0
 41
1.0
  0
SPLINE
  5
186
330
1F
100
AcDbEntity
  8
Predefinito
100
AcDbSpline
210
0.0
220
0.0
230
1.0
 70
    28
 71
     2
 72
     8
 73
     5
 74
     0
 42
0.0000000001
 43
0.0000000001
 40
17.33326363657228
 40
17.33326363657228
 40
17.33326363657228
 40
18.4850548155801
 40
18.4850548155801
 40
36.9137136797053
 40
36.9137136797053
 40
36.9137136797053
 10
2506.059773809347
 20
1555.380905570679
 30
0.0
 41
0.965775945996124
 10
2506.055981649249
 20
1555.380905570678
 30
0.0
 41
0.9817471711979329
 10
2506.099614450828
 20
1555.380905570679
 30
0.0
 41
1.0
 10
2507.067730114748
 20
1555.380905570679
 30
0.0
 41
0.707954739166925
 10
2518.751808462267
 20
1555.380905570679
 30
0.0
 41
1.0
  0
SPLINE
  5
187
330
1F
100
AcDbEntity
  8
Predefinito
100
AcDbSpline
210
0.0
220
0.0
230
1.0
 70
    24
 71
     2
 72
     6
 73
     3
 74
     0
 42
0.0000000001
 43
0.0000000001
 40
0.0
 40
0.0
 40
0.0
 40
10.75093309197018
 40
10.75093309197018
 40
10.75093309197018
 10
2518.808011685529
 20
1555.380905570679
 30
0.0
 10
2524.183478231514
 20
1555.380905570679
 30
0.0
 10
2529.558944777499
 20
1555.380905570679
 30
0.0
  0
SPLINE
  5
188
330
1F
100
AcDbEntity
  8
Predefinito
100
AcDbSpline
210
0.0
220
0.0
230
1.0
 70
    24
 71
     2
 72
     6
 73
     3
 74
     0
 42
0.0000000001
 43
0.0000000001
 40
0.0
 40
0.0
 40
0.0
 40
0.0562032232619458
 40
0.0562032232619458
 40
0.0562032232619458
 10
2518.751808462267
 20
1555.380905570679
 30
0.0
 10
2518.779910073898
 20
1555.380905570679
 30
0.0
 10
2518.808011685529
 20
1555.380905570679
 30
0.0
  0
SPLINE
  5
189
330
1F
100
AcDbEntity
  8
Predefinito
100
AcDbSpline
210
0.0
220
0.0
230
1.0
 70
    28
 71
     2
 72
     6
 73
     3
 74
     0
 42
0.0000000001
 43
0.0000000001
 40
-17.6714586764426
 40
-17.6714586764426
 40
-17.6714586764426
 40
-0.0463618773456801
 40
-0.0463618773456801
 40
-0.0463618773456801
 10
2529.023233484035
 20
1513.380905570679
 30
0.0
 41
1.0
 10
2529.922127485034
 20
1513.380905570679
 30
0.0
 41
0.7078751998968899
 10
2518.753340536163
 20
1513.380905570678
 30
0.0
 41
0.9984671945423423
  0
SPLINE
  5
18A
330
1F
100
AcDbEntity
  8
Predefinito
100
AcDbSpline
210
0.0
220
0.0
230
1.0
 70
    24
 71
     2
 72
     6
 73
     3
 74
     0
 42
0.0000000001
 43
0.0000000001
 40
0.0
 40
0.0
 40
0.0
 40
12.11600028133398
 40
12.11600028133398
 40
12.11600028133398
 10
2518.711709000103
 20
1513.380905570679
 30
0.0
 10
2512.653708859436
 20
1513.380905570679
 30
0.0
 10
2506.595708718769
 20
1513.380905570679
 30
0.0
  0
SPLINE
  5
18B
330
1F
100
AcDbEntity
  8
Predefinito
100
AcDbSpline
210
0.0
220
0.0
230
1.0
 70
    24
 71
     2
 72
     6
 73
     3
 74
     0
 42
0.0000000001
 43
0.0000000001
 40
0.0
 40
0.0
 40
0.0
 40
11.82897811250405
 40
11.82897811250405
 40
11.82897811250405
 10
2517.810879007218
 20
1512.880905570413
 30
0.0
 10
2523.72536806347
 20
1512.880905570479
 30
0.0
 10
2529.639857119722
 20
1512.880905570546
 30
0.0
  0
SPLINE
  5
18C
330
1F
100
AcDbEntity
  8
Predefinito
100
AcDbSpline
210
0.0
220
0.0
230
1.0
 70
    12
 71
     2
 72
     6
 73
     3
 74
     0
 42
0.0000000001
 43
0.0000000001
 40
0.0
 40
0.0
 40
0.0
 40
11.83425277007385
 40
11.83425277007385
 40
11.83425277007385
 10
2505.97521802784
 20
1512.880904950202
 30
0.0
 41
1.0
 10
2511.892344412875
 20
1512.880905870353
 30
0.0
 41
0.9999999999999946
 10
2517.809470797913
 20
1512.88090556734
 30
0.0
 41
1.0
  0
SPLINE
  5
18D
330
1F
100
AcDbEntity
  8
Predefinito
100
AcDbSpline
210
0.0
220
0.0
230
1.0
 70
    24
 71
     2
 72
     6
 73
     3
 74
     0
 42
0.0000000001
 43
0.0000000001
 40
0.0
 40
0.0
 40
0.0
 40
0.9997393009036507
 40
0.9997393009036507
 40
0.9997393009036507
 10
2090.818321795381
 20
899.4827518164378
 30
0.0
 10
2091.318115313264
 20
899.4914757447332
 30
0.0
 10
2091.817908831147
 20
899.5001996730285
 30
0.0
  0
SPLINE
  5
18E
330
1F
100
AcDbEntity
  8
Predefinito
100
AcDbSpline
210
0.0
220
0.0
230
1.0
 70
    24
 71
     2
 72
     6
 73
     3
 74
     0
 42
0.0000000001
 43
0.0000000001
 40
0.0
 40
0.0
 40
0.0
 40
0.9994203075664526
 40
0.9994203075664526
 40
0.9994203075664526
 10
2091.817669609096
 20
850.5002123902749
 30
0.0
 10
2091.31803556359
 20
850.5089335349694
 30
0.0
 10
2090.818401518083
 20
850.5176546796639
 30
0.0
  0
SPLINE
  5
18F
330
1F
100
AcDbEntity
  8
Predefinito
100
AcDbSpline
210
0.0
220
0.0
230
1.0
 70
    24
 71
     2
 72
     6
 73
     3
 74
     0
 42
0.0000000001
 43
0.0000000001
 40
0.0
 40
0.0
 40
0.0
 40
1.999621897152623
 40
1.999621897152623
 40
1.999621897152623
 10
2091.818153506549
 20
899.9652938140168
 30
0.0
 10
2092.817812179075
 20
899.9827429210322
 30
0.0
 10
2093.817470851602
 20
900.0001920280475
 30
0.0
  0
SPLINE
  5
190
330
1F
100
AcDbEntity
  8
Predefinito
100
AcDbSpline
210
0.0
220
0.0
230
1.0
 70
    24
 71
     2
 72
     6
 73
     3
 74
     0
 42
0.0000000001
 43
0.0000000001
 40
0.0
 40
0.0
 40
0.0
 40
2.000158415777357
 40
2.000158415777357
 40
2.000158415777357
 10
2093.818007288512
 20
850.0002064960786
 30
0.0
 10
2092.81808039753
 20
850.0176602848644
 30
0.0
 10
2091.818153506549
 20
850.0351140736502
 30
0.0
  0
SPLINE
  5
191
330
1F
100
AcDbEntity
  8
Predefinito
100
AcDbSpline
210
0.0
220
0.0
230
1.0
 70
    24
 71
     2
 72
     6
 73
     3
 74
     0
 42
0.0000000001
 43
0.0000000001
 40
0.0
 40
0.0
 40
0.0
 40
0.9989843766847085
 40
0.9989843766847085
 40
0.9989843766847085
 10
2094.81748477391
 20
850.5351024008785
 30
0.0
 10
2094.318068660647
 20
850.526385060205
 30
0.0
 10
2093.818652547384
 20
850.5176677195317
 30
0.0
  0
SPLINE
  5
192
330
1F
100
AcDbEntity
  8
Predefinito
100
AcDbSpline
210
0.0
220
0.0
230
1.0
 70
    24
 71
     2
 72
     6
 73
     3
 74
     0
 42
0.0000000001
 43
0.0000000001
 40
0.0
 40
0.0
 40
0.0
 40
0.9993289540772234
 40
0.9993289540772234
 40
0.9993289540772234
 10
2093.818387745175
 20
899.4827447902742
 30
0.0
 10
2094.317976120894
 20
899.4740244427489
 30
0.0
 10
2094.817564496613
 20
899.4653040952236
 30
0.0
  0
SPLINE
  5
193
330
1F
100
AcDbEntity
  8
Predefinito
100
AcDbSpline
210
0.0
220
0.0
230
1.0
 70
    24
 71
     2
 72
     6
 73
     3
 74
     0
 42
0.0000000001
 43
0.0000000001
 40
0.0
 40
0.0
 40
0.0
 40
0.9994805444636113
 40
0.9994805444636113
 40
0.9994805444636113
 10
2439.161035003312
 20
651.1166191029407
 30
0.0
 10
2438.918756111701
 20
651.5537017934812
 30
0.0
 10
2438.67647722009
 20
651.9907844840216
 30
0.0
  0
SPLINE
  5
194
330
1F
100
AcDbEntity
  8
Predefinito
100
AcDbSpline
210
0.0
220
0.0
230
1.0
 70
    24
 71
     2
 72
     6
 73
     3
 74
     0
 42
0.0000000001
 43
0.0000000001
 40
0.0
 40
0.0
 40
0.0
 40
1.99962189715107
 40
1.99962189715107
 40
1.99962189715107
 10
2481.999294065265
 20
675.8487407473267
 30
0.0
 10
2482.514234771476
 20
674.9917354953136
 30
0.0
 10
2483.029175477687
 20
674.1347302433004
 30
0.0
  0
SPLINE
  5
195
330
1F
100
AcDbEntity
  8
Predefinito
100
AcDbSpline
210
0.0
220
0.0
230
1.0
 70
    24
 71
     2
 72
     6
 73
     3
 74
     0
 42
0.0000000001
 43
0.0000000001
 40
0.0
 40
0.0
 40
0.0
 40
2.000158415778838
 40
2.000158415778838
 40
2.000158415778838
 10
2439.728186036605
 20
649.1342729093218
 30
0.0
 10
2439.243338015594
 20
650.0089618932326
 30
0.0
 10
2438.758489994584
 20
650.8836508771434
 30
0.0
  0
SPLINE
  5
196
330
1F
100
AcDbEntity
  8
Predefinito
100
AcDbSpline
210
0.0
220
0.0
230
1.0
 70
    24
 71
     2
 72
     6
 73
     3
 74
     0
 42
0.0000000001
 43
0.0000000001
 40
0.0
 40
0.0
 40
0.0
 40
0.9996532111908131
 40
0.9996532111908131
 40
0.9996532111908131
 10
2440.691502696477
 20
648.5355746657889
 30
0.0
 10
2440.434072963751
 20
648.9640096881312
 30
0.0
 10
2440.176643231024
 20
649.3924447104737
 30
0.0
  0
SPLINE
  5
197
330
1F
100
AcDbEntity
  8
Predefinito
100
AcDbSpline
210
0.0
220
0.0
230
1.0
 70
    24
 71
     2
 72
     6
 73
     3
 74
     0
 42
0.0000000001
 43
0.0000000001
 40
0.0
 40
0.0
 40
0.0
 40
0.9999180537384925
 40
0.9999180537384925
 40
0.9999180537384925
 10
2482.581511471445
 20
673.8752125712866
 30
0.0
 10
2482.823896417409
 20
673.4379385536295
 30
0.0
 10
2483.066281363373
 20
673.0006645359722
 30
0.0
  0
SPLINE
  5
198
330
1F
100
AcDbEntity
  8
Predefinito
100
AcDbSpline
210
0.0
220
0.0
230
1.0
 70
    24
 71
     2
 72
     6
 73
     3
 74
     0
 42
0.0000000001
 43
0.0000000001
 40
0.0
 40
0.0
 40
0.0
 40
0.9998013966451645
 40
0.9998013966451645
 40
0.9998013966451645
 10
1704.554618672812
 20
223.526870341579
 30
0.0
 10
1704.29715077951
 20
223.9553688737846
 30
0.0
 10
1704.039682886209
 20
224.3838674059901
 30
0.0
  0
SPLINE
  5
199
330
1F
100
AcDbEntity
  8
Predefinito
100
AcDbSpline
210
0.0
220
0.0
230
1.0
 70
    24
 71
     2
 72
     6
 73
     3
 74
     0
 42
0.0000000001
 43
0.0000000001
 40
0.0
 40
0.0
 40
0.0
 40
0.9993783511717385
 40
0.9993783511717385
 40
0.9993783511717385
 10
1746.475036269211
 20
248.8836538749956
 30
0.0
 10
1746.717290388677
 20
248.4466158745889
 30
0.0
 10
1746.959544508143
 20
248.0095778741821
 30
0.0
  0
SPLINE
  5
19A
330
1F
100
AcDbEntity
  8
Predefinito
100
AcDbSpline
210
0.0
220
0.0
230
1.0
 70
    24
 71
     2
 72
     6
 73
     3
 74
     0
 42
0.0000000001
 43
0.0000000001
 40
0.0
 40
0.0
 40
0.0
 40
1.999621897152035
 40
1.999621897152035
 40
1.999621897152035
 10
1703.636777207259
 20
224.1515322306104
 30
0.0
 10
1703.121836501048
 20
225.008537482624
 30
0.0
 10
1702.606895794836
 20
225.8655427346376
 30
0.0
  0
SPLINE
  5
19B
330
1F
100
AcDbEntity
  8
Predefinito
100
AcDbSpline
210
0.0
220
0.0
230
1.0
 70
    24
 71
     2
 72
     6
 73
     3
 74
     0
 42
0.0000000001
 43
0.0000000001
 40
0.0
 40
0.0
 40
0.0
 40
2.000158415777971
 40
2.000158415777971
 40
2.000158415777971
 10
1745.90788523592
 20
250.8660000686145
 30
0.0
 10
1746.39273325693
 20
249.9913110847041
 30
0.0
 10
1746.87758127794
 20
249.1166221007937
 30
0.0
  0
SPLINE
  5
19C
330
1F
100
AcDbEntity
  8
Predefinito
100
AcDbSpline
210
0.0
220
0.0
230
1.0
 70
    24
 71
     2
 72
     6
 73
     3
 74
     0
 42
0.0000000001
 43
0.0000000001
 40
0.0
 40
0.0
 40
0.0
 40
0.9989275368917874
 40
0.9989275368917874
 40
0.9989275368917874
 10
1744.944942325942
 20
251.4640762878666
 30
0.0
 10
1745.202185183721
 20
251.0359522776643
 30
0.0
 10
1745.459428041501
 20
250.607828267462
 30
0.0
  0
SPLINE
  5
19D
330
1F
100
AcDbEntity
  8
Predefinito
100
AcDbSpline
210
0.0
220
0.0
230
1.0
 70
    24
 71
     2
 72
     6
 73
     3
 74
     0
 42
0.0000000001
 43
0.0000000001
 40
0.0
 40
0.0
 40
0.0
 40
0.9992687546007349
 40
0.9992687546007349
 40
0.9992687546007349
 10
1703.054559801079
 20
226.125060406651
 30
0.0
 10
1702.812332248349
 20
226.5620504793973
 30
0.0
 10
1702.570104695619
 20
226.9990405521437
 30
0.0
  0
SPLINE
  5
19E
330
1F
100
AcDbEntity
  8
Predefinito
100
AcDbSpline
210
0.0
220
0.0
230
1.0
 70
    24
 71
     2
 72
     6
 73
     3
 74
     0
 42
0.0000000001
 43
0.0000000001
 40
0.0
 40
0.0
 40
0.0
 40
0.9997361743844723
 40
0.9997361743844723
 40
0.9997361743844723
 10
2483.08131694224
 20
226.99073155605
 30
0.0
 10
2482.838976084706
 20
226.5535370760266
 30
0.0
 10
2482.596635227172
 20
226.1163425960032
 30
0.0
  0
SPLINE
  5
19F
330
1F
100
AcDbEntity
  8
Predefinito
100
AcDbSpline
210
0.0
220
0.0
230
1.0
 70
    24
 71
     2
 72
     6
 73
     3
 74
     0
 42
0.0000000001
 43
0.0000000001
 40
0.0
 40
0.0
 40
0.0
 40
0.9994172434469903
 40
0.9994172434469903
 40
0.9994172434469903
 10
2440.161521066214
 20
250.6165434097459
 30
0.0
 10
2440.418890032754
 20
251.0448773001712
 30
0.0
 10
2440.676258999295
 20
251.4732111905965
 30
0.0
  0
SPLINE
  5
1A0
330
1F
100
AcDbEntity
  8
Predefinito
100
AcDbSpline
210
0.0
220
0.0
230
1.0
 70
    24
 71
     2
 72
     6
 73
     3
 74
     0
 42
0.0000000001
 43
0.0000000001
 40
0.0
 40
0.0
 40
0.0
 40
1.999621897151077
 40
1.999621897151077
 40
1.999621897151077
 10
2482.999296230718
 20
225.8835836303934
 30
0.0
 10
2482.514578264404
 20
225.0091292713651
 30
0.0
 10
2482.02986029809
 20
224.1346749123367
 30
0.0
  0
SPLINE
  5
1A1
330
1F
100
AcDbEntity
  8
Predefinito
100
AcDbSpline
210
0.0
220
0.0
230
1.0
 70
    24
 71
     2
 72
     6
 73
     3
 74
     0
 42
0.0000000001
 43
0.0000000001
 40
0.0
 40
0.0
 40
0.0
 40
2.000158415778565
 40
2.000158415778565
 40
2.000158415778565
 10
2438.728334420092
 20
249.1342031103227
 30
0.0
 10
2439.243413290063
 20
249.9914383054477
 30
0.0
 10
2439.758492160036
 20
250.8486735005727
 30
0.0
  0
SPLINE
  5
1A2
330
1F
100
AcDbEntity
  8
Predefinito
100
AcDbSpline
210
0.0
220
0.0
230
1.0
 70
    24
 71
     2
 72
     6
 73
     3
 74
     0
 42
0.0000000001
 43
0.0000000001
 40
0.0
 40
0.0
 40
0.0
 40
0.9996532111897946
 40
0.9996532111897946
 40
0.9996532111897946
 10
2438.691504861927
 20
248.0005972892183
 30
0.0
 10
2438.933825608783
 20
248.4377554886195
 30
0.0
 10
2439.176146355639
 20
248.8749136880207
 30
0.0
  0
SPLINE
  5
1A3
330
1F
100
AcDbEntity
  8
Predefinito
100
AcDbSpline
210
0.0
220
0.0
230
1.0
 70
    24
 71
     2
 72
     6
 73
     3
 74
     0
 42
0.0000000001
 43
0.0000000001
 40
0.0
 40
0.0
 40
0.0
 40
0.9999180537400693
 40
0.9999180537400693
 40
0.9999180537400693
 10
2481.581279398275
 20
224.3926044780964
 30
0.0
 10
2481.323781463549
 20
223.9640559485676
 30
0.0
 10
2481.066283528825
 20
223.5355074190389
 30
0.0
  0
SPLINE
  5
1A4
330
1F
100
AcDbEntity
  8
Predefinito
100
AcDbSpline
210
0.0
220
0.0
230
1.0
 70
    24
 71
     2
 72
     6
 73
     3
 74
     0
 42
0.0000000001
 43
0.0000000001
 40
0.0
 40
0.0
 40
0.0
 40
0.9996683568782574
 40
0.9996683568782574
 40
0.9996683568782574
 10
2091.817669609095
 20
0.5000084464411741
 30
0.0
 10
2091.317911557822
 20
0.5087317556648698
 30
0.0
 10
2090.818153506549
 20
0.5174550648885656
 30
0.0
  0
SPLINE
  5
1A5
330
1F
100
AcDbEntity
  8
Predefinito
100
AcDbSpline
210
0.0
220
0.0
230
1.0
 70
    24
 71
     2
 72
     6
 73
     3
 74
     0
 42
0.0000000001
 43
0.0000000001
 40
0.0
 40
0.0
 40
0.0
 40
0.999420307565549
 40
0.999420307565549
 40
0.999420307565549
 10
2090.818401518083
 20
49.48254926416898
 30
0.0
 10
2091.318035563589
 20
49.49127040886364
 30
0.0
 10
2091.817669609095
 20
49.49999155355831
 30
0.0
  0
SPLINE
  5
1A6
330
1F
100
AcDbEntity
  8
Predefinito
100
AcDbSpline
210
0.0
220
0.0
230
1.0
 70
    24
 71
     2
 72
     6
 73
     3
 74
     0
 42
0.0000000001
 43
0.0000000001
 40
0.0
 40
0.0
 40
0.0
 40
2.000158415777344
 40
2.000158415777344
 40
2.000158415777344
 10
2093.818007288512
 20
0.0000025522453352
 30
0.0
 10
2092.81808039753
 20
0.0174563410307874
 30
0.0
 10
2091.818153506549
 20
0.0349101298162395
 30
0.0
  0
SPLINE
  5
1A7
330
1F
100
AcDbEntity
  8
Predefinito
100
AcDbSpline
210
0.0
220
0.0
230
1.0
 70
    24
 71
     2
 72
     6
 73
     3
 74
     0
 42
0.0000000001
 43
0.0000000001
 40
0.0
 40
0.0
 40
0.0
 40
1.999621897152618
 40
1.999621897152618
 40
1.999621897152618
 10
2091.818153506548
 20
49.96508987018285
 30
0.0
 10
2092.817812179075
 20
49.98253897719806
 30
0.0
 10
2093.817470851601
 20
49.99998808421328
 30
0.0
  0
SPLINE
  5
1A8
330
1F
100
AcDbEntity
  8
Predefinito
100
AcDbSpline
210
0.0
220
0.0
230
1.0
 70
    24
 71
     2
 72
     6
 73
     3
 74
     0
 42
0.0000000001
 43
0.0000000001
 40
0.0
 40
0.0
 40
0.0
 40
0.9999180537373268
 40
0.9999180537373268
 40
0.9999180537373268
 10
2093.818387745175
 20
49.48254084644131
 30
0.0
 10
2094.318270625862
 20
49.47381535831225
 30
0.0
 10
2094.81815350655
 20
49.46508987018319
 30
0.0
  0
SPLINE
  5
1A9
330
1F
100
AcDbEntity
  8
Predefinito
100
AcDbSpline
210
0.0
220
0.0
230
1.0
 70
    24
 71
     2
 72
     6
 73
     3
 74
     0
 42
0.0000000001
 43
0.0000000001
 40
0.0
 40
0.0
 40
0.0
 40
0.9990652612194798
 40
0.9990652612194798
 40
0.9990652612194798
 10
2094.817565646125
 20
0.5348998686744318
 30
0.0
 10
2094.318109096755
 20
0.5261818221864702
 30
0.0
 10
2093.818652547384
 20
0.5174637756985087
 30
0.0
  0
SPLINE
  5
1AA
330
1F
100
AcDbEntity
  8
Predefinito
100
AcDbSpline
210
0.0
220
0.0
230
1.0
 70
    24
 71
     2
 72
     6
 73
     3
 74
     0
 42
0.0000000001
 43
0.0000000001
 40
0.0
 40
0.0
 40
0.0
 40
0.9996683568787881
 40
0.9996683568787881
 40
0.9996683568787881
 10
1704.039806113441
 20
675.6164098711117
 30
0.0
 10
1704.29723974647
 20
676.0448513846485
 30
0.0
 10
1704.554673379499
 20
676.4732928981853
 30
0.0
  0
SPLINE
  5
1AB
330
1F
100
AcDbEntity
  8
Predefinito
100
AcDbSpline
210
0.0
220
0.0
230
1.0
 70
    24
 71
     2
 72
     6
 73
     3
 74
     0
 42
0.0000000001
 43
0.0000000001
 40
0.0
 40
0.0
 40
0.0
 40
0.9993766047288027
 40
0.9993766047288027
 40
0.9993766047288027
 10
1746.959543661452
 20
651.9904927908939
 30
0.0
 10
1746.717289965332
 20
651.5534555542238
 30
0.0
 10
1746.475036269213
 20
651.1164183175538
 30
0.0
  0
SPLINE
  5
1AC
330
1F
100
AcDbEntity
  8
Predefinito
100
AcDbSpline
210
0.0
220
0.0
230
1.0
 70
    24
 71
     2
 72
     6
 73
     3
 74
     0
 42
0.0000000001
 43
0.0000000001
 40
0.0
 40
0.0
 40
0.0
 40
2.000158415777292
 40
2.000158415777292
 40
2.000158415777292
 10
1702.606619467316
 20
674.1340695716879
 30
0.0
 10
1703.121698337288
 20
674.9913047668124
 30
0.0
 10
1703.636777207259
 20
675.8485399619369
 30
0.0
  0
SPLINE
  5
1AD
330
1F
100
AcDbEntity
  8
Predefinito
100
AcDbSpline
210
0.0
220
0.0
230
1.0
 70
    24
 71
     2
 72
     6
 73
     3
 74
     0
 42
0.0000000001
 43
0.0000000001
 40
0.0
 40
0.0
 40
0.0
 40
1.999621897151618
 40
1.999621897151618
 40
1.999621897151618
 10
1746.87758127794
 20
650.8834500917535
 30
0.0
 10
1746.392863311625
 20
650.0089957327251
 30
0.0
 10
1745.908145345311
 20
649.1345413736967
 30
0.0
  0
SPLINE
  5
1AE
330
1F
100
AcDbEntity
  8
Predefinito
100
AcDbSpline
210
0.0
220
0.0
230
1.0
 70
    24
 71
     2
 72
     6
 73
     3
 74
     0
 42
0.0000000001
 43
0.0000000001
 40
0.0
 40
0.0
 40
0.0
 40
0.999918053737724
 40
0.999918053737724
 40
0.999918053737724
 10
1745.459564445495
 20
649.3924709394556
 30
0.0
 10
1745.202066510771
 20
648.9639224099276
 30
0.0
 10
1744.944568576047
 20
648.5353738803996
 30
0.0
  0
SPLINE
  5
1AF
330
1F
100
AcDbEntity
  8
Predefinito
100
AcDbSpline
210
0.0
220
0.0
230
1.0
 70
    24
 71
     2
 72
     6
 73
     3
 74
     0
 42
0.0000000001
 43
0.0000000001
 40
0.0
 40
0.0
 40
0.0
 40
0.999653211191511
 40
0.999653211191511
 40
0.999653211191511
 10
1702.569789909151
 20
673.0004637505825
 30
0.0
 10
1702.812110656007
 20
673.4376219499843
 30
0.0
 10
1703.054431402864
 20
673.874780149386
 30
0.0
  0
SPLINE
  5
1B0
330
1F
100
AcDbEntity
  8
Predefinito
100
AcDbSpline
210
0.0
220
0.0
230
1.0
 70
    12
 71
     2
 72
     8
 73
     5
 74
     0
 42
0.0000000001
 43
0.0000000001
 40
0.0
 40
0.0
 40
0.0
 40
185.825205459842
 40
185.825205459842
 40
371.650410919684
 40
371.650410919684
 40
371.650410919684
 10
1770.268960765127
 20
390.850427648212
 30
0.0
 41
1.0
 10
1829.418960765131
 20
493.301232915913
 30
0.0
 41
0.7071067811865479
 10
1726.96815549743
 20
552.451232915917
 30
0.0
 41
1.0
 10
1624.517350229729
 20
611.601232915921
 30
0.0
 41
0.7071067811865479
 10
1565.367350229725
 20
509.1504276482202
 30
0.0
 41
1.0
  0
SPLINE
  5
1B1
330
1F
100
AcDbEntity
  8
Predefinito
100
AcDbSpline
210
0.0
220
0.0
230
1.0
 70
    12
 71
     2
 72
     8
 73
     5
 74
     0
 42
0.0000000001
 43
0.0000000001
 40
0.0
 40
0.0
 40
0.0
 40
185.8252054598413
 40
185.8252054598413
 40
371.6504109196825
 40
371.6504109196825
 40
371.6504109196825
 10
1565.367350229725
 20
509.1504276482201
 30
0.0
 41
1.0
 10
1506.217350229722
 20
406.6996223805194
 30
0.0
 41
0.7071067811865503
 10
1608.668155497423
 20
347.5496223805157
 30
0.0
 41
1.0
 10
1711.118960765123
 20
288.399622380512
 30
0.0
 41
0.7071067811865503
 10
1770.268960765128
 20
390.8504276482118
 30
0.0
 41
1.0
  0
SPLINE
  5
1B2
330
1F
100
AcDbEntity
  8
Predefinito
100
AcDbSpline
210
0.0
220
0.0
230
1.0
 70
    28
 71
     2
 72
     6
 73
     3
 74
     0
 42
0.0000000001
 43
0.0000000001
 40
4.695545119158239
 40
4.695545119158239
 40
4.695545119158239
 40
5.75877575349454
 40
5.75877575349454
 40
5.75877575349454
 10
2093.81815350655
 20
850.0085833218342
 30
0.0
 41
0.937074937088934
 10
2093.81815350655
 20
849.6240069244142
 30
0.0
 41
0.8321998322371571
 10
2093.81815350655
 20
862.4826541937646
 30
0.0
 41
1.0
  0
SPLINE
  5
1B3
330
1F
100
AcDbEntity
  8
Predefinito
100
AcDbSpline
210
0.0
220
0.0
230
1.0
 70
    24
 71
     2
 72
     6
 73
     3
 74
     0
 42
0.0000000001
 43
0.0000000001
 40
0.0
 40
0.0
 40
0.0
 40
12.44332905828571
 40
12.44332905828571
 40
12.44332905828571
 10
2093.81815350655
 20
887.5177536939026
 30
0.0
 10
2093.81815350655
 20
893.7394182230455
 30
0.0
 10
2093.81815350655
 20
899.9610827521883
 30
0.0
  0
SPLINE
  5
1B4
330
1F
100
AcDbEntity
  8
Predefinito
100
AcDbSpline
210
0.0
220
0.0
230
1.0
 70
    28
 71
     2
 72
     6
 73
     3
 74
     0
 42
0.0000000001
 43
0.0000000001
 40
-26.51884486190501
 40
-26.51884486190501
 40
-26.51884486190501
 40
0.0
 40
0.0
 40
0.0
 10
2091.818153506546
 20
850.0444290786793
 30
0.0
 41
0.9371882657947704
 10
2091.818153506546
 20
849.6397072504824
 30
0.0
 41
0.8325020421193879
 10
2091.818153506546
 20
862.4473210355435
 30
0.0
 41
1.0
  0
SPLINE
  5
1B5
330
1F
100
AcDbEntity
  8
Predefinito
100
AcDbSpline
210
0.0
220
0.0
230
1.0
 70
    24
 71
     2
 72
     6
 73
     3
 74
     0
 42
0.0000000001
 43
0.0000000001
 40
0.0
 40
0.0
 40
0.0
 40
12.37521038707871
 40
12.37521038707871
 40
12.37521038707871
 10
2091.818153506546
 20
887.5530868521236
 30
0.0
 10
2091.818153506546
 20
893.7406920456629
 30
0.0
 10
2091.818153506546
 20
899.9282972392023
 30
0.0
  0
SPLINE
  5
1B6
330
1F
100
AcDbEntity
  8
Predefinito
100
AcDbSpline
210
0.0
220
0.0
230
1.0
 70
    12
 71
     2
 72
     6
 73
     3
 74
     0
 42
0.0000000001
 43
0.0000000001
 40
0.0
 40
0.0
 40
0.0
 40
1.000038719970296
 40
1.000038719970296
 40
1.000038719970296
 10
2091.818153506549
 20
887.5550112915225
 30
0.0
 41
1.0
 10
2091.318153505888
 20
887.5594112574964
 30
0.0
 41
0.9999999999999888
 10
2090.81815350655
 20
887.5638113737122
 30
0.0
 41
1.0
  0
SPLINE
  5
1B7
330
1F
100
AcDbEntity
  8
Predefinito
100
AcDbSpline
210
0.0
220
0.0
230
1.0
 70
    12
 71
     2
 72
     6
 73
     3
 74
     0
 42
0.0000000001
 43
0.0000000001
 40
0.0
 40
0.0
 40
0.0
 40
0.999364699162954
 40
0.999364699162954
 40
0.999364699162954
 10
2094.817479456433
 20
887.5289912833832
 30
0.0
 41
1.0
 10
2094.31781648215
 20
887.5245909862953
 30
0.0
 41
0.9999999999999888
 10
2093.818153506546
 20
887.5201908392975
 30
0.0
 41
1.0
  0
SPLINE
  5
1B8
330
1F
100
AcDbEntity
  8
Predefinito
100
AcDbSpline
210
0.0
220
0.0
230
1.0
 70
    12
 71
     2
 72
     6
 73
     3
 74
     0
 42
0.0000000001
 43
0.0000000001
 40
0.0
 40
0.0
 40
0.0
 40
1.999903287573428
 40
1.999903287573428
 40
1.999903287573428
 10
2093.817744774227
 20
887.5177609147504
 30
0.0
 41
1.0
 10
2092.817949135125
 20
887.5354235855585
 30
0.0
 41
0.9999999999999557
 10
2091.818153506546
 20
887.5530868522962
 30
0.0
 41
1.0
  0
SPLINE
  5
1B9
330
1F
100
AcDbEntity
  8
Predefinito
100
AcDbSpline
210
0.0
220
0.0
230
1.0
 70
    12
 71
     2
 72
     6
 73
     3
 74
     0
 42
0.0000000001
 43
0.0000000001
 40
0.0
 40
0.0
 40
0.0
 40
1.00003871996732
 40
1.00003871996732
 40
1.00003871996732
 10
2090.818153506552
 20
862.4365965141915
 30
0.0
 41
1.0
 10
2091.318153505887
 20
862.4409966303647
 30
0.0
 41
0.9999999999999888
 10
2091.818153506544
 20
862.4453965962974
 30
0.0
 41
1.0
  0
SPLINE
  5
1BA
330
1F
100
AcDbEntity
  8
Predefinito
100
AcDbSpline
210
0.0
220
0.0
230
1.0
 70
    12
 71
     2
 72
     6
 73
     3
 74
     0
 42
0.0000000001
 43
0.0000000001
 40
0.0
 40
0.0
 40
0.0
 40
0.9995416725162112
 40
0.9995416725162112
 40
0.9995416725162112
 10
2093.818153506549
 20
862.4802170484327
 30
0.0
 41
1.0
 10
2094.317904965396
 20
862.4758161221954
 30
0.0
 41
0.9999999999999887
 10
2094.817656422928
 20
862.4714150460604
 30
0.0
 41
1.0
  0
SPLINE
  5
1BB
330
1F
100
AcDbEntity
  8
Predefinito
100
AcDbSpline
210
0.0
220
0.0
230
1.0
 70
    12
 71
     2
 72
     6
 73
     3
 74
     0
 42
0.0000000001
 43
0.0000000001
 40
0.0
 40
0.0
 40
0.0
 40
2.000048871801301
 40
2.000048871801301
 40
2.000048871801301
 10
2091.818153506545
 20
862.4473210354336
 30
0.0
 41
1.0
 10
2092.818021915882
 20
862.4649855878761
 30
0.0
 41
0.9999999999999557
 10
2093.817890335742
 20
862.4826495443884
 30
0.0
 41
1.0
  0
SPLINE
  5
1BC
330
1F
100
AcDbEntity
  8
Predefinito
100
AcDbSpline
210
0.0
220
0.0
230
1.0
 70
    12
 71
     2
 72
     6
 73
     3
 74
     0
 42
0.0000000001
 43
0.0000000001
 40
0.0
 40
0.0
 40
0.0
 40
467.2375762671592
 40
467.2375762671592
 40
467.2375762671592
 10
1704.111595308859
 20
223.2708299827976
 30
0.0
 41
1.0
 10
1833.67360267582
 20
1.148605598120497
 30
0.0
 41
0.8682390762125616
 10
2090.818095421489
 20
0.0057280343897332
 30
0.0
 41
1.0
  0
SPLINE
  5
1BD
330
1F
100
AcDbEntity
  8
Predefinito
100
AcDbSpline
210
0.0
220
0.0
230
1.0
 70
    12
 71
     2
 72
     6
 73
     3
 74
     0
 42
0.0000000001
 43
0.0000000001
 40
0.0
 40
0.0
 40
0.0
 40
12.40865789648544
 40
12.40865789648544
 40
12.40865789648544
 10
1714.857808086032
 20
229.4751588224681
 30
0.0
 41
1.0
 10
1709.485706902253
 20
226.3712533368324
 30
0.0
 41
0.99999994750119
 10
1704.11159530886
 20
223.270829982799
 30
0.0
 41
1.0
  0
SPLINE
  5
1BE
330
1F
100
AcDbEntity
  8
Predefinito
100
AcDbSpline
210
0.0
220
0.0
230
1.0
 70
    12
 71
     2
 72
     6
 73
     3
 74
     0
 42
0.0000000001
 43
0.0000000001
 40
0.0
 40
0.0
 40
0.0
 40
12.40865789672756
 40
12.40865789672756
 40
12.40865789672756
 10
2090.81809850804
 20
0.0057280455062001
 30
0.0
 41
1.0
 10
2090.81608478165
 20
6.210056884604339
 30
0.0
 41
0.9999999474085233
 10
2090.81809542154
 20
12.41438572470349
 30
0.0
 41
1.0
  0
SPLINE
  5
1BF
330
1F
100
AcDbEntity
  8
Predefinito
100
AcDbSpline
210
0.0
220
0.0
230
1.0
 70
    12
 71
     2
 72
     6
 73
     3
 74
     0
 42
0.0000000001
 43
0.0000000001
 40
0.0
 40
0.0
 40
0.0
 40
414.8803067985946
 40
414.8803067985946
 40
414.8803067985946
 10
2090.818092643678
 20
50.00378354752627
 30
0.0
 41
1.0
 10
1862.539145320853
 20
51.14519204735797
 30
0.0
 41
0.8685145773038694
 10
1747.41118290249
 20
248.2698553281789
 30
0.0
 41
1.0
  0
SPLINE
  5
1C0
330
1F
100
AcDbEntity
  8
Predefinito
100
AcDbSpline
210
0.0
220
0.0
230
1.0
 70
    12
 71
     2
 72
     6
 73
     3
 74
     0
 42
0.0000000001
 43
0.0000000001
 40
0.0
 40
0.0
 40
0.0
 40
12.36554304803362
 40
12.36554304803362
 40
12.36554304803362
 10
2090.818581139425
 20
37.59509907531924
 30
0.0
 41
1.0
 10
2090.820731944076
 20
43.7778705284021
 30
0.0
 41
0.999999926448783
 10
2090.818140076229
 20
49.96064181231986
 30
0.0
 41
1.0
  0
SPLINE
  5
1C1
330
1F
100
AcDbEntity
  8
Predefinito
100
AcDbSpline
210
0.0
220
0.0
230
1.0
 70
    12
 71
     2
 72
     6
 73
     3
 74
     0
 42
0.0000000001
 43
0.0000000001
 40
0.0
 40
0.0
 40
0.0
 40
12.36383010104034
 40
12.36383010104034
 40
12.36383010104034
 10
1747.372313065634
 20
248.2474704992528
 30
0.0
 41
1.0
 10
1742.017325338144
 20
245.1587516937
 30
0.0
 41
0.9999999268081059
 10
1736.664702674137
 20
242.0659361418011
 30
0.0
 41
1.0
  0
SPLINE
  5
1C2
330
1F
100
AcDbEntity
  8
Predefinito
100
AcDbSpline
210
0.0
220
0.0
230
1.0
 70
    12
 71
     2
 72
     6
 73
     3
 74
     0
 42
0.0000000001
 43
0.0000000001
 40
0.0
 40
0.0
 40
0.0
 40
427.8753450589883
 40
427.8753450589883
 40
427.8753450589883
 10
2090.818305995164
 20
37.59510040829025
 30
0.0
 41
1.0
 10
1855.374489443658
 20
38.73575285937011
 30
0.0
 41
0.8684375007954744
 10
1736.664793757369
 20
242.0657801313443
 30
0.0
 41
1.0
  0
SPLINE
  5
1C3
330
1F
100
AcDbEntity
  8
Predefinito
100
AcDbSpline
210
0.0
220
0.0
230
1.0
 70
    12
 71
     2
 72
     6
 73
     3
 74
     0
 42
0.0000000001
 43
0.0000000001
 40
0.0
 40
0.0
 40
0.0
 40
454.2433486260579
 40
454.2433486260579
 40
454.2433486260579
 10
1714.857808086032
 20
229.4751588224671
 30
0.0
 41
1.0
 10
1840.837538049809
 20
13.55695459472195
 30
0.0
 41
0.8683016255130858
 10
2090.818052921472
 20
12.41438591895337
 30
0.0
 41
1.0
  0
SPLINE
  5
1C4
330
1F
100
AcDbEntity
  8
Predefinito
100
AcDbSpline
210
0.0
220
0.0
230
1.0
 70
    12
 71
     2
 72
     8
 73
     5
 74
     0
 42
0.0000000001
 43
0.0000000001
 40
0.0
 40
0.0
 40
0.0
 40
9.389959599721191
 40
9.389959599721191
 40
18.82074790092695
 40
18.82074790092695
 40
18.82074790092695
 10
2086.840524396394
 20
874.4816722318516
 30
0.0
 41
1.0
 10
2087.345655010378
 20
868.5292747548068
 30
0.0
 41
0.7077652260850225
 10
2093.298983329932
 20
869.0233138033884
 30
0.0
 41
1.0
 10
2099.275865594526
 20
869.5193174678045
 30
0.0
 41
0.7081451742991718
 10
2098.797431180052
 20
875.4976317578855
 30
0.0
 41
1.0
  0
SPLINE
  5
1C5
330
1F
100
AcDbEntity
  8
Predefinito
100
AcDbSpline
210
0.0
220
0.0
230
1.0
 70
    12
 71
     2
 72
    10
 73
     7
 74
     0
 42
0.0000000001
 43
0.0000000001
 40
0.0
 40
0.0
 40
0.0
 40
4.708608790299552
 40
4.708608790299552
 40
9.417217580599104
 40
9.417217580599104
 40
18.84799865706326
 40
18.84799865706326
 40
18.84799865706326
 10
2098.797307809766
 20
875.4991626552436
 30
0.0
 41
1.0
 10
2098.598551945433
 20
877.9749560373967
 30
0.0
 41
0.9236222409231719
 10
2096.705198432534
 20
879.5825222848393
 30
0.0
 41
1.0
 10
2094.811844919637
 20
881.1900885322821
 30
0.0
 41
0.9236222409231719
 10
2092.336594564777
 20
880.9846805346551
 30
0.0
 41
1.0
 10
2086.359716518584
 20
880.488681811268
 30
0.0
 41
0.7081451772366009
 10
2086.838145954706
 20
874.5103717501125
 30
0.0
 41
1.0
  0
SPLINE
  5
1C6
330
1F
100
AcDbEntity
  8
Predefinito
100
AcDbSpline
210
0.0
220
0.0
230
1.0
 70
    12
 71
     2
 72
     8
 73
     5
 74
     0
 42
0.0000000001
 43
0.0000000001
 40
0.0
 40
0.0
 40
0.0
 40
18.4004608883845
 40
18.4004608883845
 40
36.85731772822433
 40
36.85731772822433
 40
36.85731772822433
 10
2104.526313265667
 20
875.9901058802126
 30
0.0
 41
1.0
 10
2103.532553867444
 20
887.6415424037068
 30
0.0
 41
0.7088016778392403
 10
2091.87648186458
 20
886.7037171179478
 30
0.0
 41
1.0
 10
2080.16433004272
 20
885.7613797570813
 30
0.0
 41
0.7071067811866412
 10
2081.106667403583
 20
874.0492279352216
 30
0.0
 41
1.0
  0
SPLINE
  5
1C7
330
1F
100
AcDbEntity
  8
Predefinito
100
AcDbSpline
210
0.0
220
0.0
230
1.0
 70
    28
 71
     2
 72
     6
 73
     3
 74
     0
 42
0.0000000001
 43
0.0000000001
 40
4.695545119158239
 40
4.695545119158239
 40
4.695545119158239
 40
5.75877575349454
 40
5.75877575349454
 40
5.75877575349454
 10
2439.735513689531
 20
649.1383346936648
 30
0.0
 41
0.937074937088934
 10
2439.402460759669
 20
648.9460464949548
 30
0.0
 41
0.8321998322371571
 10
2450.53837595323
 20
655.3753701296304
 30
0.0
 41
1.0
  0
SPLINE
  5
1C8
330
1F
100
AcDbEntity
  8
Predefinito
100
AcDbSpline
210
0.0
220
0.0
230
1.0
 70
    24
 71
     2
 72
     6
 73
     3
 74
     0
 42
0.0000000001
 43
0.0000000001
 40
0.0
 40
0.0
 40
0.0
 40
12.44332905828515
 40
12.44332905828515
 40
12.44332905828515
 10
2472.21940810662
 20
667.8929198797001
 30
0.0
 10
2477.607527642682
 20
671.0037521442717
 30
0.0
 10
2482.995647178744
 20
674.1145844088434
 30
0.0
  0
SPLINE
  5
1C9
330
1F
100
AcDbEntity
  8
Predefinito
100
AcDbSpline
210
0.0
220
0.0
230
1.0
 70
    28
 71
     2
 72
     6
 73
     3
 74
     0
 42
0.0000000001
 43
0.0000000001
 40
-26.51884486190485
 40
-26.51884486190485
 40
-26.51884486190485
 40
0.0
 40
0.0
 40
0.0
 10
2438.766557025575
 20
650.8883083796594
 30
0.0
 41
0.9371882657947704
 10
2438.416057640889
 20
650.685947465561
 30
0.0
 41
0.8325020421193879
 10
2449.507776540612
 20
657.0897543580921
 30
0.0
 41
1.0
  0
SPLINE
  5
1CA
330
1F
100
AcDbEntity
  8
Predefinito
100
AcDbSpline
210
0.0
220
0.0
230
1.0
 70
    24
 71
     2
 72
     6
 73
     3
 74
     0
 42
0.0000000001
 43
0.0000000001
 40
0.0
 40
0.0
 40
0.0
 40
12.37521038708076
 40
12.37521038708076
 40
12.37521038708076
 10
2471.250007519233
 20
669.6426372663825
 30
0.0
 10
2476.608630805427
 20
672.7364398631528
 30
0.0
 10
2481.967254091622
 20
675.8302424599232
 30
0.0
  0
SPLINE
  5
1CB
330
1F
100
AcDbEntity
  8
Predefinito
100
AcDbSpline
210
0.0
220
0.0
230
1.0
 70
    12
 71
     2
 72
     6
 73
     3
 74
     0
 42
0.0000000001
 43
0.0000000001
 40
0.0
 40
0.0
 40
0.0
 40
1.000038719850537
 40
1.000038719850537
 40
1.000038719850537
 10
2471.251674132422
 20
669.6435994859785
 30
0.0
 41
1.0
 10
2471.005484614134
 20
670.0788121714274
 30
0.0
 41
0.9999999999999888
 10
2470.759295227085
 20
670.5140249307293
 30
0.0
 41
1.0
  0
SPLINE
  5
1CC
330
1F
100
AcDbEntity
  8
Predefinito
100
AcDbSpline
210
0.0
220
0.0
230
1.0
 70
    12
 71
     2
 72
     6
 73
     3
 74
     0
 42
0.0000000001
 43
0.0000000001
 40
0.0
 40
0.0
 40
0.0
 40
0.9996961060615072
 40
0.9996961060615072
 40
0.9996961060615072
 10
2472.728971343953
 20
667.0328114787117
 30
0.0
 41
1.0
 10
2472.475244975191
 20
667.4634749274194
 30
0.0
 41
0.9999999999999887
 10
2472.221518736113
 20
667.8941384523492
 30
0.0
 41
1.0
  0
SPLINE
  5
1CD
330
1F
100
AcDbEntity
  8
Predefinito
100
AcDbSpline
210
0.0
220
0.0
230
1.0
 70
    12
 71
     2
 72
     6
 73
     3
 74
     0
 42
0.0000000001
 43
0.0000000001
 40
0.0
 40
0.0
 40
0.0
 40
1.999903287688544
 40
1.999903287688544
 40
1.999903287688544
 10
2472.219209993724
 20
667.8932774625719
 30
0.0
 41
1.0
 10
2471.734608495725
 20
668.7679572200277
 30
0.0
 41
0.9999999999999557
 10
2471.250007519182
 20
669.6426372664746
 30
0.0
 41
1.0
  0
SPLINE
  5
1CE
330
1F
100
AcDbEntity
  8
Predefinito
100
AcDbSpline
210
0.0
220
0.0
230
1.0
 70
    12
 71
     2
 72
     6
 73
     3
 74
     0
 42
0.0000000001
 43
0.0000000001
 40
0.0
 40
0.0
 40
0.0
 40
1.00003871987407
 40
1.00003871987407
 40
1.00003871987407
 10
2448.998488832731
 20
657.9504175013863
 30
0.0
 41
1.0
 10
2449.252299444728
 20
657.5196048582466
 30
0.0
 41
0.9999999999999888
 10
2449.506109927546
 20
657.0887921387183
 30
0.0
 41
1.0
  0
SPLINE
  5
1CF
330
1F
100
AcDbEntity
  8
Predefinito
100
AcDbSpline
210
0.0
220
0.0
230
1.0
 70
    12
 71
     2
 72
     6
 73
     3
 74
     0
 42
0.0000000001
 43
0.0000000001
 40
0.0
 40
0.0
 40
0.0
 40
1.000038775329714
 40
1.000038775329714
 40
1.000038775329714
 10
2450.536265323404
 20
655.3741515569855
 30
0.0
 41
1.0
 10
2450.782452114544
 20
654.9389372970254
 30
0.0
 41
0.9999999999999887
 10
2451.028638774868
 20
654.5037229633901
 30
0.0
 41
1.0
  0
SPLINE
  5
1D0
330
1F
100
AcDbEntity
  8
Predefinito
100
AcDbSpline
210
0.0
220
0.0
230
1.0
 70
    12
 71
     2
 72
     6
 73
     3
 74
     0
 42
0.0000000001
 43
0.0000000001
 40
0.0
 40
0.0
 40
0.0
 40
2.000048871837525
 40
2.000048871837525
 40
2.000048871837525
 10
2449.507776540704
 20
657.0897543581668
 30
0.0
 41
1.0
 10
2450.023008696283
 20
656.2326751913915
 30
0.0
 41
0.9999999999999557
 10
2450.538240341251
 20
655.3755957176774
 30
0.0
 41
1.0
  0
SPLINE
  5
1D1
330
1F
100
AcDbEntity
  8
Predefinito
100
AcDbSpline
210
0.0
220
0.0
230
1.0
 70
    12
 71
     2
 72
     6
 73
     3
 74
     0
 42
0.0000000001
 43
0.0000000001
 40
0.0
 40
0.0
 40
0.0
 40
467.2375762671599
 40
467.2375762671599
 40
467.2375762671599
 10
2481.52459553424
 20
676.7293739610352
 30
0.0
 41
1.0
 10
2351.962588167279
 20
898.8515983457121
 30
0.0
 41
0.8682390762125629
 10
2094.81809542161
 20
899.9944759094436
 30
0.0
 41
1.0
  0
SPLINE
  5
1D2
330
1F
100
AcDbEntity
  8
Predefinito
100
AcDbSpline
210
0.0
220
0.0
230
1.0
 70
    12
 71
     2
 72
     6
 73
     3
 74
     0
 42
0.0000000001
 43
0.0000000001
 40
0.0
 40
0.0
 40
0.0
 40
12.40865789648398
 40
12.40865789648398
 40
12.40865789648398
 10
2470.778382757067
 20
670.5250451213669
 30
0.0
 41
1.0
 10
2476.150483940849
 20
673.6289506069925
 30
0.0
 41
0.9999999475011903
 10
2481.524595534238
 20
676.729373961034
 30
0.0
 41
1.0
  0
SPLINE
  5
1D3
330
1F
100
AcDbEntity
  8
Predefinito
100
AcDbSpline
210
0.0
220
0.0
230
1.0
 70
    12
 71
     2
 72
     6
 73
     3
 74
     0
 42
0.0000000001
 43
0.0000000001
 40
0.0
 40
0.0
 40
0.0
 40
12.40865789672733
 40
12.40865789672733
 40
12.40865789672733
 10
2094.818092335059
 20
899.994475898327
 30
0.0
 41
1.0
 10
2094.820106061447
 20
893.790147059229
 30
0.0
 41
0.9999999474085233
 10
2094.818095421557
 20
887.5858182191299
 30
0.0
 41
1.0
  0
SPLINE
  5
1D4
330
1F
100
AcDbEntity
  8
Predefinito
100
AcDbSpline
210
0.0
220
0.0
230
1.0
 70
    12
 71
     2
 72
     6
 73
     3
 74
     0
 42
0.0000000001
 43
0.0000000001
 40
0.0
 40
0.0
 40
0.0
 40
414.8803067985944
 40
414.8803067985944
 40
414.8803067985944
 10
2094.818098199421
 20
849.9964203963068
 30
0.0
 41
1.0
 10
2323.097045522246
 20
848.8550118964753
 30
0.0
 41
0.8685145773038695
 10
2438.225007940609
 20
651.7303486156546
 30
0.0
 41
1.0
  0
SPLINE
  5
1D5
330
1F
100
AcDbEntity
  8
Predefinito
100
AcDbSpline
210
0.0
220
0.0
230
1.0
 70
    12
 71
     2
 72
     6
 73
     3
 74
     0
 42
0.0000000001
 43
0.0000000001
 40
0.0
 40
0.0
 40
0.0
 40
12.36554304803328
 40
12.36554304803328
 40
12.36554304803328
 10
2094.817609703674
 20
862.405104868514
 30
0.0
 41
1.0
 10
2094.815458899021
 20
856.2223334154315
 30
0.0
 41
0.999999926448783
 10
2094.818050766871
 20
850.0395621315138
 30
0.0
 41
1.0
  0
SPLINE
  5
1D6
330
1F
100
AcDbEntity
  8
Predefinito
100
AcDbSpline
210
0.0
220
0.0
230
1.0
 70
    12
 71
     2
 72
     6
 73
     3
 74
     0
 42
0.0000000001
 43
0.0000000001
 40
0.0
 40
0.0
 40
0.0
 40
12.36382905370531
 40
12.36382905370531
 40
12.36382905370531
 10
2438.263877777465
 20
651.7527334445822
 30
0.0
 41
1.0
 10
2443.61886505146
 20
654.841451988272
 30
0.0
 41
0.9999999268080908
 10
2448.971487261932
 20
657.9342672783841
 30
0.0
 41
1.0
  0
SPLINE
  5
1D7
330
1F
100
AcDbEntity
  8
Predefinito
100
AcDbSpline
210
0.0
220
0.0
230
1.0
 70
    12
 71
     2
 72
     6
 73
     3
 74
     0
 42
0.0000000001
 43
0.0000000001
 40
0.0
 40
0.0
 40
0.0
 40
427.8719595802714
 40
427.8719595802714
 40
427.8719595802714
 10
2094.817806686335
 20
862.4051039142252
 30
0.0
 41
1.0
 10
2330.259379020421
 20
861.2645069599611
 30
0.0
 41
0.8684395358113671
 10
2448.969650740865
 20
657.9374149810097
 30
0.0
 41
1.0
  0
SPLINE
  5
1D8
330
1F
100
AcDbEntity
  8
Predefinito
100
AcDbSpline
210
0.0
220
0.0
230
1.0
 70
    12
 71
     2
 72
     6
 73
     3
 74
     0
 42
0.0000000001
 43
0.0000000001
 40
0.0
 40
0.0
 40
0.0
 40
454.242932309141
 40
454.242932309141
 40
454.242932309141
 10
2470.778151534469
 20
670.5254414161365
 30
0.0
 41
1.0
 10
2344.798334315776
 20
886.4432750843413
 30
0.0
 41
0.8683018614739507
 10
2094.818095421556
 20
887.5858182191297
 30
0.0
 41
1.0
  0
SPLINE
  5
1D9
330
1F
100
AcDbEntity
  8
Predefinito
100
AcDbSpline
210
0.0
220
0.0
230
1.0
 70
    28
 71
     2
 72
     6
 73
     3
 74
     0
 42
0.0000000001
 43
0.0000000001
 40
4.695545119158239
 40
4.695545119158239
 40
4.695545119158239
 40
5.75877575349454
 40
5.75877575349454
 40
5.75877575349454
 10
1745.900557582994
 20
250.8619382842715
 30
0.0
 41
0.937074937088934
 10
1746.233610512855
 20
251.0542264829816
 30
0.0
 41
0.8321998322371571
 10
1735.097695319294
 20
244.6249028483064
 30
0.0
 41
1.0
  0
SPLINE
  5
1DA
330
1F
100
AcDbEntity
  8
Predefinito
100
AcDbSpline
210
0.0
220
0.0
230
1.0
 70
    24
 71
     2
 72
     6
 73
     3
 74
     0
 42
0.0000000001
 43
0.0000000001
 40
0.0
 40
0.0
 40
0.0
 40
12.44332905828492
 40
12.44332905828492
 40
12.44332905828492
 10
1713.416663165903
 20
232.1073530982374
 30
0.0
 10
1708.028543629842
 20
228.996520833666
 30
0.0
 10
1702.64042409378
 20
225.8856885690946
 30
0.0
  0
SPLINE
  5
1DB
330
1F
100
AcDbEntity
  8
Predefinito
100
AcDbSpline
210
0.0
220
0.0
230
1.0
 70
    28
 71
     2
 72
     6
 73
     3
 74
     0
 42
0.0000000001
 43
0.0000000001
 40
-26.51884486190485
 40
-26.51884486190485
 40
-26.51884486190485
 40
0.0
 40
0.0
 40
0.0
 10
1746.869514246951
 20
249.1119645982768
 30
0.0
 41
0.9371882657947704
 10
1747.220013631635
 20
249.3143255123753
 30
0.0
 41
0.8325020421193879
 10
1736.128294731912
 20
242.9105186198445
 30
0.0
 41
1.0
  0
SPLINE
  5
1DC
330
1F
100
AcDbEntity
  8
Predefinito
100
AcDbSpline
210
0.0
220
0.0
230
1.0
 70
    24
 71
     2
 72
     6
 73
     3
 74
     0
 42
0.0000000001
 43
0.0000000001
 40
0.0
 40
0.0
 40
0.0
 40
12.37521038707983
 40
12.37521038707983
 40
12.37521038707983
 10
1714.386063753291
 20
230.3576357115547
 30
0.0
 10
1709.027440467097
 20
227.2638331147847
 30
0.0
 10
1703.668817180903
 20
224.1700305180147
 30
0.0
  0
SPLINE
  5
1DD
330
1F
100
AcDbEntity
  8
Predefinito
100
AcDbSpline
210
0.0
220
0.0
230
1.0
 70
    12
 71
     2
 72
     6
 73
     3
 74
     0
 42
0.0000000001
 43
0.0000000001
 40
0.0
 40
0.0
 40
0.0
 40
1.000038719733553
 40
1.000038719733553
 40
1.000038719733553
 10
1714.384397139773
 20
230.3566734918859
 30
0.0
 41
1.0
 10
1714.630586657564
 20
229.9214608064875
 30
0.0
 41
0.9999999999999888
 10
1714.876776045052
 20
229.4862480472372
 30
0.0
 41
1.0
  0
SPLINE
  5
1DE
330
1F
100
AcDbEntity
  8
Predefinito
100
AcDbSpline
210
0.0
220
0.0
230
1.0
 70
    12
 71
     2
 72
     6
 73
     3
 74
     0
 42
0.0000000001
 43
0.0000000001
 40
0.0
 40
0.0
 40
0.0
 40
0.9993070207276707
 40
0.9993070207276707
 40
0.9993070207276707
 10
1712.907297431026
 20
232.9671262674965
 30
0.0
 41
1.0
 10
1713.1609250482
 20
232.5366304345731
 30
0.0
 41
0.9999999999999888
 10
1713.414552535861
 20
232.1061345253376
 30
0.0
 41
1.0
  0
SPLINE
  5
1DF
330
1F
100
AcDbEntity
  8
Predefinito
100
AcDbSpline
210
0.0
220
0.0
230
1.0
 70
    12
 71
     2
 72
     6
 73
     3
 74
     0
 42
0.0000000001
 43
0.0000000001
 40
0.0
 40
0.0
 40
0.0
 40
1.999903287581905
 40
1.999903287581905
 40
1.999903287581905
 10
1713.416861278471
 20
232.1069955152925
 30
0.0
 41
1.0
 10
1713.901462776445
 20
231.2323157578835
 30
0.0
 41
0.9999999999999557
 10
1714.386063752961
 20
230.3576357114834
 30
0.0
 41
1.0
  0
SPLINE
  5
1E0
330
1F
100
AcDbEntity
  8
Predefinito
100
AcDbSpline
210
0.0
220
0.0
230
1.0
 70
    12
 71
     2
 72
     6
 73
     3
 74
     0
 42
0.0000000001
 43
0.0000000001
 40
0.0
 40
0.0
 40
0.0
 40
1.000005946482717
 40
1.000005946482717
 40
1.000005946482717
 10
1736.63756580418
 20
242.0498837141786
 30
0.0
 41
1.0
 10
1736.383763510098
 20
242.4806822389085
 30
0.0
 41
0.9999999999999888
 10
1736.129961345198
 20
242.9114808395622
 30
0.0
 41
1.0
  0
SPLINE
  5
1E1
330
1F
100
AcDbEntity
  8
Predefinito
100
AcDbSpline
210
0.0
220
0.0
230
1.0
 70
    12
 71
     2
 72
     6
 73
     3
 74
     0
 42
0.0000000001
 43
0.0000000001
 40
0.0
 40
0.0
 40
0.0
 40
0.9994822984841826
 40
0.9994822984841826
 40
0.9994822984841826
 10
1735.09980594879
 20
244.6261214208789
 30
0.0
 41
1.0
 10
1734.853756149444
 20
245.0610935035204
 30
0.0
 41
0.9999999999999888
 10
1734.607706481202
 20
245.4960656599394
 30
0.0
 41
1.0
  0
SPLINE
  5
1E2
330
1F
100
AcDbEntity
  8
Predefinito
100
AcDbSpline
210
0.0
220
0.0
230
1.0
 70
    12
 71
     2
 72
     6
 73
     3
 74
     0
 42
0.0000000001
 43
0.0000000001
 40
0.0
 40
0.0
 40
0.0
 40
2.00004887163937
 40
2.00004887163937
 40
2.00004887163937
 10
1736.128294731956
 20
242.9105186199304
 30
0.0
 41
1.0
 10
1735.613062575963
 20
243.7675977866209
 30
0.0
 41
0.9999999999999557
 10
1735.097830931045
 20
244.6246772602503
 30
0.0
 41
1.0
  0
SPLINE
  5
1E3
330
1F
100
AcDbEntity
  8
Predefinito
100
AcDbSpline
210
0.0
220
0.0
230
1.0
 70
    12
 71
     2
 72
     6
 73
     3
 74
     0
 42
0.0000000001
 43
0.0000000001
 40
0.0
 40
0.0
 40
0.0
 40
467.2375762671584
 40
467.2375762671584
 40
467.2375762671584
 10
2090.818095421489
 20
899.9944759094434
 30
0.0
 41
1.0
 10
1833.67360267582
 20
898.8515983457121
 30
0.0
 41
0.8682390762125627
 10
1704.111595308859
 20
676.7293739610358
 30
0.0
 41
1.0
  0
SPLINE
  5
1E4
330
1F
100
AcDbEntity
  8
Predefinito
100
AcDbSpline
210
0.0
220
0.0
230
1.0
 70
    12
 71
     2
 72
     6
 73
     3
 74
     0
 42
0.0000000001
 43
0.0000000001
 40
0.0
 40
0.0
 40
0.0
 40
12.40865789672745
 40
12.40865789672745
 40
12.40865789672745
 10
2090.818095421542
 20
887.5858182191299
 30
0.0
 41
1.0
 10
2090.816084781629
 20
893.790147059229
 30
0.0
 41
0.999999947408522
 10
2090.818098508041
 20
899.9944758983271
 30
0.0
 41
1.0
  0
SPLINE
  5
1E5
330
1F
100
AcDbEntity
  8
Predefinito
100
AcDbSpline
210
0.0
220
0.0
230
1.0
 70
    12
 71
     2
 72
     6
 73
     3
 74
     0
 42
0.0000000001
 43
0.0000000001
 40
0.0
 40
0.0
 40
0.0
 40
12.40865789648257
 40
12.40865789648257
 40
12.40865789648257
 10
1704.111595308862
 20
676.7293739610341
 30
0.0
 41
1.0
 10
1709.485706902241
 20
673.6289506069771
 30
0.0
 41
0.9999999475011915
 10
1714.857808086032
 20
670.5250451213661
 30
0.0
 41
1.0
  0
SPLINE
  5
1E6
330
1F
100
AcDbEntity
  8
Predefinito
100
AcDbSpline
210
0.0
220
0.0
230
1.0
 70
    12
 71
     2
 72
     6
 73
     3
 74
     0
 42
0.0000000001
 43
0.0000000001
 40
0.0
 40
0.0
 40
0.0
 40
414.880306798595
 40
414.880306798595
 40
414.880306798595
 10
1747.41118290249
 20
651.7303486156543
 30
0.0
 41
1.0
 10
1862.539145320852
 20
848.8550118964756
 30
0.0
 41
0.8685145773038689
 10
2090.818092643678
 20
849.9964203963068
 30
0.0
 41
1.0
  0
SPLINE
  5
1E7
330
1F
100
AcDbEntity
  8
Predefinito
100
AcDbSpline
210
0.0
220
0.0
230
1.0
 70
    12
 71
     2
 72
     6
 73
     3
 74
     0
 42
0.0000000001
 43
0.0000000001
 40
0.0
 40
0.0
 40
0.0
 40
12.4086848163411
 40
12.4086848163411
 40
12.4086848163411
 10
1736.664702674138
 20
657.934267802033
 30
0.0
 41
1.0
 10
1742.036635745961
 20
654.830044171908
 30
0.0
 41
0.9999999112297199
 10
1747.41118287418
 20
651.7303486319365
 30
0.0
 41
1.0
  0
SPLINE
  5
1E8
330
1F
100
AcDbEntity
  8
Predefinito
100
AcDbSpline
210
0.0
220
0.0
230
1.0
 70
    12
 71
     2
 72
     6
 73
     3
 74
     0
 42
0.0000000001
 43
0.0000000001
 40
0.0
 40
0.0
 40
0.0
 40
12.40868481633668
 40
12.40868481633668
 40
12.40868481633668
 10
2090.818092643733
 20
849.9964204289668
 30
0.0
 41
1.0
 10
2090.820951126186
 20
856.2007625458248
 30
0.0
 41
0.9999999112297226
 10
2090.818581139424
 20
862.405104868514
 30
0.0
 41
1.0
  0
SPLINE
  5
1E9
330
1F
100
AcDbEntity
  8
Predefinito
100
AcDbSpline
210
0.0
220
0.0
230
1.0
 70
    12
 71
     2
 72
     6
 73
     3
 74
     0
 42
0.0000000001
 43
0.0000000001
 40
0.0
 40
0.0
 40
0.0
 40
427.8754717818805
 40
427.8754717818805
 40
427.8754717818805
 10
1736.664752919033
 20
657.9343538632164
 30
0.0
 41
1.0
 10
1855.374451029289
 20
861.2644770034132
 30
0.0
 41
0.8684374246218853
 10
2090.818351719547
 20
862.4051037570732
 30
0.0
 41
1.0
  0
SPLINE
  5
1EA
330
1F
100
AcDbEntity
  8
Predefinito
100
AcDbSpline
210
0.0
220
0.0
230
1.0
 70
    12
 71
     2
 72
     6
 73
     3
 74
     0
 42
0.0000000001
 43
0.0000000001
 40
0.0
 40
0.0
 40
0.0
 40
454.2433911265722
 40
454.2433911265722
 40
454.2433911265722
 10
2090.818095421543
 20
887.5858182191298
 30
0.0
 41
1.0
 10
1840.837552253885
 20
886.4432736936499
 30
0.0
 41
0.8683016014245554
 10
1714.857808086031
 20
670.5250451213665
 30
0.0
 41
1.0
  0
SPLINE
  5
1EB
330
1F
100
AcDbEntity
  8
Predefinito
100
AcDbSpline
210
0.0
220
0.0
230
1.0
 70
    28
 71
     2
 72
     6
 73
     3
 74
     0
 42
0.0000000001
 43
0.0000000001
 40
4.695545119158239
 40
4.695545119158239
 40
4.695545119158239
 40
5.75877575349454
 40
5.75877575349454
 40
5.75877575349454
 10
2438.73551585498
 20
249.1298880689101
 30
0.0
 41
0.937074937088934
 10
2438.402462925118
 20
249.3221762676203
 30
0.0
 41
0.8321998322371571
 10
2449.53837811868
 20
242.8928526329463
 30
0.0
 41
1.0
  0
SPLINE
  5
1EC
330
1F
100
AcDbEntity
  8
Predefinito
100
AcDbSpline
210
0.0
220
0.0
230
1.0
 70
    24
 71
     2
 72
     6
 73
     3
 74
     0
 42
0.0000000001
 43
0.0000000001
 40
0.0
 40
0.0
 40
0.0
 40
12.44332905828544
 40
12.44332905828544
 40
12.44332905828544
 10
2471.219410272073
 20
230.3753028828802
 30
0.0
 10
2476.607529808135
 20
227.2644706183094
 30
0.0
 10
2481.995649344198
 20
224.1536383537387
 30
0.0
  0
SPLINE
  5
1ED
330
1F
100
AcDbEntity
  8
Predefinito
100
AcDbSpline
210
0.0
220
0.0
230
1.0
 70
    28
 71
     2
 72
     6
 73
     3
 74
     0
 42
0.0000000001
 43
0.0000000001
 40
-26.51884486190485
 40
-26.51884486190485
 40
-26.51884486190485
 40
0.0
 40
0.0
 40
0.0
 10
2439.76655919103
 20
250.8440159980601
 30
0.0
 41
0.9371882657947704
 10
2439.416059806343
 20
251.0463769121584
 30
0.0
 41
0.8325020421193879
 10
2450.507778706067
 20
244.6425700196293
 30
0.0
 41
1.0
  0
SPLINE
  5
1EE
330
1F
100
AcDbEntity
  8
Predefinito
100
AcDbSpline
210
0.0
220
0.0
230
1.0
 70
    24
 71
     2
 72
     6
 73
     3
 74
     0
 42
0.0000000001
 43
0.0000000001
 40
0.0
 40
0.0
 40
0.0
 40
12.37521038708009
 40
12.37521038708009
 40
12.37521038708009
 10
2472.25000968469
 20
232.0896871113424
 30
0.0
 10
2477.608632970884
 20
228.9958845145731
 30
0.0
 10
2482.967256257079
 20
225.9020819178039
 30
0.0
  0
SPLINE
  5
1EF
330
1F
100
AcDbEntity
  8
Predefinito
100
AcDbSpline
210
0.0
220
0.0
230
1.0
 70
    12
 71
     2
 72
     6
 73
     3
 74
     0
 42
0.0000000001
 43
0.0000000001
 40
0.0
 40
0.0
 40
0.0
 40
1.000038719807677
 40
1.000038719807677
 40
1.000038719807677
 10
2472.251676298212
 20
232.0887248916551
 30
0.0
 41
1.0
 10
2472.505486780841
 20
232.5195376111126
 30
0.0
 41
0.9999999999999888
 10
2472.759297392652
 20
232.9503502541813
 30
0.0
 41
1.0
  0
SPLINE
  5
1F0
330
1F
100
AcDbEntity
  8
Predefinito
100
AcDbSpline
210
0.0
220
0.0
230
1.0
 70
    12
 71
     2
 72
     6
 73
     3
 74
     0
 42
0.0000000001
 43
0.0000000001
 40
0.0
 40
0.0
 40
0.0
 40
0.9996961058771071
 40
0.9996961058771071
 40
0.9996961058771071
 10
2470.729316165671
 20
229.5039539742284
 30
0.0
 41
1.0
 10
2470.975418468769
 20
229.9390191791138
 30
0.0
 41
0.9999999999999887
 10
2471.221520901751
 20
230.3740843100916
 30
0.0
 41
1.0
  0
SPLINE
  5
1F1
330
1F
100
AcDbEntity
  8
Predefinito
100
AcDbSpline
210
0.0
220
0.0
230
1.0
 70
    12
 71
     2
 72
     6
 73
     3
 74
     0
 42
0.0000000001
 43
0.0000000001
 40
0.0
 40
0.0
 40
0.0
 40
1.999903287548595
 40
1.999903287548595
 40
1.999903287548595
 10
2471.219620891847
 20
230.3756532450207
 30
0.0
 41
1.0
 10
2471.734815032803
 20
231.2326703316081
 30
0.0
 41
0.9999999999999557
 10
2472.250009684837
 20
232.0896871112561
 30
0.0
 41
1.0
  0
SPLINE
  5
1F2
330
1F
100
AcDbEntity
  8
Predefinito
100
AcDbSpline
210
0.0
220
0.0
230
1.0
 70
    12
 71
     2
 72
     6
 73
     3
 74
     0
 42
0.0000000001
 43
0.0000000001
 40
0.0
 40
0.0
 40
0.0
 40
1.000038720092122
 40
1.000038720092122
 40
1.000038720092122
 10
2450.998490998056
 20
245.5139576841611
 30
0.0
 41
1.0
 10
2450.752301611038
 20
245.0787449247537
 30
0.0
 41
0.9999999999999888
 10
2450.506112092785
 20
244.6435322391984
 30
0.0
 41
1.0
  0
SPLINE
  5
1F3
330
1F
100
AcDbEntity
  8
Predefinito
100
AcDbSpline
210
0.0
220
0.0
230
1.0
 70
    12
 71
     2
 72
     6
 73
     3
 74
     0
 42
0.0000000001
 43
0.0000000001
 40
0.0
 40
0.0
 40
0.0
 40
1.000038775471936
 40
1.000038775471936
 40
1.000038775471936
 10
2449.536267489195
 20
242.8940712055191
 30
0.0
 41
1.0
 10
2449.282454279813
 20
242.4632600606838
 30
0.0
 41
0.9999999999999887
 10
2449.028640940744
 20
242.0324489916051
 30
0.0
 41
1.0
  0
SPLINE
  5
1F4
330
1F
100
AcDbEntity
  8
Predefinito
100
AcDbSpline
210
0.0
220
0.0
230
1.0
 70
    12
 71
     2
 72
     6
 73
     3
 74
     0
 42
0.0000000001
 43
0.0000000001
 40
0.0
 40
0.0
 40
0.0
 40
2.000048871814561
 40
2.000048871814561
 40
2.000048871814561
 10
2450.507778706029
 20
244.6425700196996
 30
0.0
 41
1.0
 10
2450.023142452557
 20
243.7678263004919
 30
0.0
 41
0.9999999999999557
 10
2449.538505677631
 20
242.8930828700411
 30
0.0
 41
1.0
  0
SPLINE
  5
1F5
330
1F
100
AcDbEntity
  8
Predefinito
100
AcDbSpline
210
0.0
220
0.0
230
1.0
 70
    12
 71
     2
 72
    10
 73
     7
 74
     0
 42
0.0000000001
 43
0.0000000001
 40
0.0
 40
0.0
 40
0.0
 40
9.430781076463758
 40
9.430781076463758
 40
14.13938986676268
 40
14.13938986676268
 40
18.84799865706161
 40
18.84799865706161
 40
18.84799865706161
 10
2086.838145954706
 20
25.48999736119856
 30
0.0
 41
1.0
 10
2086.359716518584
 20
19.5116873000429
 30
0.0
 41
0.708145177236534
 10
2092.336594564777
 20
19.01568857665716
 30
0.0
 41
1.0
 10
2094.811844919636
 20
18.81028057903093
 30
0.0
 41
0.9236222409231981
 10
2096.705198432534
 20
20.41784682647317
 30
0.0
 41
1.0
 10
2098.598551945432
 20
22.02541307391541
 30
0.0
 41
0.9236222409231981
 10
2098.797307809766
 20
24.50120645606811
 30
0.0
 41
1.0
  0
SPLINE
  5
1F6
330
1F
100
AcDbEntity
  8
Predefinito
100
AcDbSpline
210
0.0
220
0.0
230
1.0
 70
    12
 71
     2
 72
     8
 73
     5
 74
     0
 42
0.0000000001
 43
0.0000000001
 40
0.0
 40
0.0
 40
0.0
 40
9.430788301207508
 40
9.430788301207508
 40
18.82074790092906
 40
18.82074790092906
 40
18.82074790092906
 10
2098.797431180052
 20
24.50273735342626
 30
0.0
 41
1.0
 10
2099.275865594529
 20
30.48105164350916
 30
0.0
 41
0.7081451742990104
 10
2093.298983329931
 20
30.97705530792486
 30
0.0
 41
1.0
 10
2087.345655010378
 20
31.47109435650558
 30
0.0
 41
0.7077652260850403
 10
2086.840524396394
 20
25.51869687946051
 30
0.0
 41
1.0
  0
SPLINE
  5
1F7
330
1F
100
AcDbEntity
  8
Predefinito
100
AcDbSpline
210
0.0
220
0.0
230
1.0
 70
    12
 71
     2
 72
     6
 73
     3
 74
     0
 42
0.0000000001
 43
0.0000000001
 40
0.0
 40
0.0
 40
0.0
 40
467.2375762671585
 40
467.2375762671585
 40
467.2375762671585
 10
2483.52459770918
 20
226.735064714909
 30
0.0
 41
1.0
 10
2611.10708307843
 20
450.0001666577745
 30
0.0
 41
0.8682390762125612
 10
2483.524597699694
 20
673.2652685952197
 30
0.0
 41
1.0
  0
SPLINE
  5
1F8
330
1F
100
AcDbEntity
  8
Predefinito
100
AcDbSpline
210
0.0
220
0.0
230
1.0
 70
    12
 71
     2
 72
     6
 73
     3
 74
     0
 42
0.0000000001
 43
0.0000000001
 40
0.0
 40
0.0
 40
0.0
 40
12.40865789672694
 40
12.40865789672694
 40
12.40865789672694
 10
2472.778384922478
 20
232.9393935600201
 30
0.0
 41
1.0
 10
2478.152496631394
 20
229.8389704052171
 30
0.0
 41
0.9999999474085218
 10
2483.524596156275
 20
226.7350620474313
 30
0.0
 41
1.0
  0
SPLINE
  5
1F9
330
1F
100
AcDbEntity
  8
Predefinito
100
AcDbSpline
210
0.0
220
0.0
230
1.0
 70
    12
 71
     2
 72
     6
 73
     3
 74
     0
 42
0.0000000001
 43
0.0000000001
 40
0.0
 40
0.0
 40
0.0
 40
12.40865789648634
 40
12.40865789648634
 40
12.40865789648634
 10
2483.524597699695
 20
673.2652685952235
 30
0.0
 41
1.0
 10
2478.1524965159
 20
670.1613631096146
 30
0.0
 41
0.9999999475011914
 10
2472.778384922521
 20
667.0609397555542
 30
0.0
 41
1.0
  0
SPLINE
  5
1FA
330
1F
100
AcDbEntity
  8
Predefinito
100
AcDbSpline
210
0.0
220
0.0
230
1.0
 70
    12
 71
     2
 72
     6
 73
     3
 74
     0
 42
0.0000000001
 43
0.0000000001
 40
0.0
 40
0.0
 40
0.0
 40
414.8803067985928
 40
414.8803067985928
 40
414.8803067985928
 10
2440.225012883926
 20
648.2662384384403
 30
0.0
 41
1.0
 10
2553.375997788368
 20
450.0001666577777
 30
0.0
 41
0.8685145773038719
 10
2440.225012883888
 20
251.7340948771367
 30
0.0
 41
1.0
  0
SPLINE
  5
1FB
330
1F
100
AcDbEntity
  8
Predefinito
100
AcDbSpline
210
0.0
220
0.0
230
1.0
 70
    12
 71
     2
 72
     6
 73
     3
 74
     0
 42
0.0000000001
 43
0.0000000001
 40
0.0
 40
0.0
 40
0.0
 40
12.40868481633993
 40
12.40868481633993
 40
12.40868481633993
 10
2450.97100461653
 20
654.4710037242712
 30
0.0
 41
1.0
 10
2445.5967015579
 20
651.3708850317114
 30
0.0
 41
0.9999999112297194
 10
2440.225012912181
 20
648.2662384548167
 30
0.0
 41
1.0
  0
SPLINE
  5
1FC
330
1F
100
AcDbEntity
  8
Predefinito
100
AcDbSpline
210
0.0
220
0.0
230
1.0
 70
    12
 71
     2
 72
     6
 73
     3
 74
     0
 42
0.0000000001
 43
0.0000000001
 40
0.0
 40
0.0
 40
0.0
 40
12.40868481633677
 40
12.40868481633677
 40
12.40868481633677
 10
2440.225012912145
 20
251.734094860758
 30
0.0
 41
1.0
 10
2445.596701557885
 20
248.6294482839077
 30
0.0
 41
0.9999999112297226
 10
2450.971004616492
 20
245.5293295913069
 30
0.0
 41
1.0
  0
SPLINE
  5
1FD
330
1F
100
AcDbEntity
  8
Predefinito
100
AcDbSpline
210
0.0
220
0.0
230
1.0
 70
    12
 71
     2
 72
     6
 73
     3
 74
     0
 42
0.0000000001
 43
0.0000000001
 40
0.0
 40
0.0
 40
0.0
 40
427.8739791099363
 40
427.8739791099363
 40
427.8739791099363
 10
2450.971794087672
 20
654.4696208867842
 30
0.0
 41
1.0
 10
2567.704766325269
 20
449.9993819710254
 30
0.0
 41
0.868438321871081
 10
2450.971118363893
 20
245.5295288304683
 30
0.0
 41
1.0
  0
SPLINE
  5
1FE
330
1F
100
AcDbEntity
  8
Predefinito
100
AcDbSpline
210
0.0
220
0.0
230
1.0
 70
    12
 71
     2
 72
     6
 73
     3
 74
     0
 42
0.0000000001
 43
0.0000000001
 40
0.0
 40
0.0
 40
0.0
 40
454.2427000337408
 40
454.2427000337408
 40
454.2427000337408
 10
2472.778384922477
 20
232.9393935600202
 30
0.0
 41
1.0
 10
2596.778956580801
 20
449.9997687012807
 30
0.0
 41
0.8683019931233418
 10
2472.7787277294
 20
667.0603396782685
 30
0.0
 41
1.0
  0
SPLINE
  5
1FF
330
1F
100
AcDbEntity
  8
Predefinito
100
AcDbSpline
210
0.0
220
0.0
230
1.0
 70
    28
 71
     2
 72
     6
 73
     3
 74
     0
 42
0.0000000001
 43
0.0000000001
 40
-1.587640188021362
 40
-1.587640188021362
 40
-1.587640188021362
 40
-0.524409553685064
 40
-0.524409553685064
 40
-0.524409553685064
 10
2093.81815350655
 20
0.0083793780009373
 30
0.0
 41
0.937074937088934
 10
2093.81815350655
 20
-0.3761970194198103
 30
0.0
 41
0.8321998322371571
 10
2093.81815350655
 20
12.48245024993054
 30
0.0
 41
1.0
  0
SPLINE
  5
200
330
1F
100
AcDbEntity
  8
Predefinito
100
AcDbSpline
210
0.0
220
0.0
230
1.0
 70
    24
 71
     2
 72
     6
 73
     3
 74
     0
 42
0.0000000001
 43
0.0000000001
 40
0.0
 40
0.0
 40
0.0
 40
12.44332905828568
 40
12.44332905828568
 40
12.44332905828568
 10
2093.818153506549
 20
37.51754975006867
 30
0.0
 10
2093.81815350655
 20
43.73921427921151
 30
0.0
 10
2093.81815350655
 20
49.96087880835435
 30
0.0
  0
SPLINE
  5
201
330
1F
100
AcDbEntity
  8
Predefinito
100
AcDbSpline
210
0.0
220
0.0
230
1.0
 70
    28
 71
     2
 72
     6
 73
     3
 74
     0
 42
0.0000000001
 43
0.0000000001
 40
104.0354683043961
 40
104.0354683043961
 40
104.0354683043961
 40
130.554313166301
 40
130.554313166301
 40
130.554313166301
 10
2091.818153506546
 20
0.0442251348448396
 30
0.0
 41
0.9371882657947705
 10
2091.818153506546
 20
-0.3604966933511517
 30
0.0
 41
0.8325020421193878
 10
2091.818153506546
 20
12.44711709171008
 30
0.0
 41
1.0
  0
SPLINE
  5
202
330
1F
100
AcDbEntity
  8
Predefinito
100
AcDbSpline
210
0.0
220
0.0
230
1.0
 70
    24
 71
     2
 72
     6
 73
     3
 74
     0
 42
0.0000000001
 43
0.0000000001
 40
0.0
 40
0.0
 40
0.0
 40
12.37521038707931
 40
12.37521038707931
 40
12.37521038707931
 10
2091.818153506546
 20
37.55288290828963
 30
0.0
 10
2091.818153506546
 20
43.74048810182929
 30
0.0
 10
2091.818153506546
 20
49.92809329536894
 30
0.0
  0
SPLINE
  5
203
330
1F
100
AcDbEntity
  8
Predefinito
100
AcDbSpline
210
0.0
220
0.0
230
1.0
 70
    12
 71
     2
 72
     6
 73
     3
 74
     0
 42
0.0000000001
 43
0.0000000001
 40
0.0
 40
0.0
 40
0.0
 40
1.00003871997161
 40
1.00003871997161
 40
1.00003871997161
 10
2090.818153506545
 20
12.43639257084578
 30
0.0
 41
1.0
 10
2091.318153505882
 20
12.44079268701952
 30
0.0
 41
0.9999999999999888
 10
2091.818153506545
 20
12.44519265295189
 30
0.0
 41
1.0
  0
SPLINE
  5
204
330
1F
100
AcDbEntity
  8
Predefinito
100
AcDbSpline
210
0.0
220
0.0
230
1.0
 70
    12
 71
     2
 72
     6
 73
     3
 74
     0
 42
0.0000000001
 43
0.0000000001
 40
0.0
 40
0.0
 40
0.0
 40
0.9993576901209443
 40
0.9993576901209443
 40
0.9993576901209443
 10
2093.818153506549
 20
12.48001310462132
 30
0.0
 41
1.0
 10
2094.317812977768
 20
12.47561298854432
 30
0.0
 41
0.9999999999999888
 10
2094.817472447666
 20
12.47121272237775
 30
0.0
 41
1.0
  0
SPLINE
  5
205
330
1F
100
AcDbEntity
  8
Predefinito
100
AcDbSpline
210
0.0
220
0.0
230
1.0
 70
    12
 71
     2
 72
     6
 73
     3
 74
     0
 42
0.0000000001
 43
0.0000000001
 40
0.0
 40
0.0
 40
0.0
 40
2.000048871804858
 40
2.000048871804858
 40
2.000048871804858
 10
2091.818153506545
 20
12.4471170916222
 30
0.0
 41
1.0
 10
2092.818021915876
 20
12.4647816440637
 30
0.0
 41
0.9999999999999557
 10
2093.817890335745
 20
12.48244560104048
 30
0.0
 41
1.0
  0
SPLINE
  5
206
330
1F
100
AcDbEntity
  8
Predefinito
100
AcDbSpline
210
0.0
220
0.0
230
1.0
 70
    12
 71
     2
 72
     6
 73
     3
 74
     0
 42
0.0000000001
 43
0.0000000001
 40
0.0
 40
0.0
 40
0.0
 40
1.00003871997234
 40
1.00003871997234
 40
1.00003871997234
 10
2091.818153506549
 20
37.55480734771118
 30
0.0
 41
1.0
 10
2091.318153505887
 20
37.55920731368481
 30
0.0
 41
0.9999999999999888
 10
2090.818153506551
 20
37.5636074298991
 30
0.0
 41
1.0
  0
SPLINE
  5
207
330
1F
100
AcDbEntity
  8
Predefinito
100
AcDbSpline
210
0.0
220
0.0
230
1.0
 70
    12
 71
     2
 72
     6
 73
     3
 74
     0
 42
0.0000000001
 43
0.0000000001
 40
0.0
 40
0.0
 40
0.0
 40
0.9994685683898945
 40
0.9994685683898945
 40
0.9994685683898945
 10
2094.817583321634
 20
37.52878825413063
 30
0.0
 41
1.0
 10
2094.317868414751
 20
37.52438749968163
 30
0.0
 41
0.9999999999999888
 10
2093.818153506548
 20
37.51998689532284
 30
0.0
 41
1.0
  0
SPLINE
  5
208
330
1F
100
AcDbEntity
  8
Predefinito
100
AcDbSpline
210
0.0
220
0.0
230
1.0
 70
    12
 71
     2
 72
     6
 73
     3
 74
     0
 42
0.0000000001
 43
0.0000000001
 40
0.0
 40
0.0
 40
0.0
 40
1.999903287568316
 40
1.999903287568316
 40
1.999903287568316
 10
2093.81774477422
 20
37.51755697047338
 30
0.0
 41
1.0
 10
2092.817949135113
 20
37.53521964128065
 30
0.0
 41
0.9999999999999557
 10
2091.818153506537
 20
37.55288290801742
 30
0.0
 41
1.0
  0
SPLINE
  5
209
330
1F
100
AcDbEntity
  8
Predefinito
100
AcDbSpline
210
0.0
220
0.0
230
1.0
 70
    28
 71
     2
 72
     6
 73
     3
 74
     0
 42
0.0000000001
 43
0.0000000001
 40
-1.587640188021362
 40
-1.587640188021362
 40
-1.587640188021362
 40
-0.524409553685064
 40
-0.524409553685064
 40
-0.524409553685064
 10
1702.613800902205
 20
674.1297545302751
 30
0.0
 41
0.937074937088934
 10
1702.280747972344
 20
674.322042728986
 30
0.0
 41
0.8321998322371571
 10
1713.416663165904
 20
667.8927190943107
 30
0.0
 41
1.0
  0
SPLINE
  5
20A
330
1F
100
AcDbEntity
  8
Predefinito
100
AcDbSpline
210
0.0
220
0.0
230
1.0
 70
    24
 71
     2
 72
     6
 73
     3
 74
     0
 42
0.0000000001
 43
0.0000000001
 40
0.0
 40
0.0
 40
0.0
 40
12.44332905828582
 40
12.44332905828582
 40
12.44332905828582
 10
1735.097695319294
 20
655.3751693442416
 30
0.0
 10
1740.485814855357
 20
652.2643370796701
 30
0.0
 10
1745.873934391419
 20
649.1535048150986
 30
0.0
  0
SPLINE
  5
20B
330
1F
100
AcDbEntity
  8
Predefinito
100
AcDbSpline
210
0.0
220
0.0
230
1.0
 70
    28
 71
     2
 72
     6
 73
     3
 74
     0
 42
0.0000000001
 43
0.0000000001
 40
104.0354683043963
 40
104.0354683043963
 40
104.0354683043963
 40
130.554313166301
 40
130.554313166301
 40
130.554313166301
 10
1703.644844238251
 20
675.843882459425
 30
0.0
 41
0.9371882657947717
 10
1703.294344853568
 20
676.0462433735233
 30
0.0
 41
0.8325020421193913
 10
1714.386063753291
 20
669.6424364809928
 30
0.0
 41
1.0
  0
SPLINE
  5
20C
330
1F
100
AcDbEntity
  8
Predefinito
100
AcDbSpline
210
0.0
220
0.0
230
1.0
 70
    24
 71
     2
 72
     6
 73
     3
 74
     0
 42
0.0000000001
 43
0.0000000001
 40
0.0
 40
0.0
 40
0.0
 40
12.37521038707935
 40
12.37521038707935
 40
12.37521038707935
 10
1736.128294731912
 20
657.0895535727033
 30
0.0
 10
1741.486918018106
 20
653.9957509759336
 30
0.0
 10
1746.8455413043
 20
650.9019483791639
 30
0.0
  0
SPLINE
  5
20D
330
1F
100
AcDbEntity
  8
Predefinito
100
AcDbSpline
210
0.0
220
0.0
230
1.0
 70
    12
 71
     2
 72
     6
 73
     3
 74
     0
 42
0.0000000001
 43
0.0000000001
 40
0.0
 40
0.0
 40
0.0
 40
1.000038719996284
 40
1.000038719996284
 40
1.000038719996284
 10
1714.876776045188
 20
670.5138241455425
 30
0.0
 41
1.0
 10
1714.630586658194
 20
670.0786113859435
 30
0.0
 41
0.9999999999999888
 10
1714.384397139965
 20
669.6433987006634
 30
0.0
 41
1.0
  0
SPLINE
  5
20E
330
1F
100
AcDbEntity
  8
Predefinito
100
AcDbSpline
210
0.0
220
0.0
230
1.0
 70
    12
 71
     2
 72
     6
 73
     3
 74
     0
 42
0.0000000001
 43
0.0000000001
 40
0.0
 40
0.0
 40
0.0
 40
0.9998031054468733
 40
0.9998031054468733
 40
0.9998031054468733
 10
1713.414552535862
 20
667.8939376671333
 30
0.0
 41
1.0
 10
1713.160799140325
 20
667.4632280474017
 30
0.0
 41
0.9999999999999887
 10
1712.907045615103
 20
667.0325185038922
 30
0.0
 41
1.0
  0
SPLINE
  5
20F
330
1F
100
AcDbEntity
  8
Predefinito
100
AcDbSpline
210
0.0
220
0.0
230
1.0
 70
    12
 71
     2
 72
     6
 73
     3
 74
     0
 42
0.0000000001
 43
0.0000000001
 40
0.0
 40
0.0
 40
0.0
 40
2.000048871884819
 40
2.000048871884819
 40
2.000048871884819
 10
1714.386063753162
 20
669.642436481081
 30
0.0
 41
1.0
 10
1713.901427499673
 20
668.7676927618429
 30
0.0
 41
0.9999999999999557
 10
1713.416790724727
 20
667.8929493315956
 30
0.0
 41
1.0
  0
SPLINE
  5
210
330
1F
100
AcDbEntity
  8
Predefinito
100
AcDbSpline
210
0.0
220
0.0
230
1.0
 70
    12
 71
     2
 72
     6
 73
     3
 74
     0
 42
0.0000000001
 43
0.0000000001
 40
0.0
 40
0.0
 40
0.0
 40
1.000038719729233
 40
1.000038719729233
 40
1.000038719729233
 10
1736.129961345345
 20
657.0885913530365
 30
0.0
 41
1.0
 10
1736.383771827954
 20
657.5194040724597
 30
0.0
 41
0.9999999999999888
 10
1736.637582440211
 20
657.9502167154941
 30
0.0
 41
1.0
  0
SPLINE
  5
211
330
1F
100
AcDbEntity
  8
Predefinito
100
AcDbSpline
210
0.0
220
0.0
230
1.0
 70
    12
 71
     2
 72
     6
 73
     3
 74
     0
 42
0.0000000001
 43
0.0000000001
 40
0.0
 40
0.0
 40
0.0
 40
1.000038775488648
 40
1.000038775488648
 40
1.000038775488648
 10
1734.607432497665
 20
654.5035221774597
 30
0.0
 41
1.0
 10
1734.853619158136
 20
654.938736511547
 30
0.0
 41
0.9999999999999887
 10
1735.099805948957
 20
655.373950771493
 30
0.0
 41
1.0
  0
SPLINE
  5
212
330
1F
100
AcDbEntity
  8
Predefinito
100
AcDbSpline
210
0.0
220
0.0
230
1.0
 70
    12
 71
     2
 72
     6
 73
     3
 74
     0
 42
0.0000000001
 43
0.0000000001
 40
0.0
 40
0.0
 40
0.0
 40
1.999903287496413
 40
1.999903287496413
 40
1.999903287496413
 10
1735.097905938979
 20
655.375519706402
 30
0.0
 41
1.0
 10
1735.613100079923
 20
656.2325367929668
 30
0.0
 41
0.9999999999999557
 10
1736.128294731943
 20
657.0895535725924
 30
0.0
 41
1.0
  0
SPLINE
  5
213
330
1F
100
AcDbEntity
  8
Predefinito
100
AcDbSpline
210
0.0
220
0.0
230
1.0
 70
    12
 71
     2
 72
     6
 73
     3
 74
     0
 42
0.0000000001
 43
0.0000000001
 40
0.0
 40
0.0
 40
0.0
 40
114.2926878768056
 40
114.2926878768056
 40
114.2926878768056
 10
1658.547584725487
 20
332.0673651792946
 30
0.0
 41
1.0
 10
1673.605140843425
 20
276.6200122394632
 30
0.0
 41
0.9919473177070146
 10
1702.111479720853
 20
226.7348682777151
 30
0.0
 41
1.0
  0
SPLINE
  5
214
330
1F
100
AcDbEntity
  8
Predefinito
100
AcDbSpline
210
0.0
220
0.0
230
1.0
 70
    12
 71
     2
 72
     6
 73
     3
 74
     0
 42
0.0000000001
 43
0.0000000001
 40
0.0
 40
0.0
 40
0.0
 40
114.2986239138117
 40
114.2986239138117
 40
114.2986239138117
 10
1702.111479730338
 20
673.2650721580263
 30
0.0
 41
1.0
 10
1673.603644339813
 20
623.3773092021801
 30
0.0
 41
0.9919464824369078
 10
1658.546029150018
 20
567.9268466595819
 30
0.0
 41
1.0
  0
SPLINE
  5
215
330
1F
100
AcDbEntity
  8
Predefinito
100
AcDbSpline
210
0.0
220
0.0
230
1.0
 70
    12
 71
     2
 72
     6
 73
     3
 74
     0
 42
0.0000000001
 43
0.0000000001
 40
0.0
 40
0.0
 40
0.0
 40
12.40865789648503
 40
12.40865789648503
 40
12.40865789648503
 10
1712.85769250751
 20
667.0607433183577
 30
0.0
 41
1.0
 10
1707.48358091412
 20
670.1611666723978
 30
0.0
 41
0.9999999475011904
 10
1702.111479730339
 20
673.2650721580255
 30
0.0
 41
1.0
  0
SPLINE
  5
216
330
1F
100
AcDbEntity
  8
Predefinito
100
AcDbSpline
210
0.0
220
0.0
230
1.0
 70
    12
 71
     2
 72
     6
 73
     3
 74
     0
 42
0.0000000001
 43
0.0000000001
 40
0.0
 40
0.0
 40
0.0
 40
12.40865789672675
 40
12.40865789672675
 40
12.40865789672675
 10
1702.111481273756
 20
226.734865610244
 30
0.0
 41
1.0
 10
1707.483580798649
 20
229.838773968006
 30
0.0
 41
0.999999947408523
 10
1712.857692507556
 20
232.9391971228296
 30
0.0
 41
1.0
  0
SPLINE
  5
217
330
1F
100
AcDbEntity
  8
Predefinito
100
AcDbSpline
210
0.0
220
0.0
230
1.0
 70
    12
 71
     2
 72
     6
 73
     3
 74
     0
 42
0.0000000001
 43
0.0000000001
 40
0.0
 40
0.0
 40
0.0
 40
94.89814720608716
 40
94.89814720608716
 40
94.89814720608716
 10
1708.544645842601
 20
561.0630352495732
 30
0.0
 41
1.0
 10
1721.781347361157
 20
606.8614426165803
 30
0.0
 41
0.9929726196622959
 10
1745.411064546108
 20
648.2660420012489
 30
0.0
 41
1.0
  0
SPLINE
  5
218
330
1F
100
AcDbEntity
  8
Predefinito
100
AcDbSpline
210
0.0
220
0.0
230
1.0
 70
    12
 71
     2
 72
     6
 73
     3
 74
     0
 42
0.0000000001
 43
0.0000000001
 40
0.0
 40
0.0
 40
0.0
 40
94.89771529004167
 40
94.89771529004167
 40
94.89771529004167
 10
1745.411064546145
 20
251.7338984399434
 30
0.0
 41
1.0
 10
1721.781455924181
 20
293.1383075977299
 30
0.0
 41
0.9929726835554614
 10
1708.544765767269
 20
338.9364902584257
 30
0.0
 41
1.0
  0
SPLINE
  5
219
330
1F
100
AcDbEntity
  8
Predefinito
100
AcDbSpline
210
0.0
220
0.0
230
1.0
 70
    12
 71
     2
 72
     6
 73
     3
 74
     0
 42
0.0000000001
 43
0.0000000001
 40
0.0
 40
0.0
 40
0.0
 40
12.36554304803307
 40
12.36554304803307
 40
12.36554304803307
 10
1734.665072813543
 20
245.5291331541121
 30
0.0
 41
1.0
 10
1740.020585360031
 20
248.6186562291867
 30
0.0
 41
0.999999926448783
 10
1745.373726423768
 20
251.712286494546
 30
0.0
 41
1.0
  0
SPLINE
  5
21A
330
1F
100
AcDbEntity
  8
Predefinito
100
AcDbSpline
210
0.0
220
0.0
230
1.0
 70
    12
 71
     2
 72
     6
 73
     3
 74
     0
 42
0.0000000001
 43
0.0000000001
 40
0.0
 40
0.0
 40
0.0
 40
12.36382905370538
 40
12.36382905370538
 40
12.36382905370538
 10
1745.372243797171
 20
648.2885118529448
 30
0.0
 41
1.0
 10
1740.0198414362
 20
651.3817075973253
 30
0.0
 41
0.9999999268080907
 10
1734.665073720511
 20
654.4708067633948
 30
0.0
 41
1.0
  0
SPLINE
  5
21B
330
1F
100
AcDbEntity
  8
Predefinito
100
AcDbSpline
210
0.0
220
0.0
230
1.0
 70
    12
 71
     2
 72
     6
 73
     3
 74
     0
 42
0.0000000001
 43
0.0000000001
 40
0.0
 40
0.0
 40
0.0
 40
97.67934356814031
 40
97.67934356814031
 40
97.67934356814031
 10
1696.685278576201
 20
564.7213021243356
 30
0.0
 41
1.0
 10
1710.335145430887
 20
611.853832291925
 30
0.0
 41
0.9929958498632598
 10
1734.663265990606
 20
654.4676424381819
 30
0.0
 41
1.0
  0
SPLINE
  5
21C
330
1F
100
AcDbEntity
  8
Predefinito
100
AcDbSpline
210
0.0
220
0.0
230
1.0
 70
    12
 71
     2
 72
     6
 73
     3
 74
     0
 42
0.0000000001
 43
0.0000000001
 40
0.0
 40
0.0
 40
0.0
 40
97.6809012547915
 40
97.6809012547915
 40
97.6809012547915
 10
1734.66497514865
 20
245.5293042232454
 30
0.0
 41
1.0
 10
1710.33610676542
 20
288.1435969619023
 30
0.0
 41
0.992995626733916
 10
1696.68580422673
 20
335.2768232786596
 30
0.0
 41
1.0
  0
SPLINE
  5
21D
330
1F
100
AcDbEntity
  8
Predefinito
100
AcDbSpline
210
0.0
220
0.0
230
1.0
 70
    12
 71
     2
 72
     6
 73
     3
 74
     0
 42
0.0000000001
 43
0.0000000001
 40
0.0
 40
0.0
 40
0.0
 40
107.4007552452592
 40
107.4007552452592
 40
107.4007552452592
 10
1671.503172025558
 20
331.767014224436
 30
0.0
 41
1.0
 10
1686.08581039939
 20
279.8028098942906
 30
0.0
 41
0.992479540587067
 10
1712.857692507555
 20
232.9391971228275
 30
0.0
 41
1.0
  0
SPLINE
  5
21E
330
1F
100
AcDbEntity
  8
Predefinito
100
AcDbSpline
210
0.0
220
0.0
230
1.0
 70
    12
 71
     2
 72
     6
 73
     3
 74
     0
 42
0.0000000001
 43
0.0000000001
 40
0.0
 40
0.0
 40
0.0
 40
107.3967644958246
 40
107.3967644958246
 40
107.3967644958246
 10
1712.857464917472
 20
667.0603449263293
 30
0.0
 41
1.0
 10
1686.086636779612
 20
620.1984630280931
 30
0.0
 41
0.9924800987589457
 10
1671.504126335637
 20
568.2363267807987
 30
0.0
 41
1.0
  0
SPLINE
  5
21F
330
1F
100
AcDbEntity
  8
Predefinito
100
AcDbSpline
210
0.0
220
0.0
230
1.0
 70
    12
 71
     2
 72
     6
 73
     3
 74
     0
 42
0.0000000001
 43
0.0000000001
 40
0.0
 40
0.0
 40
0.0
 40
467.2375762671599
 40
467.2375762671599
 40
467.2375762671599
 10
2094.818095421609
 20
0.0057939100316844
 30
0.0
 41
1.0
 10
2351.962588167279
 20
1.148671473762982
 30
0.0
 41
0.8682390762125624
 10
2481.52459553424
 20
223.27089585844
 30
0.0
 41
1.0
  0
SPLINE
  5
220
330
1F
100
AcDbEntity
  8
Predefinito
100
AcDbSpline
210
0.0
220
0.0
230
1.0
 70
    12
 71
     2
 72
     6
 73
     3
 74
     0
 42
0.0000000001
 43
0.0000000001
 40
0.0
 40
0.0
 40
0.0
 40
12.40865789672789
 40
12.40865789672789
 40
12.40865789672789
 10
2094.818095421557
 20
12.41445160034556
 30
0.0
 41
1.0
 10
2094.820106061476
 20
6.210122760246239
 30
0.0
 41
0.9999999474085219
 10
2094.818092335059
 20
0.0057939211479354
 30
0.0
 41
1.0
  0
SPLINE
  5
221
330
1F
100
AcDbEntity
  8
Predefinito
100
AcDbSpline
210
0.0
220
0.0
230
1.0
 70
    12
 71
     2
 72
     6
 73
     3
 74
     0
 42
0.0000000001
 43
0.0000000001
 40
0.0
 40
0.0
 40
0.0
 40
12.40865789648463
 40
12.40865789648463
 40
12.40865789648463
 10
2481.524595534242
 20
223.2708958584408
 30
0.0
 41
1.0
 10
2476.150483940862
 20
226.3713192125022
 30
0.0
 41
0.9999999475011915
 10
2470.778382757071
 20
229.475224698111
 30
0.0
 41
1.0
  0
SPLINE
  5
222
330
1F
100
AcDbEntity
  8
Predefinito
100
AcDbSpline
210
0.0
220
0.0
230
1.0
 70
    12
 71
     2
 72
     6
 73
     3
 74
     0
 42
0.0000000001
 43
0.0000000001
 40
0.0
 40
0.0
 40
0.0
 40
414.8803067985936
 40
414.8803067985936
 40
414.8803067985936
 10
2438.225007940608
 20
248.2699212038199
 30
0.0
 41
1.0
 10
2323.097045522245
 20
51.14525792299988
 30
0.0
 41
0.8685145773038702
 10
2094.818098199421
 20
50.00384942316822
 30
0.0
 41
1.0
  0
SPLINE
  5
223
330
1F
100
AcDbEntity
  8
Predefinito
100
AcDbSpline
210
0.0
220
0.0
230
1.0
 70
    12
 71
     2
 72
     6
 73
     3
 74
     0
 42
0.0000000001
 43
0.0000000001
 40
0.0
 40
0.0
 40
0.0
 40
12.40868481633957
 40
12.40868481633957
 40
12.40868481633957
 10
2448.971488168961
 20
242.0660020174419
 30
0.0
 41
1.0
 10
2443.599555097137
 20
245.1702256475661
 30
0.0
 41
0.9999999112297198
 10
2438.22500796892
 20
248.2699211875388
 30
0.0
 41
1.0
  0
SPLINE
  5
224
330
1F
100
AcDbEntity
  8
Predefinito
100
AcDbSpline
210
0.0
220
0.0
230
1.0
 70
    12
 71
     2
 72
     6
 73
     3
 74
     0
 42
0.0000000001
 43
0.0000000001
 40
0.0
 40
0.0
 40
0.0
 40
12.40868481633692
 40
12.40868481633692
 40
12.40868481633692
 10
2094.818098199366
 20
50.00384939050868
 30
0.0
 41
1.0
 10
2094.815239716911
 20
43.79950727365016
 30
0.0
 41
0.9999999112297226
 10
2094.817609703676
 20
37.59516495096125
 30
0.0
 41
1.0
  0
SPLINE
  5
225
330
1F
100
AcDbEntity
  8
Predefinito
100
AcDbSpline
210
0.0
220
0.0
230
1.0
 70
    12
 71
     2
 72
     6
 73
     3
 74
     0
 42
0.0000000001
 43
0.0000000001
 40
0.0
 40
0.0
 40
0.0
 40
427.8739791099368
 40
427.8739791099368
 40
427.8739791099368
 10
2448.970685332138
 20
242.064626896635
 30
0.0
 41
1.0
 10
2330.260750232034
 20
38.73578802172255
 30
0.0
 41
0.8684383218710805
 10
2094.817839123551
 20
37.59516606240192
 30
0.0
 41
1.0
  0
SPLINE
  5
226
330
1F
100
AcDbEntity
  8
Predefinito
100
AcDbSpline
210
0.0
220
0.0
230
1.0
 70
    12
 71
     2
 72
     6
 73
     3
 74
     0
 42
0.0000000001
 43
0.0000000001
 40
0.0
 40
0.0
 40
0.0
 40
454.2427000337402
 40
454.2427000337402
 40
454.2427000337402
 10
2094.818095421556
 20
12.41445160034561
 30
0.0
 41
1.0
 10
2344.798180278029
 20
13.55699403109918
 30
0.0
 41
0.8683019931233432
 10
2470.778034478335
 20
229.4746277800013
 30
0.0
 41
1.0
  0
SPLINE
  5
227
330
1F
100
AcDbEntity
  8
Predefinito
100
AcDbSpline
210
0.0
220
0.0
230
1.0
 70
    12
 71
     2
 72
     8
 73
     5
 74
     0
 42
0.0000000001
 43
0.0000000001
 40
0.0
 40
0.0
 40
0.0
 40
9.389959599721827
 40
9.389959599721827
 40
18.82074790092885
 40
18.82074790092885
 40
18.82074790092885
 10
2517.299578037168
 20
455.9777505202347
 30
0.0
 41
1.0
 10
2511.347180560123
 20
455.4726199062511
 30
0.0
 41
0.7077652260849955
 10
2511.841219608704
 20
449.5192915866975
 30
0.0
 41
1.0
 10
2512.337223273121
 20
443.5424093221017
 30
0.0
 41
0.708145174299118
 10
2518.315537563203
 20
444.020843736577
 30
0.0
 41
1.0
  0
SPLINE
  5
228
330
1F
100
AcDbEntity
  8
Predefinito
100
AcDbSpline
210
0.0
220
0.0
230
1.0
 70
    12
 71
     2
 72
    10
 73
     7
 74
     0
 42
0.0000000001
 43
0.0000000001
 40
0.0
 40
0.0
 40
0.0
 40
4.70860879029884
 40
4.70860879029884
 40
9.417217580597681
 40
9.417217580597681
 40
18.84799865706136
 40
18.84799865706136
 40
18.84799865706136
 10
2518.317068460561
 20
444.0209671068633
 30
0.0
 41
1.0
 10
2520.792861842714
 20
444.2197229711973
 30
0.0
 41
0.9236222409232095
 10
2522.400428090156
 20
446.1130764840951
 30
0.0
 41
1.0
 10
2524.007994337598
 20
448.006429996993
 30
0.0
 41
0.9236222409232095
 10
2523.802586339972
 20
450.4816803518519
 30
0.0
 41
1.0
 10
2523.306587616586
 20
456.4585583980453
 30
0.0
 41
0.708145177236436
 10
2517.328277555431
 20
455.9801289619225
 30
0.0
 41
1.0
  0
SPLINE
  5
229
330
1F
100
AcDbEntity
  8
Predefinito
100
AcDbSpline
210
0.0
220
0.0
230
1.0
 70
    12
 71
     2
 72
     8
 73
     5
 74
     0
 42
0.0000000001
 43
0.0000000001
 40
0.0
 40
0.0
 40
0.0
 40
18.42863522296707
 40
18.42863522296707
 40
36.8566046305465
 40
36.8566046305465
 40
36.8566046305465
 10
2516.810906961654
 20
461.706947722308
 30
0.0
 41
1.0
 10
2505.131500734776
 20
460.7107790979208
 30
0.0
 41
0.7079554496662707
 10
2506.099614450829
 20
449.0290139242217
 30
0.0
 41
1.0
 10
2507.067673309976
 20
437.3479106825775
 30
0.0
 41
0.7079754594606623
 10
2518.751121224932
 20
438.2872485958137
 30
0.0
 41
1.0
  0
SPLINE
  5
22A
330
1F
100
AcDbEntity
  8
Predefinito
100
AcDbSpline
210
0.0
220
0.0
230
1.0
 70
    12
 71
     2
 72
     8
 73
     5
 74
     0
 42
0.0000000001
 43
0.0000000001
 40
0.0
 40
0.0
 40
0.0
 40
18.40046088838486
 40
18.40046088838486
 40
36.85731772822534
 40
36.85731772822534
 40
36.85731772822534
 10
2518.808011685529
 20
438.2919616509623
 30
0.0
 41
1.0
 10
2530.459448209026
 20
439.2857210491836
 30
0.0
 41
0.7088016778391041
 10
2529.521622923264
 20
450.9417930520496
 30
0.0
 41
1.0
 10
2528.579285562399
 20
462.6539448739112
 30
0.0
 41
0.7071067811865144
 10
2516.867133740539
 20
461.7116075130464
 30
0.0
 41
1.0
  0
SPLINE
  5
22B
330
1F
100
AcDbEntity
  8
Predefinito
100
AcDbSpline
210
0.0
220
0.0
230
1.0
 70
    12
 71
     2
 72
     6
 73
     3
 74
     0
 42
0.0000000001
 43
0.0000000001
 40
0.0
 40
0.0
 40
0.0
 40
0.056323887311041
 40
0.056323887311041
 40
0.056323887311041
 10
2081.111325185221
 20
26.00734439935263
 30
0.0
 41
1.0
 10
2081.108931917347
 20
25.97928427860048
 30
0.0
 41
0.9999971277693855
 10
2081.10667318327
 20
25.95121300808947
 30
0.0
 41
1.0
  0
SPLINE
  5
22C
330
1F
100
AcDbEntity
  8
Predefinito
100
AcDbSpline
210
0.0
220
0.0
230
1.0
 70
    12
 71
     2
 72
     8
 73
     5
 74
     0
 42
0.0000000001
 43
0.0000000001
 40
0.0
 40
0.0
 40
0.0
 40
18.45685683984023
 40
18.45685683984023
 40
36.85731772822524
 40
36.85731772822524
 40
36.85731772822524
 10
2081.106667403582
 20
25.95114117609057
 30
0.0
 41
1.0
 10
2080.164330042719
 20
14.23898935423022
 30
0.0
 41
0.7071067811866074
 10
2091.876481864579
 20
13.29665199336478
 30
0.0
 41
1.0
 10
2103.532553867444
 20
12.35882670760412
 30
0.0
 41
0.7088016778391631
 10
2104.526313265667
 20
24.01026323109953
 30
0.0
 41
1.0
  0
SPLINE
  5
22D
330
1F
100
AcDbEntity
  8
Predefinito
100
AcDbSpline
210
0.0
220
0.0
230
1.0
 70
    12
 71
     2
 72
     8
 73
     5
 74
     0
 42
0.0000000001
 43
0.0000000001
 40
0.0
 40
0.0
 40
0.0
 40
18.42796940757943
 40
18.42796940757943
 40
36.85653788727109
 40
36.85653788727109
 40
36.85653788727109
 10
2104.531026320815
 20
24.06715369169721
 30
0.0
 41
1.0
 10
2105.470364234051
 20
35.75060160665294
 30
0.0
 41
0.7079754594606509
 10
2093.789260992407
 20
36.71866046580061
 30
0.0
 41
1.0
 10
2082.107562174393
 20
37.68676868269876
 30
0.0
 41
0.7079574555319604
 10
2081.111332866632
 20
26.00743445677817
 30
0.0
 41
1.0
  0
SPLINE
  5
22E
330
1F
100
AcDbEntity
  8
Predefinito
100
AcDbSpline
210
0.0
220
0.0
230
1.0
 70
    12
 71
     2
 72
     8
 73
     5
 74
     0
 42
0.0000000001
 43
0.0000000001
 40
0.0
 40
0.0
 40
0.0
 40
18.42863522296706
 40
18.42863522296706
 40
36.85660463054618
 40
36.85660463054618
 40
36.85660463054618
 10
2081.111327194321
 20
873.9930011563366
 30
0.0
 41
1.0
 10
2082.107495818708
 20
862.3135949294568
 30
0.0
 41
0.7079554496661737
 10
2093.789260992407
 20
863.2817086455118
 30
0.0
 41
1.0
 10
2105.470364234051
 20
864.249767504659
 30
0.0
 41
0.7079754594606106
 10
2104.531026320815
 20
875.9332154196148
 30
0.0
 41
1.0
  0
SPLINE
  5
22F
330
1F
100
AcDbEntity
  8
Predefinito
100
AcDbSpline
210
0.0
220
0.0
230
1.0
 70
    12
 71
     2
 72
     6
 73
     3
 74
     0
 42
0.0000000001
 43
0.0000000001
 40
0.0
 40
0.0
 40
0.0
 40
39.01982967207721
 40
39.01982967207721
 40
39.01982967207721
 10
25.01078540873573
 20
1456.230906400022
 30
0.0
 41
1.0
 10
0.2597122353786749
 20
1456.231066667156
 30
0.0
 41
0.7106381583144877
 10
0.0120354419912019
 20
1480.980900595176
 30
0.0
 41
1.0
  0
SPLINE
  5
230
330
1F
100
AcDbEntity
  8
Predefinito
100
AcDbSpline
210
0.0
220
0.0
230
1.0
 70
    12
 71
     2
 72
     6
 73
     3
 74
     0
 42
0.0000000001
 43
0.0000000001
 40
0.0
 40
0.0
 40
0.0
 40
39.01986635514302
 40
39.01986635514302
 40
39.01986635514302
 10
899.9882160931602
 20
1480.980905504403
 30
0.0
 41
1.0
 10
899.7406526492867
 20
1456.230975372216
 30
0.0
 41
0.7106353186685038
 10
874.9894844101659
 20
1456.230900595099
 30
0.0
 41
1.0
  0
VIEWPORT
  5
23A
330
236
100
AcDbEntity
 67
     1
  8
0
100
AcDbViewport
 10
6.0
 20
4.5
 30
0.0
 40
12.696
 41
9.522
 68
     1
 69
     1
 12
6.0
 22
4.5
 13
0.0
 23
0.0
 14
0.5
 24
0.5
 15
0.5
 25
0.5
 16
0.0
 26
0.0
 36
1.0
 17
0.0
 27
0.0
 37
0.0
 42
50.0
 43
0.0
 44
0.0
 45
9.522
 50
0.0
 51
0.0
 72
   100
 90
   557152
  1

281
     0
 71
     1
 74
     0
110
0.0
120
0.0
130
0.0
111
1.0
121
0.0
131
0.0
112
0.0
122
1.0
132
0.0
 79
     0
146
0.0
170
     0
  0
ENDSEC
  0
SECTION
  2
OBJECTS
  0
DICTIONARY
  5
C
330
0
100
AcDbDictionary
281
     1
  3
ACAD_GROUP
350
D
  3
ACAD_LAYOUT
350
1A
  3
ACAD_MLEADERSTYLE
350
260
  3
ACAD_MLINESTYLE
350
17
  3
ACAD_PLOTSETTINGS
350
19
  3
ACAD_PLOTSTYLENAME
350
E
  3
ACAD_SCALELIST
350
23B
  3
ACAD_TABLESTYLE
350
25F
  3
ACAD_VISUALSTYLE
350
2A
  3
AcDbVariableDictionary
350
25D
  0
DICTIONARY
  5
D
102
{ACAD_REACTORS
330
C
102
}
330
C
100
AcDbDictionary
281
     1
  0
DICTIONARY
  5
1A
102
{ACAD_REACTORS
330
C
102
}
330
C
100
AcDbDictionary
281
     1
  3
Layout1
350
232
  3
Layout2
350
237
  3
Model
350
22
  0
DICTIONARY
  5
260
102
{ACAD_REACTORS
330
C
102
}
330
C
100
AcDbDictionary
281
     1
  0
DICTIONARY
  5
17
102
{ACAD_REACTORS
330
C
102
}
330
C
100
AcDbDictionary
281
     1
  3
Standard
350
18
  0
DICTIONARY
  5
19
102
{ACAD_REACTORS
330
C
102
}
330
C
100
AcDbDictionary
281
     1
  0
ACDBDICTIONARYWDFLT
  5
E
102
{ACAD_REACTORS
330
C
102
}
330
C
100
AcDbDictionary
281
     1
  3
Normal
350
F
100
AcDbDictionaryWithDefault
340
F
  0
DICTIONARY
  5
23B
102
{ACAD_REACTORS
330
C
102
}
330
C
100
AcDbDictionary
281
     1
  3
A0
350
23C
  3
A1
350
23D
  3
A2
350
23E
  3
A3
350
23F
  3
A4
350
240
  3
A5
350
241
  3
A6
350
242
  3
A7
350
243
  3
A8
350
244
  3
A9
350
245
  3
B0
350
246
  3
B1
350
247
  3
B2
350
248
  3
B3
350
249
  3
B4
350
24A
  3
B5
350
24B
  3
B6
350
24C
  3
B7
350
24D
  3
B8
350
24E
  3
B9
350
24F
  3
C0
350
250
  3
C1
350
251
  3
C2
350
252
  3
C3
350
253
  3
C4
350
254
  3
C5
350
255
  3
C6
350
256
  3
C7
350
257
  3
C8
350
258
  3
C9
350
259
  3
D0
350
25A
  3
D1
350
25B
  3
D2
350
25C
  0
DICTIONARY
  5
25F
102
{ACAD_REACTORS
330
C
102
}
330
C
100
AcDbDictionary
281
     1
  0
DICTIONARY
  5
2A
102
{ACAD_REACTORS
330
C
102
}
330
C
100
AcDbDictionary
281
     1
  3
2dWireframe
350
2F
  3
3D Hidden
350
31
  3
3dWireframe
350
30
  3
Basic
350
32
  3
Brighten
350
36
  3
ColorChange
350
3A
  3
Conceptual
350
34
  3
Dim
350
35
  3
Facepattern
350
39
  3
Flat
350
2B
  3
FlatWithEdges
350
2C
  3
Gouraud
350
2D
  3
GouraudWithEdges
350
2E
  3
Linepattern
350
38
  3
Realistic
350
33
  3
Thicken
350
37
  0
DICTIONARY
  5
25D
102
{ACAD_REACTORS
330
C
102
}
330
C
100
AcDbDictionary
281
     1
  3
CANNOSCALE
350
25E
  0
LAYOUT
  5
232
102
{ACAD_REACTORS
330
1A
102
}
330
1A
100
AcDbPlotSettings
  1

  2
none_device
  4
Letter_(8.50_x_11.00_Inches)
  6

 40
6.35
 41
6.35
 42
6.35000508
 43
6.35000508
 44
215.9
 45
279.4
 46
0.0
 47
0.0
 48
0.0
 49
0.0
140
0.0
141
0.0
142
1.0
143
1.0
 70
   688
 72
     0
 73
     1
 74
     5
  7

 75
    16
 76
     0
 77
     2
 78
   300
147
1.0
148
0.0
149
0.0
100
AcDbLayout
  1
Layout1
 70
     1
 71
     1
 10
0.0
 20
0.0
 11
0.0
 21
0.0
 12
0.0
 22
0.0
 32
0.0
 14
0.0
 24
0.0
 34
0.0
 15
0.0
 25
0.0
 35
0.0
146
0.0
 13
0.0
 23
0.0
 33
0.0
 16
1.0
 26
0.0
 36
0.0
 17
0.0
 27
1.0
 37
0.0
 76
     0
330
231
331
235
  0
LAYOUT
  5
237
102
{ACAD_REACTORS
330
1A
102
}
330
1A
100
AcDbPlotSettings
  1

  2
none_device
  4
Letter_(8.50_x_11.00_Inches)
  6

 40
6.35
 41
6.35
 42
6.35000508
 43
6.35000508
 44
215.9
 45
279.4
 46
0.0
 47
0.0
 48
0.0
 49
0.0
140
0.0
141
0.0
142
1.0
143
1.0
 70
   688
 72
     0
 73
     1
 74
     5
  7

 75
    16
 76
     0
 77
     2
 78
   300
147
1.0
148
0.0
149
0.0
100
AcDbLayout
  1
Layout2
 70
     1
 71
     2
 10
0.0
 20
0.0
 11
0.0
 21
0.0
 12
0.0
 22
0.0
 32
0.0
 14
0.0
 24
0.0
 34
0.0
 15
0.0
 25
0.0
 35
0.0
146
0.0
 13
0.0
 23
0.0
 33
0.0
 16
1.0
 26
0.0
 36
0.0
 17
0.0
 27
1.0
 37
0.0
 76
     0
330
236
331
23A
  0
LAYOUT
  5
22
102
{ACAD_REACTORS
330
1A
102
}
330
1A
100
AcDbPlotSettings
  1

  2
none_device
  4

  6

 40
0.0
 41
0.0
 42
0.0
 43
0.0
 44
0.0
 45
0.0
 46
0.0
 47
0.0
 48
0.0
 49
0.0
140
0.0
141
0.0
142
1.0
143
1.0
 70
  1712
 72
     0
 73
     0
 74
     0
  7

 75
     0
 76
     0
 77
     2
 78
   300
147
1.0
148
0.0
149
0.0
100
AcDbLayout
  1
Model
 70
     1
 71
     0
 10
0.0
 20
0.0
 11
12.0
 21
9.0
 12
0.0
 22
0.0
 32
0.0
 14
-0.0000000000000063
 24
0.0000025522453352
 34
0.0
 15
2542.816848173035
 25
1556.380905570679
 35
0.0
146
0.0
 13
0.0
 23
0.0
 33
0.0
 16
1.0
 26
0.0
 36
0.0
 17
0.0
 27
1.0
 37
0.0
 76
     0
330
1F
331
29
  0
MLINESTYLE
  5
18
102
{ACAD_REACTORS
330
17
102
}
330
17
100
AcDbMlineStyle
  2
Standard
 70
     0
  3

 62
   256
 51
90.0
 52
90.0
 71
     2
 49
0.5
 62
   256
  6
BYLAYER
 49
-0.5
 62
   256
  6
BYLAYER
  0
ACDBPLACEHOLDER
  5
F
102
{ACAD_REACTORS
330
E
102
}
330
E
  0
SCALE
  5
23C
102
{ACAD_REACTORS
330
23B
102
}
330
23B
100
AcDbScale
 70
     0
300
1:1
140
1.0
141
1.0
290
     1
  0
SCALE
  5
23D
102
{ACAD_REACTORS
330
23B
102
}
330
23B
100
AcDbScale
 70
     0
300
1:2
140
1.0
141
2.0
290
     0
  0
SCALE
  5
23E
102
{ACAD_REACTORS
330
23B
102
}
330
23B
100
AcDbScale
 70
     0
300
1:4
140
1.0
141
4.0
290
     0
  0
SCALE
  5
23F
102
{ACAD_REACTORS
330
23B
102
}
330
23B
100
AcDbScale
 70
     0
300
1:5
140
1.0
141
5.0
290
     0
  0
SCALE
  5
240
102
{ACAD_REACTORS
330
23B
102
}
330
23B
100
AcDbScale
 70
     0
300
1:8
140
1.0
141
8.0
290
     0
  0
SCALE
  5
241
102
{ACAD_REACTORS
330
23B
102
}
330
23B
100
AcDbScale
 70
     0
300
1:10
140
1.0
141
10.0
290
     0
  0
SCALE
  5
242
102
{ACAD_REACTORS
330
23B
102
}
330
23B
100
AcDbScale
 70
     0
300
1:16
140
1.0
141
16.0
290
     0
  0
SCALE
  5
243
102
{ACAD_REACTORS
330
23B
102
}
330
23B
100
AcDbScale
 70
     0
300
1:20
140
1.0
141
20.0
290
     0
  0
SCALE
  5
244
102
{ACAD_REACTORS
330
23B
102
}
330
23B
100
AcDbScale
 70
     0
300
1:30
140
1.0
141
30.0
290
     0
  0
SCALE
  5
245
102
{ACAD_REACTORS
330
23B
102
}
330
23B
100
AcDbScale
 70
     0
300
1:40
140
1.0
141
40.0
290
     0
  0
SCALE
  5
246
102
{ACAD_REACTORS
330
23B
102
}
330
23B
100
AcDbScale
 70
     0
300
1:50
140
1.0
141
50.0
290
     0
  0
SCALE
  5
247
102
{ACAD_REACTORS
330
23B
102
}
330
23B
100
AcDbScale
 70
     0
300
1:100
140
1.0
141
100.0
290
     0
  0
SCALE
  5
248
102
{ACAD_REACTORS
330
23B
102
}
330
23B
100
AcDbScale
 70
     0
300
2:1
140
2.0
141
1.0
290
     0
  0
SCALE
  5
249
102
{ACAD_REACTORS
330
23B
102
}
330
23B
100
AcDbScale
 70
     0
300
4:1
140
4.0
141
1.0
290
     0
  0
SCALE
  5
24A
102
{ACAD_REACTORS
330
23B
102
}
330
23B
100
AcDbScale
 70
     0
300
8:1
140
8.0
141
1.0
290
     0
  0
SCALE
  5
24B
102
{ACAD_REACTORS
330
23B
102
}
330
23B
100
AcDbScale
 70
     0
300
10:1
140
10.0
141
1.0
290
     0
  0
SCALE
  5
24C
102
{ACAD_REACTORS
330
23B
102
}
330
23B
100
AcDbScale
 70
     0
300
100:1
140
100.0
141
1.0
290
     0
  0
SCALE
  5
24D
102
{ACAD_REACTORS
330
23B
102
}
330
23B
100
AcDbScale
 70
     0
300
1/128" = 1'-0"
140
0.0078125
141
12.0
290
     0
  0
SCALE
  5
24E
102
{ACAD_REACTORS
330
23B
102
}
330
23B
100
AcDbScale
 70
     0
300
1/64" = 1'-0"
140
0.015625
141
12.0
290
     0
  0
SCALE
  5
24F
102
{ACAD_REACTORS
330
23B
102
}
330
23B
100
AcDbScale
 70
     0
300
1/32" = 1'-0"
140
0.03125
141
12.0
290
     0
  0
SCALE
  5
250
102
{ACAD_REACTORS
330
23B
102
}
330
23B
100
AcDbScale
 70
     0
300
1/16" = 1'-0"
140
0.0625
141
12.0
290
     0
  0
SCALE
  5
251
102
{ACAD_REACTORS
330
23B
102
}
330
23B
100
AcDbScale
 70
     0
300
3/32" = 1'-0"
140
0.09375
141
12.0
290
     0
  0
SCALE
  5
252
102
{ACAD_REACTORS
330
23B
102
}
330
23B
100
AcDbScale
 70
     0
300
1/8" = 1'-0"
140
0.125
141
12.0
290
     0
  0
SCALE
  5
253
102
{ACAD_REACTORS
330
23B
102
}
330
23B
100
AcDbScale
 70
     0
300
3/16" = 1'-0"
140
0.1875
141
12.0
290
     0
  0
SCALE
  5
254
102
{ACAD_REACTORS
330
23B
102
}
330
23B
100
AcDbScale
 70
     0
300
1/4" = 1'-0"
140
0.25
141
12.0
290
     0
  0
SCALE
  5
255
102
{ACAD_REACTORS
330
23B
102
}
330
23B
100
AcDbScale
 70
     0
300
3/8" = 1'-0"
140
0.375
141
12.0
290
     0
  0
SCALE
  5
256
102
{ACAD_REACTORS
330
23B
102
}
330
23B
100
AcDbScale
 70
     0
300
1/2" = 1'-0"
140
0.5
141
12.0
290
     0
  0
SCALE
  5
257
102
{ACAD_REACTORS
330
23B
102
}
330
23B
100
AcDbScale
 70
     0
300
3/4" = 1'-0"
140
0.75
141
12.0
290
     0
  0
SCALE
  5
258
102
{ACAD_REACTORS
330
23B
102
}
330
23B
100
AcDbScale
 70
     0
300
1" = 1'-0"
140
1.0
141
12.0
290
     0
  0
SCALE
  5
259
102
{ACAD_REACTORS
330
23B
102
}
330
23B
100
AcDbScale
 70
     0
300
1-1/2" = 1'-0"
140
1.5
141
12.0
290
     0
  0
SCALE
  5
25A
102
{ACAD_REACTORS
330
23B
102
}
330
23B
100
AcDbScale
 70
     0
300
3" = 1'-0"
140
3.0
141
12.0
290
     0
  0
SCALE
  5
25B
102
{ACAD_REACTORS
330
23B
102
}
330
23B
100
AcDbScale
 70
     0
300
6" = 1'-0"
140
6.0
141
12.0
290
     0
  0
SCALE
  5
25C
102
{ACAD_REACTORS
330
23B
102
}
330
23B
100
AcDbScale
 70
     0
300
1'-0" = 1'-0"
140
12.0
141
12.0
290
     0
  0
VISUALSTYLE
  5
2F
102
{ACAD_REACTORS
330
2A
102
}
330
2A
100
AcDbVisualStyle
  2
2dWireframe
 70
     4
 71
     0
 72
     2
 73
     0
 90
        0
 40
-0.6
 41
-30.0
 62
     5
 63
     7
421
 16777215
 74
     1
 91
        4
 64
     7
 65
   257
 75
     1
175
     1
 42
1.0
 92
        0
 66
   257
 43
1.0
 76
     1
 77
     6
 78
     2
 67
     7
 79
     5
170
     0
171
     0
290
     0
174
     0
 93
        1
 44
0.0
173
     0
291
     0
 45
0.0
1001
ACAD
1000
AcDbSavedByObjectVersion
1070
     0
  0
VISUALSTYLE
  5
31
102
{ACAD_REACTORS
330
2A
102
}
330
2A
100
AcDbVisualStyle
  2
3D Hidden
 70
     6
 71
     1
 72
     2
 73
     2
 90
        0
 40
-0.6
 41
-30.0
 62
     5
 63
     7
421
 16777215
 74
     2
 91
        2
 64
     7
 65
   257
 75
     2
175
     1
 42
40.0
 92
        0
 66
   257
 43
1.0
 76
     1
 77
     6
 78
     2
 67
     7
 79
     3
170
     0
171
     0
290
     0
174
     0
 93
        1
 44
0.0
173
     0
291
     0
 45
0.0
1001
ACAD
1000
AcDbSavedByObjectVersion
1070
     0
  0
VISUALSTYLE
  5
30
102
{ACAD_REACTORS
330
2A
102
}
330
2A
100
AcDbVisualStyle
  2
3dWireframe
 70
     5
 71
     0
 72
     2
 73
     0
 90
        0
 40
-0.6
 41
-30.0
 62
     5
 63
     7
421
 16777215
 74
     1
 91
        4
 64
     7
 65
   257
 75
     1
175
     1
 42
1.0
 92
        0
 66
   257
 43
1.0
 76
     1
 77
     6
 78
     2
 67
     7
 79
     5
170
     0
171
     0
290
     0
174
     0
 93
        1
 44
0.0
173
     0
291
     0
 45
0.0
1001
ACAD
1000
AcDbSavedByObjectVersion
1070
     0
  0
VISUALSTYLE
  5
32
102
{ACAD_REACTORS
330
2A
102
}
330
2A
100
AcDbVisualStyle
  2
Basic
 70
     7
 71
     1
 72
     0
 73
     1
 90
        0
 40
-0.6
 41
-30.0
 62
     5
 63
     7
421
 16777215
 74
     0
 91
        4
 64
     7
 65
   257
 75
     1
175
     1
 42
1.0
 92
        8
 66
     7
 43
1.0
 76
     1
 77
     6
 78
     2
 67
     7
 79
     5
170
     0
171
     0
290
     0
174
     0
 93
        1
 44
0.0
173
     0
291
     1
 45
0.0
1001
ACAD
1000
AcDbSavedByObjectVersion
1070
     0
  0
VISUALSTYLE
  5
36
102
{ACAD_REACTORS
330
2A
102
}
330
2A
100
AcDbVisualStyle
  2
Brighten
 70
    12
 71
     2
 72
     2
 73
     0
 90
        0
 40
-0.6
 41
-30.0
 62
     5
 63
     7
421
 16777215
 74
     1
 91
        4
 64
     7
 65
   257
 75
     1
175
     1
 42
1.0
 92
        8
 66
     7
 43
1.0
 76
     1
 77
     6
 78
     2
 67
     7
 79
     5
170
     0
171
     0
290
     0
174
     0
 93
        1
 44
50.0
173
     0
291
     1
 45
0.0
1001
ACAD
1000
AcDbSavedByObjectVersion
1070
     0
  0
VISUALSTYLE
  5
3A
102
{ACAD_REACTORS
330
2A
102
}
330
2A
100
AcDbVisualStyle
  2
ColorChange
 70
    16
 71
     2
 72
     2
 73
     3
 90
        0
 40
-0.6
 41
-30.0
 62
     5
 63
     8
421
  8421504
 74
     1
 91
        4
 64
     7
 65
   257
 75
     1
175
     1
 42
1.0
 92
        8
 66
     8
424
  8421504
 43
1.0
 76
     1
 77
     6
 78
     2
 67
     7
 79
     5
170
     0
171
     0
290
     0
174
     0
 93
        1
 44
0.0
173
     0
291
     1
 45
0.0
1001
ACAD
1000
AcDbSavedByObjectVersion
1070
     0
  0
VISUALSTYLE
  5
34
102
{ACAD_REACTORS
330
2A
102
}
330
2A
100
AcDbVisualStyle
  2
Conceptual
 70
     9
 71
     3
 72
     2
 73
     0
 90
        0
 40
-0.6
 41
-30.0
 62
     5
 63
     7
421
 16777215
 74
     2
 91
        2
 64
     7
 65
   257
 75
     1
175
     1
 42
40.0
 92
        8
 66
     7
 43
1.0
 76
     1
 77
     6
 78
     2
 67
     7
 79
     3
170
     0
171
     0
290
     0
174
     0
 93
        1
 44
0.0
173
     0
291
     0
 45
0.0
1001
ACAD
1000
AcDbSavedByObjectVersion
1070
     0
  0
VISUALSTYLE
  5
35
102
{ACAD_REACTORS
330
2A
102
}
330
2A
100
AcDbVisualStyle
  2
Dim
 70
    11
 71
     2
 72
     2
 73
     0
 90
        0
 40
-0.6
 41
-30.0
 62
     5
 63
     7
421
 16777215
 74
     1
 91
        4
 64
     7
 65
   257
 75
     1
175
     1
 42
1.0
 92
        8
 66
     7
 43
1.0
 76
     1
 77
     6
 78
     2
 67
     7
 79
     5
170
     0
171
     0
290
     0
174
     0
 93
        1
 44
-50.0
173
     0
291
     1
 45
0.0
1001
ACAD
1000
AcDbSavedByObjectVersion
1070
     0
  0
VISUALSTYLE
  5
39
102
{ACAD_REACTORS
330
2A
102
}
330
2A
100
AcDbVisualStyle
  2
Facepattern
 70
    15
 71
     2
 72
     2
 73
     0
 90
        0
 40
-0.6
 41
-30.0
 62
     5
 63
     7
421
 16777215
 74
     1
 91
        4
 64
     7
 65
   257
 75
     1
175
     1
 42
1.0
 92
        8
 66
     7
 43
1.0
 76
     1
 77
     6
 78
     2
 67
     7
 79
     5
170
     0
171
     0
290
     0
174
     0
 93
        1
 44
0.0
173
     0
291
     1
 45
0.0
1001
ACAD
1000
AcDbSavedByObjectVersion
1070
     0
  0
VISUALSTYLE
  5
2B
102
{ACAD_REACTORS
330
2A
102
}
330
2A
100
AcDbVisualStyle
  2
Flat
 70
     0
 71
     2
 72
     1
 73
     1
 90
        2
 40
-0.6
 41
30.0
 62
     5
 63
     7
421
 16777215
 74
     0
 91
        4
 64
     7
 65
   257
 75
     1
175
     1
 42
1.0
 92
        8
 66
     7
 43
1.0
 76
     1
 77
     6
 78
     2
 67
     7
 79
     5
170
     0
171
     0
290
     0
174
     0
 93
       13
 44
0.0
173
     0
291
     1
 45
0.0
1001
ACAD
1000
AcDbSavedByObjectVersion
1070
     0
  0
VISUALSTYLE
  5
2C
102
{ACAD_REACTORS
330
2A
102
}
330
2A
100
AcDbVisualStyle
  2
FlatWithEdges
 70
     1
 71
     2
 72
     1
 73
     1
 90
        2
 40
-0.6
 41
30.0
 62
     5
 63
     7
421
 16777215
 74
     1
 91
        4
 64
     7
 65
   257
 75
     1
175
     1
 42
1.0
 92
        0
 66
   257
 43
1.0
 76
     1
 77
     6
 78
     2
 67
     7
 79
     5
170
     0
171
     0
290
     0
174
     0
 93
       13
 44
0.0
173
     0
291
     1
 45
0.0
1001
ACAD
1000
AcDbSavedByObjectVersion
1070
     0
  0
VISUALSTYLE
  5
2D
102
{ACAD_REACTORS
330
2A
102
}
330
2A
100
AcDbVisualStyle
  2
Gouraud
 70
     2
 71
     2
 72
     2
 73
     1
 90
        2
 40
-0.6
 41
30.0
 62
     5
 63
     7
421
 16777215
 74
     0
 91
        4
 64
     7
 65
   257
 75
     1
175
     1
 42
1.0
 92
        0
 66
     7
 43
1.0
 76
     1
 77
     6
 78
     2
 67
     7
 79
     5
170
     0
171
     0
290
     0
174
     0
 93
       13
 44
0.0
173
     0
291
     1
 45
0.0
1001
ACAD
1000
AcDbSavedByObjectVersion
1070
     0
  0
VISUALSTYLE
  5
2E
102
{ACAD_REACTORS
330
2A
102
}
330
2A
100
AcDbVisualStyle
  2
GouraudWithEdges
 70
     3
 71
     2
 72
     2
 73
     1
 90
        2
 40
-0.6
 41
30.0
 62
     5
 63
     7
421
 16777215
 74
     1
 91
        4
 64
     7
 65
   257
 75
     1
175
     1
 42
1.0
 92
        0
 66
   257
 43
1.0
 76
     1
 77
     6
 78
     2
 67
     7
 79
     5
170
     0
171
     0
290
     0
174
     0
 93
       13
 44
0.0
173
     0
291
     1
 45
0.0
1001
ACAD
1000
AcDbSavedByObjectVersion
1070
     0
  0
VISUALSTYLE
  5
38
102
{ACAD_REACTORS
330
2A
102
}
330
2A
100
AcDbVisualStyle
  2
Linepattern
 70
    14
 71
     2
 72
     2
 73
     0
 90
        0
 40
-0.6
 41
-30.0
 62
     5
 63
     7
421
 16777215
 74
     1
 91
        4
 64
     7
 65
   257
 75
     7
175
     7
 42
1.0
 92
        8
 66
     7
 43
1.0
 76
     1
 77
     6
 78
     2
 67
     7
 79
     5
170
     0
171
     0
290
     0
174
     0
 93
        1
 44
0.0
173
     0
291
     1
 45
0.0
1001
ACAD
1000
AcDbSavedByObjectVersion
1070
     0
  0
VISUALSTYLE
  5
33
102
{ACAD_REACTORS
330
2A
102
}
330
2A
100
AcDbVisualStyle
  2
Realistic
 70
     8
 71
     2
 72
     2
 73
     0
 90
        0
 40
-0.6
 41
-30.0
 62
     5
 63
     7
421
 16777215
 74
     1
 91
        0
 64
     7
 65
   257
 75
     1
175
     1
 42
1.0
 92
        8
 66
     8
424
  7895160
 43
1.0
 76
     1
 77
     6
 78
     2
 67
     7
 79
     5
170
     0
171
     0
290
     0
174
     0
 93
       13
 44
0.0
173
     0
291
     0
 45
0.0
1001
ACAD
1000
AcDbSavedByObjectVersion
1070
     0
  0
VISUALSTYLE
  5
37
102
{ACAD_REACTORS
330
2A
102
}
330
2A
100
AcDbVisualStyle
  2
Thicken
 70
    13
 71
     2
 72
     2
 73
     0
 90
        0
 40
-0.6
 41
-30.0
 62
     5
 63
     7
421
 16777215
 74
     1
 91
        4
 64
     7
 65
   257
 75
     1
175
     1
 42
1.0
 92
       12
 66
     7
 43
1.0
 76
     1
 77
     6
 78
     2
 67
     7
 79
     5
170
     0
171
     0
290
     0
174
     0
 93
        1
 44
0.0
173
     0
291
     1
 45
0.0
1001
ACAD
1000
AcDbSavedByObjectVersion
1070
     0
  0
DICTIONARYVAR
  5
25E
102
{ACAD_REACTORS
330
25D
102
}
330
25D
100
DictionaryVariables
280
     0
  1
1:1
  0
ENDSEC
  0
EOF
