  0
SECTION
  2
HEADER
  9
$ACADVER
  1
AC1018
  9
$ACADMAINTVER
 70
     0
  9
$DWGCODEPAGE
  3
ANSI_1252
  9
$INSBASE
 10
0.0
 20
0.0
 30
0.0
  9
$EXTMIN
 10
0.0000015325927744
 20
0.121690139914628
 30
0.0
  9
$EXTMAX
 10
3832.806589298766
 20
482.8500544377522
 30
0.0
  9
$LIMMIN
 10
0.0
 20
0.0
  9
$LIMMAX
 10
12.0
 20
9.0
  9
$ORTHOMODE
 70
     0
  9
$REGENMODE
 70
     1
  9
$FILLMODE
 70
     1
  9
$QTEXTMODE
 70
     0
  9
$MIRRTEXT
 70
     1
  9
$LTSCALE
 40
1.0
  9
$ATTMODE
 70
     1
  9
$TEXTSIZE
 40
0.2
  9
$TRACEWID
 40
0.05
  9
$TEXTSTYLE
  7
Standard
  9
$CLAYER
  8
Predefinito
  9
$CELTYPE
  6
ByLayer
  9
$CECOLOR
 62
   256
  9
$CELTSCALE
 40
1.0
  9
$DISPSILH
 70
     0
  9
$DIMSCALE
 40
1.0
  9
$DIMASZ
 40
0.18
  9
$DIMEXO
 40
0.0625
  9
$DIMDLI
 40
0.38
  9
$DIMRND
 40
0.0
  9
$DIMDLE
 40
0.0
  9
$DIMEXE
 40
0.18
  9
$DIMTP
 40
0.0
  9
$DIMTM
 40
0.0
  9
$DIMTXT
 40
0.18
  9
$DIMCEN
 40
0.09
  9
$DIMTSZ
 40
0.0
  9
$DIMTOL
 70
     0
  9
$DIMLIM
 70
     0
  9
$DIMTIH
 70
     1
  9
$DIMTOH
 70
     1
  9
$DIMSE1
 70
     0
  9
$DIMSE2
 70
     0
  9
$DIMTAD
 70
     0
  9
$DIMZIN
 70
     0
  9
$DIMBLK
  1

  9
$DIMASO
 70
     1
  9
$DIMSHO
 70
     1
  9
$DIMPOST
  1

  9
$DIMAPOST
  1

  9
$DIMALT
 70
     0
  9
$DIMALTD
 70
     2
  9
$DIMALTF
 40
25.4
  9
$DIMLFAC
 40
1.0
  9
$DIMTOFL
 70
     0
  9
$DIMTVP
 40
0.0
  9
$DIMTIX
 70
     0
  9
$DIMSOXD
 70
     0
  9
$DIMSAH
 70
     0
  9
$DIMBLK1
  1

  9
$DIMBLK2
  1

  9
$DIMSTYLE
  2
Standard
  9
$DIMCLRD
 70
     0
  9
$DIMCLRE
 70
     0
  9
$DIMCLRT
 70
     0
  9
$DIMTFAC
 40
1.0
  9
$DIMGAP
 40
0.09
  9
$DIMJUST
 70
     0
  9
$DIMSD1
 70
     0
  9
$DIMSD2
 70
     0
  9
$DIMTOLJ
 70
     1
  9
$DIMTZIN
 70
     0
  9
$DIMALTZ
 70
     0
  9
$DIMALTTZ
 70
     0
  9
$DIMUPT
 70
     0
  9
$DIMDEC
 70
     4
  9
$DIMTDEC
 70
     4
  9
$DIMALTU
 70
     2
  9
$DIMALTTD
 70
     2
  9
$DIMTXSTY
  7
Standard
  9
$DIMAUNIT
 70
     0
  9
$DIMADEC
 70
     0
  9
$DIMALTRND
 40
0.0
  9
$DIMAZIN
 70
     0
  9
$DIMDSEP
 70
    46
  9
$DIMATFIT
 70
     3
  9
$DIMFRAC
 70
     0
  9
$DIMLDRBLK
  1

  9
$DIMLUNIT
 70
     2
  9
$DIMLWD
 70
    -2
  9
$DIMLWE
 70
    -2
  9
$DIMTMOVE
 70
     2
  9
$LUNITS
 70
     2
  9
$LUPREC
 70
     3
  9
$SKETCHINC
 40
0.1
  9
$FILLETRAD
 40
0.5
  9
$AUNITS
 70
     0
  9
$AUPREC
 70
     0
  9
$MENU
  1
.
  9
$ELEVATION
 40
0.0
  9
$PELEVATION
 40
0.0
  9
$THICKNESS
 40
0.0
  9
$LIMCHECK
 70
     0
  9
$CHAMFERA
 40
0.5
  9
$CHAMFERB
 40
0.5
  9
$CHAMFERC
 40
1.0
  9
$CHAMFERD
 40
0.0
  9
$SKPOLY
 70
     0
  9
$TDCREATE
 40
2458254.629055486
  9
$TDUCREATE
 40
2458254.545722153
  9
$TDUPDATE
 40
2458254.629055498
  9
$TDUUPDATE
 40
2458254.545722164
  9
$TDINDWG
 40
0.0000000116
  9
$TDUSRTIMER
 40
0.0000000116
  9
$USRTIMER
 70
     1
  9
$ANGBASE
 50
0.0
  9
$ANGDIR
 70
     0
  9
$PDMODE
 70
     0
  9
$PDSIZE
 40
0.0
  9
$PLINEWID
 40
0.0
  9
$SPLFRAME
 70
     0
  9
$SPLINETYPE
 70
     6
  9
$SPLINESEGS
 70
     8
  9
$HANDSEED
  5
153
  9
$SURFTAB1
 70
     6
  9
$SURFTAB2
 70
     6
  9
$SURFTYPE
 70
     6
  9
$SURFU
 70
     6
  9
$SURFV
 70
     6
  9
$UCSBASE
  2

  9
$UCSNAME
  2

  9
$UCSORG
 10
0.0
 20
0.0
 30
0.0
  9
$UCSXDIR
 10
1.0
 20
0.0
 30
0.0
  9
$UCSYDIR
 10
0.0
 20
1.0
 30
0.0
  9
$UCSORTHOREF
  2

  9
$UCSORTHOVIEW
 70
     0
  9
$UCSORGTOP
 10
0.0
 20
0.0
 30
0.0
  9
$UCSORGBOTTOM
 10
0.0
 20
0.0
 30
0.0
  9
$UCSORGLEFT
 10
0.0
 20
0.0
 30
0.0
  9
$UCSORGRIGHT
 10
0.0
 20
0.0
 30
0.0
  9
$UCSORGFRONT
 10
0.0
 20
0.0
 30
0.0
  9
$UCSORGBACK
 10
0.0
 20
0.0
 30
0.0
  9
$PUCSBASE
  2

  9
$PUCSNAME
  2

  9
$PUCSORG
 10
0.0
 20
0.0
 30
0.0
  9
$PUCSXDIR
 10
1.0
 20
0.0
 30
0.0
  9
$PUCSYDIR
 10
0.0
 20
1.0
 30
0.0
  9
$PUCSORTHOREF
  2

  9
$PUCSORTHOVIEW
 70
     0
  9
$PUCSORGTOP
 10
0.0
 20
0.0
 30
0.0
  9
$PUCSORGBOTTOM
 10
0.0
 20
0.0
 30
0.0
  9
$PUCSORGLEFT
 10
0.0
 20
0.0
 30
0.0
  9
$PUCSORGRIGHT
 10
0.0
 20
0.0
 30
0.0
  9
$PUCSORGFRONT
 10
0.0
 20
0.0
 30
0.0
  9
$PUCSORGBACK
 10
0.0
 20
0.0
 30
0.0
  9
$USERI1
 70
     0
  9
$USERI2
 70
     0
  9
$USERI3
 70
     0
  9
$USERI4
 70
     0
  9
$USERI5
 70
     0
  9
$USERR1
 40
0.0
  9
$USERR2
 40
0.0
  9
$USERR3
 40
0.0
  9
$USERR4
 40
0.0
  9
$USERR5
 40
0.0
  9
$WORLDVIEW
 70
     1
  9
$SHADEDGE
 70
     3
  9
$SHADEDIF
 70
    70
  9
$TILEMODE
 70
     0
  9
$MAXACTVP
 70
    64
  9
$PINSBASE
 10
0.0
 20
0.0
 30
0.0
  9
$PLIMCHECK
 70
     0
  9
$PEXTMIN
 10
0.0
 20
0.0
 30
0.0
  9
$PEXTMAX
 10
0.0
 20
0.0
 30
0.0
  9
$PLIMMIN
 10
0.0
 20
0.0
  9
$PLIMMAX
 10
12.0
 20
9.0
  9
$UNITMODE
 70
     0
  9
$VISRETAIN
 70
     1
  9
$PLINEGEN
 70
     0
  9
$PSLTSCALE
 70
     1
  9
$TREEDEPTH
 70
  3020
  9
$CMLSTYLE
  2
Standard
  9
$CMLJUST
 70
     0
  9
$CMLSCALE
 40
1.0
  9
$PROXYGRAPHICS
 70
     1
  9
$MEASUREMENT
 70
     0
  9
$CELWEIGHT
370
    -1
  9
$ENDCAPS
280
     0
  9
$JOINSTYLE
280
     0
  9
$LWDISPLAY
290
     0
  9
$INSUNITS
 70
     4
  9
$HYPERLINKBASE
  1

  9
$STYLESHEET
  1

  9
$XEDIT
290
     1
  9
$CEPSNTYPE
380
     0
  9
$PSTYLEMODE
290
     1
  9
$FINGERPRINTGUID
  2
{6B8C8ACD-BD0E-4F87-B6E8-0D8E5458BF5D}
  9
$VERSIONGUID
  2
{FAEB1C32-E019-11D5-929B-00C0DF256EC4}
  9
$EXTNAMES
290
     1
  9
$PSVPSCALE
 40
0.0
  9
$OLESTARTUP
290
     0
  9
$SORTENTS
280
   127
  9
$INDEXCTL
280
     0
  9
$HIDETEXT
280
     1
  9
$XCLIPFRAME
290
     0
  9
$HALOGAP
280
     0
  9
$OBSCOLOR
 70
   257
  9
$OBSLTYPE
280
     0
  9
$INTERSECTIONDISPLAY
280
     0
  9
$INTERSECTIONCOLOR
 70
   257
  9
$DIMASSOC
280
     2
  9
$PROJECTNAME
  1

  0
ENDSEC
  0
SECTION
  2
CLASSES
  0
CLASS
  1
ACDBDICTIONARYWDFLT
  2
AcDbDictionaryWithDefault
  3
ObjectDBX Classes
 90
        0
 91
        4
280
     0
281
     0
  0
CLASS
  1
VISUALSTYLE
  2
AcDbVisualStyle
  3
ObjectDBX Classes
 90
     4095
 91
        4
280
     0
281
     0
  0
CLASS
  1
SCALE
  2
AcDbScale
  3
ObjectDBX Classes
 90
     1153
 91
        4
280
     0
281
     0
  0
CLASS
  1
DICTIONARYVAR
  2
AcDbDictionaryVar
  3
ObjectDBX Classes
 90
        0
 91
        4
280
     0
281
     0
  0
ENDSEC
  0
SECTION
  2
TABLES
  0
TABLE
  2
VPORT
  5
8
330
0
100
AcDbSymbolTable
 70
     1
  0
VPORT
  5
29
330
8
100
AcDbSymbolTableRecord
100
AcDbViewportTableRecord
  2
*Active
 70
     0
 10
0.0
 20
0.0
 11
1.0
 21
1.0
 12
1916.403295415679
 22
241.4858722888334
 13
0.0
 23
0.0
 14
0.5
 24
0.5
 15
0.5
 25
0.5
 16
0.0
 26
0.0
 36
1.0
 17
0.0
 27
0.0
 37
0.0
 40
492.3829315837944
 41
7.939882698505318
 42
50.0
 43
0.0
 44
0.0
 50
0.0
 51
0.0
 71
     0
 72
   100
 73
     1
 74
     3
 75
     0
 76
     0
 77
     0
 78
     0
281
     0
 65
     1
110
0.0
120
0.0
130
0.0
111
1.0
121
0.0
131
0.0
112
0.0
122
1.0
132
0.0
 79
     0
146
0.0
  0
ENDTAB
  0
TABLE
  2
LTYPE
  5
5
330
0
100
AcDbSymbolTable
 70
     1
  0
LTYPE
  5
14
330
5
100
AcDbSymbolTableRecord
100
AcDbLinetypeTableRecord
  2
ByBlock
 70
     0
  3

 72
    65
 73
     0
 40
0.0
  0
LTYPE
  5
15
330
5
100
AcDbSymbolTableRecord
100
AcDbLinetypeTableRecord
  2
ByLayer
 70
     0
  3

 72
    65
 73
     0
 40
0.0
  0
LTYPE
  5
16
330
5
100
AcDbSymbolTableRecord
100
AcDbLinetypeTableRecord
  2
Continuous
 70
     0
  3
Solid line
 72
    65
 73
     0
 40
0.0
  0
ENDTAB
  0
TABLE
  2
LAYER
  5
2
330
0
100
AcDbSymbolTable
 70
     2
  0
LAYER
  5
10
330
2
100
AcDbSymbolTableRecord
100
AcDbLayerTableRecord
  2
0
 70
     0
 62
     7
  6
Continuous
370
    -3
390
F
  0
LAYER
  5
3B
330
2
100
AcDbSymbolTableRecord
100
AcDbLayerTableRecord
  2
Predefinito
 70
     0
 62
     7
  6
Continuous
370
    -3
390
F
  0
ENDTAB
  0
TABLE
  2
STYLE
  5
3
330
0
100
AcDbSymbolTable
 70
     1
  0
STYLE
  5
11
330
3
100
AcDbSymbolTableRecord
100
AcDbTextStyleTableRecord
  2
Standard
 70
     0
 40
0.0
 41
1.0
 50
0.0
 71
     0
 42
0.2
  3
txt
  4

  0
ENDTAB
  0
TABLE
  2
VIEW
  5
6
330
0
100
AcDbSymbolTable
 70
     0
  0
ENDTAB
  0
TABLE
  2
UCS
  5
7
330
0
100
AcDbSymbolTable
 70
     0
  0
ENDTAB
  0
TABLE
  2
APPID
  5
9
330
0
100
AcDbSymbolTable
 70
     1
  0
APPID
  5
12
330
9
100
AcDbSymbolTableRecord
100
AcDbRegAppTableRecord
  2
ACAD
 70
     0
  0
ENDTAB
  0
TABLE
  2
DIMSTYLE
  5
A
330
0
100
AcDbSymbolTable
 70
     1
100
AcDbDimStyleTable
  0
DIMSTYLE
105
27
330
A
100
AcDbSymbolTableRecord
100
AcDbDimStyleTableRecord
  2
Standard
 70
     0
340
11
  0
ENDTAB
  0
TABLE
  2
BLOCK_RECORD
  5
1
330
0
100
AcDbSymbolTable
 70
     3
  0
BLOCK_RECORD
  5
1F
330
1
100
AcDbSymbolTableRecord
100
AcDbBlockTableRecord
  2
*Model_Space
340
22
  0
BLOCK_RECORD
  5
128
330
1
100
AcDbSymbolTableRecord
100
AcDbBlockTableRecord
  2
*Paper_Space
340
129
  0
BLOCK_RECORD
  5
23
330
1
100
AcDbSymbolTableRecord
100
AcDbBlockTableRecord
  2
*Paper_Space0
340
26
  0
BLOCK_RECORD
  5
1B
330
1
100
AcDbSymbolTableRecord
100
AcDbBlockTableRecord
  2
*Paper_Space1
340
1E
  0
BLOCK_RECORD
  5
123
330
1
100
AcDbSymbolTableRecord
100
AcDbBlockTableRecord
  2
*Paper_Space2
340
124
  0
ENDTAB
  0
ENDSEC
  0
SECTION
  2
BLOCKS
  0
BLOCK
  5
20
330
1F
100
AcDbEntity
  8
0
100
AcDbBlockBegin
  2
*Model_Space
 70
     0
 10
0.0
 20
0.0
 30
0.0
  3
*Model_Space
  1

  0
ENDBLK
  5
21
330
1F
100
AcDbEntity
  8
0
100
AcDbBlockEnd
  0
BLOCK
  5
12A
330
128
100
AcDbEntity
 67
     1
  8
0
100
AcDbBlockBegin
  2
*Paper_Space
 70
     0
 10
0.0
 20
0.0
 30
0.0
  3
*Paper_Space
  1

  0
ENDBLK
  5
12B
330
128
100
AcDbEntity
 67
     1
  8
0
100
AcDbBlockEnd
  0
BLOCK
  5
24
330
23
100
AcDbEntity
  8
0
100
AcDbBlockBegin
  2
*Paper_Space0
 70
     0
 10
0.0
 20
0.0
 30
0.0
  3
*Paper_Space0
  1

  0
ENDBLK
  5
25
330
23
100
AcDbEntity
  8
0
100
AcDbBlockEnd
  0
BLOCK
  5
1C
330
1B
100
AcDbEntity
  8
0
100
AcDbBlockBegin
  2
*Paper_Space1
 70
     0
 10
0.0
 20
0.0
 30
0.0
  3
*Paper_Space1
  1

  0
ENDBLK
  5
1D
330
1B
100
AcDbEntity
  8
0
100
AcDbBlockEnd
  0
BLOCK
  5
125
330
123
100
AcDbEntity
  8
0
100
AcDbBlockBegin
  2
*Paper_Space2
 70
     0
 10
0.0
 20
0.0
 30
0.0
  3
*Paper_Space2
  1

  0
VIEWPORT
  5
127
330
123
100
AcDbEntity
  8
0
100
AcDbViewport
 10
6.0
 20
4.5
 30
0.0
 40
12.696
 41
9.522
 68
     1
 69
     1
 12
6.0
 22
4.5
 13
0.0
 23
0.0
 14
0.5
 24
0.5
 15
0.5
 25
0.5
 16
0.0
 26
0.0
 36
1.0
 17
0.0
 27
0.0
 37
0.0
 42
50.0
 43
0.0
 44
0.0
 45
9.522
 50
0.0
 51
0.0
 72
   100
 90
   557152
  1

281
     0
 71
     1
 74
     0
110
0.0
120
0.0
130
0.0
111
1.0
121
0.0
131
0.0
112
0.0
122
1.0
132
0.0
 79
     0
146
0.0
170
     0
  0
ENDBLK
  5
126
330
123
100
AcDbEntity
  8
0
100
AcDbBlockEnd
  0
ENDSEC
  0
SECTION
  2
ENTITIES
  0
LINE
  5
3C
330
1F
100
AcDbEntity
  8
Predefinito
100
AcDbLine
 10
2938.261011807715
 20
129.9022046026731
 30
0.0
 11
3764.356970234807
 21
129.9022046026731
 31
0.0
  0
LINE
  5
3D
330
1F
100
AcDbEntity
  8
Predefinito
100
AcDbLine
 10
2225.514004728234
 20
130.0086560965555
 30
0.0
 11
2938.053386916082
 21
130.0086560965555
 31
0.0
  0
LINE
  5
3E
330
1F
100
AcDbEntity
  8
Predefinito
100
AcDbLine
 10
2225.524516152532
 20
129.9022046026731
 30
0.0
 11
2935.356735558776
 21
129.9022046026731
 31
0.0
  0
LINE
  5
3F
330
1F
100
AcDbEntity
  8
Predefinito
100
AcDbLine
 10
2938.503369185008
 20
106.6151075899222
 30
0.0
 11
3764.114182057581
 21
106.6151075899222
 31
0.0
  0
LINE
  5
40
330
1F
100
AcDbEntity
  8
Predefinito
100
AcDbLine
 10
3765.188229764828
 20
106.5086560965555
 30
0.0
 11
2937.428972807395
 21
106.5086560965555
 31
0.0
  0
LINE
  5
41
330
1F
100
AcDbEntity
  8
Predefinito
100
AcDbLine
 10
2225.5243277704
 20
106.6151075899222
 30
0.0
 11
2935.114378181481
 21
106.6151075899222
 31
0.0
  0
LINE
  5
42
330
1F
100
AcDbEntity
  8
Predefinito
100
AcDbLine
 10
2936.188774559107
 20
106.5086560965555
 30
0.0
 11
2225.51377425754
 21
106.5086560965555
 31
0.0
  0
LINE
  5
43
330
1F
100
AcDbEntity
  8
Predefinito
100
AcDbLine
 10
3764.631026060728
 20
130.0086560965555
 30
0.0
 11
3806.806589298766
 21
130.0086560965555
 31
0.0
  0
LINE
  5
44
330
1F
100
AcDbEntity
  8
Predefinito
100
AcDbLine
 10
3767.26078187074
 20
129.9022046026731
 30
0.0
 11
3806.806589298766
 21
129.9022046026731
 31
0.0
  0
LINE
  5
45
330
1F
100
AcDbEntity
  8
Predefinito
100
AcDbLine
 10
3767.503570047964
 20
106.6151075899222
 30
0.0
 11
3806.806589298766
 21
106.6151075899222
 31
0.0
  0
LINE
  5
46
330
1F
100
AcDbEntity
  8
Predefinito
100
AcDbLine
 10
3806.806589298766
 20
106.5086560965555
 30
0.0
 11
3766.429522340728
 21
106.5086560965555
 31
0.0
  0
SPLINE
  5
47
330
1F
100
AcDbEntity
  8
Predefinito
100
AcDbSpline
210
0.0
220
0.0
230
1.0
 70
     8
 71
     2
 72
     6
 73
     3
 74
     0
 42
0.0000000001
 43
0.0000000001
 40
0.0
 40
0.0
 40
0.0
 40
5.702522527117233
 40
5.702522527117233
 40
5.702522527117233
 10
3806.904164881633
 20
108.4586560965555
 30
0.0
 10
3806.905099869103
 20
111.3099172068133
 30
0.0
 10
3806.906034856572
 20
118.2586560965594
 30
0.0
  0
SPLINE
  5
48
330
1F
100
AcDbEntity
  8
Predefinito
100
AcDbSpline
210
0.0
220
0.0
230
1.0
 70
     8
 71
     2
 72
     6
 73
     3
 74
     0
 42
0.0000000001
 43
0.0000000001
 40
0.0
 40
0.0
 40
0.0
 40
5.702522527109459
 40
5.702522527109459
 40
5.702522527109459
 10
3806.906034856572
 20
118.2586560965594
 30
0.0
 10
3806.905099869103
 20
125.2073949863017
 30
0.0
 10
3806.904164881633
 20
128.0586560965555
 30
0.0
  0
SPLINE
  5
49
330
1F
100
AcDbEntity
  8
Predefinito
100
AcDbSpline
210
0.0
220
0.0
230
1.0
 70
    12
 71
     2
 72
     6
 73
     3
 74
     0
 42
0.0000000001
 43
0.0000000001
 40
0.0
 40
0.0
 40
0.0
 40
0.5212623054378607
 40
0.5212623054378607
 40
0.5212623054378607
 10
116.8756928618857
 20
433.1123583793475
 30
0.0
 41
1.0
 10
117.1359816029747
 20
433.1258968445109
 30
0.0
 41
0.9999456709507246
 10
118.0334451184091
 20
433.1368849629947
 30
0.0
 41
1.0
  0
SPLINE
  5
4A
330
1F
100
AcDbEntity
  8
Predefinito
100
AcDbSpline
210
0.0
220
0.0
230
1.0
 70
    12
 71
     2
 72
     6
 73
     3
 74
     0
 42
0.0000000001
 43
0.0000000001
 40
0.0
 40
0.0
 40
0.0
 40
11.74283058774561
 40
11.74283058774561
 40
11.74283058774561
 10
118.0334451184091
 20
433.1368849629947
 30
0.0
 41
1.0
 10
124.6396040206737
 20
433.0513501202115
 30
0.0
 41
0.9754460283135633
 10
129.9917523128322
 20
430.4067724291083
 30
0.0
 41
1.0
  0
SPLINE
  5
4B
330
1F
100
AcDbEntity
  8
Predefinito
100
AcDbSpline
210
0.0
220
0.0
230
1.0
 70
    24
 71
     2
 72
     6
 73
     3
 74
     0
 42
0.0000000001
 43
0.0000000001
 40
0.0
 40
0.0
 40
0.0
 40
43.00146158227268
 40
43.00146158227268
 40
43.00146158227268
 10
0.3752374788778354
 20
439.8000544377521
 30
0.0
 10
0.1876195057348686
 20
461.2999666247605
 30
0.0
 10
0.0000015325919018
 20
482.7998788117689
 30
0.0
  0
SPLINE
  5
4C
330
1F
100
AcDbEntity
  8
Predefinito
100
AcDbSpline
210
0.0
220
0.0
230
1.0
 70
    24
 71
     2
 72
     6
 73
     3
 74
     0
 42
0.0000000001
 43
0.0000000001
 40
0.0
 40
0.0
 40
0.0
 40
43.00145929333076
 40
43.00145929333076
 40
43.00145929333076
 10
236.5862524635229
 20
482.7998765921166
 30
0.0
 10
236.398638465503
 20
461.2999655149343
 30
0.0
 10
236.2110244674832
 20
439.8000544377521
 30
0.0
  0
SPLINE
  5
4D
330
1F
100
AcDbEntity
  8
Predefinito
100
AcDbSpline
210
0.0
220
0.0
230
1.0
 70
    24
 71
     2
 72
     6
 73
     3
 74
     0
 42
0.0000000001
 43
0.0000000001
 40
0.0
 40
0.0
 40
0.0
 40
8.897178202593306
 40
8.897178202593306
 40
8.897178202593306
 10
130.126638611776
 20
439.2929459193641
 30
0.0
 10
130.0878178410215
 20
434.8445262067096
 30
0.0
 10
130.0489970702669
 20
430.3961064940551
 30
0.0
  0
SPLINE
  5
4E
330
1F
100
AcDbEntity
  8
Predefinito
100
AcDbSpline
210
0.0
220
0.0
230
1.0
 70
    12
 71
     2
 72
     6
 73
     3
 74
     0
 42
0.0000000001
 43
0.0000000001
 40
0.0
 40
0.0
 40
0.0
 40
0.4497735377241857
 40
0.4497735377241857
 40
0.4497735377241857
 10
130.0486516500526
 20
430.3564679147792
 30
0.0
 41
1.0
 10
130.0459110266335
 20
430.0774271131006
 30
0.0
 41
0.732722152023133
 10
129.7674282405255
 20
430.0595772430819
 30
0.0
 41
1.0
  0
SPLINE
  5
4F
330
1F
100
AcDbEntity
  8
Predefinito
100
AcDbSpline
210
0.0
220
0.0
230
1.0
 70
    24
 71
     2
 72
     6
 73
     3
 74
     0
 42
0.0000000001
 43
0.0000000001
 40
0.0
 40
0.0
 40
0.0
 40
0.5666666666668334
 40
0.5666666666668334
 40
0.5666666666668334
 10
94.29437712530284
 20
439.2667211044187
 30
0.0
 10
94.29437712530284
 20
439.5500544377521
 30
0.0
 10
94.29437712530284
 20
439.8333877710855
 30
0.0
  0
SPLINE
  5
50
330
1F
100
AcDbEntity
  8
Predefinito
100
AcDbSpline
210
0.0
220
0.0
230
1.0
 70
    12
 71
     2
 72
     6
 73
     3
 74
     0
 42
0.0000000001
 43
0.0000000001
 40
0.0
 40
0.0
 40
0.0
 40
0.0622854053000786
 40
0.0622854053000786
 40
0.0622854053000786
 10
106.8199545936998
 20
430.0602293683477
 30
0.0
 41
1.0
 10
106.78877710012
 20
430.0624861273103
 30
0.0
 41
0.9944256283189615
 10
106.7587661027717
 20
430.0712307888298
 30
0.0
 41
1.0
  0
SPLINE
  5
51
330
1F
100
AcDbEntity
  8
Predefinito
100
AcDbSpline
210
0.0
220
0.0
230
1.0
 70
    24
 71
     2
 72
     6
 73
     3
 74
     0
 42
0.0000000001
 43
0.0000000001
 40
0.0
 40
0.0
 40
0.0
 40
0.5666666666668334
 40
0.5666666666668334
 40
0.5666666666668334
 10
142.2943771253028
 20
439.8333877710855
 30
0.0
 10
142.2943771253028
 20
439.5500544377521
 30
0.0
 10
142.2943771253028
 20
439.2667211044187
 30
0.0
  0
SPLINE
  5
52
330
1F
100
AcDbEntity
  8
Predefinito
100
AcDbSpline
210
0.0
220
0.0
230
1.0
 70
    24
 71
     2
 72
     6
 73
     3
 74
     0
 42
0.0000000001
 43
0.0000000001
 40
0.0
 40
0.0
 40
0.0
 40
1.0
 40
1.0
 40
1.0
 10
124.2422530806541
 20
482.8500544377522
 30
0.0
 10
124.2422530806541
 20
482.3500544377522
 30
0.0
 10
124.2422530806541
 20
481.8500544377522
 30
0.0
  0
SPLINE
  5
53
330
1F
100
AcDbEntity
  8
Predefinito
100
AcDbSpline
210
0.0
220
0.0
230
1.0
 70
    24
 71
     2
 72
     6
 73
     3
 74
     0
 42
0.0000000001
 43
0.0000000001
 40
0.0
 40
0.0
 40
0.0
 40
0.0033004285374321
 40
0.0033004285374321
 40
0.0033004285374321
 10
106.4959196334023
 20
440.3463878850043
 30
0.0
 10
106.4947527557025
 20
440.3475547627041
 30
0.0
 10
106.4935858780027
 20
440.348721640404
 30
0.0
  0
SPLINE
  5
54
330
1F
100
AcDbEntity
  8
Predefinito
100
AcDbSpline
210
0.0
220
0.0
230
1.0
 70
    24
 71
     2
 72
     6
 73
     3
 74
     0
 42
0.0000000001
 43
0.0000000001
 40
0.0
 40
0.0
 40
0.0
 40
0.6637086526705234
 40
0.6637086526705234
 40
0.6637086526705234
 10
106.9922530806544
 20
439.8500544377522
 30
0.0
 10
106.7575966361366
 20
440.08471088227
 30
0.0
 10
106.5229401916189
 20
440.3193673267877
 30
0.0
  0
SPLINE
  5
55
330
1F
100
AcDbEntity
  8
Predefinito
100
AcDbSpline
210
0.0
220
0.0
230
1.0
 70
    24
 71
     2
 72
     6
 73
     3
 74
     0
 42
0.0000000001
 43
0.0000000001
 40
0.0
 40
0.0
 40
0.0
 40
41.5
 40
41.5
 40
41.5
 10
106.4922530806545
 20
440.3500544377522
 30
0.0
 10
106.4922530806545
 20
461.1000544377522
 30
0.0
 10
106.4922530806545
 20
481.8500544377522
 30
0.0
  0
SPLINE
  5
56
330
1F
100
AcDbEntity
  8
Predefinito
100
AcDbSpline
210
0.0
220
0.0
230
1.0
 70
    12
 71
     2
 72
     8
 73
     5
 74
     0
 42
0.0000000001
 43
0.0000000001
 40
0.0
 40
0.0
 40
0.0
 40
0.2736522878878631
 40
0.2736522878878631
 40
0.5473045757757261
 40
0.5473045757757261
 40
0.5473045757757261
 10
129.9965131724923
 20
430.4049261807369
 30
0.0
 41
1.0
 10
129.9942355138178
 20
430.2577916898758
 30
0.0
 41
0.8979903349217107
 10
129.8765655055415
 20
430.1694315445484
 30
0.0
 41
1.0
 10
129.7588954972652
 20
430.0810713992212
 30
0.0
 41
0.8979903349217107
 10
129.6169630813222
 20
430.1199164173654
 30
0.0
 41
1.0
  0
SPLINE
  5
57
330
1F
100
AcDbEntity
  8
Predefinito
100
AcDbSpline
210
0.0
220
0.0
230
1.0
 70
    24
 71
     2
 72
     6
 73
     3
 74
     0
 42
0.0000000001
 43
0.0000000001
 40
0.0
 40
0.0
 40
0.0
 40
8.933627893000569
 40
8.933627893000569
 40
8.933627893000569
 10
106.4878893238445
 20
430.4167463923789
 30
0.0
 10
106.4489095132224
 20
434.8833902562898
 30
0.0
 10
106.4099297026002
 20
439.3500341202007
 30
0.0
  0
SPLINE
  5
58
330
1F
100
AcDbEntity
  8
Predefinito
100
AcDbSpline
210
0.0
220
0.0
230
1.0
 70
    24
 71
     2
 72
     6
 73
     3
 74
     0
 42
0.0000000001
 43
0.0000000001
 40
0.0
 40
0.0
 40
0.0
 40
1.0
 40
1.0
 40
1.0
 10
112.2422530806549
 20
481.8500544377522
 30
0.0
 10
112.2422530806549
 20
482.3500544377522
 30
0.0
 10
112.2422530806549
 20
482.8500544377522
 30
0.0
  0
SPLINE
  5
59
330
1F
100
AcDbEntity
  8
Predefinito
100
AcDbSpline
210
0.0
220
0.0
230
1.0
 70
    24
 71
     2
 72
     6
 73
     3
 74
     0
 42
0.0000000001
 43
0.0000000001
 40
0.0
 40
0.0
 40
0.0
 40
0.6637086526704933
 40
0.6637086526704933
 40
0.6637086526704933
 10
129.9615659696901
 20
440.3193673267877
 30
0.0
 10
129.7269095251723
 20
440.08471088227
 30
0.0
 10
129.4922530806546
 20
439.8500544377522
 30
0.0
  0
SPLINE
  5
5A
330
1F
100
AcDbEntity
  8
Predefinito
100
AcDbSpline
210
0.0
220
0.0
230
1.0
 70
    24
 71
     2
 72
     6
 73
     3
 74
     0
 42
0.0000000001
 43
0.0000000001
 40
0.0
 40
0.0
 40
0.0
 40
41.5
 40
41.5
 40
41.5
 10
129.9922530806545
 20
481.8500544377522
 30
0.0
 10
129.9922530806545
 20
461.1000544377522
 30
0.0
 10
129.9922530806545
 20
440.3500544377522
 30
0.0
  0
SPLINE
  5
5B
330
1F
100
AcDbEntity
  8
Predefinito
100
AcDbSpline
210
0.0
220
0.0
230
1.0
 70
    24
 71
     2
 72
     6
 73
     3
 74
     0
 42
0.0000000001
 43
0.0000000001
 40
0.0
 40
0.0
 40
0.0
 40
0.5000000001759872
 40
0.5000000001759872
 40
0.5000000001759872
 10
127.7586268152528
 20
439.8500544377522
 30
0.0
 10
127.7586268152528
 20
439.6000544376642
 30
0.0
 10
127.7586268152528
 20
439.3500544375762
 30
0.0
  0
SPLINE
  5
5C
330
1F
100
AcDbEntity
  8
Predefinito
100
AcDbSpline
210
0.0
220
0.0
230
1.0
 70
    24
 71
     2
 72
     6
 73
     3
 74
     0
 42
0.0000000001
 43
0.0000000001
 40
0.0
 40
0.0
 40
0.0
 40
0.5000000001759872
 40
0.5000000001759872
 40
0.5000000001759872
 10
108.7561732819996
 20
439.3500544375762
 30
0.0
 10
108.7561732819996
 20
439.6000544376642
 30
0.0
 10
108.7561732819996
 20
439.8500544377522
 30
0.0
  0
SPLINE
  5
5D
330
1F
100
AcDbEntity
  8
Predefinito
100
AcDbSpline
210
0.0
220
0.0
230
1.0
 70
    12
 71
     2
 72
     8
 73
     5
 74
     0
 42
0.0000000001
 43
0.0000000001
 40
0.0
 40
0.0
 40
0.0
 40
0.2701717400878534
 40
0.2701717400878534
 40
0.5403434801757068
 40
0.5403434801757068
 40
0.5403434801757068
 10
106.8601620728014
 20
430.1179784502029
 30
0.0
 41
1.0
 10
106.7192699736594
 20
430.0839000333222
 30
0.0
 41
0.9009349240658339
 10
106.6047955185038
 20
430.1728242775673
 30
0.0
 41
1.0
 10
106.4903210633481
 20
430.2617485218126
 30
0.0
 41
0.9009349240658339
 10
106.4884938584105
 20
430.4066919018608
 30
0.0
 41
1.0
  0
SPLINE
  5
5E
330
1F
100
AcDbEntity
  8
Predefinito
100
AcDbSpline
210
0.0
220
0.0
230
1.0
 70
    24
 71
     2
 72
     6
 73
     3
 74
     0
 42
0.0000000001
 43
0.0000000001
 40
0.0
 40
0.0
 40
0.0
 40
8.933901433089675
 40
8.933901433089675
 40
8.933901433089675
 10
130.0745767724449
 20
439.3500739426904
 30
0.0
 10
130.0355957684031
 20
434.8832933139417
 30
0.0
 10
129.9966147643613
 20
430.4165126851931
 30
0.0
  0
SPLINE
  5
5F
330
1F
100
AcDbEntity
  8
Predefinito
100
AcDbSpline
210
0.0
220
0.0
230
1.0
 70
    24
 71
     2
 72
     6
 73
     3
 74
     0
 42
0.0000000001
 43
0.0000000001
 40
0.0
 40
0.0
 40
0.0
 40
90.9641862934721
 40
90.9641862934721
 40
90.9641862934721
 10
129.4560154638314
 20
439.8000544377521
 30
0.0
 10
174.9381086105675
 20
439.8000544377521
 30
0.0
 10
220.4202017573035
 20
439.8000544377521
 30
0.0
  0
SPLINE
  5
60
330
1F
100
AcDbEntity
  8
Predefinito
100
AcDbSpline
210
0.0
220
0.0
230
1.0
 70
    28
 71
     3
 72
    12
 73
     8
 74
     0
 42
0.0000000001
 43
0.0000000001
 40
-681.4343189630026
 40
-681.4343189630026
 40
-681.4343189630026
 40
-681.4343189630026
 40
-648.321050296042
 40
-600.156295871372
 40
-555.703757396608
 40
-511.251218921844
 40
-505.2420065036818
 40
-505.2420065036818
 40
-505.2420065036818
 40
-505.2420065036818
 10
0.3953008675037182
 20
439.8000544377521
 30
0.0
 41
1.0
 10
0.1922342143158395
 20
439.8000544377521
 30
0.0
 41
1.0
 10
3.478699154362135
 20
439.8000544377521
 30
0.0
 41
1.0
 10
22.70888333572726
 20
439.8000544377521
 30
0.0
 41
1.0
 10
57.91953480302845
 20
439.8000544377521
 30
0.0
 41
1.0
 10
88.33298634696513
 20
439.8000544377521
 30
0.0
 41
1.0
 10
105.0346479700121
 20
439.8000544377521
 30
0.0
 41
1.0
 10
107.0284905908583
 20
439.8000544377521
 30
0.0
 41
1.0
  0
SPLINE
  5
61
330
1F
100
AcDbEntity
  8
Predefinito
100
AcDbSpline
210
0.0
220
0.0
230
1.0
 70
    24
 71
     2
 72
     6
 73
     3
 74
     0
 42
0.0000000001
 43
0.0000000001
 40
0.0
 40
0.0
 40
0.0
 40
15.77050532068517
 40
15.77050532068517
 40
15.77050532068517
 10
220.4202017573035
 20
439.8000544377521
 30
0.0
 10
228.3054544176461
 20
439.8000544377521
 30
0.0
 10
236.1907070779887
 20
439.8000544377521
 30
0.0
  0
SPLINE
  5
62
330
1F
100
AcDbEntity
  8
Predefinito
100
AcDbSpline
210
0.0
220
0.0
230
1.0
 70
    24
 71
     2
 72
     6
 73
     3
 74
     0
 42
0.0000000001
 43
0.0000000001
 40
0.0
 40
0.0
 40
0.0
 40
15.82068957978714
 40
15.82068957978714
 40
15.82068957978714
 10
220.7451823930016
 20
482.8000544377521
 30
0.0
 10
228.6555271828951
 20
482.8000544377521
 30
0.0
 10
236.5658719727887
 20
482.8000544377521
 30
0.0
  0
SPLINE
  5
63
330
1F
100
AcDbEntity
  8
Predefinito
100
AcDbSpline
210
0.0
220
0.0
230
1.0
 70
    24
 71
     2
 72
     6
 73
     3
 74
     0
 42
0.0000000001
 43
0.0000000001
 40
0.0
 40
0.0
 40
0.0
 40
96.5457982728222
 40
96.5457982728222
 40
96.5457982728222
 10
124.1993841201794
 20
482.8000544377521
 30
0.0
 10
172.4722832565905
 20
482.8000544377521
 30
0.0
 10
220.7451823930016
 20
482.8000544377521
 30
0.0
  0
SPLINE
  5
64
330
1F
100
AcDbEntity
  8
Predefinito
100
AcDbSpline
210
0.0
220
0.0
230
1.0
 70
    28
 71
     3
 72
    12
 73
     8
 74
     0
 42
0.0000000001
 43
0.0000000001
 40
-681.4343189630026
 40
-681.4343189630026
 40
-681.4343189630026
 40
-681.4343189630026
 40
-648.321050296042
 40
-600.156295871372
 40
-555.703757396608
 40
-511.251218921844
 40
-499.9795512814518
 40
-499.9795512814518
 40
-499.9795512814518
 40
-499.9795512814518
 10
0.0201272335232306
 20
482.8000544377521
 30
0.0
 41
1.0
 10
-0.1835856100898658
 20
482.8000544377521
 30
0.0
 41
1.0
 10
3.113337384706532
 20
482.8000544377521
 30
0.0
 41
1.0
 10
22.40471507420155
 20
482.8000544377521
 30
0.0
 41
1.0
 10
57.72741244114086
 20
482.8000544377521
 30
0.0
 41
1.0
 10
89.92926252881368
 20
482.8000544377521
 30
0.0
 41
1.0
 10
108.4928441740985
 20
482.8000544377521
 30
0.0
 41
1.0
 10
112.257146865195
 20
482.8000544377521
 30
0.0
 41
1.0
  0
SPLINE
  5
65
330
1F
100
AcDbEntity
  8
Predefinito
100
AcDbSpline
210
0.0
220
0.0
230
1.0
 70
    12
 71
     2
 72
     6
 73
     3
 74
     0
 42
0.0000000001
 43
0.0000000001
 40
0.0
 40
0.0
 40
0.0
 40
0.051839297079425
 40
0.051839297079425
 40
0.051839297079425
 10
129.9823849937477
 20
430.3877428740491
 30
0.0
 41
1.0
 10
130.0056465550509
 20
430.376308951569
 30
0.0
 41
0.9999925906756864
 10
130.0288193979978
 20
430.3646962788662
 30
0.0
 41
1.0
  0
SPLINE
  5
66
330
1F
100
AcDbEntity
  8
Predefinito
100
AcDbSpline
210
0.0
220
0.0
230
1.0
 70
    24
 71
     2
 72
     6
 73
     3
 74
     0
 42
0.0000000001
 43
0.0000000001
 40
0.0
 40
0.0
 40
0.0
 40
12.11627963897416
 40
12.11627963897416
 40
12.11627963897416
 10
94.29437712530284
 20
439.2667211044188
 30
0.0
 10
100.3525169447899
 20
439.2667211044188
 30
0.0
 10
106.410656764277
 20
439.2667211044188
 30
0.0
  0
SPLINE
  5
67
330
1F
100
AcDbEntity
  8
Predefinito
100
AcDbSpline
210
0.0
220
0.0
230
1.0
 70
    24
 71
     2
 72
     6
 73
     3
 74
     0
 42
0.0000000001
 43
0.0000000001
 40
0.0
 40
0.0
 40
0.0
 40
12.16839663987463
 40
12.16839663987463
 40
12.16839663987463
 10
130.1259804854282
 20
439.2667211044187
 30
0.0
 10
136.2101788053655
 20
439.2667211044187
 30
0.0
 10
142.2943771253028
 20
439.2667211044188
 30
0.0
  0
SPLINE
  5
68
330
1F
100
AcDbEntity
  8
Predefinito
100
AcDbSpline
210
0.0
220
0.0
230
1.0
 70
    12
 71
     2
 72
     6
 73
     3
 74
     0
 42
0.0000000001
 43
0.0000000001
 40
0.0
 40
0.0
 40
0.0
 40
12.04967509999429
 40
12.04967509999429
 40
12.04967509999429
 10
118.2587355537737
 20
432.8046002678908
 30
0.0
 41
1.0
 10
124.402984510215
 20
432.8045807396927
 30
0.0
 41
0.9711013374784442
 10
129.8472446327647
 20
429.9564538188682
 30
0.0
 41
1.0
  0
SPLINE
  5
69
330
1F
100
AcDbEntity
  8
Predefinito
100
AcDbSpline
210
0.0
220
0.0
230
1.0
 70
    12
 71
     2
 72
     8
 73
     5
 74
     0
 42
0.0000000001
 43
0.0000000001
 40
0.0
 40
0.0
 40
0.0
 40
35.92219932456975
 40
35.92219932456975
 40
71.84439864913952
 40
71.84439864913952
 40
71.84439864913952
 10
118.2586560965517
 20
430.6733826249676
 30
0.0
 41
1.0
 10
95.38987373960123
 20
430.6733826249676
 30
0.0
 41
0.707106781186546
 10
95.38987373960121
 20
407.8046002680172
 30
0.0
 41
1.0
 10
95.38987373960126
 20
384.9358179110667
 30
0.0
 41
0.7071067811865495
 10
118.2586560965517
 20
384.9358179110666
 30
0.0
 41
1.0
  0
SPLINE
  5
6A
330
1F
100
AcDbEntity
  8
Predefinito
100
AcDbSpline
210
0.0
220
0.0
230
1.0
 70
    12
 71
     2
 72
     8
 73
     5
 74
     0
 42
0.0000000001
 43
0.0000000001
 40
0.0
 40
0.0
 40
0.0
 40
39.06367235835721
 40
39.06367235835721
 40
78.12734471671442
 40
78.12734471671442
 40
78.12734471671442
 10
118.2586560965517
 20
382.935970215835
 30
0.0
 41
1.0
 10
93.38994989221862
 20
382.9358940636841
 30
0.0
 41
0.7071067811931785
 10
93.3898737396013
 20
407.8046002680172
 30
0.0
 41
1.0
 10
93.38994989221862
 20
432.6733064723502
 30
0.0
 41
0.7071067811931778
 10
118.2586560965517
 20
432.6732303201992
 30
0.0
 41
1.0
  0
SPLINE
  5
6B
330
1F
100
AcDbEntity
  8
Predefinito
100
AcDbSpline
210
0.0
220
0.0
230
1.0
 70
    12
 71
     2
 72
     6
 73
     3
 74
     0
 42
0.0000000001
 43
0.0000000001
 40
0.0
 40
0.0
 40
0.0
 40
12.04975455720787
 40
12.04975455720787
 40
12.04975455720787
 10
106.6700675603462
 20
429.9564538188721
 30
0.0
 41
1.0
 10
112.1143650117343
 20
432.8046002680171
 30
0.0
 41
0.9711009582000737
 10
118.2586560965517
 20
432.8046002680171
 30
0.0
 41
1.0
  0
SPLINE
  5
6C
330
1F
100
AcDbEntity
  8
Predefinito
100
AcDbSpline
210
0.0
220
0.0
230
1.0
 70
    12
 71
     2
 72
     8
 73
     5
 74
     0
 42
0.0000000001
 43
0.0000000001
 40
0.0
 40
0.0
 40
0.0
 40
33.24503089126434
 40
33.24503089126434
 40
66.4899930975436
 40
66.4899930975436
 40
66.4899930975436
 10
118.2586560965517
 20
382.8046002680171
 30
0.0
 41
1.0
 10
137.8583412573493
 20
382.8046002680171
 30
0.0
 41
0.7869781059207486
 10
142.5361800515526
 20
401.8378733080866
 30
0.0
 41
1.0
 10
147.2140056114186
 20
420.8710925000507
 30
0.0
 41
0.786978953466517
 10
129.8473054927102
 20
429.9564219803034
 30
0.0
 41
1.0
  0
SPLINE
  5
6D
330
1F
100
AcDbEntity
  8
Predefinito
100
AcDbSpline
210
0.0
220
0.0
230
1.0
 70
    12
 71
     2
 72
     8
 73
     5
 74
     0
 42
0.0000000001
 43
0.0000000001
 40
0.0
 40
0.0
 40
0.0
 40
33.07973495755449
 40
33.07973495755449
 40
66.32476584882349
 40
66.32476584882349
 40
66.32476584882349
 10
106.5238574795692
 20
429.8793483168368
 30
0.0
 41
1.0
 10
89.33506065875791
 20
420.741890950875
 30
0.0
 41
0.789013490487674
 10
93.98113214154944
 20
401.8378733080908
 30
0.0
 41
1.0
 10
98.65897093575039
 20
382.804600268017
 30
0.0
 41
0.7869781059206953
 10
118.2586560965517
 20
382.8046002680171
 30
0.0
 41
1.0
  0
SPLINE
  5
6E
330
1F
100
AcDbEntity
  8
Predefinito
100
AcDbSpline
210
0.0
220
0.0
230
1.0
 70
    12
 71
     2
 72
     8
 73
     5
 74
     0
 42
0.0000000001
 43
0.0000000001
 40
0.0
 40
0.0
 40
0.0
 40
35.92219932456977
 40
35.92219932456977
 40
71.84439864913963
 40
71.84439864913963
 40
71.84439864913963
 10
118.2586560965517
 20
384.9358179110666
 30
0.0
 41
1.0
 10
141.1274384535022
 20
384.9358179110666
 30
0.0
 41
0.7071067811865471
 10
141.1274384535022
 20
407.8046002680171
 30
0.0
 41
1.0
 10
141.1274384535024
 20
430.6733826249678
 30
0.0
 41
0.7071067811865445
 10
118.2586560965517
 20
430.6733826249676
 30
0.0
 41
1.0
  0
SPLINE
  5
6F
330
1F
100
AcDbEntity
  8
Predefinito
100
AcDbSpline
210
0.0
220
0.0
230
1.0
 70
    12
 71
     2
 72
     8
 73
     5
 74
     0
 42
0.0000000001
 43
0.0000000001
 40
0.0
 40
0.0
 40
0.0
 40
39.06367235835729
 40
39.06367235835729
 40
78.12734471671459
 40
78.12734471671459
 40
78.12734471671459
 10
118.2586560965517
 20
432.6732303201992
 30
0.0
 41
1.0
 10
143.1273623008849
 20
432.6733064723502
 30
0.0
 41
0.7071067811931773
 10
143.1274384535023
 20
407.8046002680171
 30
0.0
 41
1.0
 10
143.1273623008848
 20
382.935894063684
 30
0.0
 41
0.7071067811931776
 10
118.2586560965517
 20
382.935970215835
 30
0.0
 41
1.0
  0
SPLINE
  5
70
330
1F
100
AcDbEntity
  8
Predefinito
100
AcDbSpline
210
0.0
220
0.0
230
1.0
 70
    28
 71
     2
 72
     8
 73
     5
 74
     0
 42
0.0000000001
 43
0.0000000001
 40
-1.668971097219581
 40
-1.668971097219581
 40
-1.668971097219581
 40
-1.5707963267949
 40
-1.5707963267949
 40
0.0
 40
0.0
 40
0.0
 10
106.4949186753509
 20
440.350054437752
 30
0.0
 41
0.9656765759202985
 10
106.491071556305
 20
440.3500544377522
 30
0.0
 41
0.9816941738241592
 10
106.5347590404317
 20
440.3500544377522
 30
0.0
 41
1.0
 10
107.5051980129271
 20
440.3500544377522
 30
0.0
 41
0.707106781186548
 10
119.2126920531499
 20
440.3500544377522
 30
0.0
 41
1.0
  0
SPLINE
  5
71
330
1F
100
AcDbEntity
  8
Predefinito
100
AcDbSpline
210
0.0
220
0.0
230
1.0
 70
    24
 71
     2
 72
     6
 73
     3
 74
     0
 42
0.0000000001
 43
0.0000000001
 40
0.0
 40
0.0
 40
0.0
 40
5.447237962125513
 40
5.447237962125513
 40
5.447237962125513
 10
118.7521461448888
 20
482.8500544377522
 30
0.0
 10
121.4757651259515
 20
482.8500544377522
 30
0.0
 10
124.1993841070143
 20
482.8500544377522
 30
0.0
  0
SPLINE
  5
72
330
1F
100
AcDbEntity
  8
Predefinito
100
AcDbSpline
210
0.0
220
0.0
230
1.0
 70
    28
 71
     2
 72
     8
 73
     5
 74
     0
 42
0.0000000001
 43
0.0000000001
 40
-10.60287520586556
 40
-10.60287520586556
 40
-10.60287520586556
 40
-9.42477796076938
 40
-9.42477796076938
 40
0.0
 40
0.0
 40
0.0
 10
112.2571469023385
 20
482.850054437752
 30
0.0
 41
0.9359296083845574
 10
112.2019882112424
 20
482.850054437752
 30
0.0
 41
0.9633883476483185
 10
112.2474335019609
 20
482.8500544377522
 30
0.0
 41
1.0
 10
112.7427642180413
 20
482.8500544377522
 30
0.0
 41
0.707106781186548
 10
118.7234466266274
 20
482.8500544377522
 30
0.0
 41
1.0
  0
SPLINE
  5
73
330
1F
100
AcDbEntity
  8
Predefinito
100
AcDbSpline
210
0.0
220
0.0
230
1.0
 70
    24
 71
     2
 72
     6
 73
     3
 74
     0
 42
0.0000000001
 43
0.0000000001
 40
0.0
 40
0.0
 40
0.0
 40
10.77689543280816
 40
10.77689543280816
 40
10.77689543280816
 10
119.2126920531499
 20
440.3500544377522
 30
0.0
 10
124.601139769554
 20
440.3500544377522
 30
0.0
 10
129.9895874859581
 20
440.3500544377522
 30
0.0
  0
SPLINE
  5
74
330
1F
100
AcDbEntity
  8
Predefinito
100
AcDbSpline
210
0.0
220
0.0
230
1.0
 70
    24
 71
     2
 72
     6
 73
     3
 74
     0
 42
0.0000000001
 43
0.0000000001
 40
0.0
 40
0.0
 40
0.0
 40
10.7511567079306
 40
10.7511567079306
 40
10.7511567079306
 10
119.2407936647808
 20
481.8500544377522
 30
0.0
 10
124.6163720187461
 20
481.8500544377522
 30
0.0
 10
129.9919503727114
 20
481.8500544377522
 30
0.0
  0
SPLINE
  5
75
330
1F
100
AcDbEntity
  8
Predefinito
100
AcDbSpline
210
0.0
220
0.0
230
1.0
 70
    28
 71
     2
 72
     8
 73
     5
 74
     0
 42
0.0000000001
 43
0.0000000001
 40
54.22092809625395
 40
54.22092809625395
 40
54.22092809625395
 40
55.3705705195201
 40
55.3705705195201
 40
73.8274273593601
 40
73.8274273593601
 40
73.8274273593601
 10
106.492779404558
 20
481.8500544377524
 30
0.0
 41
0.9658751966217681
 10
106.4877853552828
 20
481.8500544377522
 30
0.0
 41
0.981800104864943
 10
106.5301012587935
 20
481.8500544377522
 30
0.0
 41
1.0
 10
107.4724386196582
 20
481.8500544377522
 30
0.0
 41
0.707106781186548
 10
119.1845904415187
 20
481.8500544377522
 30
0.0
 41
1.0
  0
SPLINE
  5
76
330
1F
100
AcDbEntity
  8
Predefinito
100
AcDbSpline
210
0.0
220
0.0
230
1.0
 70
    24
 71
     2
 72
     6
 73
     3
 74
     0
 42
0.0000000001
 43
0.0000000001
 40
0.0
 40
0.0
 40
0.0
 40
12.11600028133242
 40
12.11600028133242
 40
12.11600028133242
 10
119.1444909793547
 20
439.8500544377522
 30
0.0
 10
113.0864908386884
 20
439.8500544377522
 30
0.0
 10
107.0284906980222
 20
439.8500544377522
 30
0.0
  0
SPLINE
  5
77
330
1F
100
AcDbEntity
  8
Predefinito
100
AcDbSpline
210
0.0
220
0.0
230
1.0
 70
    28
 71
     2
 72
     6
 73
     3
 74
     0
 42
0.0000000001
 43
0.0000000001
 40
-53.0143760293278
 40
-53.0143760293278
 40
-53.0143760293278
 40
-35.3429173528852
 40
-35.3429173528852
 40
-35.3429173528852
 10
129.4560154632877
 20
439.8500544377522
 30
0.0
 41
1.0
 10
130.3582533619877
 20
439.8500544377522
 30
0.0
 41
0.707106781186548
 10
119.1444909793547
 20
439.8500544377522
 30
0.0
 41
1.0
  0
SPLINE
  5
78
330
1F
100
AcDbEntity
  8
Predefinito
100
AcDbSpline
210
0.0
220
0.0
230
1.0
 70
    24
 71
     2
 72
     6
 73
     3
 74
     0
 42
0.0000000001
 43
0.0000000001
 40
0.0
 40
0.0
 40
0.0
 40
11.77203982433895
 40
11.77203982433895
 40
11.77203982433895
 10
106.4702135598378
 20
439.3500544381405
 30
0.0
 10
112.3562334720072
 20
439.3500544379464
 30
0.0
 10
118.2422533841767
 20
439.3500544377522
 30
0.0
  0
SPLINE
  5
79
330
1F
100
AcDbEntity
  8
Predefinito
100
AcDbSpline
210
0.0
220
0.0
230
1.0
 70
    12
 71
     2
 72
     6
 73
     3
 74
     0
 42
0.0000000001
 43
0.0000000001
 40
0.0
 40
0.0
 40
0.0
 40
11.8089946269477
 40
11.8089946269477
 40
11.8089946269477
 10
118.2679026138535
 20
439.350054115057
 30
0.0
 41
1.0
 10
124.1723999273274
 20
439.3500540520086
 30
0.0
 41
0.9999999999999997
 10
130.0768972408012
 20
439.3500542581637
 30
0.0
 41
1.0
  0
SPLINE
  5
7A
330
1F
100
AcDbEntity
  8
Predefinito
100
AcDbSpline
210
0.0
220
0.0
230
1.0
 70
    24
 71
     2
 72
     6
 73
     3
 74
     0
 42
0.0000000001
 43
0.0000000001
 40
0.0
 40
0.0
 40
0.0
 40
43.00145929160185
 40
43.00145929160185
 40
43.00145929160185
 10
2226.0959108484
 20
482.7998765902595
 30
0.0
 10
2225.908296843041
 20
461.2999655140058
 30
0.0
 10
2225.720682837682
 20
439.8000544377521
 30
0.0
  0
SPLINE
  5
7B
330
1F
100
AcDbEntity
  8
Predefinito
100
AcDbSpline
210
0.0
220
0.0
230
1.0
 70
    24
 71
     2
 72
     6
 73
     3
 74
     0
 42
0.0000000001
 43
0.0000000001
 40
0.0
 40
0.0
 40
0.0
 40
43.00145966485461
 40
43.00145966485461
 40
43.00145966485461
 10
1989.88770585795
 20
439.8000544377521
 30
0.0
 10
1989.700092371106
 20
461.299965705164
 30
0.0
 10
1989.512478884263
 20
482.7998769725759
 30
0.0
  0
SPLINE
  5
7C
330
1F
100
AcDbEntity
  8
Predefinito
100
AcDbSpline
210
0.0
220
0.0
230
1.0
 70
     8
 71
     3
 72
    13
 73
     9
 74
     0
 42
0.0000000001
 43
0.0000000001
 40
0.0
 40
0.0
 40
0.0
 40
0.0
 40
0.3091106036038792
 40
2.123931538981722
 40
5.979135443925835
 40
11.99958385308649
 40
17.72187128447489
 40
24.28350043326271
 40
24.28350043326271
 40
24.28350043326271
 40
24.28350043326271
 10
2119.555493908593
 20
433.0828923780374
 30
0.0
 10
2119.577454223924
 20
432.930061536117
 30
0.0
 10
2118.949205092932
 20
432.6069920378057
 30
0.0
 10
2117.100341415326
 20
431.8512021310997
 30
0.0
 10
2113.416823220217
 20
430.5768358538672
 30
0.0
 10
2108.227608707139
 20
429.8055495372845
 30
0.0
 10
2102.120061995241
 20
430.5037333138463
 30
0.0
 10
2098.249902473429
 20
431.9148706407901
 30
0.0
 10
2096.25761499443
 20
432.8132218071846
 30
0.0
  0
SPLINE
  5
7D
330
1F
100
AcDbEntity
  8
Predefinito
100
AcDbSpline
210
0.0
220
0.0
230
1.0
 70
    24
 71
     2
 72
     6
 73
     3
 74
     0
 42
0.0000000001
 43
0.0000000001
 40
0.0
 40
0.0
 40
0.0
 40
0.6786973032780443
 40
0.6786973032780443
 40
0.6786973032780443
 10
2948.538785148764
 20
440.3299659032729
 30
0.0
 10
2948.298829416003
 20
440.0900101705125
 30
0.0
 10
2948.058873683243
 20
439.8500544377521
 30
0.0
  0
SPLINE
  5
7E
330
1F
100
AcDbEntity
  8
Predefinito
100
AcDbSpline
210
0.0
220
0.0
230
1.0
 70
    24
 71
     2
 72
     6
 73
     3
 74
     0
 42
0.0000000001
 43
0.0000000001
 40
0.0
 40
0.0
 40
0.0
 40
41.5
 40
41.5
 40
41.5
 10
2948.558873683243
 20
481.8500544377521
 30
0.0
 10
2948.558873683243
 20
461.1000544377521
 30
0.0
 10
2948.558873683243
 20
440.3500544377521
 30
0.0
  0
SPLINE
  5
7F
330
1F
100
AcDbEntity
  8
Predefinito
100
AcDbSpline
210
0.0
220
0.0
230
1.0
 70
    24
 71
     2
 72
     6
 73
     3
 74
     0
 42
0.0000000001
 43
0.0000000001
 40
0.0
 40
0.0
 40
0.0
 40
1.0
 40
1.0
 40
1.0
 10
2942.808873683242
 20
482.8500544377521
 30
0.0
 10
2942.808873683242
 20
482.3500544377521
 30
0.0
 10
2942.808873683242
 20
481.8500544377521
 30
0.0
  0
SPLINE
  5
80
330
1F
100
AcDbEntity
  8
Predefinito
100
AcDbSpline
210
0.0
220
0.0
230
1.0
 70
    24
 71
     2
 72
     6
 73
     3
 74
     0
 42
0.0000000001
 43
0.0000000001
 40
0.0
 40
0.0
 40
0.0
 40
0.5000000001760441
 40
0.5000000001760441
 40
0.5000000001760441
 10
2946.306367149877
 20
439.8500544377521
 30
0.0
 10
2946.306367149877
 20
439.6000544376641
 30
0.0
 10
2946.306367149877
 20
439.3500544375761
 30
0.0
  0
SPLINE
  5
81
330
1F
100
AcDbEntity
  8
Predefinito
100
AcDbSpline
210
0.0
220
0.0
230
1.0
 70
     8
 71
     3
 72
    14
 73
    10
 74
     0
 42
0.0000000001
 43
0.0000000001
 40
0.0
 40
0.0
 40
0.0
 40
0.0
 40
3.375616699366153
 40
6.439014507966796
 40
12.24350029538579
 40
18.27702244293161
 40
22.04429146977202
 40
23.96991991702579
 40
24.26891995315155
 40
24.26891995315155
 40
24.26891995315155
 40
24.26891995315155
 10
2948.355289567192
 20
432.8632218072972
 30
0.0
 10
2947.33052532565
 20
432.3987541957527
 30
0.0
 10
2945.337173820971
 20
431.5961088074438
 30
0.0
 10
2941.419887705931
 20
430.4358669203505
 30
0.0
 10
2936.449124460266
 20
429.8508665905088
 30
0.0
 10
2931.256342529882
 20
430.6163083775222
 30
0.0
 10
2927.557795784219
 20
431.8831896756889
 30
0.0
 10
2925.706808919033
 20
432.6434269393246
 30
0.0
 10
2925.04336030026
 20
432.9720729153198
 30
0.0
 10
2925.058581903684
 20
433.1187456516736
 30
0.0
  0
SPLINE
  5
82
330
1F
100
AcDbEntity
  8
Predefinito
100
AcDbSpline
210
0.0
220
0.0
230
1.0
 70
    24
 71
     2
 72
     6
 73
     3
 74
     0
 42
0.0000000001
 43
0.0000000001
 40
0.0
 40
0.0
 40
0.0
 40
16.10021869676211
 40
16.10021869676211
 40
16.10021869676211
 10
2050.306589298767
 20
432.8046002680171
 30
0.0
 10
2058.356698647149
 20
432.8046002680171
 30
0.0
 10
2066.40680799553
 20
432.8046002680171
 30
0.0
  0
SPLINE
  5
83
330
1F
100
AcDbEntity
  8
Predefinito
100
AcDbSpline
210
0.0
220
0.0
230
1.0
 70
    24
 71
     2
 72
     6
 73
     3
 74
     0
 42
0.0000000001
 43
0.0000000001
 40
0.0
 40
0.0
 40
0.0
 40
0.5525330968618339
 40
0.5525330968618339
 40
0.5525330968618339
 10
2050.834952278058
 20
383.3138228781158
 30
0.0
 10
2050.55872780636
 20
383.3090013620331
 30
0.0
 10
2050.282503334663
 20
383.3041798459504
 30
0.0
  0
SPLINE
  5
84
330
1F
100
AcDbEntity
  8
Predefinito
100
AcDbSpline
210
0.0
220
0.0
230
1.0
 70
    24
 71
     2
 72
     6
 73
     3
 74
     0
 42
0.0000000001
 43
0.0000000001
 40
0.0
 40
0.0
 40
0.0
 40
0.5448021738084036
 40
0.5448021738084036
 40
0.5448021738084036
 10
3823.322945517274
 20
383.3043147691615
 30
0.0
 10
3823.050585918374
 20
383.3090688236387
 30
0.0
 10
3822.778226319475
 20
383.3138228781158
 30
0.0
  0
SPLINE
  5
85
330
1F
100
AcDbEntity
  8
Predefinito
100
AcDbSpline
210
0.0
220
0.0
230
1.0
 70
    24
 71
     2
 72
     6
 73
     3
 74
     0
 42
0.0000000001
 43
0.0000000001
 40
0.0
 40
0.0
 40
0.0
 40
16.10021869676257
 40
16.10021869676257
 40
16.10021869676257
 10
3807.206370602003
 20
432.8046002680171
 30
0.0
 10
3815.256479950384
 20
432.8046002680171
 30
0.0
 10
3823.306589298766
 20
432.8046002680171
 30
0.0
  0
SPLINE
  5
86
330
1F
100
AcDbEntity
  8
Predefinito
100
AcDbSpline
210
0.0
220
0.0
230
1.0
 70
    24
 71
     2
 72
     6
 73
     3
 74
     0
 42
0.0000000001
 43
0.0000000001
 40
0.0
 40
0.0
 40
0.0
 40
1771.999999999998
 40
1771.999999999998
 40
1771.999999999998
 10
3822.806589298766
 20
382.8046002680171
 30
0.0
 10
2936.806589298767
 20
382.8046002680171
 30
0.0
 10
2050.806589298767
 20
382.8046002680171
 30
0.0
  0
SPLINE
  5
87
330
1F
100
AcDbEntity
  8
Predefinito
100
AcDbSpline
210
0.0
220
0.0
230
1.0
 70
    24
 71
     2
 72
     6
 73
     3
 74
     0
 42
0.0000000001
 43
0.0000000001
 40
0.0
 40
0.0
 40
0.0
 40
29.71424404743857
 40
29.71424404743857
 40
29.71424404743857
 10
3777.092345251327
 20
432.8046002680171
 30
0.0
 10
3791.949467275046
 20
432.8046002680171
 30
0.0
 10
3806.806589298766
 20
432.8046002680171
 30
0.0
  0
SPLINE
  5
88
330
1F
100
AcDbEntity
  8
Predefinito
100
AcDbSpline
210
0.0
220
0.0
230
1.0
 70
    24
 71
     2
 72
     6
 73
     3
 74
     0
 42
0.0000000001
 43
0.0000000001
 40
0.0
 40
0.0
 40
0.0
 40
806.3599685428449
 40
806.3599685428449
 40
806.3599685428449
 10
2948.092342881798
 20
432.8046002680171
 30
0.0
 10
3351.27232715322
 20
432.8046002680171
 30
0.0
 10
3754.452311424643
 20
432.8046002680171
 30
0.0
  0
SPLINE
  5
89
330
1F
100
AcDbEntity
  8
Predefinito
100
AcDbSpline
210
0.0
220
0.0
230
1.0
 70
    24
 71
     2
 72
     6
 73
     3
 74
     0
 42
0.0000000001
 43
0.0000000001
 40
0.0
 40
0.0
 40
0.0
 40
806.2015183739568
 40
806.2015183739568
 40
806.2015183739568
 10
2119.250790681158
 20
432.8046002680171
 30
0.0
 10
2522.351549868137
 20
432.8046002680171
 30
0.0
 10
2925.452309055115
 20
432.8046002680171
 30
0.0
  0
SPLINE
  5
8A
330
1F
100
AcDbEntity
  8
Predefinito
100
AcDbSpline
210
0.0
220
0.0
230
1.0
 70
    24
 71
     2
 72
     6
 73
     3
 74
     0
 42
0.0000000001
 43
0.0000000001
 40
0.0
 40
0.0
 40
0.0
 40
29.57452107855124
 40
29.57452107855124
 40
29.57452107855124
 10
2066.806589298767
 20
432.8046002680171
 30
0.0
 10
2081.593849838043
 20
432.8046002680171
 30
0.0
 10
2096.381110377319
 20
432.8046002680171
 30
0.0
  0
SPLINE
  5
8B
330
1F
100
AcDbEntity
  8
Predefinito
100
AcDbSpline
210
0.0
220
0.0
230
1.0
 70
    24
 71
     2
 72
     6
 73
     3
 74
     0
 42
0.0000000001
 43
0.0000000001
 40
0.0
 40
0.0
 40
0.0
 40
0.678697303278165
 40
0.678697303278165
 40
0.678697303278165
 10
3777.538787518293
 20
440.3299659032731
 30
0.0
 10
3777.298831785532
 20
440.0900101705126
 30
0.0
 10
3777.058876052772
 20
439.8500544377522
 30
0.0
  0
SPLINE
  5
8C
330
1F
100
AcDbEntity
  8
Predefinito
100
AcDbSpline
210
0.0
220
0.0
230
1.0
 70
    24
 71
     2
 72
     6
 73
     3
 74
     0
 42
0.0000000001
 43
0.0000000001
 40
0.0
 40
0.0
 40
0.0
 40
41.5
 40
41.5
 40
41.5
 10
3777.558876052772
 20
481.8500544377522
 30
0.0
 10
3777.558876052772
 20
461.1000544377522
 30
0.0
 10
3777.558876052772
 20
440.3500544377522
 30
0.0
  0
SPLINE
  5
8D
330
1F
100
AcDbEntity
  8
Predefinito
100
AcDbSpline
210
0.0
220
0.0
230
1.0
 70
    24
 71
     2
 72
     6
 73
     3
 74
     0
 42
0.0000000001
 43
0.0000000001
 40
0.0
 40
0.0
 40
0.0
 40
1.0
 40
1.0
 40
1.0
 10
3771.808876052771
 20
482.8500544377522
 30
0.0
 10
3771.808876052771
 20
482.3500544377522
 30
0.0
 10
3771.808876052771
 20
481.8500544377522
 30
0.0
  0
SPLINE
  5
8E
330
1F
100
AcDbEntity
  8
Predefinito
100
AcDbSpline
210
0.0
220
0.0
230
1.0
 70
    24
 71
     2
 72
     6
 73
     3
 74
     0
 42
0.0000000001
 43
0.0000000001
 40
0.0
 40
0.0
 40
0.0
 40
0.5000000001759872
 40
0.5000000001759872
 40
0.5000000001759872
 10
3775.306369519406
 20
439.8500544377522
 30
0.0
 10
3775.306369519406
 20
439.6000544376642
 30
0.0
 10
3775.306369519406
 20
439.3500544375762
 30
0.0
  0
SPLINE
  5
8F
330
1F
100
AcDbEntity
  8
Predefinito
100
AcDbSpline
210
0.0
220
0.0
230
1.0
 70
     8
 71
     3
 72
    14
 73
    10
 74
     0
 42
0.0000000001
 43
0.0000000001
 40
0.0
 40
0.0
 40
0.0
 40
0.0
 40
3.375616699358144
 40
6.439014507966764
 40
12.24350029538084
 40
18.27702244292934
 40
22.04429146977235
 40
23.96991991702901
 40
24.26891995317717
 40
24.26891995317717
 40
24.26891995317717
 40
24.26891995317717
 10
3777.355291936721
 20
432.8632218072975
 30
0.0
 10
3776.330527695182
 20
432.398754195752
 30
0.0
 10
3774.337176190504
 20
431.5961088074432
 30
0.0
 10
3770.419890075477
 20
430.4358669203503
 30
0.0
 10
3765.449126829802
 20
429.8508665905081
 30
0.0
 10
3760.256344899414
 20
430.6163083775195
 30
0.0
 10
3756.557798153739
 20
431.8831896756905
 30
0.0
 10
3754.706811288547
 20
432.6434269393254
 30
0.0
 10
3754.043362669765
 20
432.9720729153287
 30
0.0
 10
3754.058584273208
 20
433.1187456516968
 30
0.0
  0
SPLINE
  5
90
330
1F
100
AcDbEntity
  8
Predefinito
100
AcDbSpline
210
0.0
220
0.0
230
1.0
 70
    24
 71
     2
 72
     6
 73
     3
 74
     0
 42
0.0000000001
 43
0.0000000001
 40
0.0
 40
0.0
 40
0.0
 40
176.8587067011999
 40
176.8587067011999
 40
176.8587067011999
 10
2048.841658535628
 20
439.8000544377521
 30
0.0
 10
2137.271011886228
 20
439.8000544377521
 30
0.0
 10
2225.700365236828
 20
439.8000544377521
 30
0.0
  0
SPLINE
  5
91
330
1F
100
AcDbEntity
  8
Predefinito
100
AcDbSpline
210
0.0
220
0.0
230
1.0
 70
    28
 71
     3
 72
    11
 73
     7
 74
     0
 42
0.0000000001
 43
0.0000000001
 40
-125.7305615663956
 40
-125.7305615663956
 40
-125.7305615663956
 40
-125.7305615663956
 40
-92.6172928994347
 40
-44.4525384747642
 40
-22.226269237382
 40
0.0
 40
0.0
 40
0.0
 40
0.0
 10
1989.907979838546
 20
439.8000544377521
 30
0.0
 41
1.0
 10
1989.703836648692
 20
439.8000544377521
 30
0.0
 41
1.0
 10
1992.988194074865
 20
439.8000544377521
 30
0.0
 41
1.0
 10
2008.814468404868
 20
439.8000544377521
 30
0.0
 41
1.0
 10
2030.295869173407
 20
439.8000544377521
 30
0.0
 41
1.0
 10
2042.425723600458
 20
439.8000544377521
 30
0.0
 41
1.0
 10
2048.841658535628
 20
439.8000544377521
 30
0.0
 41
1.0
  0
SPLINE
  5
92
330
1F
100
AcDbEntity
  8
Predefinito
100
AcDbSpline
210
0.0
220
0.0
230
1.0
 70
    28
 71
     3
 72
    11
 73
     7
 74
     0
 42
0.0000000001
 43
0.0000000001
 40
-125.7305615663956
 40
-125.7305615663956
 40
-125.7305615663956
 40
-125.7305615663956
 40
-92.6172928994347
 40
-44.4525384747642
 40
-22.226269237382
 40
0.0
 40
0.0
 40
0.0
 40
0.0
 10
1989.53281583129
 20
482.8000544377521
 30
0.0
 41
1.0
 10
1989.328023025299
 20
482.8000544377521
 30
0.0
 41
1.0
 10
1992.622831799779
 20
482.8000544377521
 30
0.0
 41
1.0
 10
2008.499467854748
 20
482.8000544377521
 30
0.0
 41
1.0
 10
2030.049225861067
 20
482.8000544377521
 30
0.0
 41
1.0
 10
2042.217679416367
 20
482.8000544377521
 30
0.0
 41
1.0
 10
2048.654030878128
 20
482.8000544377521
 30
0.0
 41
1.0
  0
SPLINE
  5
93
330
1F
100
AcDbEntity
  8
Predefinito
100
AcDbSpline
210
0.0
220
0.0
230
1.0
 70
    24
 71
     2
 72
     6
 73
     3
 74
     0
 42
0.0000000001
 43
0.0000000001
 40
0.0
 40
0.0
 40
0.0
 40
177.421499267522
 40
177.421499267522
 40
177.421499267522
 10
2048.654030878128
 20
482.8000544377521
 30
0.0
 10
2137.364780511889
 20
482.8000544377521
 30
0.0
 10
2226.07553014565
 20
482.8000544377521
 30
0.0
  0
SPLINE
  5
94
330
1F
100
AcDbEntity
  8
Predefinito
100
AcDbSpline
210
0.0
220
0.0
230
1.0
 70
    24
 71
     2
 72
     6
 73
     3
 74
     0
 42
0.0000000001
 43
0.0000000001
 40
0.0
 40
0.0
 40
0.0
 40
48.0
 40
48.0
 40
48.0
 10
2083.804030878127
 20
439.2667211044188
 30
0.0
 10
2107.804030878127
 20
439.2667211044188
 30
0.0
 10
2131.804030878127
 20
439.2667211044188
 30
0.0
  0
SPLINE
  5
95
330
1F
100
AcDbEntity
  8
Predefinito
100
AcDbSpline
210
0.0
220
0.0
230
1.0
 70
    24
 71
     2
 72
     6
 73
     3
 74
     0
 42
0.0000000001
 43
0.0000000001
 40
0.0
 40
0.0
 40
0.0
 40
6.20021596671153
 40
6.20021596671153
 40
6.20021596671153
 10
2095.997366154971
 20
439.2931817974668
 30
0.0
 10
2096.024433196205
 20
436.1931919775247
 30
0.0
 10
2096.05150023744
 20
433.0932021575825
 30
0.0
  0
SPLINE
  5
96
330
1F
100
AcDbEntity
  8
Predefinito
100
AcDbSpline
210
0.0
220
0.0
230
1.0
 70
    24
 71
     2
 72
     6
 73
     3
 74
     0
 42
0.0000000001
 43
0.0000000001
 40
0.0
 40
0.0
 40
0.0
 40
6.190515451848747
 40
6.190515451848747
 40
6.190515451848747
 10
2119.556588329197
 20
433.0931093033586
 30
0.0
 10
2119.583599195257
 20
436.1882491714437
 30
0.0
 10
2119.610610061317
 20
439.2833890395286
 30
0.0
  0
SPLINE
  5
97
330
1F
100
AcDbEntity
  8
Predefinito
100
AcDbSpline
210
0.0
220
0.0
230
1.0
 70
     8
 71
     3
 72
    11
 73
     7
 74
     0
 42
0.0000000001
 43
0.0000000001
 40
0.0
 40
0.0
 40
0.0
 40
0.0
 40
3.074108217578351
 40
6.24957668135125
 40
12.28458624591732
 40
24.19291040601433
 40
24.19291040601433
 40
24.19291040601433
 40
24.19291040601433
 10
2096.131157901464
 20
433.062351596438
 30
0.0
 10
2097.063863522443
 20
432.645915618154
 30
0.0
 10
2099.008957977406
 20
431.8668461673558
 30
0.0
 10
2102.934807291983
 20
430.7453409276575
 30
0.0
 10
2109.998278141432
 20
429.8384760320261
 30
0.0
 10
2115.916977551203
 20
431.4797739591298
 30
0.0
 10
2119.531079334711
 20
433.0776540156089
 30
0.0
  0
SPLINE
  5
98
330
1F
100
AcDbEntity
  8
Predefinito
100
AcDbSpline
210
0.0
220
0.0
230
1.0
 70
    12
 71
     2
 72
     6
 73
     3
 74
     0
 42
0.0000000001
 43
0.0000000001
 40
0.0
 40
0.0
 40
0.0
 40
0.0410914943897237
 40
0.0410914943897237
 40
0.0410914943897237
 10
2096.081893765776
 20
433.0840062783528
 30
0.0
 41
1.0
 10
2096.100749365495
 20
433.0758453884478
 30
0.0
 41
0.9999892741499199
 10
2096.119528561339
 20
433.0675101878963
 30
0.0
 41
1.0
  0
SPLINE
  5
99
330
1F
100
AcDbEntity
  8
Predefinito
100
AcDbSpline
210
0.0
220
0.0
230
1.0
 70
    12
 71
     2
 72
     6
 73
     3
 74
     0
 42
0.0000000001
 43
0.0000000001
 40
0.0
 40
0.0
 40
0.0
 40
0.3082190078704199
 40
0.3082190078704199
 40
0.3082190078704199
 10
2096.08384100407
 20
433.0517208948322
 30
0.0
 41
1.0
 10
2096.103006336253
 20
432.8834143104881
 30
0.0
 41
0.8699886740320191
 10
2096.257248602195
 20
432.8133876035232
 30
0.0
 41
1.0
  0
SPLINE
  5
9A
330
1F
100
AcDbEntity
  8
Predefinito
100
AcDbSpline
210
0.0
220
0.0
230
1.0
 70
    24
 71
     2
 72
     6
 73
     3
 74
     0
 42
0.0000000001
 43
0.0000000001
 40
0.0
 40
0.0
 40
0.0
 40
0.5666666666666629
 40
0.5666666666666629
 40
0.5666666666666629
 10
2131.804030878127
 20
439.8333877710854
 30
0.0
 10
2131.804030878127
 20
439.5500544377521
 30
0.0
 10
2131.804030878127
 20
439.2667211044188
 30
0.0
  0
SPLINE
  5
9B
330
1F
100
AcDbEntity
  8
Predefinito
100
AcDbSpline
210
0.0
220
0.0
230
1.0
 70
    24
 71
     2
 72
     6
 73
     3
 74
     0
 42
0.0000000001
 43
0.0000000001
 40
0.0
 40
0.0
 40
0.0
 40
0.5666666666666629
 40
0.5666666666666629
 40
0.5666666666666629
 10
2083.804030878127
 20
439.2667211044188
 30
0.0
 10
2083.804030878127
 20
439.5500544377521
 30
0.0
 10
2083.804030878127
 20
439.8333877710854
 30
0.0
  0
SPLINE
  5
9C
330
1F
100
AcDbEntity
  8
Predefinito
100
AcDbSpline
210
0.0
220
0.0
230
1.0
 70
    24
 71
     2
 72
     6
 73
     3
 74
     0
 42
0.0000000001
 43
0.0000000001
 40
0.0
 40
0.0
 40
0.0
 40
1.000000000099327
 40
1.000000000099327
 40
1.000000000099327
 10
2930.830557712489
 20
481.8500544377521
 30
0.0
 10
2930.830550665255
 20
482.3500544377521
 30
0.0
 10
2930.83054361802
 20
482.8500544377521
 30
0.0
  0
SPLINE
  5
9D
330
1F
100
AcDbEntity
  8
Predefinito
100
AcDbSpline
210
0.0
220
0.0
230
1.0
 70
    24
 71
     2
 72
     6
 73
     3
 74
     0
 42
0.0000000001
 43
0.0000000001
 40
0.0
 40
0.0
 40
0.0
 40
0.7043266768252614
 40
0.7043266768252614
 40
0.7043266768252614
 10
2925.099050752201
 20
440.3500544377521
 30
0.0
 10
2925.347081026406
 20
440.1000544377521
 30
0.0
 10
2925.59511130061
 20
439.8500544377521
 30
0.0
  0
SPLINE
  5
9E
330
1F
100
AcDbEntity
  8
Predefinito
100
AcDbSpline
210
0.0
220
0.0
230
1.0
 70
    24
 71
     2
 72
     6
 73
     3
 74
     0
 42
0.0000000001
 43
0.0000000001
 40
0.0
 40
0.0
 40
0.0
 40
23.41964586215136
 40
23.41964586215136
 40
23.41964586215136
 10
2925.099050752201
 20
440.3500544377521
 30
0.0
 10
2936.808873683277
 20
440.3500544377521
 30
0.0
 10
2948.518696614353
 20
440.3500544377521
 30
0.0
  0
SPLINE
  5
9F
330
1F
100
AcDbEntity
  8
Predefinito
100
AcDbSpline
210
0.0
220
0.0
230
1.0
 70
    24
 71
     2
 72
     6
 73
     3
 74
     0
 42
0.0000000001
 43
0.0000000001
 40
0.0
 40
0.0
 40
0.0
 40
6.207088868789177
 40
6.207088868789177
 40
6.207088868789177
 10
2948.561404323934
 20
433.1432021575826
 30
0.0
 10
2948.588501358831
 20
436.2466282976674
 30
0.0
 10
2948.615598393728
 20
439.3500544377521
 30
0.0
  0
SPLINE
  5
A0
330
1F
100
AcDbEntity
  8
Predefinito
100
AcDbSpline
210
0.0
220
0.0
230
1.0
 70
    12
 71
     2
 72
     6
 73
     3
 74
     0
 42
0.0000000001
 43
0.0000000001
 40
0.0
 40
0.0
 40
0.0
 40
0.0538136244151179
 40
0.0538136244151179
 40
0.0538136244151179
 10
2948.481746659905
 20
433.1123515964379
 30
0.0
 41
1.0
 10
2948.506322688123
 20
433.123306426864
 30
0.0
 41
0.9999866060659383
 10
2948.531010795597
 20
433.1340062783528
 30
0.0
 41
1.0
  0
SPLINE
  5
A1
330
1F
100
AcDbEntity
  8
Predefinito
100
AcDbSpline
210
0.0
220
0.0
230
1.0
 70
     8
 71
     3
 72
    14
 73
    10
 74
     0
 42
0.0000000001
 43
0.0000000001
 40
0.0
 40
0.0
 40
0.0
 40
0.0
 40
0.4696881356407485
 40
1.323560277347143
 40
3.142349336364974
 40
6.34332535252555
 40
11.93815374507978
 40
17.97238806572894
 40
24.19517291477102
 40
24.19517291477102
 40
24.19517291477102
 40
24.19517291477102
 10
2925.056316232176
 20
433.1431093033586
 30
0.0
 10
2925.194192117328
 20
433.0692438714849
 30
0.0
 10
2925.598432909212
 20
432.8916498484293
 30
0.0
 10
2926.567497555569
 20
432.4943360134186
 30
0.0
 10
2928.406455607765
 20
431.8201208401371
 30
0.0
 10
2931.80028032881
 20
430.8109104047277
 30
0.0
 10
2936.736036754613
 20
430.161808210087
 30
0.0
 10
2942.686652034068
 20
430.9219455593507
 30
0.0
 10
2946.562763495743
 20
432.2489897083724
 30
0.0
 10
2948.456475383776
 20
433.1012124134036
 30
0.0
  0
SPLINE
  5
A2
330
1F
100
AcDbEntity
  8
Predefinito
100
AcDbSpline
210
0.0
220
0.0
230
1.0
 70
    24
 71
     2
 72
     6
 73
     3
 74
     0
 42
0.0000000001
 43
0.0000000001
 40
0.0
 40
0.0
 40
0.0
 40
11.94673734278604
 40
11.94673734278604
 40
11.94673734278604
 10
2930.83054361802
 20
482.8500544377521
 30
0.0
 10
2936.803912289413
 20
482.8500544377521
 30
0.0
 10
2942.777280960806
 20
482.8500544377521
 30
0.0
  0
SPLINE
  5
A3
330
1F
100
AcDbEntity
  8
Predefinito
100
AcDbSpline
210
0.0
220
0.0
230
1.0
 70
    24
 71
     2
 72
     6
 73
     3
 74
     0
 42
0.0000000001
 43
0.0000000001
 40
0.0
 40
0.0
 40
0.0
 40
41.50000006534612
 40
41.50000006534612
 40
41.50000006534612
 10
2948.516367723465
 20
481.8500544377521
 30
0.0
 10
2948.517532168875
 20
461.1000544377521
 30
0.0
 10
2948.518696614285
 20
440.3500544377521
 30
0.0
  0
SPLINE
  5
A4
330
1F
100
AcDbEntity
  8
Predefinito
100
AcDbSpline
210
0.0
220
0.0
230
1.0
 70
    24
 71
     2
 72
     6
 73
     3
 74
     0
 42
0.0000000001
 43
0.0000000001
 40
0.0
 40
0.0
 40
0.0
 40
41.49999980396144
 40
41.49999980396144
 40
41.49999980396144
 10
2925.099050752201
 20
440.3500544377521
 30
0.0
 10
2925.100215197604
 20
461.1000543070597
 30
0.0
 10
2925.101379643006
 20
481.8500541763674
 30
0.0
  0
SPLINE
  5
A5
330
1F
100
AcDbEntity
  8
Predefinito
100
AcDbSpline
210
0.0
220
0.0
230
1.0
 70
    24
 71
     2
 72
     6
 73
     3
 74
     0
 42
0.0000000001
 43
0.0000000001
 40
0.0
 40
0.0
 40
0.0
 40
23.45694233149516
 40
23.45694233149516
 40
23.45694233149516
 10
2925.101379643021
 20
481.8500544377521
 30
0.0
 10
2936.829850808768
 20
481.8500544377521
 30
0.0
 10
2948.558321974516
 20
481.8500544377521
 30
0.0
  0
SPLINE
  5
A6
330
1F
100
AcDbEntity
  8
Predefinito
100
AcDbSpline
210
0.0
220
0.0
230
1.0
 70
    28
 71
     2
 72
     8
 73
     5
 74
     0
 42
0.0000000001
 43
0.0000000001
 40
-35.3429173528852
 40
-35.3429173528852
 40
-35.3429173528852
 40
-17.6714586764426
 40
-17.6714586764426
 40
0.0
 40
0.0
 40
0.0
 10
2948.022636065875
 20
439.8500544377521
 30
0.0
 41
1.0
 10
2948.924873964576
 20
439.8500544377521
 30
0.0
 41
0.707106781186548
 10
2937.711111581943
 20
439.8500544377521
 30
0.0
 41
1.0
 10
2926.49734919931
 20
439.8500544377521
 30
0.0
 41
0.707106781186548
 10
2925.59511130061
 20
439.8500544377521
 30
0.0
 41
1.0
  0
SPLINE
  5
A7
330
1F
100
AcDbEntity
  8
Predefinito
100
AcDbSpline
210
0.0
220
0.0
230
1.0
 70
    24
 71
     2
 72
     6
 73
     3
 74
     0
 42
0.0000000001
 43
0.0000000001
 40
0.0
 40
0.0
 40
0.0
 40
0.5000000001173817
 40
0.5000000001173817
 40
0.5000000001173817
 10
2927.339474337909
 20
439.8500544377521
 30
0.0
 10
2927.339474337909
 20
439.6000544376934
 30
0.0
 10
2927.339474337909
 20
439.3500544376348
 30
0.0
  0
SPLINE
  5
A8
330
1F
100
AcDbEntity
  8
Predefinito
100
AcDbSpline
210
0.0
220
0.0
230
1.0
 70
    12
 71
     2
 72
     6
 73
     3
 74
     0
 42
0.0000000001
 43
0.0000000001
 40
0.0
 40
0.0
 40
0.0
 40
0.3405780040323956
 40
0.3405780040323956
 40
0.3405780040323956
 10
2948.355655959437
 20
432.8633876036407
 30
0.0
 41
1.0
 10
2948.52996432492
 20
432.9425620286352
 30
0.0
 41
0.8421782131733367
 10
2948.531010795597
 20
433.1340062783528
 30
0.0
 41
1.0
  0
SPLINE
  5
A9
330
1F
100
AcDbEntity
  8
Predefinito
100
AcDbSpline
210
0.0
220
0.0
230
1.0
 70
    24
 71
     2
 72
     6
 73
     3
 74
     0
 42
0.0000000001
 43
0.0000000001
 40
0.0
 40
0.0
 40
0.0
 40
6.207181485302351
 40
6.207181485302351
 40
6.207181485302351
 10
2925.056316232176
 20
433.1431093033586
 30
0.0
 10
2925.029232660429
 20
436.2465818709853
 30
0.0
 10
2925.002149088683
 20
439.350054438612
 30
0.0
  0
SPLINE
  5
AA
330
1F
100
AcDbEntity
  8
Predefinito
100
AcDbSpline
210
0.0
220
0.0
230
1.0
 70
    24
 71
     2
 72
     6
 73
     3
 74
     0
 42
0.0000000001
 43
0.0000000001
 40
0.0
 40
0.0
 40
0.0
 40
23.61344930504492
 40
23.61344930504492
 40
23.61344930504492
 10
2925.002149088683
 20
439.350054438612
 30
0.0
 10
2936.808873741205
 20
439.350054438182
 30
0.0
 10
2948.615598393728
 20
439.3500544377521
 30
0.0
  0
SPLINE
  5
AB
330
1F
100
AcDbEntity
  8
Predefinito
100
AcDbSpline
210
0.0
220
0.0
230
1.0
 70
    24
 71
     2
 72
     6
 73
     3
 74
     0
 42
0.0000000001
 43
0.0000000001
 40
0.0
 40
0.0
 40
0.0
 40
2.84814644914502
 40
2.84814644914502
 40
2.84814644914502
 10
2050.306589298767
 20
429.9564538188721
 30
0.0
 10
2050.306589298768
 20
431.3805270434446
 30
0.0
 10
2050.306589298768
 20
432.8046002680171
 30
0.0
  0
SPLINE
  5
AC
330
1F
100
AcDbEntity
  8
Predefinito
100
AcDbSpline
210
0.0
220
0.0
230
1.0
 70
    24
 71
     2
 72
     6
 73
     3
 74
     0
 42
0.0000000001
 43
0.0000000001
 40
0.0
 40
0.0
 40
0.0
 40
47.15185355085498
 40
47.15185355085498
 40
47.15185355085498
 10
2050.306589298767
 20
382.8046002680171
 30
0.0
 10
2050.306589298767
 20
406.3805270434446
 30
0.0
 10
2050.306589298767
 20
429.9564538188721
 30
0.0
  0
SPLINE
  5
AD
330
1F
100
AcDbEntity
  8
Predefinito
100
AcDbSpline
210
0.0
220
0.0
230
1.0
 70
    24
 71
     2
 72
     6
 73
     3
 74
     0
 42
0.0000000001
 43
0.0000000001
 40
0.0
 40
0.0
 40
0.0
 40
49.73726010436417
 40
49.73726010436417
 40
49.73726010436417
 10
2042.789136892332
 20
382.935970215835
 30
0.0
 10
2042.789136892332
 20
407.8046002680171
 30
0.0
 10
2042.789136892332
 20
432.6732303201992
 30
0.0
  0
SPLINE
  5
AE
330
1F
100
AcDbEntity
  8
Predefinito
100
AcDbSpline
210
0.0
220
0.0
230
1.0
 70
    24
 71
     2
 72
     6
 73
     3
 74
     0
 42
0.0000000001
 43
0.0000000001
 40
0.0
 40
0.0
 40
0.0
 40
16.25894298840876
 40
16.25894298840876
 40
16.25894298840876
 10
2066.565532287176
 20
429.7827294717529
 30
0.0
 10
2058.436060792972
 20
429.782729471753
 30
0.0
 10
2050.306589298767
 20
429.7827294717531
 30
0.0
  0
SPLINE
  5
AF
330
1F
100
AcDbEntity
  8
Predefinito
100
AcDbSpline
210
0.0
220
0.0
230
1.0
 70
    24
 71
     2
 72
     6
 73
     3
 74
     0
 42
0.0000000001
 43
0.0000000001
 40
0.0
 40
0.0
 40
0.0
 40
16.24760912164269
 40
16.24760912164269
 40
16.24760912164269
 10
2050.306589298767
 20
429.9564538188721
 30
0.0
 10
2058.430393859512
 20
429.9564185828835
 30
0.0
 10
2066.554198420257
 20
429.9563833468949
 30
0.0
  0
SPLINE
  5
B0
330
1F
100
AcDbEntity
  8
Predefinito
100
AcDbSpline
210
0.0
220
0.0
230
1.0
 70
    24
 71
     2
 72
     6
 73
     3
 74
     0
 42
0.0000000001
 43
0.0000000001
 40
0.0
 40
0.0
 40
0.0
 40
2.752458750690072
 40
2.752458750690072
 40
2.752458750690072
 10
2066.554915158183
 20
430.014258176871
 30
0.0
 10
2066.482888877837
 20
431.3886014776885
 30
0.0
 10
2066.41086259749
 20
432.762944778506
 30
0.0
  0
SPLINE
  5
B1
330
1F
100
AcDbEntity
  8
Predefinito
100
AcDbSpline
210
0.0
220
0.0
230
1.0
 70
    12
 71
     2
 72
     6
 73
     3
 74
     0
 42
0.0000000001
 43
0.0000000001
 40
0.0
 40
0.0
 40
0.0
 40
0.1737608373433268
 40
0.1737608373433268
 40
0.1737608373433268
 10
2066.565532287176
 20
429.7827294717529
 30
0.0
 41
1.0
 10
2066.561971340026
 20
429.8695379555502
 30
0.0
 41
0.9999815137461406
 10
2066.559466310161
 20
429.9563833240461
 30
0.0
 41
1.0
  0
SPLINE
  5
B2
330
1F
100
AcDbEntity
  8
Predefinito
100
AcDbSpline
210
0.0
220
0.0
230
1.0
 70
    24
 71
     2
 72
     6
 73
     3
 74
     0
 42
0.0000000001
 43
0.0000000001
 40
0.0
 40
0.0
 40
0.0
 40
0.3280242398537442
 40
0.3280242398537442
 40
0.3280242398537442
 10
2066.584173918546
 20
429.4552353626281
 30
0.0
 10
2066.574853102861
 20
429.6189824171905
 30
0.0
 10
2066.565532287176
 20
429.7827294717529
 30
0.0
  0
SPLINE
  5
B3
330
1F
100
AcDbEntity
  8
Predefinito
100
AcDbSpline
210
0.0
220
0.0
230
1.0
 70
    24
 71
     2
 72
     6
 73
     3
 74
     0
 42
0.0000000001
 43
0.0000000001
 40
0.0
 40
0.0
 40
0.0
 40
0.5247602659024384
 40
0.5247602659024384
 40
0.5247602659024384
 10
2050.282515224694
 20
429.3288812546779
 30
0.0
 10
2050.544861369658
 20
429.3246581763781
 30
0.0
 10
2050.807207514621
 20
429.3204350980783
 30
0.0
  0
SPLINE
  5
B4
330
1F
100
AcDbEntity
  8
Predefinito
100
AcDbSpline
210
0.0
220
0.0
230
1.0
 70
    12
 71
     2
 72
     8
 73
     5
 74
     0
 42
0.0000000001
 43
0.0000000001
 40
0.0
 40
0.0
 40
0.0
 40
1.565231165537835
 40
1.565231165537835
 40
3.130462331075671
 40
3.130462331075671
 40
3.130462331075671
 10
2040.806589298767
 20
430.6733826249676
 30
0.0
 41
1.0
 10
2040.800431331711
 20
431.4992148731315
 30
0.0
 41
0.9232828773517932
 10
2041.381856821821
 20
432.0857139968445
 30
0.0
 41
1.0
 10
2041.963282311931
 20
432.6722131205576
 30
0.0
 41
0.9232828773517932
 10
2042.789136892332
 20
432.6732303201993
 30
0.0
 41
1.0
  0
SPLINE
  5
B5
330
1F
100
AcDbEntity
  8
Predefinito
100
AcDbSpline
210
0.0
220
0.0
230
1.0
 70
    24
 71
     2
 72
     6
 73
     3
 74
     0
 42
0.0000000001
 43
0.0000000001
 40
0.0
 40
0.0
 40
0.0
 40
45.73756471390101
 40
45.73756471390101
 40
45.73756471390101
 10
2040.806589298767
 20
384.9358179110666
 30
0.0
 10
2040.806589298767
 20
407.8046002680171
 30
0.0
 10
2040.806589298767
 20
430.6733826249676
 30
0.0
  0
SPLINE
  5
B6
330
1F
100
AcDbEntity
  8
Predefinito
100
AcDbSpline
210
0.0
220
0.0
230
1.0
 70
    12
 71
     2
 72
     8
 73
     5
 74
     0
 42
0.0000000001
 43
0.0000000001
 40
0.0
 40
0.0
 40
0.0
 40
1.565231165537761
 40
1.565231165537761
 40
3.130462331075523
 40
3.130462331075523
 40
3.130462331075523
 10
2042.789136892332
 20
382.935970215835
 30
0.0
 41
1.0
 10
2041.963282311931
 20
382.9369874154768
 30
0.0
 41
0.9232828773517959
 10
2041.381856821821
 20
383.5234865391898
 30
0.0
 41
1.0
 10
2040.800431331711
 20
384.1099856629028
 30
0.0
 41
0.9232828773517959
 10
2040.806589298767
 20
384.9358179110666
 30
0.0
 41
1.0
  0
SPLINE
  5
B7
330
1F
100
AcDbEntity
  8
Predefinito
100
AcDbSpline
210
0.0
220
0.0
230
1.0
 70
    24
 71
     2
 72
     6
 73
     3
 74
     0
 42
0.0000000001
 43
0.0000000001
 40
0.0
 40
0.0
 40
0.0
 40
7.518600185287529
 40
7.518600185287529
 40
7.518600185287529
 10
2050.306589298767
 20
432.8046002680171
 30
0.0
 10
2046.54786309555
 20
432.7389152941082
 30
0.0
 10
2042.789136892332
 20
432.6732303201992
 30
0.0
  0
SPLINE
  5
B8
330
1F
100
AcDbEntity
  8
Predefinito
100
AcDbSpline
210
0.0
220
0.0
230
1.0
 70
    24
 71
     2
 72
     6
 73
     3
 74
     0
 42
0.0000000001
 43
0.0000000001
 40
0.0
 40
0.0
 40
0.0
 40
7.518600185287529
 40
7.518600185287529
 40
7.518600185287529
 10
2042.789136892332
 20
382.935970215835
 30
0.0
 10
2046.54786309555
 20
382.8702852419261
 30
0.0
 10
2050.306589298767
 20
382.8046002680171
 30
0.0
  0
SPLINE
  5
B9
330
1F
100
AcDbEntity
  8
Predefinito
100
AcDbSpline
210
0.0
220
0.0
230
1.0
 70
    24
 71
     2
 72
     6
 73
     3
 74
     0
 42
0.0000000001
 43
0.0000000001
 40
0.0
 40
0.0
 40
0.0
 40
45.73756471390101
 40
45.73756471390101
 40
45.73756471390101
 10
3832.806589298766
 20
430.6733826249676
 30
0.0
 10
3832.806589298766
 20
407.8046002680171
 30
0.0
 10
3832.806589298766
 20
384.9358179110666
 30
0.0
  0
SPLINE
  5
BA
330
1F
100
AcDbEntity
  8
Predefinito
100
AcDbSpline
210
0.0
220
0.0
230
1.0
 70
    24
 71
     2
 72
     6
 73
     3
 74
     0
 42
0.0000000001
 43
0.0000000001
 40
0.0
 40
0.0
 40
0.0
 40
49.73726010436417
 40
49.73726010436417
 40
49.73726010436417
 10
3830.824041705202
 20
382.935970215835
 30
0.0
 10
3830.824041705202
 20
407.8046002680171
 30
0.0
 10
3830.824041705202
 20
432.6732303201992
 30
0.0
  0
SPLINE
  5
BB
330
1F
100
AcDbEntity
  8
Predefinito
100
AcDbSpline
210
0.0
220
0.0
230
1.0
 70
    12
 71
     2
 72
     6
 73
     3
 74
     0
 42
0.0000000001
 43
0.0000000001
 40
0.0
 40
0.0
 40
0.0
 40
0.173764060701785
 40
0.173764060701785
 40
0.173764060701785
 10
3807.047646310356
 20
429.7827294717531
 30
0.0
 41
1.0
 10
3807.049621973457
 20
429.8695933317856
 30
0.0
 41
0.9999258638226595
 10
3807.053712287371
 20
429.9563833240461
 30
0.0
 41
1.0
  0
SPLINE
  5
BC
330
1F
100
AcDbEntity
  8
Predefinito
100
AcDbSpline
210
0.0
220
0.0
230
1.0
 70
    24
 71
     2
 72
     6
 73
     3
 74
     0
 42
0.0000000001
 43
0.0000000001
 40
0.0
 40
0.0
 40
0.0
 40
0.3280242398538835
 40
0.3280242398538835
 40
0.3280242398538835
 10
3807.029004678986
 20
429.4552353626281
 30
0.0
 10
3807.038325494671
 20
429.6189824171906
 30
0.0
 10
3807.047646310356
 20
429.7827294717531
 30
0.0
  0
SPLINE
  5
BD
330
1F
100
AcDbEntity
  8
Predefinito
100
AcDbSpline
210
0.0
220
0.0
230
1.0
 70
    12
 71
     2
 72
     6
 73
     3
 74
     0
 42
0.0000000001
 43
0.0000000001
 40
0.0
 40
0.0
 40
0.0
 40
0.5247602409982722
 40
0.5247602409982722
 40
0.5247602409982722
 10
3823.330663372841
 20
429.3288812546525
 30
0.0
 41
1.0
 10
3823.068317243556
 20
429.3246579759568
 30
0.0
 41
0.9999999999997503
 10
3822.805971108306
 20
429.3204350679436
 30
0.0
 41
1.0
  0
SPLINE
  5
BE
330
1F
100
AcDbEntity
  8
Predefinito
100
AcDbSpline
210
0.0
220
0.0
230
1.0
 70
    24
 71
     2
 72
     6
 73
     3
 74
     0
 42
0.0000000001
 43
0.0000000001
 40
0.0
 40
0.0
 40
0.0
 40
16.25894298840922
 40
16.25894298840922
 40
16.25894298840922
 10
3807.047646310356
 20
429.7827294717531
 30
0.0
 10
3815.177117804561
 20
429.7827294717531
 30
0.0
 10
3823.306589298766
 20
429.7827294717531
 30
0.0
  0
SPLINE
  5
BF
330
1F
100
AcDbEntity
  8
Predefinito
100
AcDbSpline
210
0.0
220
0.0
230
1.0
 70
    24
 71
     2
 72
     6
 73
     3
 74
     0
 42
0.0000000001
 43
0.0000000001
 40
0.0
 40
0.0
 40
0.0
 40
7.517817665087476
 40
7.517817665087476
 40
7.517817665087476
 10
3823.307371699509
 20
432.8045865953073
 30
0.0
 10
3827.065706702355
 20
432.7389084577533
 30
0.0
 10
3830.824041705202
 20
432.6732303201992
 30
0.0
  0
SPLINE
  5
C0
330
1F
100
AcDbEntity
  8
Predefinito
100
AcDbSpline
210
0.0
220
0.0
230
1.0
 70
    24
 71
     2
 72
     6
 73
     3
 74
     0
 42
0.0000000001
 43
0.0000000001
 40
0.0
 40
0.0
 40
0.0
 40
2.803361042521999
 40
2.803361042521999
 40
2.803361042521999
 10
3823.306589298766
 20
429.9564538188721
 30
0.0
 10
3823.306589298766
 20
431.3581343401331
 30
0.0
 10
3823.306589298766
 20
432.7598148613941
 30
0.0
  0
SPLINE
  5
C1
330
1F
100
AcDbEntity
  8
Predefinito
100
AcDbSpline
210
0.0
220
0.0
230
1.0
 70
    24
 71
     2
 72
     6
 73
     3
 74
     0
 42
0.0000000001
 43
0.0000000001
 40
0.0
 40
0.0
 40
0.0
 40
7.518600185288893
 40
7.518600185288893
 40
7.518600185288893
 10
3830.824041705202
 20
382.935970215835
 30
0.0
 10
3827.065315501984
 20
382.8702852419261
 30
0.0
 10
3823.306589298766
 20
382.8046002680171
 30
0.0
  0
SPLINE
  5
C2
330
1F
100
AcDbEntity
  8
Predefinito
100
AcDbSpline
210
0.0
220
0.0
230
1.0
 70
    24
 71
     2
 72
     6
 73
     3
 74
     0
 42
0.0000000001
 43
0.0000000001
 40
0.0
 40
0.0
 40
0.0
 40
47.15185355085498
 40
47.15185355085498
 40
47.15185355085498
 10
3823.306589298766
 20
429.9564538188721
 30
0.0
 10
3823.306589298766
 20
406.3805270434446
 30
0.0
 10
3823.306589298766
 20
382.8046002680171
 30
0.0
  0
SPLINE
  5
C3
330
1F
100
AcDbEntity
  8
Predefinito
100
AcDbSpline
210
0.0
220
0.0
230
1.0
 70
    12
 71
     2
 72
     8
 73
     5
 74
     0
 42
0.0000000001
 43
0.0000000001
 40
0.0
 40
0.0
 40
0.0
 40
1.565231165537439
 40
1.565231165537439
 40
3.130462331074879
 40
3.130462331074879
 40
3.130462331074879
 10
3832.806589298766
 20
430.6733826249676
 30
0.0
 41
1.0
 10
3832.812747265822
 20
431.4992148731312
 30
0.0
 41
0.9232828773516937
 10
3832.231321775713
 20
432.0857139968444
 30
0.0
 41
1.0
 10
3831.649896285604
 20
432.6722131205573
 30
0.0
 41
0.9232828773516937
 10
3830.824041705202
 20
432.673230320199
 30
0.0
 41
1.0
  0
SPLINE
  5
C4
330
1F
100
AcDbEntity
  8
Predefinito
100
AcDbSpline
210
0.0
220
0.0
230
1.0
 70
    12
 71
     2
 72
     8
 73
     5
 74
     0
 42
0.0000000001
 43
0.0000000001
 40
0.0
 40
0.0
 40
0.0
 40
1.565231165537502
 40
1.565231165537502
 40
3.130462331075004
 40
3.130462331075004
 40
3.130462331075004
 10
3830.824041705202
 20
382.935970215835
 30
0.0
 41
1.0
 10
3831.649896285604
 20
382.9369874154766
 30
0.0
 41
0.9232828773516909
 10
3832.231321775713
 20
383.5234865391897
 30
0.0
 41
1.0
 10
3832.812747265823
 20
384.1099856629029
 30
0.0
 41
0.9232828773516909
 10
3832.806589298766
 20
384.9358179110666
 30
0.0
 41
1.0
  0
SPLINE
  5
C5
330
1F
100
AcDbEntity
  8
Predefinito
100
AcDbSpline
210
0.0
220
0.0
230
1.0
 70
    12
 71
     2
 72
     6
 73
     3
 74
     0
 42
0.0000000001
 43
0.0000000001
 40
0.0
 40
0.0
 40
0.0
 40
0.0580535284855688
 40
0.0580535284855688
 40
0.0580535284855688
 10
3807.053712287371
 20
429.9563833240461
 30
0.0
 41
1.0
 10
3807.055976946352
 20
429.9853216108312
 30
0.0
 41
0.9999999288358539
 10
3807.058263439445
 20
430.0142581806293
 30
0.0
 41
1.0
  0
SPLINE
  5
C6
330
1F
100
AcDbEntity
  8
Predefinito
100
AcDbSpline
210
0.0
220
0.0
230
1.0
 70
    24
 71
     2
 72
     6
 73
     3
 74
     0
 42
0.0000000001
 43
0.0000000001
 40
0.0
 40
0.0
 40
0.0
 40
16.25287701154739
 40
16.25287701154739
 40
16.25287701154739
 10
3823.306589298766
 20
429.9564538188721
 30
0.0
 10
3815.180150793069
 20
429.9564185714591
 30
0.0
 10
3807.053712287371
 20
429.9563833240461
 30
0.0
  0
SPLINE
  5
C7
330
1F
100
AcDbEntity
  8
Predefinito
100
AcDbSpline
210
0.0
220
0.0
230
1.0
 70
    12
 71
     2
 72
     6
 73
     3
 74
     0
 42
0.0000000001
 43
0.0000000001
 40
0.0
 40
0.0
 40
0.0
 40
2.752163530223641
 40
2.752163530223641
 40
2.752163530223641
 10
3807.058263439445
 20
430.0142581806293
 30
0.0
 41
1.0
 10
3807.129856321429
 20
431.3884773323248
 30
0.0
 41
0.9999988936315399
 10
3807.205537257429
 20
432.7624774100412
 30
0.0
 41
1.0
  0
SPLINE
  5
C8
330
1F
100
AcDbEntity
  8
Predefinito
100
AcDbSpline
210
0.0
220
0.0
230
1.0
 70
    24
 71
     2
 72
     6
 73
     3
 74
     0
 42
0.0000000001
 43
0.0000000001
 40
0.0
 40
0.0
 40
0.0
 40
24.74999999999994
 40
24.74999999999994
 40
24.74999999999994
 10
3822.806589298766
 20
407.5546002680171
 30
0.0
 10
3822.806589298766
 20
395.1796002680171
 30
0.0
 10
3822.806589298766
 20
382.8046002680171
 30
0.0
  0
SPLINE
  5
C9
330
1F
100
AcDbEntity
  8
Predefinito
100
AcDbSpline
210
0.0
220
0.0
230
1.0
 70
    24
 71
     2
 72
     6
 73
     3
 74
     0
 42
0.0000000001
 43
0.0000000001
 40
0.0
 40
0.0
 40
0.0
 40
1771.999999999998
 40
1771.999999999998
 40
1771.999999999998
 10
2050.806589298767
 20
407.5546002680171
 30
0.0
 10
2936.806589298767
 20
407.5546002680171
 30
0.0
 10
3822.806589298766
 20
407.5546002680171
 30
0.0
  0
SPLINE
  5
CA
330
1F
100
AcDbEntity
  8
Predefinito
100
AcDbSpline
210
0.0
220
0.0
230
1.0
 70
    24
 71
     2
 72
     6
 73
     3
 74
     0
 42
0.0000000001
 43
0.0000000001
 40
0.0
 40
0.0
 40
0.0
 40
0.5
 40
0.5
 40
0.5
 10
3822.806589298766
 20
408.0546002680172
 30
0.0
 10
3822.806589298766
 20
407.8046002680172
 30
0.0
 10
3822.806589298766
 20
407.5546002680172
 30
0.0
  0
SPLINE
  5
CB
330
1F
100
AcDbEntity
  8
Predefinito
100
AcDbSpline
210
0.0
220
0.0
230
1.0
 70
    24
 71
     2
 72
     6
 73
     3
 74
     0
 42
0.0000000001
 43
0.0000000001
 40
0.0
 40
0.0
 40
0.0
 40
24.74999999999994
 40
24.74999999999994
 40
24.74999999999994
 10
2050.806589298767
 20
407.5546002680171
 30
0.0
 10
2050.806589298767
 20
395.1796002680171
 30
0.0
 10
2050.806589298767
 20
382.8046002680171
 30
0.0
  0
SPLINE
  5
CC
330
1F
100
AcDbEntity
  8
Predefinito
100
AcDbSpline
210
0.0
220
0.0
230
1.0
 70
    24
 71
     2
 72
     6
 73
     3
 74
     0
 42
0.0000000001
 43
0.0000000001
 40
0.0
 40
0.0
 40
0.0
 40
0.5
 40
0.5
 40
0.5
 10
2050.806589298767
 20
408.0546002680172
 30
0.0
 10
2050.806589298767
 20
407.8046002680172
 30
0.0
 10
2050.806589298767
 20
407.5546002680172
 30
0.0
  0
SPLINE
  5
CD
330
1F
100
AcDbEntity
  8
Predefinito
100
AcDbSpline
210
0.0
220
0.0
230
1.0
 70
    24
 71
     2
 72
     6
 73
     3
 74
     0
 42
0.0000000001
 43
0.0000000001
 40
0.0
 40
0.0
 40
0.0
 40
21.40063509461089
 40
21.40063509461089
 40
21.40063509461089
 10
3822.806589298766
 20
429.4552353626281
 30
0.0
 10
3822.806589298766
 20
418.7549178153226
 30
0.0
 10
3822.806589298766
 20
408.0546002680172
 30
0.0
  0
SPLINE
  5
CE
330
1F
100
AcDbEntity
  8
Predefinito
100
AcDbSpline
210
0.0
220
0.0
230
1.0
 70
    24
 71
     2
 72
     6
 73
     3
 74
     0
 42
0.0000000001
 43
0.0000000001
 40
0.0
 40
0.0
 40
0.0
 40
21.40063509461089
 40
21.40063509461089
 40
21.40063509461089
 10
2050.806589298767
 20
408.0546002680172
 30
0.0
 10
2050.806589298767
 20
418.7549178153226
 30
0.0
 10
2050.806589298767
 20
429.4552353626281
 30
0.0
  0
SPLINE
  5
CF
330
1F
100
AcDbEntity
  8
Predefinito
100
AcDbSpline
210
0.0
220
0.0
230
1.0
 70
    24
 71
     2
 72
     6
 73
     3
 74
     0
 42
0.0000000001
 43
0.0000000001
 40
0.0
 40
0.0
 40
0.0
 40
1771.999999999998
 40
1771.999999999998
 40
1771.999999999998
 10
3822.806589298766
 20
408.0546002680172
 30
0.0
 10
2936.806589298767
 20
408.0546002680172
 30
0.0
 10
2050.806589298767
 20
408.0546002680172
 30
0.0
  0
SPLINE
  5
D0
330
1F
100
AcDbEntity
  8
Predefinito
100
AcDbSpline
210
0.0
220
0.0
230
1.0
 70
    24
 71
     2
 72
     6
 73
     3
 74
     0
 42
0.0000000001
 43
0.0000000001
 40
0.0
 40
0.0
 40
0.0
 40
1771.999999999998
 40
1771.999999999998
 40
1771.999999999998
 10
3822.806589298766
 20
429.4552353626281
 30
0.0
 10
2936.806589298767
 20
429.4552353626281
 30
0.0
 10
2050.806589298767
 20
429.4552353626281
 30
0.0
  0
SPLINE
  5
D1
330
1F
100
AcDbEntity
  8
Predefinito
100
AcDbSpline
210
0.0
220
0.0
230
1.0
 70
    24
 71
     2
 72
     6
 73
     3
 74
     0
 42
0.0000000001
 43
0.0000000001
 40
0.0
 40
0.0
 40
0.0
 40
1739.999999999998
 40
1739.999999999998
 40
1739.999999999998
 10
2066.806589298767
 20
429.9276146486482
 30
0.0
 10
2936.806589298767
 20
429.9276146486482
 30
0.0
 10
3806.806589298766
 20
429.9276146486482
 30
0.0
  0
SPLINE
  5
D2
330
1F
100
AcDbEntity
  8
Predefinito
100
AcDbSpline
210
0.0
220
0.0
230
1.0
 70
    24
 71
     2
 72
     6
 73
     3
 74
     0
 42
0.0000000001
 43
0.0000000001
 40
0.0
 40
0.0
 40
0.0
 40
1739.999999999998
 40
1739.999999999998
 40
1739.999999999998
 10
3806.806589298766
 20
429.7508414040315
 30
0.0
 10
2936.806589298767
 20
429.7508414040315
 30
0.0
 10
2066.806589298767
 20
429.7508414040315
 30
0.0
  0
SPLINE
  5
D3
330
1F
100
AcDbEntity
  8
Predefinito
100
AcDbSpline
210
0.0
220
0.0
230
1.0
 70
    24
 71
     2
 72
     6
 73
     3
 74
     0
 42
0.0000000001
 43
0.0000000001
 40
0.0
 40
0.0
 40
0.0
 40
0.2956091769721743
 40
0.2956091769721743
 40
0.2956091769721743
 10
2066.806589298767
 20
429.7508414040315
 30
0.0
 10
2066.805908527891
 20
429.6030383833298
 30
0.0
 10
2066.805227757015
 20
429.4552353626281
 30
0.0
  0
SPLINE
  5
D4
330
1F
100
AcDbEntity
  8
Predefinito
100
AcDbSpline
210
0.0
220
0.0
230
1.0
 70
    24
 71
     2
 72
     6
 73
     3
 74
     0
 42
0.0000000001
 43
0.0000000001
 40
0.0
 40
0.0
 40
0.0
 40
0.1541297401016664
 40
0.1541297401016664
 40
0.1541297401016664
 10
2066.806589298767
 20
429.9276146486482
 30
0.0
 10
2066.806589298767
 20
429.8505497785973
 30
0.0
 10
2066.806589298767
 20
429.7734849085465
 30
0.0
  0
SPLINE
  5
D5
330
1F
100
AcDbEntity
  8
Predefinito
100
AcDbSpline
210
0.0
220
0.0
230
1.0
 70
    28
 71
     2
 72
     6
 73
     3
 74
     0
 42
0.0000000001
 43
0.0000000001
 40
-1.631355433978504
 40
-1.631355433978504
 40
-1.631355433978504
 40
-1.08632346911776
 40
-1.08632346911776
 40
-1.08632346911776
 10
2066.806589298767
 20
432.7569481068668
 30
0.0
 41
0.9433593501093507
 10
2066.806589298767
 20
433.1891136123327
 30
0.0
 41
0.9352678286964008
 10
2066.806589298767
 20
429.9276146486482
 30
0.0
 41
1.0
  0
SPLINE
  5
D6
330
1F
100
AcDbEntity
  8
Predefinito
100
AcDbSpline
210
0.0
220
0.0
230
1.0
 70
    24
 71
     2
 72
     6
 73
     3
 74
     0
 42
0.0000000001
 43
0.0000000001
 40
0.0
 40
0.0
 40
0.0
 40
2.829333547985584
 40
2.829333547985584
 40
2.829333547985584
 10
3806.806589298766
 20
429.9276146486482
 30
0.0
 10
3806.806589298766
 20
431.342281422641
 30
0.0
 10
3806.806589298766
 20
432.7569481966337
 30
0.0
  0
SPLINE
  5
D7
330
1F
100
AcDbEntity
  8
Predefinito
100
AcDbSpline
210
0.0
220
0.0
230
1.0
 70
    24
 71
     2
 72
     6
 73
     3
 74
     0
 42
0.0000000001
 43
0.0000000001
 40
0.0
 40
0.0
 40
0.0
 40
0.1767732446166406
 40
0.1767732446166406
 40
0.1767732446166406
 10
3806.806589298766
 20
429.7508414040315
 30
0.0
 10
3806.806589298766
 20
429.8392280263398
 30
0.0
 10
3806.806589298766
 20
429.9276146486482
 30
0.0
  0
SPLINE
  5
D8
330
1F
100
AcDbEntity
  8
Predefinito
100
AcDbSpline
210
0.0
220
0.0
230
1.0
 70
    24
 71
     2
 72
     6
 73
     3
 74
     0
 42
0.0000000001
 43
0.0000000001
 40
0.0
 40
0.0
 40
0.0
 40
0.2956091769721174
 40
0.2956091769721174
 40
0.2956091769721174
 10
3806.807950840518
 20
429.4552353626281
 30
0.0
 10
3806.807270069642
 20
429.6030383833298
 30
0.0
 10
3806.806589298766
 20
429.7508414040315
 30
0.0
  0
SPLINE
  5
D9
330
1F
100
AcDbEntity
  8
Predefinito
100
AcDbSpline
210
0.0
220
0.0
230
1.0
 70
    24
 71
     2
 72
     6
 73
     3
 74
     0
 42
0.0000000001
 43
0.0000000001
 40
0.0
 40
0.0
 40
0.0
 40
1.000000000099327
 40
1.000000000099327
 40
1.000000000099327
 10
3759.830560082018
 20
481.8500544377522
 30
0.0
 10
3759.830553034783
 20
482.3500544377522
 30
0.0
 10
3759.830545987549
 20
482.8500544377522
 30
0.0
  0
SPLINE
  5
DA
330
1F
100
AcDbEntity
  8
Predefinito
100
AcDbSpline
210
0.0
220
0.0
230
1.0
 70
    24
 71
     2
 72
     6
 73
     3
 74
     0
 42
0.0000000001
 43
0.0000000001
 40
0.0
 40
0.0
 40
0.0
 40
0.7043266768252614
 40
0.7043266768252614
 40
0.7043266768252614
 10
3754.09905312173
 20
440.3500544377522
 30
0.0
 10
3754.347083395935
 20
440.1000544377522
 30
0.0
 10
3754.595113670139
 20
439.8500544377522
 30
0.0
  0
SPLINE
  5
DB
330
1F
100
AcDbEntity
  8
Predefinito
100
AcDbSpline
210
0.0
220
0.0
230
1.0
 70
    24
 71
     2
 72
     6
 73
     3
 74
     0
 42
0.0000000001
 43
0.0000000001
 40
0.0
 40
0.0
 40
0.0
 40
23.41964586215136
 40
23.41964586215136
 40
23.41964586215136
 10
3754.09905312173
 20
440.3500544377522
 30
0.0
 10
3765.808876052805
 20
440.3500544377522
 30
0.0
 10
3777.518698983881
 20
440.3500544377522
 30
0.0
  0
SPLINE
  5
DC
330
1F
100
AcDbEntity
  8
Predefinito
100
AcDbSpline
210
0.0
220
0.0
230
1.0
 70
    24
 71
     2
 72
     6
 73
     3
 74
     0
 42
0.0000000001
 43
0.0000000001
 40
0.0
 40
0.0
 40
0.0
 40
6.20708886878912
 40
6.20708886878912
 40
6.20708886878912
 10
3777.561406693463
 20
433.1432021575827
 30
0.0
 10
3777.58850372836
 20
436.2466282976675
 30
0.0
 10
3777.615600763257
 20
439.3500544377522
 30
0.0
  0
SPLINE
  5
DD
330
1F
100
AcDbEntity
  8
Predefinito
100
AcDbSpline
210
0.0
220
0.0
230
1.0
 70
    12
 71
     2
 72
     6
 73
     3
 74
     0
 42
0.0000000001
 43
0.0000000001
 40
0.0
 40
0.0
 40
0.0
 40
0.0538136244147239
 40
0.0538136244147239
 40
0.0538136244147239
 10
3777.481749029434
 20
433.112351596438
 30
0.0
 41
1.0
 10
3777.506325057652
 20
433.1233064268641
 30
0.0
 41
0.9999866060659689
 10
3777.531013165126
 20
433.1340062783529
 30
0.0
 41
1.0
  0
SPLINE
  5
DE
330
1F
100
AcDbEntity
  8
Predefinito
100
AcDbSpline
210
0.0
220
0.0
230
1.0
 70
     8
 71
     3
 72
    14
 73
    10
 74
     0
 42
0.0000000001
 43
0.0000000001
 40
0.0
 40
0.0
 40
0.0
 40
0.0
 40
0.4696881356411163
 40
1.323560277347061
 40
3.142349336364868
 40
6.343325352525852
 40
11.93815374507832
 40
17.97238806572884
 40
24.19517291566351
 40
24.19517291566351
 40
24.19517291566351
 40
24.19517291566351
 10
3754.056318601704
 20
433.1431093033587
 30
0.0
 10
3754.194194486854
 20
433.069243871485
 30
0.0
 10
3754.598435278734
 20
432.8916498484298
 30
0.0
 10
3755.56749992509
 20
432.4943360134179
 30
0.0
 10
3757.406457977289
 20
431.8201208401377
 30
0.0
 10
3760.80028269835
 20
430.8109104047281
 30
0.0
 10
3765.73603912414
 20
430.1618082100897
 30
0.0
 10
3771.686654403891
 20
430.9219455593845
 30
0.0
 10
3775.562765865835
 20
432.2489897085717
 30
0.0
 10
3777.456477754121
 20
433.101212413765
 30
0.0
  0
SPLINE
  5
DF
330
1F
100
AcDbEntity
  8
Predefinito
100
AcDbSpline
210
0.0
220
0.0
230
1.0
 70
    24
 71
     2
 72
     6
 73
     3
 74
     0
 42
0.0000000001
 43
0.0000000001
 40
0.0
 40
0.0
 40
0.0
 40
11.94673734278604
 40
11.94673734278604
 40
11.94673734278604
 10
3759.830545987549
 20
482.8500544377522
 30
0.0
 10
3765.803914658942
 20
482.8500544377522
 30
0.0
 10
3771.777283330335
 20
482.8500544377522
 30
0.0
  0
SPLINE
  5
E0
330
1F
100
AcDbEntity
  8
Predefinito
100
AcDbSpline
210
0.0
220
0.0
230
1.0
 70
    24
 71
     2
 72
     6
 73
     3
 74
     0
 42
0.0000000001
 43
0.0000000001
 40
0.0
 40
0.0
 40
0.0
 40
41.50000006534618
 40
41.50000006534618
 40
41.50000006534618
 10
3777.516370092994
 20
481.8500544377522
 30
0.0
 10
3777.517534538404
 20
461.1000544377522
 30
0.0
 10
3777.518698983813
 20
440.3500544377522
 30
0.0
  0
SPLINE
  5
E1
330
1F
100
AcDbEntity
  8
Predefinito
100
AcDbSpline
210
0.0
220
0.0
230
1.0
 70
    24
 71
     2
 72
     6
 73
     3
 74
     0
 42
0.0000000001
 43
0.0000000001
 40
0.0
 40
0.0
 40
0.0
 40
41.49999980396149
 40
41.49999980396149
 40
41.49999980396149
 10
3754.09905312173
 20
440.3500544377522
 30
0.0
 10
3754.100217567132
 20
461.1000543070598
 30
0.0
 10
3754.101382012534
 20
481.8500541763675
 30
0.0
  0
SPLINE
  5
E2
330
1F
100
AcDbEntity
  8
Predefinito
100
AcDbSpline
210
0.0
220
0.0
230
1.0
 70
    24
 71
     2
 72
     6
 73
     3
 74
     0
 42
0.0000000001
 43
0.0000000001
 40
0.0
 40
0.0
 40
0.0
 40
23.4569423314947
 40
23.4569423314947
 40
23.4569423314947
 10
3754.101382012549
 20
481.8500544377522
 30
0.0
 10
3765.829853178297
 20
481.8500544377522
 30
0.0
 10
3777.558324344044
 20
481.8500544377522
 30
0.0
  0
SPLINE
  5
E3
330
1F
100
AcDbEntity
  8
Predefinito
100
AcDbSpline
210
0.0
220
0.0
230
1.0
 70
    28
 71
     2
 72
     8
 73
     5
 74
     0
 42
0.0000000001
 43
0.0000000001
 40
-35.3429173528852
 40
-35.3429173528852
 40
-35.3429173528852
 40
-17.6714586764426
 40
-17.6714586764426
 40
0.0
 40
0.0
 40
0.0
 10
3777.022638435405
 20
439.8500544377522
 30
0.0
 41
1.0
 10
3777.924876334105
 20
439.8500544377522
 30
0.0
 41
0.707106781186548
 10
3766.711113951472
 20
439.8500544377522
 30
0.0
 41
1.0
 10
3755.497351568838
 20
439.8500544377522
 30
0.0
 41
0.707106781186548
 10
3754.595113670139
 20
439.8500544377522
 30
0.0
 41
1.0
  0
SPLINE
  5
E4
330
1F
100
AcDbEntity
  8
Predefinito
100
AcDbSpline
210
0.0
220
0.0
230
1.0
 70
    24
 71
     2
 72
     6
 73
     3
 74
     0
 42
0.0000000001
 43
0.0000000001
 40
0.0
 40
0.0
 40
0.0
 40
0.5000000001173248
 40
0.5000000001173248
 40
0.5000000001173248
 10
3756.339476707438
 20
439.8500544377522
 30
0.0
 10
3756.339476707438
 20
439.6000544376935
 30
0.0
 10
3756.339476707438
 20
439.3500544376349
 30
0.0
  0
SPLINE
  5
E5
330
1F
100
AcDbEntity
  8
Predefinito
100
AcDbSpline
210
0.0
220
0.0
230
1.0
 70
    12
 71
     2
 72
     6
 73
     3
 74
     0
 42
0.0000000001
 43
0.0000000001
 40
0.0
 40
0.0
 40
0.0
 40
0.3405780040317361
 40
0.3405780040317361
 40
0.3405780040317361
 10
3777.355658328966
 20
432.8633876036409
 30
0.0
 41
1.0
 10
3777.52996669445
 20
432.9425620286361
 30
0.0
 41
0.842178213174617
 10
3777.531013165126
 20
433.1340062783529
 30
0.0
 41
1.0
  0
SPLINE
  5
E6
330
1F
100
AcDbEntity
  8
Predefinito
100
AcDbSpline
210
0.0
220
0.0
230
1.0
 70
    24
 71
     2
 72
     6
 73
     3
 74
     0
 42
0.0000000001
 43
0.0000000001
 40
0.0
 40
0.0
 40
0.0
 40
6.207181485302286
 40
6.207181485302286
 40
6.207181485302286
 10
3754.056318601704
 20
433.1431093033587
 30
0.0
 10
3754.029235029958
 20
436.2465818709854
 30
0.0
 10
3754.002151458212
 20
439.3500544386121
 30
0.0
  0
SPLINE
  5
E7
330
1F
100
AcDbEntity
  8
Predefinito
100
AcDbSpline
210
0.0
220
0.0
230
1.0
 70
    24
 71
     2
 72
     6
 73
     3
 74
     0
 42
0.0000000001
 43
0.0000000001
 40
0.0
 40
0.0
 40
0.0
 40
23.61344930504447
 40
23.61344930504447
 40
23.61344930504447
 10
3754.002151458212
 20
439.3500544386121
 30
0.0
 10
3765.808876110735
 20
439.3500544381822
 30
0.0
 10
3777.615600763257
 20
439.3500544377522
 30
0.0
  0
SPLINE
  5
E8
330
1F
100
AcDbEntity
  8
Predefinito
100
AcDbSpline
210
0.0
220
0.0
230
1.0
 70
    24
 71
     2
 72
     6
 73
     3
 74
     0
 42
0.0000000001
 43
0.0000000001
 40
0.0
 40
0.0
 40
0.0
 40
7.518597233180345
 40
7.518597233180345
 40
7.518597233180345
 10
3823.306589591202
 20
143.2586560914472
 30
0.0
 10
3827.065315648406
 20
143.1930472841464
 30
0.0
 10
3830.824041705609
 20
143.1274384768455
 30
0.0
  0
SPLINE
  5
E9
330
1F
100
AcDbEntity
  8
Predefinito
100
AcDbSpline
210
0.0
220
0.0
230
1.0
 70
    12
 71
     2
 72
     6
 73
     3
 74
     0
 42
0.0000000001
 43
0.0000000001
 40
0.0
 40
0.0
 40
0.0
 40
3.124243306328423
 40
3.124243306328423
 40
3.124243306328423
 10
3832.806589298766
 20
95.3898725670847
 30
0.0
 41
1.0
 10
3832.80683092347
 20
93.40700931329886
 30
0.0
 41
0.7100991064637349
 10
3830.824041039468
 20
93.38995007828805
 30
0.0
 41
1.0
  0
SPLINE
  5
EA
330
1F
100
AcDbEntity
  8
Predefinito
100
AcDbSpline
210
0.0
220
0.0
230
1.0
 70
    24
 71
     2
 72
     6
 73
     3
 74
     0
 42
0.0000000001
 43
0.0000000001
 40
0.0
 40
0.0
 40
0.0
 40
0.5156489422868136
 40
0.5156489422868136
 40
0.5156489422868136
 10
3822.807451319244
 20
142.749943610721
 30
0.0
 10
3823.065236522471
 20
142.7544432681757
 30
0.0
 10
3823.323021725699
 20
142.7589429256304
 30
0.0
  0
SPLINE
  5
EB
330
1F
100
AcDbEntity
  8
Predefinito
100
AcDbSpline
210
0.0
220
0.0
230
1.0
 70
    24
 71
     2
 72
     6
 73
     3
 74
     0
 42
0.0000000001
 43
0.0000000001
 40
0.0
 40
0.0
 40
0.0
 40
0.5155649777315955
 40
0.5155649777315955
 40
0.5155649777315955
 10
3823.322257209074
 20
93.75838261216028
 30
0.0
 10
3823.064513981729
 20
93.76288153692325
 30
0.0
 10
3822.806770754385
 20
93.76738046168622
 30
0.0
  0
SPLINE
  5
EC
330
1F
100
AcDbEntity
  8
Predefinito
100
AcDbSpline
210
0.0
220
0.0
230
1.0
 70
    24
 71
     2
 72
     6
 73
     3
 74
     0
 42
0.0000000001
 43
0.0000000001
 40
0.0
 40
0.0
 40
0.0
 40
7.518597233180347
 40
7.518597233180347
 40
7.518597233180347
 10
3830.824041705609
 20
93.389873716258
 30
0.0
 10
3827.065315648406
 20
93.3242649089571
 30
0.0
 10
3823.306589591202
 20
93.2586561016562
 30
0.0
  0
SPLINE
  5
ED
330
1F
100
AcDbEntity
  8
Predefinito
100
AcDbSpline
210
0.0
220
0.0
230
1.0
 70
    12
 71
     2
 72
     6
 73
     3
 74
     0
 42
0.0000000001
 43
0.0000000001
 40
0.0
 40
0.0
 40
0.0
 40
3.12412582110342
 40
3.12412582110342
 40
3.12412582110342
 10
3830.824041016419
 20
143.1273608162716
 30
0.0
 41
1.0
 10
3832.806558086839
 20
143.110032425026
 30
0.0
 41
0.7101957511135426
 10
3832.806589298766
 20
141.1274396260187
 30
0.0
 41
1.0
  0
SPLINE
  5
EE
330
1F
100
AcDbEntity
  8
Predefinito
100
AcDbSpline
210
0.0
220
0.0
230
1.0
 70
    12
 71
     2
 72
     8
 73
     5
 74
     0
 42
0.0000000001
 43
0.0000000001
 40
0.0
 40
0.0
 40
0.0
 40
185.8252054598359
 40
185.8252054598359
 40
371.6504109196717
 40
371.6504109196717
 40
371.6504109196717
 10
2166.954030878128
 20
220.7451823930015
 30
0.0
 41
1.0
 10
2064.503225610429
 20
279.895182393001
 30
0.0
 41
0.7071067811865485
 10
2005.353225610429
 20
177.4443771253022
 30
0.0
 41
1.0
 10
1946.203225610429
 20
74.9935718576034
 30
0.0
 41
0.7071067811865485
 10
2048.654030878128
 20
15.84357185760338
 30
0.0
 41
1.0
  0
SPLINE
  5
EF
330
1F
100
AcDbEntity
  8
Predefinito
100
AcDbSpline
210
0.0
220
0.0
230
1.0
 70
    12
 71
     2
 72
     8
 73
     5
 74
     0
 42
0.0000000001
 43
0.0000000001
 40
0.0
 40
0.0
 40
0.0
 40
185.8252054598333
 40
185.8252054598333
 40
371.6504109196665
 40
371.6504109196665
 40
371.6504109196665
 10
2048.654030878128
 20
15.84357185760354
 30
0.0
 41
1.0
 10
2151.104836145826
 20
-43.30642814239324
 30
0.0
 41
0.7071067811865538
 10
2210.254836145825
 20
59.14437712530356
 30
0.0
 41
1.0
 10
2269.404836145823
 20
161.5951823930003
 30
0.0
 41
0.7071067811865538
 10
2166.954030878127
 20
220.7451823930008
 30
0.0
 41
1.0
  0
SPLINE
  5
F0
330
1F
100
AcDbEntity
  8
Predefinito
100
AcDbSpline
210
0.0
220
0.0
230
1.0
 70
    12
 71
     2
 72
     8
 73
     5
 74
     0
 42
0.0000000001
 43
0.0000000001
 40
0.0
 40
0.0
 40
0.0
 40
9.389142106659154
 40
9.389142106659154
 40
18.82075815315542
 40
18.82075815315542
 40
18.82075815315542
 10
2942.787168512293
 20
118.7521750742168
 30
0.0
 41
1.0
 10
2942.282357823249
 20
124.7049516735115
 30
0.0
 41
0.7076232505473915
 10
2936.328849885268
 20
124.2088404911121
 30
0.0
 41
1.0
 10
2930.352483027245
 20
123.7108114335494
 30
0.0
 41
0.7082869381212686
 10
2930.830543618021
 20
117.7328141237966
 30
0.0
 41
1.0
  0
SPLINE
  5
F1
330
1F
100
AcDbEntity
  8
Predefinito
100
AcDbSpline
210
0.0
220
0.0
230
1.0
 70
    12
 71
     2
 72
    10
 73
     7
 74
     0
 42
0.0000000001
 43
0.0000000001
 40
0.0
 40
0.0
 40
0.0
 40
4.708881348976905
 40
4.708881348976905
 40
9.41776269795381
 40
9.41776269795381
 40
18.84936830917658
 40
18.84936830917658
 40
18.84936830917658
 10
2930.83055730669
 20
117.7326440199173
 30
0.0
 41
1.0
 10
2931.02862170556
 20
115.256539962757
 30
0.0
 41
0.9235617891012521
 10
2932.922214010904
 20
113.6488618267094
 30
0.0
 41
1.0
 10
2934.815806316249
 20
112.0411836906618
 30
0.0
 41
0.9235617891012521
 10
2937.291239589264
 20
112.2474624312886
 30
0.0
 41
1.0
 10
2943.267600355855
 20
112.7454843553704
 30
0.0
 41
0.708286942597391
 10
2942.789546953981
 20
118.7234755559554
 30
0.0
 41
1.0
  0
SPLINE
  5
F2
330
1F
100
AcDbEntity
  8
Predefinito
100
AcDbSpline
210
0.0
220
0.0
230
1.0
 70
    12
 71
     2
 72
     8
 73
     5
 74
     0
 42
0.0000000001
 43
0.0000000001
 40
0.0
 40
0.0
 40
0.0
 40
18.4286588641143
 40
18.4286588641143
 40
36.85662884974994
 40
36.85662884974994
 40
36.85662884974994
 10
2948.516367723466
 20
119.2408225941088
 30
0.0
 41
1.0
 10
2947.520220593928
 20
130.9202543244749
 30
0.0
 41
0.7079547391668146
 10
2935.83843191628
 20
129.952138660557
 30
0.0
 41
1.0
 10
2924.157328099967
 20
128.9840797537841
 30
0.0
 41
0.7079754420885005
 10
2925.096666634199
 20
117.3006313102562
 30
0.0
 41
1.0
  0
SPLINE
  5
F3
330
1F
100
AcDbEntity
  8
Predefinito
100
AcDbSpline
210
0.0
220
0.0
230
1.0
 70
    12
 71
     2
 72
     8
 73
     5
 74
     0
 42
0.0000000001
 43
0.0000000001
 40
0.0
 40
0.0
 40
0.0
 40
18.4004608883844
 40
18.4004608883844
 40
36.85624441716702
 40
36.85624441716702
 40
36.85624441716702
 10
2925.101379643021
 20
117.2437414258562
 30
0.0
 41
1.0
 10
2926.095139041243
 20
105.5923049023613
 30
0.0
 41
0.7088016778391744
 10
2937.751211044108
 20
106.5301301881213
 30
0.0
 41
1.0
 10
2949.462293061035
 20
107.4723814745257
 30
0.0
 41
0.707139076003448
 10
2948.521111534634
 20
119.1835495131248
 30
0.0
 41
1.0
  0
SPLINE
  5
F4
330
1F
100
AcDbEntity
  8
Predefinito
100
AcDbSpline
210
0.0
220
0.0
230
1.0
 70
    24
 71
     2
 72
     6
 73
     3
 74
     0
 42
0.0000000001
 43
0.0000000001
 40
0.0
 40
0.0
 40
0.0
 40
11.588588536213
 40
11.588588536213
 40
11.588588536213
 10
3823.306589298766
 20
118.2586560965517
 30
0.0
 10
3823.306589298766
 20
124.0529503646582
 30
0.0
 10
3823.306589298766
 20
129.8472446327647
 30
0.0
  0
SPLINE
  5
F5
330
1F
100
AcDbEntity
  8
Predefinito
100
AcDbSpline
210
0.0
220
0.0
230
1.0
 70
    24
 71
     2
 72
     6
 73
     3
 74
     0
 42
0.0000000001
 43
0.0000000001
 40
0.0
 40
0.0
 40
0.0
 40
22.86878235695048
 40
22.86878235695048
 40
22.86878235695048
 10
3832.806589298766
 20
118.2586560965517
 30
0.0
 10
3832.806589298766
 20
106.8242649180765
 30
0.0
 10
3832.806589298766
 20
95.38987373960123
 30
0.0
  0
SPLINE
  5
F6
330
1F
100
AcDbEntity
  8
Predefinito
100
AcDbSpline
210
0.0
220
0.0
230
1.0
 70
    24
 71
     2
 72
     6
 73
     3
 74
     0
 42
0.0000000001
 43
0.0000000001
 40
0.0
 40
0.0
 40
0.0
 40
24.86878235695048
 40
24.86878235695048
 40
24.86878235695048
 10
3830.824041705202
 20
93.38987373960123
 30
0.0
 10
3830.824041705202
 20
105.8242649180765
 30
0.0
 10
3830.824041705202
 20
118.2586560965517
 30
0.0
  0
SPLINE
  5
F7
330
1F
100
AcDbEntity
  8
Predefinito
100
AcDbSpline
210
0.0
220
0.0
230
1.0
 70
    24
 71
     2
 72
     6
 73
     3
 74
     0
 42
0.0000000001
 43
0.0000000001
 40
0.0
 40
0.0
 40
0.0
 40
0.4499999212120969
 40
0.4499999212120969
 40
0.4499999212120969
 10
3822.762839298767
 20
106.0586561752506
 30
0.0
 10
3822.762839298767
 20
106.2836561358567
 30
0.0
 10
3822.762839298767
 20
106.5086560964627
 30
0.0
  0
SPLINE
  5
F8
330
1F
100
AcDbEntity
  8
Predefinito
100
AcDbSpline
210
0.0
220
0.0
230
1.0
 70
    24
 71
     2
 72
     6
 73
     3
 74
     0
 42
0.0000000001
 43
0.0000000001
 40
0.0
 40
0.0
 40
0.0
 40
0.4984357977983507
 40
0.4984357977983507
 40
0.4984357977983507
 10
3822.762839298766
 20
129.9602202987552
 30
0.0
 10
3822.762839298766
 20
130.2094381976544
 30
0.0
 10
3822.762839298766
 20
130.4586560965535
 30
0.0
  0
SPLINE
  5
F9
330
1F
100
AcDbEntity
  8
Predefinito
100
AcDbSpline
210
0.0
220
0.0
230
1.0
 70
    24
 71
     2
 72
     6
 73
     3
 74
     0
 42
0.0000000001
 43
0.0000000001
 40
0.0
 40
0.0
 40
0.0
 40
1.944158411107742
 40
1.944158411107742
 40
1.944158411107742
 10
3806.892817648529
 20
106.514530800238
 30
0.0
 10
3806.898491265081
 20
107.4865934483967
 30
0.0
 10
3806.904164881633
 20
108.4586560965555
 30
0.0
  0
SPLINE
  5
FA
330
1F
100
AcDbEntity
  8
Predefinito
100
AcDbSpline
210
0.0
220
0.0
230
1.0
 70
    24
 71
     2
 72
     6
 73
     3
 74
     0
 42
0.0000000001
 43
0.0000000001
 40
0.0
 40
0.0
 40
0.0
 40
0.1587917032583981
 40
0.1587917032583981
 40
0.1587917032583981
 10
3806.896052727019
 20
130.0017726880325
 30
0.0
 10
3806.971849518688
 20
129.9781390757694
 30
0.0
 10
3807.047646310357
 20
129.9545054635063
 30
0.0
  0
SPLINE
  5
FB
330
1F
100
AcDbEntity
  8
Predefinito
100
AcDbSpline
210
0.0
220
0.0
230
1.0
 70
    24
 71
     2
 72
     6
 73
     3
 74
     0
 42
0.0000000001
 43
0.0000000001
 40
0.0
 40
0.0
 40
0.0
 40
1.93283940720762
 40
1.93283940720762
 40
1.93283940720762
 10
3806.904164881633
 20
128.0586560965555
 30
0.0
 10
3806.898524297208
 20
129.0250593391624
 30
0.0
 10
3806.892883712784
 20
129.9914625817692
 30
0.0
  0
SPLINE
  5
FC
330
1F
100
AcDbEntity
  8
Predefinito
100
AcDbSpline
210
0.0
220
0.0
230
1.0
 70
    12
 71
     2
 72
     6
 73
     3
 74
     0
 42
0.0000000001
 43
0.0000000001
 40
0.0
 40
0.0
 40
0.0
 40
0.107501797266152
 40
0.107501797266152
 40
0.107501797266152
 10
3807.047646310357
 20
106.562806729605
 30
0.0
 41
1.0
 10
3807.054026005496
 20
106.6162478769513
 30
0.0
 41
0.9980585919602359
 10
3807.053712287372
 20
106.6700675603462
 30
0.0
 41
1.0
  0
SPLINE
  5
FD
330
1F
100
AcDbEntity
  8
Predefinito
100
AcDbSpline
210
0.0
220
0.0
230
1.0
 70
    24
 71
     2
 72
     6
 73
     3
 74
     0
 42
0.0000000001
 43
0.0000000001
 40
0.0
 40
0.0
 40
0.0
 40
16.25590999990209
 40
16.25590999990209
 40
16.25590999990209
 10
3807.050679298864
 20
129.9545054635063
 30
0.0
 10
3815.178634298815
 20
129.9545054635063
 30
0.0
 10
3823.306589298766
 20
129.9545054635063
 30
0.0
  0
SPLINE
  5
FE
330
1F
100
AcDbEntity
  8
Predefinito
100
AcDbSpline
210
0.0
220
0.0
230
1.0
 70
    12
 71
     2
 72
     6
 73
     3
 74
     0
 42
0.0000000001
 43
0.0000000001
 40
0.0
 40
0.0
 40
0.0
 40
0.0775296698613159
 40
0.0775296698613159
 40
0.0775296698613159
 10
3807.053712287372
 20
129.8472446327647
 30
0.0
 41
1.0
 10
3807.052693234416
 20
129.8859982026999
 30
0.0
 41
0.999917545730297
 10
3807.050679298864
 20
129.9247128215828
 30
0.0
 41
1.0
  0
SPLINE
  5
FF
330
1F
100
AcDbEntity
  8
Predefinito
100
AcDbSpline
210
0.0
220
0.0
230
1.0
 70
    24
 71
     2
 72
     6
 73
     3
 74
     0
 42
0.0000000001
 43
0.0000000001
 40
0.0
 40
0.0
 40
0.0
 40
0.1621803930183675
 40
0.1621803930183675
 40
0.1621803930183675
 10
3806.892817648529
 20
106.514530800238
 30
0.0
 10
3806.970231979443
 20
106.5386687649215
 30
0.0
 10
3807.047646310357
 20
106.562806729605
 30
0.0
  0
SPLINE
  5
100
330
1F
100
AcDbEntity
  8
Predefinito
100
AcDbSpline
210
0.0
220
0.0
230
1.0
 70
    24
 71
     2
 72
     6
 73
     3
 74
     0
 42
0.0000000001
 43
0.0000000001
 40
0.0
 40
0.0
 40
0.0
 40
15.89189564141681
 40
15.89189564141681
 40
15.89189564141681
 10
3822.784713285521
 20
106.5141557690879
 30
0.0
 10
3814.838765467025
 20
106.5143432846629
 30
0.0
 10
3806.892817648529
 20
106.514530800238
 30
0.0
  0
SPLINE
  5
101
330
1F
100
AcDbEntity
  8
Predefinito
100
AcDbSpline
210
0.0
220
0.0
230
1.0
 70
    24
 71
     2
 72
     6
 73
     3
 74
     0
 42
0.0000000001
 43
0.0000000001
 40
0.0
 40
0.0
 40
0.0
 40
0.0220807422235066
 40
0.0220807422235066
 40
0.0220807422235066
 10
3822.806794445912
 20
106.5569050035416
 30
0.0
 10
3822.795754174595
 20
106.5569519451442
 30
0.0
 10
3822.784713903276
 20
106.5569988867468
 30
0.0
  0
SPLINE
  5
102
330
1F
100
AcDbEntity
  8
Predefinito
100
AcDbSpline
210
0.0
220
0.0
230
1.0
 70
    24
 71
     2
 72
     6
 73
     3
 74
     0
 42
0.0000000001
 43
0.0000000001
 40
0.0
 40
0.0
 40
0.0
 40
16.25894298840922
 40
16.25894298840922
 40
16.25894298840922
 10
3807.047646310357
 20
106.562806729605
 30
0.0
 10
3815.177117804561
 20
106.562806729605
 30
0.0
 10
3823.306589298766
 20
106.562806729605
 30
0.0
  0
SPLINE
  5
103
330
1F
100
AcDbEntity
  8
Predefinito
100
AcDbSpline
210
0.0
220
0.0
230
1.0
 70
    24
 71
     2
 72
     6
 73
     3
 74
     0
 42
0.0000000001
 43
0.0000000001
 40
0.0
 40
0.0
 40
0.0
 40
11.58858853620552
 40
11.58858853620552
 40
11.58858853620552
 10
3823.306589298766
 20
106.6700675603462
 30
0.0
 10
3823.306589298766
 20
112.4643618284489
 30
0.0
 10
3823.306589298766
 20
118.2586560965517
 30
0.0
  0
SPLINE
  5
104
330
1F
100
AcDbEntity
  8
Predefinito
100
AcDbSpline
210
0.0
220
0.0
230
1.0
 70
    28
 71
     2
 72
     6
 73
     3
 74
     0
 42
0.0000000001
 43
0.0000000001
 40
-27.01158759915224
 40
-27.01158759915224
 40
-27.01158759915224
 40
0.0
 40
0.0
 40
0.0
 10
3823.306589298766
 20
143.2586393378069
 30
0.0
 41
0.9350948916477282
 10
3823.306589298766
 20
143.2761877342453
 30
0.0
 41
0.8269197110606086
 10
3823.306589298766
 20
129.8472446327647
 30
0.0
 41
1.0
  0
SPLINE
  5
105
330
1F
100
AcDbEntity
  8
Predefinito
100
AcDbSpline
210
0.0
220
0.0
230
1.0
 70
    24
 71
     2
 72
     6
 73
     3
 74
     0
 42
0.0000000001
 43
0.0000000001
 40
0.0
 40
0.0
 40
0.0
 40
13.41139470504999
 40
13.41139470504999
 40
13.41139470504999
 10
3823.306589298766
 20
106.6700675603462
 30
0.0
 10
3823.306589298766
 20
99.96437020782119
 30
0.0
 10
3823.306589298766
 20
93.2586728552962
 30
0.0
  0
SPLINE
  5
106
330
1F
100
AcDbEntity
  8
Predefinito
100
AcDbSpline
210
0.0
220
0.0
230
1.0
 70
    24
 71
     2
 72
     6
 73
     3
 74
     0
 42
0.0000000001
 43
0.0000000001
 40
0.0
 40
0.0
 40
0.0
 40
22.86878235695053
 40
22.86878235695053
 40
22.86878235695053
 10
3832.806589298766
 20
141.1274384535022
 30
0.0
 10
3832.806589298766
 20
129.693047275027
 30
0.0
 10
3832.806589298766
 20
118.2586560965517
 30
0.0
  0
SPLINE
  5
107
330
1F
100
AcDbEntity
  8
Predefinito
100
AcDbSpline
210
0.0
220
0.0
230
1.0
 70
    24
 71
     2
 72
     6
 73
     3
 74
     0
 42
0.0000000001
 43
0.0000000001
 40
0.0
 40
0.0
 40
0.0
 40
24.86878235695053
 40
24.86878235695053
 40
24.86878235695053
 10
3830.824041705202
 20
118.2586560965517
 30
0.0
 10
3830.824041705202
 20
130.693047275027
 30
0.0
 10
3830.824041705202
 20
143.1274384535022
 30
0.0
  0
SPLINE
  5
108
330
1F
100
AcDbEntity
  8
Predefinito
100
AcDbSpline
210
0.0
220
0.0
230
1.0
 70
    12
 71
     2
 72
     6
 73
     3
 74
     0
 42
0.0000000001
 43
0.0000000001
 40
0.0
 40
0.0
 40
0.0
 40
0.1114181707833077
 40
0.1114181707833077
 40
0.1114181707833077
 10
3807.053712287372
 20
106.6700675603462
 30
0.0
 41
1.0
 10
3807.055990827655
 20
106.7257300293465
 30
0.0
 41
0.999999998582014
 10
3807.058263439446
 20
106.7813927407132
 30
0.0
 41
1.0
  0
SPLINE
  5
109
330
1F
100
AcDbEntity
  8
Predefinito
100
AcDbSpline
210
0.0
220
0.0
230
1.0
 70
    24
 71
     2
 72
     6
 73
     3
 74
     0
 42
0.0000000001
 43
0.0000000001
 40
0.0
 40
0.0
 40
0.0
 40
16.2528770113945
 40
16.2528770113945
 40
16.2528770113945
 10
3823.306589298766
 20
106.6700675603462
 30
0.0
 10
3815.180150793069
 20
106.6700675603462
 30
0.0
 10
3807.053712287372
 20
106.6700675603462
 30
0.0
  0
SPLINE
  5
10A
330
1F
100
AcDbEntity
  8
Predefinito
100
AcDbSpline
210
0.0
220
0.0
230
1.0
 70
    24
 71
     2
 72
     6
 73
     3
 74
     0
 42
0.0000000001
 43
0.0000000001
 40
0.0
 40
0.0
 40
0.0
 40
16.25287701139405
 40
16.25287701139405
 40
16.25287701139405
 10
3807.053712287372
 20
129.8472446327647
 30
0.0
 10
3815.180150793069
 20
129.8472446327647
 30
0.0
 10
3823.306589298766
 20
129.8472446327647
 30
0.0
  0
SPLINE
  5
10B
330
1F
100
AcDbEntity
  8
Predefinito
100
AcDbSpline
210
0.0
220
0.0
230
1.0
 70
    12
 71
     2
 72
     6
 73
     3
 74
     0
 42
0.0000000001
 43
0.0000000001
 40
0.0
 40
0.0
 40
0.0
 40
0.1114181632823045
 40
0.1114181632823045
 40
0.1114181632823045
 10
3807.058263439345
 20
129.7359194599007
 30
0.0
 41
1.0
 10
3807.055990827606
 20
129.791582167516
 30
0.0
 41
0.9999999985820142
 10
3807.053712287372
 20
129.8472446327647
 30
0.0
 41
1.0
  0
SPLINE
  5
10C
330
1F
100
AcDbEntity
  8
Predefinito
100
AcDbSpline
210
0.0
220
0.0
230
1.0
 70
    12
 71
     2
 72
     6
 73
     3
 74
     0
 42
0.0000000001
 43
0.0000000001
 40
0.0
 40
0.0
 40
0.0
 40
22.95712726002762
 40
22.95712726002762
 40
22.95712726002762
 10
3807.058263439446
 20
106.7813927407132
 30
0.0
 41
1.0
 10
3807.357553870306
 20
118.2586561003083
 30
0.0
 41
0.9996601732579626
 10
3807.058263439345
 20
129.7359194599007
 30
0.0
 41
1.0
  0
SPLINE
  5
10D
330
1F
100
AcDbEntity
  8
Predefinito
100
AcDbSpline
210
0.0
220
0.0
230
1.0
 70
    24
 71
     2
 72
     6
 73
     3
 74
     0
 42
0.0000000001
 43
0.0000000001
 40
0.0
 40
0.0
 40
0.0
 40
0.0499999999999119
 40
0.0499999999999119
 40
0.0499999999999119
 10
3822.806589298766
 20
106.0086560965557
 30
0.0
 10
3822.806589298766
 20
106.0336560965557
 30
0.0
 10
3822.806589298766
 20
106.0586560965556
 30
0.0
  0
SPLINE
  5
10E
330
1F
100
AcDbEntity
  8
Predefinito
100
AcDbSpline
210
0.0
220
0.0
230
1.0
 70
    24
 71
     2
 72
     6
 73
     3
 74
     0
 42
0.0000000001
 43
0.0000000001
 40
0.0
 40
0.0
 40
0.0
 40
12.49874996875022
 40
12.49874996875022
 40
12.49874996875022
 10
3822.806589298766
 20
143.257406065304
 30
0.0
 10
3822.806589298766
 20
137.0080310809289
 30
0.0
 10
3822.806589298766
 20
130.7586560965538
 30
0.0
  0
SPLINE
  5
10F
330
1F
100
AcDbEntity
  8
Predefinito
100
AcDbSpline
210
0.0
220
0.0
230
1.0
 70
    24
 71
     2
 72
     6
 73
     3
 74
     0
 42
0.0000000001
 43
0.0000000001
 40
0.0
 40
0.0
 40
0.0
 40
1599.367997301076
 40
1599.367997301076
 40
1599.367997301076
 10
3822.806589298766
 20
143.257406065304
 30
0.0
 10
3023.122590648228
 20
143.257406065304
 30
0.0
 10
2223.43859199769
 20
143.257406065304
 30
0.0
  0
SPLINE
  5
110
330
1F
100
AcDbEntity
  8
Predefinito
100
AcDbSpline
210
0.0
220
0.0
230
1.0
 70
    24
 71
     2
 72
     6
 73
     3
 74
     0
 42
0.0000000001
 43
0.0000000001
 40
0.0
 40
0.0
 40
0.0
 40
0.2999999999999829
 40
0.2999999999999829
 40
0.2999999999999829
 10
3822.806589298766
 20
130.7586560965538
 30
0.0
 10
3822.806589298766
 20
130.6086560965538
 30
0.0
 10
3822.806589298766
 20
130.4586560965538
 30
0.0
  0
SPLINE
  5
111
330
1F
100
AcDbEntity
  8
Predefinito
100
AcDbSpline
210
0.0
220
0.0
230
1.0
 70
    24
 71
     2
 72
     6
 73
     3
 74
     0
 42
0.0000000001
 43
0.0000000001
 40
0.0
 40
0.0
 40
0.0
 40
1597.369381623974
 40
1597.369381623974
 40
1597.369381623974
 10
3822.806589298766
 20
130.7586560965538
 30
0.0
 10
3024.121898486779
 20
130.7586560965538
 30
0.0
 10
2225.437207674792
 20
130.7586560965538
 30
0.0
  0
SPLINE
  5
112
330
1F
100
AcDbEntity
  8
Predefinito
100
AcDbSpline
210
0.0
220
0.0
230
1.0
 70
    24
 71
     2
 72
     6
 73
     3
 74
     0
 42
0.0000000001
 43
0.0000000001
 40
0.0
 40
0.0
 40
0.0
 40
1597.338086784081
 40
1597.338086784081
 40
1597.338086784081
 10
2225.468502514685
 20
130.4586560965538
 30
0.0
 10
3024.137545906726
 20
130.4586560965538
 30
0.0
 10
3822.806589298766
 20
130.4586560965538
 30
0.0
  0
SPLINE
  5
113
330
1F
100
AcDbEntity
  8
Predefinito
100
AcDbSpline
210
0.0
220
0.0
230
1.0
 70
    24
 71
     2
 72
     6
 73
     3
 74
     0
 42
0.0000000001
 43
0.0000000001
 40
0.0
 40
0.0
 40
0.0
 40
12.4987499687484
 40
12.4987499687484
 40
12.4987499687484
 10
3822.806589298766
 20
105.7586560965555
 30
0.0
 10
3822.806589298766
 20
99.50928111218133
 30
0.0
 10
3822.806589298766
 20
93.25990612780713
 30
0.0
  0
SPLINE
  5
114
330
1F
100
AcDbEntity
  8
Predefinito
100
AcDbSpline
210
0.0
220
0.0
230
1.0
 70
    24
 71
     2
 72
     6
 73
     3
 74
     0
 42
0.0000000001
 43
0.0000000001
 40
0.0
 40
0.0
 40
0.0
 40
1599.383252463264
 40
1599.383252463264
 40
1599.383252463264
 10
3822.806589298766
 20
93.25990612780713
 30
0.0
 10
3023.114963067134
 20
93.25990612780713
 30
0.0
 10
2223.423336835502
 20
93.25990612780713
 30
0.0
  0
SPLINE
  5
115
330
1F
100
AcDbEntity
  8
Predefinito
100
AcDbSpline
210
0.0
220
0.0
230
1.0
 70
    24
 71
     2
 72
     6
 73
     3
 74
     0
 42
0.0000000001
 43
0.0000000001
 40
0.0
 40
0.0
 40
0.0
 40
0.2499999999697877
 40
0.2499999999697877
 40
0.2499999999697877
 10
3822.806589298766
 20
106.0086560965253
 30
0.0
 10
3822.806589298766
 20
105.8836560965404
 30
0.0
 10
3822.806589298766
 20
105.7586560965555
 30
0.0
  0
SPLINE
  5
116
330
1F
100
AcDbEntity
  8
Predefinito
100
AcDbSpline
210
0.0
220
0.0
230
1.0
 70
    24
 71
     2
 72
     6
 73
     3
 74
     0
 42
0.0000000001
 43
0.0000000001
 40
0.0
 40
0.0
 40
0.0
 40
1597.369940680386
 40
1597.369940680386
 40
1597.369940680386
 10
3822.806589298766
 20
105.7586560965555
 30
0.0
 10
3024.121618958573
 20
105.7586560965555
 30
0.0
 10
2225.43664861838
 20
105.7586560965555
 30
0.0
  0
SPLINE
  5
117
330
1F
100
AcDbEntity
  8
Predefinito
100
AcDbSpline
210
0.0
220
0.0
230
1.0
 70
    24
 71
     2
 72
     6
 73
     3
 74
     0
 42
0.0000000001
 43
0.0000000001
 40
0.0
 40
0.0
 40
0.0
 40
1597.338507561589
 40
1597.338507561589
 40
1597.338507561589
 10
3822.806589298766
 20
106.0586560965556
 30
0.0
 10
3024.137335517972
 20
106.0586560965556
 30
0.0
 10
2225.468081737177
 20
106.0586560965556
 30
0.0
  0
SPLINE
  5
118
330
1F
100
AcDbEntity
  8
Predefinito
100
AcDbSpline
210
0.0
220
0.0
230
1.0
 70
    24
 71
     2
 72
     6
 73
     3
 74
     0
 42
0.0000000001
 43
0.0000000001
 40
0.0
 40
0.0
 40
0.0
 40
15.98762776492896
 40
15.98762776492896
 40
15.98762776492896
 10
3822.806589298766
 20
130.0086560965555
 30
0.0
 10
3814.81277542777
 20
130.0082278909136
 30
0.0
 10
3806.818961556775
 20
130.0077996852716
 30
0.0
  0
SPLINE
  5
119
330
1F
100
AcDbEntity
  8
Predefinito
100
AcDbSpline
210
0.0
220
0.0
230
1.0
 70
    24
 71
     2
 72
     6
 73
     3
 74
     0
 42
0.0000000001
 43
0.0000000001
 40
0.0
 40
0.0
 40
0.0
 40
15.98762776492896
 40
15.98762776492896
 40
15.98762776492896
 10
3806.818961556775
 20
106.5095125078395
 30
0.0
 10
3814.81277542777
 20
106.5090843021975
 30
0.0
 10
3822.806589298766
 20
106.5086560965555
 30
0.0
  0
SPLINE
  5
11A
330
1F
100
AcDbEntity
  8
Predefinito
100
AcDbSpline
210
0.0
220
0.0
230
1.0
 70
    24
 71
     2
 72
     6
 73
     3
 74
     0
 42
0.0000000001
 43
0.0000000001
 40
0.0
 40
0.0
 40
0.0
 40
826.5776391446457
 40
826.5776391446457
 40
826.5776391446457
 10
2938.053386916082
 20
130.0086560965555
 30
0.0
 10
3351.342206488405
 20
130.0086560965555
 30
0.0
 10
3764.631026060728
 20
130.0086560965555
 30
0.0
  0
SPLINE
  5
11B
330
1F
100
AcDbEntity
  8
Predefinito
100
AcDbSpline
210
0.0
220
0.0
230
1.0
 70
    24
 71
     2
 72
     6
 73
     3
 74
     0
 42
0.0000000001
 43
0.0000000001
 40
0.0
 40
0.0
 40
0.0
 40
0.0777840642972478
 40
0.0777840642972478
 40
0.0777840642972478
 10
3806.806589298766
 20
129.9022046026731
 30
0.0
 10
3806.806589298766
 20
129.9410966348217
 30
0.0
 10
3806.806589298766
 20
129.9799886669703
 30
0.0
  0
SPLINE
  5
11C
330
1F
100
AcDbEntity
  8
Predefinito
100
AcDbSpline
210
0.0
220
0.0
230
1.0
 70
    24
 71
     2
 72
     6
 73
     3
 74
     0
 42
0.0000000001
 43
0.0000000001
 40
0.0
 40
0.0
 40
0.0
 40
23.28709701275085
 40
23.28709701275085
 40
23.28709701275085
 10
3806.806589298766
 20
106.6151075899222
 30
0.0
 10
3806.806589298766
 20
118.2586560962976
 30
0.0
 10
3806.806589298766
 20
129.9022046026731
 30
0.0
  0
SPLINE
  5
11D
330
1F
100
AcDbEntity
  8
Predefinito
100
AcDbSpline
210
0.0
220
0.0
230
1.0
 70
    24
 71
     2
 72
     6
 73
     3
 74
     0
 42
0.0000000001
 43
0.0000000001
 40
0.0
 40
0.0
 40
0.0
 40
0.1055950822037204
 40
0.1055950822037204
 40
0.1055950822037204
 10
3806.806589298766
 20
106.5095125077185
 30
0.0
 10
3806.806589298766
 20
106.5623100488204
 30
0.0
 10
3806.806589298766
 20
106.6151075899222
 30
0.0
  0
SPLINE
  5
11E
330
1F
100
AcDbEntity
  8
Predefinito
100
AcDbSpline
210
0.0
220
0.0
230
1.0
 70
    12
 71
     2
 72
     8
 73
     5
 74
     0
 42
0.0000000001
 43
0.0000000001
 40
0.0
 40
0.0
 40
0.0
 40
9.389142106659607
 40
9.389142106659607
 40
18.82075815315474
 40
18.82075815315474
 40
18.82075815315474
 10
3771.787170881822
 20
118.7521461448887
 30
0.0
 41
1.0
 10
3771.282360192775
 20
124.7049227441832
 30
0.0
 41
0.7076232505474574
 10
3765.328852254796
 20
124.2088115617839
 30
0.0
 41
1.0
 10
3759.352485396775
 20
123.7107825042201
 30
0.0
 41
0.7082869381213664
 10
3759.83054598755
 20
117.7327851944685
 30
0.0
 41
1.0
  0
SPLINE
  5
11F
330
1F
100
AcDbEntity
  8
Predefinito
100
AcDbSpline
210
0.0
220
0.0
230
1.0
 70
    12
 71
     2
 72
    10
 73
     7
 74
     0
 42
0.0000000001
 43
0.0000000001
 40
0.0
 40
0.0
 40
0.0
 40
4.708881348977023
 40
4.708881348977023
 40
9.417762697954046
 40
9.417762697954046
 40
18.84936830917767
 40
18.84936830917767
 40
18.84936830917767
 10
3759.830559676217
 20
117.7326150905893
 30
0.0
 41
1.0
 10
3760.028624075088
 20
115.2565110334289
 30
0.0
 41
0.9235617891012609
 10
3761.922216380432
 20
113.6488328973813
 30
0.0
 41
1.0
 10
3763.815808685778
 20
112.0411547613338
 30
0.0
 41
0.9235617891012609
 10
3766.291241958792
 20
112.2474335019606
 30
0.0
 41
1.0
 10
3772.267602725384
 20
112.7454554260418
 30
0.0
 41
0.7082869425974078
 10
3771.78954932351
 20
118.7234466266274
 30
0.0
 41
1.0
  0
SPLINE
  5
120
330
1F
100
AcDbEntity
  8
Predefinito
100
AcDbSpline
210
0.0
220
0.0
230
1.0
 70
    12
 71
     2
 72
     8
 73
     5
 74
     0
 42
0.0000000001
 43
0.0000000001
 40
0.0
 40
0.0
 40
0.0
 40
18.42865886411421
 40
18.42865886411421
 40
36.85662884975048
 40
36.85662884975048
 40
36.85662884975048
 10
3777.516370092995
 20
119.2407936647807
 30
0.0
 41
1.0
 10
3776.520222963457
 20
130.9202253951461
 30
0.0
 41
0.707954739166865
 10
3764.838434285809
 20
129.9521097312287
 30
0.0
 41
1.0
 10
3753.157330469495
 20
128.9840508244572
 30
0.0
 41
0.7079754420884353
 10
3754.096669003727
 20
117.3006023809282
 30
0.0
 41
1.0
  0
SPLINE
  5
121
330
1F
100
AcDbEntity
  8
Predefinito
100
AcDbSpline
210
0.0
220
0.0
230
1.0
 70
    12
 71
     2
 72
     8
 73
     5
 74
     0
 42
0.0000000001
 43
0.0000000001
 40
0.0
 40
0.0
 40
0.0
 40
18.40046088838469
 40
18.40046088838469
 40
36.85624441716919
 40
36.85624441716919
 40
36.85624441716919
 10
3754.101382012549
 20
117.2437124965282
 30
0.0
 41
1.0
 10
3755.095141410771
 20
105.5922759730327
 30
0.0
 41
0.708801677839144
 10
3766.751213413636
 20
106.5301012587937
 30
0.0
 41
1.0
 10
3778.462295430565
 20
107.4723525451983
 30
0.0
 41
0.7071390760034224
 10
3777.521113904163
 20
119.1835205837987
 30
0.0
 41
1.0
  0
SPLINE
  5
122
330
1F
100
AcDbEntity
  8
Predefinito
100
AcDbSpline
210
0.0
220
0.0
230
1.0
 70
    12
 71
     2
 72
     6
 73
     3
 74
     0
 42
0.0000000001
 43
0.0000000001
 40
0.0
 40
0.0
 40
0.0
 40
10.78740660697625
 40
10.78740660697625
 40
10.78740660697625
 10
106.5068754311644
 20
430.416912081628
 30
0.0
 41
1.0
 10
111.4135077149748
 20
432.8329180619259
 30
0.0
 41
0.9794226490675221
 10
116.8755624716716
 20
433.112351596438
 30
0.0
 41
1.0
  0
VIEWPORT
  5
12C
330
128
100
AcDbEntity
 67
     1
  8
0
100
AcDbViewport
 10
6.0
 20
4.5
 30
0.0
 40
12.696
 41
9.522
 68
     1
 69
     1
 12
6.0
 22
4.5
 13
0.0
 23
0.0
 14
0.5
 24
0.5
 15
0.5
 25
0.5
 16
0.0
 26
0.0
 36
1.0
 17
0.0
 27
0.0
 37
0.0
 42
50.0
 43
0.0
 44
0.0
 45
9.522
 50
0.0
 51
0.0
 72
   100
 90
   557152
  1

281
     0
 71
     1
 74
     0
110
0.0
120
0.0
130
0.0
111
1.0
121
0.0
131
0.0
112
0.0
122
1.0
132
0.0
 79
     0
146
0.0
170
     0
  0
ENDSEC
  0
SECTION
  2
OBJECTS
  0
DICTIONARY
  5
C
330
0
100
AcDbDictionary
281
     1
  3
ACAD_GROUP
350
D
  3
ACAD_LAYOUT
350
1A
  3
ACAD_MLEADERSTYLE
350
152
  3
ACAD_MLINESTYLE
350
17
  3
ACAD_PLOTSETTINGS
350
19
  3
ACAD_PLOTSTYLENAME
350
E
  3
ACAD_SCALELIST
350
12D
  3
ACAD_TABLESTYLE
350
151
  3
ACAD_VISUALSTYLE
350
2A
  3
AcDbVariableDictionary
350
14F
  0
DICTIONARY
  5
D
102
{ACAD_REACTORS
330
C
102
}
330
C
100
AcDbDictionary
281
     1
  0
DICTIONARY
  5
1A
102
{ACAD_REACTORS
330
C
102
}
330
C
100
AcDbDictionary
281
     1
  3
Layout1
350
124
  3
Layout2
350
129
  3
Model
350
22
  0
DICTIONARY
  5
152
102
{ACAD_REACTORS
330
C
102
}
330
C
100
AcDbDictionary
281
     1
  0
DICTIONARY
  5
17
102
{ACAD_REACTORS
330
C
102
}
330
C
100
AcDbDictionary
281
     1
  3
Standard
350
18
  0
DICTIONARY
  5
19
102
{ACAD_REACTORS
330
C
102
}
330
C
100
AcDbDictionary
281
     1
  0
ACDBDICTIONARYWDFLT
  5
E
102
{ACAD_REACTORS
330
C
102
}
330
C
100
AcDbDictionary
281
     1
  3
Normal
350
F
100
AcDbDictionaryWithDefault
340
F
  0
DICTIONARY
  5
12D
102
{ACAD_REACTORS
330
C
102
}
330
C
100
AcDbDictionary
281
     1
  3
A0
350
12E
  3
A1
350
12F
  3
A2
350
130
  3
A3
350
131
  3
A4
350
132
  3
A5
350
133
  3
A6
350
134
  3
A7
350
135
  3
A8
350
136
  3
A9
350
137
  3
B0
350
138
  3
B1
350
139
  3
B2
350
13A
  3
B3
350
13B
  3
B4
350
13C
  3
B5
350
13D
  3
B6
350
13E
  3
B7
350
13F
  3
B8
350
140
  3
B9
350
141
  3
C0
350
142
  3
C1
350
143
  3
C2
350
144
  3
C3
350
145
  3
C4
350
146
  3
C5
350
147
  3
C6
350
148
  3
C7
350
149
  3
C8
350
14A
  3
C9
350
14B
  3
D0
350
14C
  3
D1
350
14D
  3
D2
350
14E
  0
DICTIONARY
  5
151
102
{ACAD_REACTORS
330
C
102
}
330
C
100
AcDbDictionary
281
     1
  0
DICTIONARY
  5
2A
102
{ACAD_REACTORS
330
C
102
}
330
C
100
AcDbDictionary
281
     1
  3
2dWireframe
350
2F
  3
3D Hidden
350
31
  3
3dWireframe
350
30
  3
Basic
350
32
  3
Brighten
350
36
  3
ColorChange
350
3A
  3
Conceptual
350
34
  3
Dim
350
35
  3
Facepattern
350
39
  3
Flat
350
2B
  3
FlatWithEdges
350
2C
  3
Gouraud
350
2D
  3
GouraudWithEdges
350
2E
  3
Linepattern
350
38
  3
Realistic
350
33
  3
Thicken
350
37
  0
DICTIONARY
  5
14F
102
{ACAD_REACTORS
330
C
102
}
330
C
100
AcDbDictionary
281
     1
  3
CANNOSCALE
350
150
  0
LAYOUT
  5
124
102
{ACAD_REACTORS
330
1A
102
}
330
1A
100
AcDbPlotSettings
  1

  2
none_device
  4
Letter_(8.50_x_11.00_Inches)
  6

 40
6.35
 41
6.35
 42
6.35000508
 43
6.35000508
 44
215.9
 45
279.4
 46
0.0
 47
0.0
 48
0.0
 49
0.0
140
0.0
141
0.0
142
1.0
143
1.0
 70
   688
 72
     0
 73
     1
 74
     5
  7

 75
    16
 76
     0
 77
     2
 78
   300
147
1.0
148
0.0
149
0.0
100
AcDbLayout
  1
Layout1
 70
     1
 71
     1
 10
0.0
 20
0.0
 11
0.0
 21
0.0
 12
0.0
 22
0.0
 32
0.0
 14
0.0
 24
0.0
 34
0.0
 15
0.0
 25
0.0
 35
0.0
146
0.0
 13
0.0
 23
0.0
 33
0.0
 16
1.0
 26
0.0
 36
0.0
 17
0.0
 27
1.0
 37
0.0
 76
     0
330
123
331
127
  0
LAYOUT
  5
129
102
{ACAD_REACTORS
330
1A
102
}
330
1A
100
AcDbPlotSettings
  1

  2
none_device
  4
Letter_(8.50_x_11.00_Inches)
  6

 40
6.35
 41
6.35
 42
6.35000508
 43
6.35000508
 44
215.9
 45
279.4
 46
0.0
 47
0.0
 48
0.0
 49
0.0
140
0.0
141
0.0
142
1.0
143
1.0
 70
   688
 72
     0
 73
     1
 74
     5
  7

 75
    16
 76
     0
 77
     2
 78
   300
147
1.0
148
0.0
149
0.0
100
AcDbLayout
  1
Layout2
 70
     1
 71
     2
 10
0.0
 20
0.0
 11
0.0
 21
0.0
 12
0.0
 22
0.0
 32
0.0
 14
0.0
 24
0.0
 34
0.0
 15
0.0
 25
0.0
 35
0.0
146
0.0
 13
0.0
 23
0.0
 33
0.0
 16
1.0
 26
0.0
 36
0.0
 17
0.0
 27
1.0
 37
0.0
 76
     0
330
128
331
12C
  0
LAYOUT
  5
22
102
{ACAD_REACTORS
330
1A
102
}
330
1A
100
AcDbPlotSettings
  1

  2
none_device
  4

  6

 40
0.0
 41
0.0
 42
0.0
 43
0.0
 44
0.0
 45
0.0
 46
0.0
 47
0.0
 48
0.0
 49
0.0
140
0.0
141
0.0
142
1.0
143
1.0
 70
  1712
 72
     0
 73
     0
 74
     0
  7

 75
     0
 76
     0
 77
     2
 78
   300
147
1.0
148
0.0
149
0.0
100
AcDbLayout
  1
Model
 70
     1
 71
     0
 10
0.0
 20
0.0
 11
12.0
 21
9.0
 12
0.0
 22
0.0
 32
0.0
 14
0.0000015325927744
 24
0.121690139914628
 34
0.0
 15
3832.806589298766
 25
482.8500544377522
 35
0.0
146
0.0
 13
0.0
 23
0.0
 33
0.0
 16
1.0
 26
0.0
 36
0.0
 17
0.0
 27
1.0
 37
0.0
 76
     0
330
1F
331
29
  0
MLINESTYLE
  5
18
102
{ACAD_REACTORS
330
17
102
}
330
17
100
AcDbMlineStyle
  2
Standard
 70
     0
  3

 62
   256
 51
90.0
 52
90.0
 71
     2
 49
0.5
 62
   256
  6
BYLAYER
 49
-0.5
 62
   256
  6
BYLAYER
  0
ACDBPLACEHOLDER
  5
F
102
{ACAD_REACTORS
330
E
102
}
330
E
  0
SCALE
  5
12E
102
{ACAD_REACTORS
330
12D
102
}
330
12D
100
AcDbScale
 70
     0
300
1:1
140
1.0
141
1.0
290
     1
  0
SCALE
  5
12F
102
{ACAD_REACTORS
330
12D
102
}
330
12D
100
AcDbScale
 70
     0
300
1:2
140
1.0
141
2.0
290
     0
  0
SCALE
  5
130
102
{ACAD_REACTORS
330
12D
102
}
330
12D
100
AcDbScale
 70
     0
300
1:4
140
1.0
141
4.0
290
     0
  0
SCALE
  5
131
102
{ACAD_REACTORS
330
12D
102
}
330
12D
100
AcDbScale
 70
     0
300
1:5
140
1.0
141
5.0
290
     0
  0
SCALE
  5
132
102
{ACAD_REACTORS
330
12D
102
}
330
12D
100
AcDbScale
 70
     0
300
1:8
140
1.0
141
8.0
290
     0
  0
SCALE
  5
133
102
{ACAD_REACTORS
330
12D
102
}
330
12D
100
AcDbScale
 70
     0
300
1:10
140
1.0
141
10.0
290
     0
  0
SCALE
  5
134
102
{ACAD_REACTORS
330
12D
102
}
330
12D
100
AcDbScale
 70
     0
300
1:16
140
1.0
141
16.0
290
     0
  0
SCALE
  5
135
102
{ACAD_REACTORS
330
12D
102
}
330
12D
100
AcDbScale
 70
     0
300
1:20
140
1.0
141
20.0
290
     0
  0
SCALE
  5
136
102
{ACAD_REACTORS
330
12D
102
}
330
12D
100
AcDbScale
 70
     0
300
1:30
140
1.0
141
30.0
290
     0
  0
SCALE
  5
137
102
{ACAD_REACTORS
330
12D
102
}
330
12D
100
AcDbScale
 70
     0
300
1:40
140
1.0
141
40.0
290
     0
  0
SCALE
  5
138
102
{ACAD_REACTORS
330
12D
102
}
330
12D
100
AcDbScale
 70
     0
300
1:50
140
1.0
141
50.0
290
     0
  0
SCALE
  5
139
102
{ACAD_REACTORS
330
12D
102
}
330
12D
100
AcDbScale
 70
     0
300
1:100
140
1.0
141
100.0
290
     0
  0
SCALE
  5
13A
102
{ACAD_REACTORS
330
12D
102
}
330
12D
100
AcDbScale
 70
     0
300
2:1
140
2.0
141
1.0
290
     0
  0
SCALE
  5
13B
102
{ACAD_REACTORS
330
12D
102
}
330
12D
100
AcDbScale
 70
     0
300
4:1
140
4.0
141
1.0
290
     0
  0
SCALE
  5
13C
102
{ACAD_REACTORS
330
12D
102
}
330
12D
100
AcDbScale
 70
     0
300
8:1
140
8.0
141
1.0
290
     0
  0
SCALE
  5
13D
102
{ACAD_REACTORS
330
12D
102
}
330
12D
100
AcDbScale
 70
     0
300
10:1
140
10.0
141
1.0
290
     0
  0
SCALE
  5
13E
102
{ACAD_REACTORS
330
12D
102
}
330
12D
100
AcDbScale
 70
     0
300
100:1
140
100.0
141
1.0
290
     0
  0
SCALE
  5
13F
102
{ACAD_REACTORS
330
12D
102
}
330
12D
100
AcDbScale
 70
     0
300
1/128" = 1'-0"
140
0.0078125
141
12.0
290
     0
  0
SCALE
  5
140
102
{ACAD_REACTORS
330
12D
102
}
330
12D
100
AcDbScale
 70
     0
300
1/64" = 1'-0"
140
0.015625
141
12.0
290
     0
  0
SCALE
  5
141
102
{ACAD_REACTORS
330
12D
102
}
330
12D
100
AcDbScale
 70
     0
300
1/32" = 1'-0"
140
0.03125
141
12.0
290
     0
  0
SCALE
  5
142
102
{ACAD_REACTORS
330
12D
102
}
330
12D
100
AcDbScale
 70
     0
300
1/16" = 1'-0"
140
0.0625
141
12.0
290
     0
  0
SCALE
  5
143
102
{ACAD_REACTORS
330
12D
102
}
330
12D
100
AcDbScale
 70
     0
300
3/32" = 1'-0"
140
0.09375
141
12.0
290
     0
  0
SCALE
  5
144
102
{ACAD_REACTORS
330
12D
102
}
330
12D
100
AcDbScale
 70
     0
300
1/8" = 1'-0"
140
0.125
141
12.0
290
     0
  0
SCALE
  5
145
102
{ACAD_REACTORS
330
12D
102
}
330
12D
100
AcDbScale
 70
     0
300
3/16" = 1'-0"
140
0.1875
141
12.0
290
     0
  0
SCALE
  5
146
102
{ACAD_REACTORS
330
12D
102
}
330
12D
100
AcDbScale
 70
     0
300
1/4" = 1'-0"
140
0.25
141
12.0
290
     0
  0
SCALE
  5
147
102
{ACAD_REACTORS
330
12D
102
}
330
12D
100
AcDbScale
 70
     0
300
3/8" = 1'-0"
140
0.375
141
12.0
290
     0
  0
SCALE
  5
148
102
{ACAD_REACTORS
330
12D
102
}
330
12D
100
AcDbScale
 70
     0
300
1/2" = 1'-0"
140
0.5
141
12.0
290
     0
  0
SCALE
  5
149
102
{ACAD_REACTORS
330
12D
102
}
330
12D
100
AcDbScale
 70
     0
300
3/4" = 1'-0"
140
0.75
141
12.0
290
     0
  0
SCALE
  5
14A
102
{ACAD_REACTORS
330
12D
102
}
330
12D
100
AcDbScale
 70
     0
300
1" = 1'-0"
140
1.0
141
12.0
290
     0
  0
SCALE
  5
14B
102
{ACAD_REACTORS
330
12D
102
}
330
12D
100
AcDbScale
 70
     0
300
1-1/2" = 1'-0"
140
1.5
141
12.0
290
     0
  0
SCALE
  5
14C
102
{ACAD_REACTORS
330
12D
102
}
330
12D
100
AcDbScale
 70
     0
300
3" = 1'-0"
140
3.0
141
12.0
290
     0
  0
SCALE
  5
14D
102
{ACAD_REACTORS
330
12D
102
}
330
12D
100
AcDbScale
 70
     0
300
6" = 1'-0"
140
6.0
141
12.0
290
     0
  0
SCALE
  5
14E
102
{ACAD_REACTORS
330
12D
102
}
330
12D
100
AcDbScale
 70
     0
300
1'-0" = 1'-0"
140
12.0
141
12.0
290
     0
  0
VISUALSTYLE
  5
2F
102
{ACAD_REACTORS
330
2A
102
}
330
2A
100
AcDbVisualStyle
  2
2dWireframe
 70
     4
 71
     0
 72
     2
 73
     0
 90
        0
 40
-0.6
 41
-30.0
 62
     5
 63
     7
421
 16777215
 74
     1
 91
        4
 64
     7
 65
   257
 75
     1
175
     1
 42
1.0
 92
        0
 66
   257
 43
1.0
 76
     1
 77
     6
 78
     2
 67
     7
 79
     5
170
     0
171
     0
290
     0
174
     0
 93
        1
 44
0.0
173
     0
291
     0
 45
0.0
1001
ACAD
1000
AcDbSavedByObjectVersion
1070
     0
  0
VISUALSTYLE
  5
31
102
{ACAD_REACTORS
330
2A
102
}
330
2A
100
AcDbVisualStyle
  2
3D Hidden
 70
     6
 71
     1
 72
     2
 73
     2
 90
        0
 40
-0.6
 41
-30.0
 62
     5
 63
     7
421
 16777215
 74
     2
 91
        2
 64
     7
 65
   257
 75
     2
175
     1
 42
40.0
 92
        0
 66
   257
 43
1.0
 76
     1
 77
     6
 78
     2
 67
     7
 79
     3
170
     0
171
     0
290
     0
174
     0
 93
        1
 44
0.0
173
     0
291
     0
 45
0.0
1001
ACAD
1000
AcDbSavedByObjectVersion
1070
     0
  0
VISUALSTYLE
  5
30
102
{ACAD_REACTORS
330
2A
102
}
330
2A
100
AcDbVisualStyle
  2
3dWireframe
 70
     5
 71
     0
 72
     2
 73
     0
 90
        0
 40
-0.6
 41
-30.0
 62
     5
 63
     7
421
 16777215
 74
     1
 91
        4
 64
     7
 65
   257
 75
     1
175
     1
 42
1.0
 92
        0
 66
   257
 43
1.0
 76
     1
 77
     6
 78
     2
 67
     7
 79
     5
170
     0
171
     0
290
     0
174
     0
 93
        1
 44
0.0
173
     0
291
     0
 45
0.0
1001
ACAD
1000
AcDbSavedByObjectVersion
1070
     0
  0
VISUALSTYLE
  5
32
102
{ACAD_REACTORS
330
2A
102
}
330
2A
100
AcDbVisualStyle
  2
Basic
 70
     7
 71
     1
 72
     0
 73
     1
 90
        0
 40
-0.6
 41
-30.0
 62
     5
 63
     7
421
 16777215
 74
     0
 91
        4
 64
     7
 65
   257
 75
     1
175
     1
 42
1.0
 92
        8
 66
     7
 43
1.0
 76
     1
 77
     6
 78
     2
 67
     7
 79
     5
170
     0
171
     0
290
     0
174
     0
 93
        1
 44
0.0
173
     0
291
     1
 45
0.0
1001
ACAD
1000
AcDbSavedByObjectVersion
1070
     0
  0
VISUALSTYLE
  5
36
102
{ACAD_REACTORS
330
2A
102
}
330
2A
100
AcDbVisualStyle
  2
Brighten
 70
    12
 71
     2
 72
     2
 73
     0
 90
        0
 40
-0.6
 41
-30.0
 62
     5
 63
     7
421
 16777215
 74
     1
 91
        4
 64
     7
 65
   257
 75
     1
175
     1
 42
1.0
 92
        8
 66
     7
 43
1.0
 76
     1
 77
     6
 78
     2
 67
     7
 79
     5
170
     0
171
     0
290
     0
174
     0
 93
        1
 44
50.0
173
     0
291
     1
 45
0.0
1001
ACAD
1000
AcDbSavedByObjectVersion
1070
     0
  0
VISUALSTYLE
  5
3A
102
{ACAD_REACTORS
330
2A
102
}
330
2A
100
AcDbVisualStyle
  2
ColorChange
 70
    16
 71
     2
 72
     2
 73
     3
 90
        0
 40
-0.6
 41
-30.0
 62
     5
 63
     8
421
  8421504
 74
     1
 91
        4
 64
     7
 65
   257
 75
     1
175
     1
 42
1.0
 92
        8
 66
     8
424
  8421504
 43
1.0
 76
     1
 77
     6
 78
     2
 67
     7
 79
     5
170
     0
171
     0
290
     0
174
     0
 93
        1
 44
0.0
173
     0
291
     1
 45
0.0
1001
ACAD
1000
AcDbSavedByObjectVersion
1070
     0
  0
VISUALSTYLE
  5
34
102
{ACAD_REACTORS
330
2A
102
}
330
2A
100
AcDbVisualStyle
  2
Conceptual
 70
     9
 71
     3
 72
     2
 73
     0
 90
        0
 40
-0.6
 41
-30.0
 62
     5
 63
     7
421
 16777215
 74
     2
 91
        2
 64
     7
 65
   257
 75
     1
175
     1
 42
40.0
 92
        8
 66
     7
 43
1.0
 76
     1
 77
     6
 78
     2
 67
     7
 79
     3
170
     0
171
     0
290
     0
174
     0
 93
        1
 44
0.0
173
     0
291
     0
 45
0.0
1001
ACAD
1000
AcDbSavedByObjectVersion
1070
     0
  0
VISUALSTYLE
  5
35
102
{ACAD_REACTORS
330
2A
102
}
330
2A
100
AcDbVisualStyle
  2
Dim
 70
    11
 71
     2
 72
     2
 73
     0
 90
        0
 40
-0.6
 41
-30.0
 62
     5
 63
     7
421
 16777215
 74
     1
 91
        4
 64
     7
 65
   257
 75
     1
175
     1
 42
1.0
 92
        8
 66
     7
 43
1.0
 76
     1
 77
     6
 78
     2
 67
     7
 79
     5
170
     0
171
     0
290
     0
174
     0
 93
        1
 44
-50.0
173
     0
291
     1
 45
0.0
1001
ACAD
1000
AcDbSavedByObjectVersion
1070
     0
  0
VISUALSTYLE
  5
39
102
{ACAD_REACTORS
330
2A
102
}
330
2A
100
AcDbVisualStyle
  2
Facepattern
 70
    15
 71
     2
 72
     2
 73
     0
 90
        0
 40
-0.6
 41
-30.0
 62
     5
 63
     7
421
 16777215
 74
     1
 91
        4
 64
     7
 65
   257
 75
     1
175
     1
 42
1.0
 92
        8
 66
     7
 43
1.0
 76
     1
 77
     6
 78
     2
 67
     7
 79
     5
170
     0
171
     0
290
     0
174
     0
 93
        1
 44
0.0
173
     0
291
     1
 45
0.0
1001
ACAD
1000
AcDbSavedByObjectVersion
1070
     0
  0
VISUALSTYLE
  5
2B
102
{ACAD_REACTORS
330
2A
102
}
330
2A
100
AcDbVisualStyle
  2
Flat
 70
     0
 71
     2
 72
     1
 73
     1
 90
        2
 40
-0.6
 41
30.0
 62
     5
 63
     7
421
 16777215
 74
     0
 91
        4
 64
     7
 65
   257
 75
     1
175
     1
 42
1.0
 92
        8
 66
     7
 43
1.0
 76
     1
 77
     6
 78
     2
 67
     7
 79
     5
170
     0
171
     0
290
     0
174
     0
 93
       13
 44
0.0
173
     0
291
     1
 45
0.0
1001
ACAD
1000
AcDbSavedByObjectVersion
1070
     0
  0
VISUALSTYLE
  5
2C
102
{ACAD_REACTORS
330
2A
102
}
330
2A
100
AcDbVisualStyle
  2
FlatWithEdges
 70
     1
 71
     2
 72
     1
 73
     1
 90
        2
 40
-0.6
 41
30.0
 62
     5
 63
     7
421
 16777215
 74
     1
 91
        4
 64
     7
 65
   257
 75
     1
175
     1
 42
1.0
 92
        0
 66
   257
 43
1.0
 76
     1
 77
     6
 78
     2
 67
     7
 79
     5
170
     0
171
     0
290
     0
174
     0
 93
       13
 44
0.0
173
     0
291
     1
 45
0.0
1001
ACAD
1000
AcDbSavedByObjectVersion
1070
     0
  0
VISUALSTYLE
  5
2D
102
{ACAD_REACTORS
330
2A
102
}
330
2A
100
AcDbVisualStyle
  2
Gouraud
 70
     2
 71
     2
 72
     2
 73
     1
 90
        2
 40
-0.6
 41
30.0
 62
     5
 63
     7
421
 16777215
 74
     0
 91
        4
 64
     7
 65
   257
 75
     1
175
     1
 42
1.0
 92
        0
 66
     7
 43
1.0
 76
     1
 77
     6
 78
     2
 67
     7
 79
     5
170
     0
171
     0
290
     0
174
     0
 93
       13
 44
0.0
173
     0
291
     1
 45
0.0
1001
ACAD
1000
AcDbSavedByObjectVersion
1070
     0
  0
VISUALSTYLE
  5
2E
102
{ACAD_REACTORS
330
2A
102
}
330
2A
100
AcDbVisualStyle
  2
GouraudWithEdges
 70
     3
 71
     2
 72
     2
 73
     1
 90
        2
 40
-0.6
 41
30.0
 62
     5
 63
     7
421
 16777215
 74
     1
 91
        4
 64
     7
 65
   257
 75
     1
175
     1
 42
1.0
 92
        0
 66
   257
 43
1.0
 76
     1
 77
     6
 78
     2
 67
     7
 79
     5
170
     0
171
     0
290
     0
174
     0
 93
       13
 44
0.0
173
     0
291
     1
 45
0.0
1001
ACAD
1000
AcDbSavedByObjectVersion
1070
     0
  0
VISUALSTYLE
  5
38
102
{ACAD_REACTORS
330
2A
102
}
330
2A
100
AcDbVisualStyle
  2
Linepattern
 70
    14
 71
     2
 72
     2
 73
     0
 90
        0
 40
-0.6
 41
-30.0
 62
     5
 63
     7
421
 16777215
 74
     1
 91
        4
 64
     7
 65
   257
 75
     7
175
     7
 42
1.0
 92
        8
 66
     7
 43
1.0
 76
     1
 77
     6
 78
     2
 67
     7
 79
     5
170
     0
171
     0
290
     0
174
     0
 93
        1
 44
0.0
173
     0
291
     1
 45
0.0
1001
ACAD
1000
AcDbSavedByObjectVersion
1070
     0
  0
VISUALSTYLE
  5
33
102
{ACAD_REACTORS
330
2A
102
}
330
2A
100
AcDbVisualStyle
  2
Realistic
 70
     8
 71
     2
 72
     2
 73
     0
 90
        0
 40
-0.6
 41
-30.0
 62
     5
 63
     7
421
 16777215
 74
     1
 91
        0
 64
     7
 65
   257
 75
     1
175
     1
 42
1.0
 92
        8
 66
     8
424
  7895160
 43
1.0
 76
     1
 77
     6
 78
     2
 67
     7
 79
     5
170
     0
171
     0
290
     0
174
     0
 93
       13
 44
0.0
173
     0
291
     0
 45
0.0
1001
ACAD
1000
AcDbSavedByObjectVersion
1070
     0
  0
VISUALSTYLE
  5
37
102
{ACAD_REACTORS
330
2A
102
}
330
2A
100
AcDbVisualStyle
  2
Thicken
 70
    13
 71
     2
 72
     2
 73
     0
 90
        0
 40
-0.6
 41
-30.0
 62
     5
 63
     7
421
 16777215
 74
     1
 91
        4
 64
     7
 65
   257
 75
     1
175
     1
 42
1.0
 92
       12
 66
     7
 43
1.0
 76
     1
 77
     6
 78
     2
 67
     7
 79
     5
170
     0
171
     0
290
     0
174
     0
 93
        1
 44
0.0
173
     0
291
     1
 45
0.0
1001
ACAD
1000
AcDbSavedByObjectVersion
1070
     0
  0
DICTIONARYVAR
  5
150
102
{ACAD_REACTORS
330
14F
102
}
330
14F
100
DictionaryVariables
280
     0
  1
1:1
  0
ENDSEC
  0
EOF
