  0
SECTION
  2
HEADER
  9
$ACADVER
  1
AC1018
  9
$ACADMAINTVER
 70
     0
  9
$DWGCODEPAGE
  3
ANSI_1252
  9
$INSBASE
 10
0.0
 20
0.0
 30
0.0
  9
$EXTMIN
 10
0.0000078943121276
 20
0.0000674523652941
 30
0.0
  9
$EXTMAX
 10
1438.836405279479
 20
1829.763200147405
 30
0.0
  9
$LIMMIN
 10
0.0
 20
0.0
  9
$LIMMAX
 10
12.0
 20
9.0
  9
$ORTHOMODE
 70
     0
  9
$REGENMODE
 70
     1
  9
$FILLMODE
 70
     1
  9
$QTEXTMODE
 70
     0
  9
$MIRRTEXT
 70
     1
  9
$LTSCALE
 40
1.0
  9
$ATTMODE
 70
     1
  9
$TEXTSIZE
 40
0.2
  9
$TRACEWID
 40
0.05
  9
$TEXTSTYLE
  7
Standard
  9
$CLAYER
  8
PREDEFINITO
  9
$CELTYPE
  6
ByLayer
  9
$CECOLOR
 62
   256
  9
$CELTSCALE
 40
1.0
  9
$DISPSILH
 70
     0
  9
$DIMSCALE
 40
1.0
  9
$DIMASZ
 40
0.18
  9
$DIMEXO
 40
0.0625
  9
$DIMDLI
 40
0.38
  9
$DIMRND
 40
0.0
  9
$DIMDLE
 40
0.0
  9
$DIMEXE
 40
0.18
  9
$DIMTP
 40
0.0
  9
$DIMTM
 40
0.0
  9
$DIMTXT
 40
0.18
  9
$DIMCEN
 40
0.09
  9
$DIMTSZ
 40
0.0
  9
$DIMTOL
 70
     0
  9
$DIMLIM
 70
     0
  9
$DIMTIH
 70
     1
  9
$DIMTOH
 70
     1
  9
$DIMSE1
 70
     0
  9
$DIMSE2
 70
     0
  9
$DIMTAD
 70
     0
  9
$DIMZIN
 70
     0
  9
$DIMBLK
  1

  9
$DIMASO
 70
     1
  9
$DIMSHO
 70
     1
  9
$DIMPOST
  1

  9
$DIMAPOST
  1

  9
$DIMALT
 70
     0
  9
$DIMALTD
 70
     2
  9
$DIMALTF
 40
25.4
  9
$DIMLFAC
 40
1.0
  9
$DIMTOFL
 70
     0
  9
$DIMTVP
 40
0.0
  9
$DIMTIX
 70
     0
  9
$DIMSOXD
 70
     0
  9
$DIMSAH
 70
     0
  9
$DIMBLK1
  1

  9
$DIMBLK2
  1

  9
$DIMSTYLE
  2
Standard
  9
$DIMCLRD
 70
     0
  9
$DIMCLRE
 70
     0
  9
$DIMCLRT
 70
     0
  9
$DIMTFAC
 40
1.0
  9
$DIMGAP
 40
0.09
  9
$DIMJUST
 70
     0
  9
$DIMSD1
 70
     0
  9
$DIMSD2
 70
     0
  9
$DIMTOLJ
 70
     1
  9
$DIMTZIN
 70
     0
  9
$DIMALTZ
 70
     0
  9
$DIMALTTZ
 70
     0
  9
$DIMUPT
 70
     0
  9
$DIMDEC
 70
     4
  9
$DIMTDEC
 70
     4
  9
$DIMALTU
 70
     2
  9
$DIMALTTD
 70
     2
  9
$DIMTXSTY
  7
Standard
  9
$DIMAUNIT
 70
     0
  9
$DIMADEC
 70
     0
  9
$DIMALTRND
 40
0.0
  9
$DIMAZIN
 70
     0
  9
$DIMDSEP
 70
    46
  9
$DIMATFIT
 70
     3
  9
$DIMFRAC
 70
     0
  9
$DIMLDRBLK
  1

  9
$DIMLUNIT
 70
     2
  9
$DIMLWD
 70
    -2
  9
$DIMLWE
 70
    -2
  9
$DIMTMOVE
 70
     0
  9
$LUNITS
 70
     2
  9
$LUPREC
 70
     3
  9
$SKETCHINC
 40
0.1
  9
$FILLETRAD
 40
0.5
  9
$AUNITS
 70
     0
  9
$AUPREC
 70
     0
  9
$MENU
  1
.
  9
$ELEVATION
 40
0.0
  9
$PELEVATION
 40
0.0
  9
$THICKNESS
 40
0.0
  9
$LIMCHECK
 70
     0
  9
$CHAMFERA
 40
0.5
  9
$CHAMFERB
 40
0.5
  9
$CHAMFERC
 40
1.0
  9
$CHAMFERD
 40
0.0
  9
$SKPOLY
 70
     0
  9
$TDCREATE
 40
2455862.628874965
  9
$TDUCREATE
 40
2455862.545541632
  9
$TDUPDATE
 40
2455862.628874977
  9
$TDUUPDATE
 40
2455862.545541644
  9
$TDINDWG
 40
0.0000000116
  9
$TDUSRTIMER
 40
0.0000000116
  9
$USRTIMER
 70
     1
  9
$ANGBASE
 50
0.0
  9
$ANGDIR
 70
     0
  9
$PDMODE
 70
     0
  9
$PDSIZE
 40
0.0
  9
$PLINEWID
 40
0.0
  9
$SPLFRAME
 70
     0
  9
$SPLINETYPE
 70
     6
  9
$SPLINESEGS
 70
     8
  9
$HANDSEED
  5
1BB
  9
$SURFTAB1
 70
     6
  9
$SURFTAB2
 70
     6
  9
$SURFTYPE
 70
     6
  9
$SURFU
 70
     6
  9
$SURFV
 70
     6
  9
$UCSBASE
  2

  9
$UCSNAME
  2

  9
$UCSORG
 10
0.0
 20
0.0
 30
0.0
  9
$UCSXDIR
 10
1.0
 20
0.0
 30
0.0
  9
$UCSYDIR
 10
0.0
 20
1.0
 30
0.0
  9
$UCSORTHOREF
  2

  9
$UCSORTHOVIEW
 70
     0
  9
$UCSORGTOP
 10
0.0
 20
0.0
 30
0.0
  9
$UCSORGBOTTOM
 10
0.0
 20
0.0
 30
0.0
  9
$UCSORGLEFT
 10
0.0
 20
0.0
 30
0.0
  9
$UCSORGRIGHT
 10
0.0
 20
0.0
 30
0.0
  9
$UCSORGFRONT
 10
0.0
 20
0.0
 30
0.0
  9
$UCSORGBACK
 10
0.0
 20
0.0
 30
0.0
  9
$PUCSBASE
  2

  9
$PUCSNAME
  2

  9
$PUCSORG
 10
0.0
 20
0.0
 30
0.0
  9
$PUCSXDIR
 10
1.0
 20
0.0
 30
0.0
  9
$PUCSYDIR
 10
0.0
 20
1.0
 30
0.0
  9
$PUCSORTHOREF
  2

  9
$PUCSORTHOVIEW
 70
     0
  9
$PUCSORGTOP
 10
0.0
 20
0.0
 30
0.0
  9
$PUCSORGBOTTOM
 10
0.0
 20
0.0
 30
0.0
  9
$PUCSORGLEFT
 10
0.0
 20
0.0
 30
0.0
  9
$PUCSORGRIGHT
 10
0.0
 20
0.0
 30
0.0
  9
$PUCSORGFRONT
 10
0.0
 20
0.0
 30
0.0
  9
$PUCSORGBACK
 10
0.0
 20
0.0
 30
0.0
  9
$USERI1
 70
     0
  9
$USERI2
 70
     0
  9
$USERI3
 70
     0
  9
$USERI4
 70
     0
  9
$USERI5
 70
     0
  9
$USERR1
 40
0.0
  9
$USERR2
 40
0.0
  9
$USERR3
 40
0.0
  9
$USERR4
 40
0.0
  9
$USERR5
 40
0.0
  9
$WORLDVIEW
 70
     1
  9
$SHADEDGE
 70
     3
  9
$SHADEDIF
 70
    70
  9
$TILEMODE
 70
     1
  9
$MAXACTVP
 70
    64
  9
$PINSBASE
 10
0.0
 20
0.0
 30
0.0
  9
$PLIMCHECK
 70
     0
  9
$PEXTMIN
 10
1.000000000000000E+20
 20
1.000000000000000E+20
 30
1.000000000000000E+20
  9
$PEXTMAX
 10
-1.000000000000000E+20
 20
-1.000000000000000E+20
 30
-1.000000000000000E+20
  9
$PLIMMIN
 10
0.0
 20
0.0
  9
$PLIMMAX
 10
12.0
 20
9.0
  9
$UNITMODE
 70
     0
  9
$VISRETAIN
 70
     1
  9
$PLINEGEN
 70
     0
  9
$PSLTSCALE
 70
     1
  9
$TREEDEPTH
 70
  3020
  9
$CMLSTYLE
  2
Standard
  9
$CMLJUST
 70
     0
  9
$CMLSCALE
 40
1.0
  9
$PROXYGRAPHICS
 70
     1
  9
$MEASUREMENT
 70
     0
  9
$CELWEIGHT
370
    -1
  9
$ENDCAPS
280
     0
  9
$JOINSTYLE
280
     0
  9
$LWDISPLAY
290
     0
  9
$INSUNITS
 70
     4
  9
$HYPERLINKBASE
  1

  9
$STYLESHEET
  1

  9
$XEDIT
290
     1
  9
$CEPSNTYPE
380
     0
  9
$PSTYLEMODE
290
     1
  9
$FINGERPRINTGUID
  2
{D892B245-9D99-4F21-9D62-45EE7C624D60}
  9
$VERSIONGUID
  2
{FAEB1C32-E019-11D5-929B-00C0DF256EC4}
  9
$EXTNAMES
290
     1
  9
$PSVPSCALE
 40
0.0
  9
$OLESTARTUP
290
     0
  9
$SORTENTS
280
   127
  9
$INDEXCTL
280
     0
  9
$HIDETEXT
280
     1
  9
$XCLIPFRAME
290
     0
  9
$HALOGAP
280
     0
  9
$OBSCOLOR
 70
   257
  9
$OBSLTYPE
280
     0
  9
$INTERSECTIONDISPLAY
280
     0
  9
$INTERSECTIONCOLOR
 70
   257
  9
$DIMASSOC
280
     2
  9
$PROJECTNAME
  1

  0
ENDSEC
  0
SECTION
  2
CLASSES
  0
CLASS
  1
ACDBDICTIONARYWDFLT
  2
AcDbDictionaryWithDefault
  3
ObjectDBX Classes
 90
        0
 91
        3
280
     0
281
     0
  0
CLASS
  1
VISUALSTYLE
  2
AcDbVisualStyle
  3
ObjectDBX Classes
 90
     4095
 91
        3
280
     0
281
     0
  0
CLASS
  1
SCALE
  2
AcDbScale
  3
ObjectDBX Classes
 90
     1153
 91
        3
280
     0
281
     0
  0
ENDSEC
  0
SECTION
  2
TABLES
  0
TABLE
  2
VPORT
  5
8
330
0
100
AcDbSymbolTable
 70
     1
  0
VPORT
  5
29
330
8
100
AcDbSymbolTableRecord
100
AcDbViewportTableRecord
  2
*Active
 70
     0
 10
0.0
 20
0.0
 11
1.0
 21
1.0
 12
0.0
 22
0.0
 13
0.0
 23
0.0
 14
0.5
 24
0.5
 15
0.5
 25
0.5
 16
0.0
 26
0.0
 36
1.0
 17
719.4182065868954
 27
914.8816337998851
 37
0.0
 40
1866.35839534894
 41
0.7863511793823931
 42
50.0
 43
0.0
 44
0.0
 50
0.0
 51
0.0
 71
     0
 72
   100
 73
     1
 74
     3
 75
     0
 76
     0
 77
     0
 78
     0
281
     0
 65
     1
110
0.0
120
0.0
130
0.0
111
1.0
121
0.0
131
0.0
112
0.0
122
1.0
132
0.0
 79
     0
146
0.0
  0
ENDTAB
  0
TABLE
  2
LTYPE
  5
5
330
0
100
AcDbSymbolTable
 70
     1
  0
LTYPE
  5
14
330
5
100
AcDbSymbolTableRecord
100
AcDbLinetypeTableRecord
  2
ByBlock
 70
     0
  3

 72
    65
 73
     0
 40
0.0
  0
LTYPE
  5
15
330
5
100
AcDbSymbolTableRecord
100
AcDbLinetypeTableRecord
  2
ByLayer
 70
     0
  3

 72
    65
 73
     0
 40
0.0
  0
LTYPE
  5
16
330
5
100
AcDbSymbolTableRecord
100
AcDbLinetypeTableRecord
  2
Continuous
 70
     0
  3
Solid line
 72
    65
 73
     0
 40
0.0
  0
ENDTAB
  0
TABLE
  2
LAYER
  5
2
330
0
100
AcDbSymbolTable
 70
     3
  0
LAYER
  5
10
330
2
100
AcDbSymbolTableRecord
100
AcDbLayerTableRecord
  2
0
 70
     0
 62
     7
  6
Continuous
370
    -3
390
F
  0
LAYER
  5
5D
330
2
100
AcDbSymbolTableRecord
100
AcDbLayerTableRecord
  2
LINEE VISIBILI 2D
 70
     0
 62
     7
  6
Continuous
370
    -3
390
F
  0
LAYER
  5
62
330
2
100
AcDbSymbolTableRecord
100
AcDbLayerTableRecord
  2
PREDEFINITO
 70
     0
 62
     7
  6
Continuous
370
    -3
390
F
  0
ENDTAB
  0
TABLE
  2
STYLE
  5
3
330
0
100
AcDbSymbolTable
 70
     1
  0
STYLE
  5
11
330
3
100
AcDbSymbolTableRecord
100
AcDbTextStyleTableRecord
  2
Standard
 70
     0
 40
0.0
 41
1.0
 50
0.0
 71
     0
 42
0.2
  3
txt
  4

  0
ENDTAB
  0
TABLE
  2
VIEW
  5
6
330
0
100
AcDbSymbolTable
 70
     0
  0
ENDTAB
  0
TABLE
  2
UCS
  5
7
330
0
100
AcDbSymbolTable
 70
     0
  0
ENDTAB
  0
TABLE
  2
APPID
  5
9
330
0
100
AcDbSymbolTable
 70
     1
  0
APPID
  5
12
330
9
100
AcDbSymbolTableRecord
100
AcDbRegAppTableRecord
  2
ACAD
 70
     0
  0
ENDTAB
  0
TABLE
  2
DIMSTYLE
  5
A
330
0
100
AcDbSymbolTable
 70
     1
100
AcDbDimStyleTable
  0
DIMSTYLE
105
27
330
A
100
AcDbSymbolTableRecord
100
AcDbDimStyleTableRecord
  2
Standard
 70
     0
340
11
  0
ENDTAB
  0
TABLE
  2
BLOCK_RECORD
  5
1
330
0
100
AcDbSymbolTable
 70
     1
  0
BLOCK_RECORD
  5
1F
330
1
100
AcDbSymbolTableRecord
100
AcDbBlockTableRecord
  2
*Model_Space
340
22
  0
BLOCK_RECORD
  5
1B
330
1
100
AcDbSymbolTableRecord
100
AcDbBlockTableRecord
  2
*Paper_Space
340
1E
  0
BLOCK_RECORD
  5
23
330
1
100
AcDbSymbolTableRecord
100
AcDbBlockTableRecord
  2
*Paper_Space0
340
26
  0
ENDTAB
  0
ENDSEC
  0
SECTION
  2
BLOCKS
  0
BLOCK
  5
20
330
1F
100
AcDbEntity
  8
0
100
AcDbBlockBegin
  2
*Model_Space
 70
     0
 10
0.0
 20
0.0
 30
0.0
  3
*Model_Space
  1

  0
ENDBLK
  5
21
330
1F
100
AcDbEntity
  8
0
100
AcDbBlockEnd
  0
BLOCK
  5
1C
330
1B
100
AcDbEntity
 67
     1
  8
0
100
AcDbBlockBegin
  2
*Paper_Space
 70
     0
 10
0.0
 20
0.0
 30
0.0
  3
*Paper_Space
  1

  0
ENDBLK
  5
1D
330
1B
100
AcDbEntity
 67
     1
  8
0
100
AcDbBlockEnd
  0
BLOCK
  5
24
330
23
100
AcDbEntity
  8
0
100
AcDbBlockBegin
  2
*Paper_Space0
 70
     0
 10
0.0
 20
0.0
 30
0.0
  3
*Paper_Space0
  1

  0
ENDBLK
  5
25
330
23
100
AcDbEntity
  8
0
100
AcDbBlockEnd
  0
ENDSEC
  0
SECTION
  2
ENTITIES
  0
SPLINE
  5
5E
330
1F
100
AcDbEntity
  8
LINEE VISIBILI 2D
100
AcDbSpline
210
0.0
220
0.0
230
1.0
 70
    24
 71
     2
 72
     6
 73
     3
 74
     0
 42
0.0000000001
 43
0.0000000001
 40
0.0
 40
0.0
 40
0.0
 40
59.76161161208805
 40
59.76161161208805
 40
59.76161161208805
 10
1086.854886740398
 20
228.9417088984424
 30
0.0
 10
1060.879168406856
 20
214.1727130745768
 30
0.0
 10
1034.903450073315
 20
199.4037172507111
 30
0.0
  0
SPLINE
  5
5F
330
1F
100
AcDbEntity
  8
LINEE VISIBILI 2D
100
AcDbSpline
210
0.0
220
0.0
230
1.0
 70
    12
 71
     2
 72
     8
 73
     5
 74
     0
 42
0.0000000001
 43
0.0000000001
 40
-1.231393063781918
 40
-1.231393063781918
 40
-1.231393063781918
 40
-0.9355080720840505
 40
-0.9355080720840505
 40
-0.5936170677129209
 40
-0.5936170677129209
 40
-0.5936170677129209
 10
1034.903450073315
 20
199.4037172507111
 30
0.0
 41
0.9999893542232124
 10
1034.772110961204
 20
199.328431479983
 30
0.0
 41
0.9661640834084999
 10
1034.620724447981
 20
199.32861382953
 30
0.0
 41
1.0
 10
1034.448445735853
 20
199.3309708964806
 30
0.0
 41
0.8977792510343345
 10
1034.302844020798
 20
199.4230884897507
 30
0.0
 41
0.8702737409304467
  0
SPLINE
  5
60
330
1F
100
AcDbEntity
  8
LINEE VISIBILI 2D
100
AcDbSpline
210
0.0
220
0.0
230
1.0
 70
    12
 71
     2
 72
     8
 73
     5
 74
     0
 42
0.0000000001
 43
0.0000000001
 40
0.0
 40
0.0
 40
0.0
 40
0.9376194524509779
 40
0.9376194524509779
 40
1.231393063781918
 40
1.231393063781918
 40
1.231393063781918
 10
1034.302844020798
 20
199.4230884897507
 30
0.0
 41
1.0
 10
1033.806932565546
 20
199.7383025304389
 30
0.0
 41
0.7202958411621414
 10
1034.103250933307
 20
200.2457308385018
 30
0.0
 41
1.0
 10
1034.180460513932
 20
200.3742387867485
 30
0.0
 41
0.9664811800058625
 10
1034.311097515085
 20
200.4477886770687
 30
0.0
 41
0.9993613030328474
  0
SPLINE
  5
61
330
1F
100
AcDbEntity
  8
LINEE VISIBILI 2D
100
AcDbSpline
210
0.0
220
0.0
230
1.0
 70
    24
 71
     2
 72
     6
 73
     3
 74
     0
 42
0.0000000001
 43
0.0000000001
 40
0.0
 40
0.0
 40
0.0
 40
59.7560728364098
 40
59.7560728364098
 40
59.7560728364098
 10
1034.311097515085
 20
200.4477886770687
 30
0.0
 10
1060.283215719245
 20
215.2147391560307
 30
0.0
 10
1086.255333923405
 20
229.9816896349927
 30
0.0
  0
SPLINE
  5
63
330
1F
100
AcDbEntity
  8
PREDEFINITO
100
AcDbSpline
210
0.0
220
0.0
230
1.0
 70
    24
 71
     2
 72
     6
 73
     3
 74
     0
 42
0.0000000001
 43
0.0000000001
 40
0.0
 40
0.0
 40
0.0
 40
58.83286764660094
 40
58.83286764660094
 40
58.83286764660094
 10
1243.092484720773
 20
230.3769753233089
 30
0.0
 10
1268.470075763145
 20
215.5006702791539
 30
0.0
 10
1293.847666805517
 20
200.6243652349989
 30
0.0
  0
ARC
  5
64
330
1F
100
AcDbEntity
  8
PREDEFINITO
100
AcDbCircle
 10
1293.533642917583
 20
200.1129244412721
 30
0.0
 40
0.6001522204247002
100
AcDbArc
 50
241.0209598281872
 51
58.45013678645213
  0
SPLINE
  5
65
330
1F
100
AcDbEntity
  8
PREDEFINITO
100
AcDbSpline
210
0.0
220
0.0
230
1.0
 70
    24
 71
     2
 72
     6
 73
     3
 74
     0
 42
0.0000000001
 43
0.0000000001
 40
0.0
 40
0.0
 40
0.0
 40
58.82732887089571
 40
58.82732887089571
 40
58.82732887089571
 10
1293.242875386662
 20
199.587913078878
 30
0.0
 10
1267.867673498353
 20
214.4628176045767
 30
0.0
 10
1242.492471610043
 20
229.3377221302753
 30
0.0
  0
POLYLINE
  5
66
330
1F
100
AcDbEntity
  8
PREDEFINITO
100
AcDb2dPolyline
 66
     1
 10
0.0
 20
0.0
 30
0.0
  0
VERTEX
  5
68
330
66
100
AcDbEntity
  8
PREDEFINITO
100
AcDbVertex
100
AcDb2dVertex
 10
1164.518394795557
 20
364.016068907371
 30
0.0
  0
VERTEX
  5
69
330
66
100
AcDbEntity
  8
PREDEFINITO
100
AcDbVertex
100
AcDb2dVertex
 10
1164.518394795559
 20
424.2607933455001
 30
0.0
  0
SEQEND
  5
67
330
66
100
AcDbEntity
  8
PREDEFINITO
  0
POLYLINE
  5
6A
330
1F
100
AcDbEntity
  8
PREDEFINITO
100
AcDb2dPolyline
 66
     1
 10
0.0
 20
0.0
 30
0.0
  0
VERTEX
  5
6C
330
6A
100
AcDbEntity
  8
PREDEFINITO
100
AcDbVertex
100
AcDb2dVertex
 10
1164.518394795559
 20
424.2607933455001
 30
0.0
  0
VERTEX
  5
6D
330
6A
100
AcDbEntity
  8
PREDEFINITO
100
AcDbVertex
100
AcDb2dVertex
 10
1164.518405743176
 20
424.2662399315536
 30
0.0
  0
SEQEND
  5
6B
330
6A
100
AcDbEntity
  8
PREDEFINITO
  0
SPLINE
  5
6E
330
1F
100
AcDbEntity
  8
PREDEFINITO
100
AcDbSpline
210
0.0
220
0.0
230
1.0
 70
    12
 71
     2
 72
     8
 73
     5
 74
     0
 42
0.0000000001
 43
0.0000000001
 40
0.0
 40
0.0
 40
0.0
 40
0.2959203584383647
 40
0.2959203584383647
 40
0.9264562271976816
 40
0.9264562271976816
 40
0.9264562271976816
 10
1164.518405743176
 20
424.2662399315536
 30
0.0
 41
1.0
 10
1164.517950369386
 20
424.4176505232163
 30
0.0
 41
0.9661587596844848
 10
1164.442086841031
 20
424.5486852502872
 30
0.0
 41
1.0
 10
1164.265908045842
 20
424.8482217591965
 30
0.0
 41
0.8664780762743042
 10
1163.918407906014
 20
424.846044406702
 30
0.0
 41
1.0
  0
SPLINE
  5
6F
330
1F
100
AcDbEntity
  8
PREDEFINITO
100
AcDbSpline
210
0.0
220
0.0
230
1.0
 70
    12
 71
     2
 72
     8
 73
     5
 74
     0
 42
0.0000000001
 43
0.0000000001
 40
-0.9264562271976816
 40
-0.9264562271976816
 40
-0.9264562271976816
 40
-0.2958886736374876
 40
-0.2958886736374876
 40
0.0
 40
0.0
 40
0.0
 10
1163.918407906014
 20
424.846044406702
 30
0.0
 41
1.0
 10
1163.570907766187
 20
424.8482217591965
 30
0.0
 41
0.8664780762743042
 10
1163.394728970998
 20
424.5486852502872
 30
0.0
 41
1.0
 10
1163.318877795049
 20
424.4176718588203
 30
0.0
 41
0.9661640834104771
 10
1163.318407628987
 20
424.2662859658615
 30
0.0
 41
0.9999893542230166
  0
POLYLINE
  5
70
330
1F
100
AcDbEntity
  8
PREDEFINITO
100
AcDb2dPolyline
 66
     1
 10
0.0
 20
0.0
 30
0.0
  0
VERTEX
  5
72
330
70
100
AcDbEntity
  8
PREDEFINITO
100
AcDbVertex
100
AcDb2dVertex
 10
1163.318407628987
 20
424.2662859658616
 30
0.0
  0
VERTEX
  5
73
330
70
100
AcDbEntity
  8
PREDEFINITO
100
AcDbVertex
100
AcDb2dVertex
 10
1163.318405189119
 20
364.016068907371
 30
0.0
  0
SEQEND
  5
71
330
70
100
AcDbEntity
  8
PREDEFINITO
  0
ARC
  5
74
330
1F
100
AcDbEntity
  8
PREDEFINITO
100
AcDbCircle
 10
1034.620678521612
 20
199.9329118100327
 30
0.0
 40
0.768304742374994
100
AcDbArc
 50
81.04005479827615
 51
338.2985014919284
  0
ARC
  5
75
330
1F
100
AcDbEntity
  8
PREDEFINITO
100
AcDbCircle
 10
1293.533642917583
 20
200.1129244412721
 30
0.0
 40
0.768304742374994
100
AcDbArc
 50
200.9647593068735
 51
98.27129318639972
  0
ARC
  5
76
330
1F
100
AcDbEntity
  8
PREDEFINITO
100
AcDbCircle
 10
1163.926754650242
 20
424.2543323671764
 30
0.0
 40
0.768304742374994
100
AcDbArc
 50
320.3592064330732
 51
217.6455476058618
  0
SPLINE
  5
77
330
1F
100
AcDbEntity
  8
LINEE VISIBILI 2D
100
AcDbSpline
210
0.0
220
0.0
230
1.0
 70
    12
 71
     2
 72
     8
 73
     5
 74
     0
 42
0.0000000001
 43
0.0000000001
 40
0.0
 40
0.0
 40
0.0
 40
431.6129691440468
 40
431.6129691440468
 40
863.2259382880927
 40
863.2259382880927
 40
863.2259382880927
 10
1163.830624065493
 20
549.5466283471906
 30
0.0
 41
1.0
 10
889.0573413488871
 20
549.3540995302884
 30
0.0
 41
0.707106781186547
 10
889.2498701657896
 20
274.5808168136828
 30
0.0
 41
1.0
 10
889.4424035179012
 20
-0.1924658997437867
 30
0.0
 41
0.7071067811865506
 10
1164.215686231328
 20
0.0000674523653572
 30
0.0
 41
1.0
  0
SPLINE
  5
78
330
1F
100
AcDbEntity
  8
LINEE VISIBILI 2D
100
AcDbSpline
210
0.0
220
0.0
230
1.0
 70
    12
 71
     2
 72
     8
 73
     5
 74
     0
 42
0.0000000001
 43
0.0000000001
 40
0.0
 40
0.0
 40
0.0
 40
431.6129691440426
 40
431.6129691440426
 40
863.2259382880839
 40
863.2259382880839
 40
863.2259382880839
 10
1164.215686231328
 20
0.0000674523653572
 30
0.0
 41
1.0
 10
1438.988968947933
 20
0.1925962692676088
 30
0.0
 41
0.7071067811865385
 10
1438.796440131024
 20
274.9658789858731
 30
0.0
 41
1.0
 10
1438.603906778918
 20
549.7391616992987
 30
0.0
 41
0.7071067811865436
 10
1163.830624065493
 20
549.5466283471906
 30
0.0
 41
1.0
  0
SPLINE
  5
79
330
1F
100
AcDbEntity
  8
LINEE VISIBILI 2D
100
AcDbSpline
210
0.0
220
0.0
230
1.0
 70
    12
 71
     2
 72
     6
 73
     3
 74
     0
 42
0.0000000001
 43
0.0000000001
 40
0.0
 40
0.0
 40
0.0
 40
153.903514752117
 40
153.903514752117
 40
153.903514752117
 10
1163.305558628177
 20
422.3230697631222
 30
0.0
 41
1.0
 10
1078.533301041962
 20
421.8908497805967
 30
0.0
 41
0.8671786859659985
 10
1036.181584774473
 20
348.4547918827557
 30
0.0
 41
1.0
  0
SPLINE
  5
7A
330
1F
100
AcDbEntity
  8
LINEE VISIBILI 2D
100
AcDbSpline
210
0.0
220
0.0
230
1.0
 70
    12
 71
     2
 72
     6
 73
     3
 74
     0
 42
0.0000000001
 43
0.0000000001
 40
0.0
 40
0.0
 40
0.0
 40
153.9368227439807
 40
153.9368227439807
 40
153.9368227439807
 10
1036.181584774473
 20
348.4547918827557
 30
0.0
 41
1.0
 10
993.8237766685286
 20
274.9833807379895
 30
0.0
 41
0.8669522186691873
 10
1036.000068636047
 20
201.4076200622484
 30
0.0
 41
1.0
  0
SPLINE
  5
7B
330
1F
100
AcDbEntity
  8
LINEE VISIBILI 2D
100
AcDbSpline
210
0.0
220
0.0
230
1.0
 70
    12
 71
     2
 72
     6
 73
     3
 74
     0
 42
0.0000000001
 43
0.0000000001
 40
0.0
 40
0.0
 40
0.0
 40
19.01017764708362
 40
19.01017764708362
 40
19.01017764708362
 10
1197.325995283481
 20
125.713382070623
 30
0.0
 41
1.0
 10
1188.037700168607
 20
123.6379764543716
 30
0.0
 41
0.9980716162797936
 10
1178.563270937344
 20
122.7353264689935
 30
0.0
 41
0.9999999997841134
  0
SPLINE
  5
7C
330
1F
100
AcDbEntity
  8
LINEE VISIBILI 2D
100
AcDbSpline
210
0.0
220
0.0
230
1.0
 70
    12
 71
     2
 72
     6
 73
     3
 74
     0
 42
0.0000000001
 43
0.0000000001
 40
0.0
 40
0.0
 40
0.0
 40
14.4550347660843
 40
14.4550347660843
 40
14.4550347660843
 10
1178.563270937344
 20
122.7353264689935
 30
0.0
 41
0.99999999978971
 10
1171.363087357807
 20
122.0479771666929
 30
0.0
 41
0.9988803960576923
 10
1164.130171946854
 20
122.0429091301121
 30
0.0
 41
1.0
  0
SPLINE
  5
7D
330
1F
100
AcDbEntity
  8
LINEE VISIBILI 2D
100
AcDbSpline
210
0.0
220
0.0
230
1.0
 70
    12
 71
     2
 72
     6
 73
     3
 74
     0
 42
0.0000000001
 43
0.0000000001
 40
0.0
 40
0.0
 40
0.0
 40
13.74127594906204
 40
13.74127594906204
 40
13.74127594906204
 10
1164.130171946854
 20
122.0429091301121
 30
0.0
 41
1.0
 10
1157.254896723595
 20
122.0380916886855
 30
0.0
 41
0.9989882152998193
 10
1150.407038636833
 20
122.6515021688237
 30
0.0
 41
0.9999999999985199
  0
SPLINE
  5
7E
330
1F
100
AcDbEntity
  8
LINEE VISIBILI 2D
100
AcDbSpline
210
0.0
220
0.0
230
1.0
 70
    12
 71
     2
 72
     6
 73
     3
 74
     0
 42
0.0000000001
 43
0.0000000001
 40
0.0
 40
0.0
 40
0.0
 40
40.03649563866902
 40
40.03649563866902
 40
40.03649563866902
 10
1150.407038636833
 20
122.6515021688237
 30
0.0
 41
0.9999999999691538
 10
1130.35344710442
 20
124.4441334940273
 30
0.0
 41
0.9914312378098308
 10
1111.449742358726
 20
131.373059943382
 30
0.0
 41
0.9999999983531077
  0
SPLINE
  5
7F
330
1F
100
AcDbEntity
  8
LINEE VISIBILI 2D
100
AcDbSpline
210
0.0
220
0.0
230
1.0
 70
    12
 71
     2
 72
     6
 73
     3
 74
     0
 42
0.0000000001
 43
0.0000000001
 40
0.0
 40
0.0
 40
0.0
 40
11.67366733060177
 40
11.67366733060177
 40
11.67366733060177
 10
1111.449742358726
 20
131.373059943382
 30
0.0
 41
0.9999999996546381
 10
1105.968281610441
 20
133.3868664376374
 30
0.0
 41
0.9992697544921805
 10
1100.654585383825
 20
135.8089487102242
 30
0.0
 41
1.0
  0
SPLINE
  5
80
330
1F
100
AcDbEntity
  8
LINEE VISIBILI 2D
100
AcDbSpline
210
0.0
220
0.0
230
1.0
 70
    12
 71
     2
 72
     6
 73
     3
 74
     0
 42
0.0000000001
 43
0.0000000001
 40
0.0
 40
0.0
 40
0.0
 40
9.64485607293117
 40
9.64485607293117
 40
9.64485607293117
 10
1100.654585383825
 20
135.8089487102242
 30
0.0
 41
1.0
 10
1096.266488437522
 20
137.8128930819585
 30
0.0
 41
0.9995032863175543
 10
1092.012762308023
 20
140.0881918615944
 30
0.0
 41
0.9999999987443743
  0
SPLINE
  5
81
330
1F
100
AcDbEntity
  8
LINEE VISIBILI 2D
100
AcDbSpline
210
0.0
220
0.0
230
1.0
 70
    12
 71
     2
 72
     6
 73
     3
 74
     0
 42
0.0000000001
 43
0.0000000001
 40
0.0
 40
0.0
 40
0.0
 40
38.98218326965381
 40
38.98218326965381
 40
38.98218326965381
 10
1092.012762308023
 20
140.0881918615944
 30
0.0
 41
0.9999999955096052
 10
1074.729430715573
 20
149.3268352793459
 30
0.0
 41
0.991867017101676
 10
1060.340104566939
 20
162.6314724751553
 30
0.0
 41
0.9999999996606235
  0
SPLINE
  5
82
330
1F
100
AcDbEntity
  8
LINEE VISIBILI 2D
100
AcDbSpline
210
0.0
220
0.0
230
1.0
 70
    12
 71
     2
 72
     6
 73
     3
 74
     0
 42
0.0000000001
 43
0.0000000001
 40
0.0
 40
0.0
 40
0.0
 40
3.642525232584014
 40
3.642525232584014
 40
3.642525232584014
 10
1060.340104566939
 20
162.6314724751553
 30
0.0
 41
0.9999999999700493
 10
1059.002330804856
 20
163.8674656415288
 30
0.0
 41
0.9999272343477574
 10
1057.695248388661
 20
165.1358715138472
 30
0.0
 41
0.9999999999931874
  0
SPLINE
  5
83
330
1F
100
AcDbEntity
  8
LINEE VISIBILI 2D
100
AcDbSpline
210
0.0
220
0.0
230
1.0
 70
    12
 71
     2
 72
     6
 73
     3
 74
     0
 42
0.0000000001
 43
0.0000000001
 40
0.0
 40
0.0
 40
0.0
 40
4.152826392805459
 40
4.152826392805459
 40
4.152826392805459
 10
1057.695248388661
 20
165.1358715138472
 30
0.0
 41
0.9999999999920672
 10
1056.204960840937
 20
166.5819233831147
 30
0.0
 41
0.999907575293885
 10
1054.75418118782
 20
168.0676103096613
 30
0.0
 41
1.0
  0
SPLINE
  5
84
330
1F
100
AcDbEntity
  8
LINEE VISIBILI 2D
100
AcDbSpline
210
0.0
220
0.0
230
1.0
 70
    12
 71
     2
 72
     6
 73
     3
 74
     0
 42
0.0000000001
 43
0.0000000001
 40
0.0
 40
0.0
 40
0.0
 40
3.902861103317458
 40
3.902861103317458
 40
3.902861103317458
 10
1054.75418118782
 20
168.0676103096613
 30
0.0
 41
1.0
 10
1053.39123561243
 20
169.4643498712903
 30
0.0
 41
0.9999172082041367
 10
1052.064104414339
 20
170.8951613128883
 30
0.0
 41
0.9999999999193211
  0
SPLINE
  5
85
330
1F
100
AcDbEntity
  8
LINEE VISIBILI 2D
100
AcDbSpline
210
0.0
220
0.0
230
1.0
 70
    12
 71
     2
 72
     6
 73
     3
 74
     0
 42
0.0000000001
 43
0.0000000001
 40
0.0
 40
0.0
 40
0.0
 40
39.03733223648131
 40
39.03733223648131
 40
39.03733223648131
 10
1052.064104414339
 20
170.8951613128882
 30
0.0
 41
0.9999999993919904
 10
1038.715581208741
 20
185.2820478112302
 30
0.0
 41
0.9918440192907848
 10
1029.441874767647
 20
202.5784044653721
 30
0.0
 41
0.9999999978873663
  0
SPLINE
  5
86
330
1F
100
AcDbEntity
  8
LINEE VISIBILI 2D
100
AcDbSpline
210
0.0
220
0.0
230
1.0
 70
    12
 71
     2
 72
     6
 73
     3
 74
     0
 42
0.0000000001
 43
0.0000000001
 40
0.0
 40
0.0
 40
0.0
 40
5.311482426277145
 40
5.311482426277145
 40
5.311482426277145
 10
1029.441874767647
 20
202.5784044653721
 30
0.0
 41
0.9999999996007741
 10
1028.187869300548
 20
204.9197384280781
 30
0.0
 41
0.9998489004639768
 10
1027.01166504631
 20
207.3011215811077
 30
0.0
 41
1.0
  0
SPLINE
  5
87
330
1F
100
AcDbEntity
  8
LINEE VISIBILI 2D
100
AcDbSpline
210
0.0
220
0.0
230
1.0
 70
    12
 71
     2
 72
     6
 73
     3
 74
     0
 42
0.0000000001
 43
0.0000000001
 40
0.0
 40
0.0
 40
0.0
 40
17.52237607703382
 40
17.52237607703382
 40
17.52237607703382
 10
1027.01166504631
 20
207.3011215811077
 30
0.0
 41
1.0
 10
1023.135748408184
 20
215.1690718679368
 30
0.0
 41
0.9983549688647159
 10
1020.187490046399
 20
223.4295175406716
 30
0.0
 41
1.0
  0
SPLINE
  5
88
330
1F
100
AcDbEntity
  8
LINEE VISIBILI 2D
100
AcDbSpline
210
0.0
220
0.0
230
1.0
 70
    12
 71
     2
 72
     6
 73
     3
 74
     0
 42
0.0000000001
 43
0.0000000001
 40
0.0
 40
0.0
 40
0.0
 40
34.77507568645122
 40
34.77507568645122
 40
34.77507568645122
 10
1020.187490046399
 20
223.4295175406716
 30
0.0
 41
1.0
 10
1014.327659319691
 20
239.8793946619969
 30
0.0
 41
0.9935804615576334
 10
1012.313825453839
 20
257.2253084028737
 30
0.0
 41
1.0
  0
SPLINE
  5
89
330
1F
100
AcDbEntity
  8
LINEE VISIBILI 2D
100
AcDbSpline
210
0.0
220
0.0
230
1.0
 70
    12
 71
     2
 72
     8
 73
     5
 74
     0
 42
0.0000000001
 43
0.0000000001
 40
0.0
 40
0.0
 40
0.0
 40
17.47149562989881
 40
17.47149562989881
 40
34.94299917982413
 40
34.94299917982413
 40
34.94299917982413
 10
1012.313825453839
 20
257.2253084028737
 30
0.0
 41
1.0
 10
1011.307401558835
 20
265.9125000514638
 30
0.0
 41
0.9983645058828027
 10
1011.301273818528
 20
274.6577856453914
 30
0.0
 41
1.0
 10
1011.295146075437
 20
283.4030752123163
 30
0.0
 41
0.9983645044004312
 10
1012.289791081768
 20
292.0916257224403
 30
0.0
 41
1.0
  0
SPLINE
  5
8A
330
1F
100
AcDbEntity
  8
LINEE VISIBILI 2D
100
AcDbSpline
210
0.0
220
0.0
230
1.0
 70
    12
 71
     2
 72
     6
 73
     3
 74
     0
 42
0.0000000001
 43
0.0000000001
 40
0.0
 40
0.0
 40
0.0
 40
38.20441879690897
 40
38.20441879690897
 40
38.20441879690897
 10
1012.289791081768
 20
292.0916257224403
 30
0.0
 41
1.0
 10
1014.472688558303
 20
311.1691924584819
 30
0.0
 41
0.9922196680873439
 10
1021.299510429419
 20
329.1166956980828
 30
0.0
 41
0.9999999994758475
  0
SPLINE
  5
8B
330
1F
100
AcDbEntity
  8
LINEE VISIBILI 2D
100
AcDbSpline
210
0.0
220
0.0
230
1.0
 70
    12
 71
     2
 72
     6
 73
     3
 74
     0
 42
0.0000000001
 43
0.0000000001
 40
0.0
 40
0.0
 40
0.0
 40
13.15776953965619
 40
13.15776953965619
 40
13.15776953965619
 10
1021.299510429419
 20
329.1166956980828
 30
0.0
 41
0.9999999998542273
 10
1023.642856702153
 20
335.2684472770977
 30
0.0
 41
0.9990723063336601
 10
1026.508500145307
 20
341.1949627489956
 30
0.0
 41
1.0
  0
SPLINE
  5
8C
330
1F
100
AcDbEntity
  8
LINEE VISIBILI 2D
100
AcDbSpline
210
0.0
220
0.0
230
1.0
 70
    12
 71
     2
 72
     6
 73
     3
 74
     0
 42
0.0000000001
 43
0.0000000001
 40
0.0
 40
0.0
 40
0.0
 40
9.651448866963179
 40
9.651448866963179
 40
9.651448866963179
 10
1026.508500145307
 20
341.1949627489956
 30
0.0
 41
1.0
 10
1028.613234979516
 20
345.5392937693134
 30
0.0
 41
0.9995045981807095
 10
1030.980749605112
 20
349.7461775930191
 30
0.0
 41
0.9999999992456245
  0
SPLINE
  5
8D
330
1F
100
AcDbEntity
  8
LINEE VISIBILI 2D
100
AcDbSpline
210
0.0
220
0.0
230
1.0
 70
    12
 71
     2
 72
     6
 73
     3
 74
     0
 42
0.0000000001
 43
0.0000000001
 40
0.0
 40
0.0
 40
0.0
 40
35.59116689667918
 40
35.59116689667918
 40
35.59116689667918
 10
1030.980749605112
 20
349.7461775930192
 30
0.0
 41
0.999999997928695
 10
1039.753561438431
 20
365.32209496376
 30
0.0
 41
0.9932188997190503
 10
1051.889851692343
 20
378.4477135898554
 30
0.0
 41
0.999999999622571
  0
SPLINE
  5
8E
330
1F
100
AcDbEntity
  8
LINEE VISIBILI 2D
100
AcDbSpline
210
0.0
220
0.0
230
1.0
 70
    12
 71
     2
 72
     6
 73
     3
 74
     0
 42
0.0000000001
 43
0.0000000001
 40
0.0
 40
0.0
 40
0.0
 40
3.892691797859008
 40
3.892691797859008
 40
3.892691797859008
 10
1051.889851692343
 20
378.4477135898554
 30
0.0
 41
0.9999999999595508
 10
1053.210744268094
 20
379.877372145255
 30
0.0
 41
0.9999168045951052
 10
1054.568494492723
 20
381.2720747287127
 30
0.0
 41
0.9999999999995934
  0
SPLINE
  5
8F
330
1F
100
AcDbEntity
  8
LINEE VISIBILI 2D
100
AcDbSpline
210
0.0
220
0.0
230
1.0
 70
    12
 71
     2
 72
     6
 73
     3
 74
     0
 42
0.0000000001
 43
0.0000000001
 40
0.0
 40
0.0
 40
0.0
 40
3.164037918351519
 40
3.164037918351519
 40
3.164037918351519
 10
1054.568494492723
 20
381.2720747287127
 30
0.0
 41
0.9999999999998275
 10
1055.672144373875
 20
382.4056179238496
 30
0.0
 41
0.9999463479019206
 10
1056.79856079933
 20
383.5165426655261
 30
0.0
 41
1.0
  0
SPLINE
  5
90
330
1F
100
AcDbEntity
  8
LINEE VISIBILI 2D
100
AcDbSpline
210
0.0
220
0.0
230
1.0
 70
    12
 71
     2
 72
     6
 73
     3
 74
     0
 42
0.0000000001
 43
0.0000000001
 40
0.0
 40
0.0
 40
0.0
 40
4.641748855864654
 40
4.641748855864654
 40
4.641748855864654
 10
1056.79856079933
 20
383.5165426655261
 30
0.0
 41
1.0
 10
1058.4516468592
 20
385.1458399356871
 30
0.0
 41
0.9998827090281679
 10
1060.153548753275
 20
386.7240753230196
 30
0.0
 41
0.9999999999108946
  0
SPLINE
  5
91
330
1F
100
AcDbEntity
  8
LINEE VISIBILI 2D
100
AcDbSpline
210
0.0
220
0.0
230
1.0
 70
    12
 71
     2
 72
     6
 73
     3
 74
     0
 42
0.0000000001
 43
0.0000000001
 40
0.0
 40
0.0
 40
0.0
 40
38.00641550640818
 40
38.00641550640818
 40
38.00641550640818
 10
1060.153548753275
 20
386.7240753230196
 30
0.0
 41
0.9999999994252513
 10
1074.15659232774
 20
399.7162598972092
 30
0.0
 41
0.9922685581215186
 10
1090.930186773296
 20
408.8556597647358
 30
0.0
 41
0.9999999953039155
  0
SPLINE
  5
92
330
1F
100
AcDbEntity
  8
LINEE VISIBILI 2D
100
AcDbSpline
210
0.0
220
0.0
230
1.0
 70
    12
 71
     2
 72
     6
 73
     3
 74
     0
 42
0.0000000001
 43
0.0000000001
 40
0.0
 40
0.0
 40
0.0
 40
8.8381535017824
 40
8.8381535017824
 40
8.8381535017824
 10
1090.930186773296
 20
408.8556597647357
 30
0.0
 41
0.9999999987158648
 10
1094.811709301619
 20
410.9705799353899
 30
0.0
 41
0.9995810905455453
 10
1098.807285830875
 20
412.8612173732416
 30
0.0
 41
1.0
  0
SPLINE
  5
93
330
1F
100
AcDbEntity
  8
LINEE VISIBILI 2D
100
AcDbSpline
210
0.0
220
0.0
230
1.0
 70
    12
 71
     2
 72
     6
 73
     3
 74
     0
 42
0.0000000001
 43
0.0000000001
 40
0.0
 40
0.0
 40
0.0
 40
13.49709122223086
 40
13.49709122223086
 40
13.49709122223086
 10
1098.807285830875
 20
412.8612173732416
 30
0.0
 41
1.0
 10
1104.913210117726
 20
415.7456541147186
 30
0.0
 41
0.9990238491596433
 10
1111.250108700609
 20
418.0793260826175
 30
0.0
 41
1.0
  0
SPLINE
  5
94
330
1F
100
AcDbEntity
  8
LINEE VISIBILI 2D
100
AcDbSpline
210
0.0
220
0.0
230
1.0
 70
    12
 71
     2
 72
     6
 73
     3
 74
     0
 42
0.0000000001
 43
0.0000000001
 40
0.0
 40
0.0
 40
0.0
 40
33.93034888105471
 40
33.93034888105471
 40
33.93034888105471
 10
1111.250108700609
 20
418.0793260826175
 30
0.0
 41
1.0
 10
1127.23904342577
 20
423.9561654139742
 30
0.0
 41
0.9938838645649161
 10
1144.127703781864
 20
426.1824747624418
 30
0.0
 41
1.0
  0
SPLINE
  5
95
330
1F
100
AcDbEntity
  8
LINEE VISIBILI 2D
100
AcDbSpline
210
0.0
220
0.0
230
1.0
 70
    12
 71
     2
 72
     6
 73
     3
 74
     0
 42
0.0000000001
 43
0.0000000001
 40
0.0
 40
0.0
 40
0.0
 40
19.84551128013981
 40
19.84551128013981
 40
19.84551128013981
 10
1144.127703781864
 20
426.1824747624418
 30
0.0
 41
1.0
 10
1153.979410704452
 20
427.4797211926455
 30
0.0
 41
0.9978900166199686
 10
1163.916150333811
 20
427.4866837737172
 30
0.0
 41
1.0
  0
SPLINE
  5
96
330
1F
100
AcDbEntity
  8
LINEE VISIBILI 2D
100
AcDbSpline
210
0.0
220
0.0
230
1.0
 70
    12
 71
     2
 72
     6
 73
     3
 74
     0
 42
0.0000000001
 43
0.0000000001
 40
0.0
 40
0.0
 40
0.0
 40
13.7412759490616
 40
13.7412759490616
 40
13.7412759490616
 10
1163.916150333811
 20
427.4866837737172
 30
0.0
 41
1.0
 10
1170.791425156174
 20
427.4915012148628
 30
0.0
 41
0.9989882153587566
 10
1177.639152156605
 20
426.8766307927049
 30
0.0
 41
0.999999999880645
  0
SPLINE
  5
97
330
1F
100
AcDbEntity
  8
LINEE VISIBILI 2D
100
AcDbSpline
210
0.0
220
0.0
230
1.0
 70
    12
 71
     2
 72
     6
 73
     3
 74
     0
 42
0.0000000001
 43
0.0000000001
 40
0.0
 40
0.0
 40
0.0
 40
19.72244825411331
 40
19.72244825411331
 40
19.72244825411331
 10
1177.639152156605
 20
426.8766307927049
 30
0.0
 41
1.0
 10
1187.474028943253
 20
425.9895142456326
 30
0.0
 41
0.9979383382031936
 10
1197.115378525136
 20
423.8549819368292
 30
0.0
 41
1.0
  0
SPLINE
  5
98
330
1F
100
AcDbEntity
  8
LINEE VISIBILI 2D
100
AcDbSpline
210
0.0
220
0.0
230
1.0
 70
    12
 71
     2
 72
     6
 73
     3
 74
     0
 42
0.0000000001
 43
0.0000000001
 40
0.0
 40
0.0
 40
0.0
 40
1.744262123467797
 40
1.744262123467797
 40
1.744262123467797
 10
1197.115378525136
 20
423.8549819368292
 30
0.0
 41
1.0
 10
1197.9675157259
 20
423.6692213000051
 30
0.0
 41
0.9999836946714117
 10
1198.816020543728
 20
423.4675292447698
 30
0.0
 41
1.0
  0
SPLINE
  5
99
330
1F
100
AcDbEntity
  8
LINEE VISIBILI 2D
100
AcDbSpline
210
0.0
220
0.0
230
1.0
 70
    12
 71
     2
 72
     6
 73
     3
 74
     0
 42
0.0000000001
 43
0.0000000001
 40
0.0
 40
0.0
 40
0.0
 40
14.81888041868861
 40
14.81888041868861
 40
14.81888041868861
 10
1198.816020543728
 20
423.4675292447698
 30
0.0
 41
0.9999999999646831
 10
1206.03616072419
 20
421.77771179108
 30
0.0
 41
0.9988256272420876
 10
1213.05987635535
 20
419.400041353555
 30
0.0
 41
1.0
  0
SPLINE
  5
9A
330
1F
100
AcDbEntity
  8
LINEE VISIBILI 2D
100
AcDbSpline
210
0.0
220
0.0
230
1.0
 70
    12
 71
     2
 72
     6
 73
     3
 74
     0
 42
0.0000000001
 43
0.0000000001
 40
0.0
 40
0.0
 40
0.0
 40
1.803473683745297
 40
1.803473683745297
 40
1.803473683745297
 10
1213.05987635535
 20
419.400041353555
 30
0.0
 41
0.999999999999321
 10
1213.913908615391
 20
419.1106061540397
 30
0.0
 41
0.9999825689152035
 10
1214.764490237118
 20
418.8111820995121
 30
0.0
 41
0.9999999999062226
  0
SPLINE
  5
9B
330
1F
100
AcDbEntity
  8
LINEE VISIBILI 2D
100
AcDbSpline
210
0.0
220
0.0
230
1.0
 70
    12
 71
     2
 72
     6
 73
     3
 74
     0
 42
0.0000000001
 43
0.0000000001
 40
0.0
 40
0.0
 40
0.0
 40
31.98531695032367
 40
31.98531695032367
 40
31.98531695032367
 10
1214.764490237118
 20
418.8111820995121
 30
0.0
 41
0.9999999983218507
 10
1229.903976228799
 20
413.4771265953641
 30
0.0
 41
0.9944938033686189
 10
1243.601795767744
 20
405.1089755293207
 30
0.0
 41
0.9999999974601211
  0
SPLINE
  5
9C
330
1F
100
AcDbEntity
  8
LINEE VISIBILI 2D
100
AcDbSpline
210
0.0
220
0.0
230
1.0
 70
    12
 71
     2
 72
     6
 73
     3
 74
     0
 42
0.0000000001
 43
0.0000000001
 40
0.0
 40
0.0
 40
0.0
 40
74.63387807645765
 40
74.63387807645765
 40
74.63387807645765
 10
1243.601795767744
 20
405.1089755293206
 30
0.0
 41
0.9999999966877099
 10
1276.104084166827
 20
385.2716750796405
 30
0.0
 41
0.9702958345545051
 10
1295.479923805471
 20
352.4921986290684
 30
0.0
 41
0.9999999988720341
  0
SPLINE
  5
9D
330
1F
100
AcDbEntity
  8
LINEE VISIBILI 2D
100
AcDbSpline
210
0.0
220
0.0
230
1.0
 70
    12
 71
     2
 72
     6
 73
     3
 74
     0
 42
0.0000000001
 43
0.0000000001
 40
0.0
 40
0.0
 40
0.0
 40
31.06772293616637
 40
31.06772293616637
 40
31.06772293616637
 10
1295.479923805471
 20
352.4921986290684
 30
0.0
 41
0.999999998283773
 10
1303.419064971506
 20
339.0773522657108
 30
0.0
 41
0.9947911829089117
 10
1308.477372543089
 20
324.3328087344937
 30
0.0
 41
0.999999999789646
  0
SPLINE
  5
9E
330
1F
100
AcDbEntity
  8
LINEE VISIBILI 2D
100
AcDbSpline
210
0.0
220
0.0
230
1.0
 70
    12
 71
     2
 72
     6
 73
     3
 74
     0
 42
0.0000000001
 43
0.0000000001
 40
0.0
 40
0.0
 40
0.0
 40
2.858274868038082
 40
2.858274868038082
 40
2.858274868038082
 10
1308.477372543089
 20
324.3328087344937
 30
0.0
 41
0.9999999999806801
 10
1308.941167940087
 20
322.9809781316711
 30
0.0
 41
0.999956216351215
 10
1309.379211809635
 20
321.6205764770532
 30
0.0
 41
1.0
  0
SPLINE
  5
9F
330
1F
100
AcDbEntity
  8
LINEE VISIBILI 2D
100
AcDbSpline
210
0.0
220
0.0
230
1.0
 70
    12
 71
     2
 72
     6
 73
     3
 74
     0
 42
0.0000000001
 43
0.0000000001
 40
0.0
 40
0.0
 40
0.0
 40
8.721368742570705
 40
8.721368742570705
 40
8.721368742570705
 10
1309.379211809635
 20
321.6205764770532
 30
0.0
 41
1.0
 10
1310.71522317748
 20
317.4683476260875
 30
0.0
 41
0.9995929245259867
 10
1311.814861004756
 20
313.2473689203567
 30
0.0
 41
0.9999999992465882
  0
SPLINE
  5
A0
330
1F
100
AcDbEntity
  8
LINEE VISIBILI 2D
100
AcDbSpline
210
0.0
220
0.0
230
1.0
 70
    12
 71
     2
 72
     6
 73
     3
 74
     0
 42
0.0000000001
 43
0.0000000001
 40
0.0
 40
0.0
 40
0.0
 40
3.58667235580217
 40
3.58667235580217
 40
3.58667235580217
 10
1311.814861004756
 20
313.2473689203567
 30
0.0
 41
0.9999999997240553
 10
1312.268959342273
 20
311.5123946023722
 30
0.0
 41
0.999931057870446
 10
1312.677220468861
 20
309.7660650252974
 30
0.0
 41
0.9999999999706788
  0
SPLINE
  5
A1
330
1F
100
AcDbEntity
  8
LINEE VISIBILI 2D
100
AcDbSpline
210
0.0
220
0.0
230
1.0
 70
    12
 71
     2
 72
     6
 73
     3
 74
     0
 42
0.0000000001
 43
0.0000000001
 40
0.0
 40
0.0
 40
0.0
 40
18.75488157238264
 40
18.75488157238264
 40
18.75488157238264
 10
1312.677220468861
 20
309.7660650252974
 30
0.0
 41
1.0
 10
1314.823813797493
 20
300.625627181716
 30
0.0
 41
0.9981361634982364
 10
1315.845918469731
 20
291.2923047907033
 30
0.0
 41
1.0
  0
SPLINE
  5
A2
330
1F
100
AcDbEntity
  8
LINEE VISIBILI 2D
100
AcDbSpline
210
0.0
220
0.0
230
1.0
 70
    12
 71
     2
 72
     8
 73
     5
 74
     0
 42
0.0000000001
 43
0.0000000001
 40
0.0
 40
0.0
 40
0.0
 40
16.45316408161407
 40
16.45316408161407
 40
31.99242507591264
 40
31.99242507591264
 40
31.99242507591264
 10
1315.845918469731
 20
291.2923047907033
 30
0.0
 41
1.0
 10
1316.739278592316
 20
283.1063532470228
 30
0.0
 41
0.9985495556254108
 10
1316.745048462129
 20
274.8718072584379
 30
0.0
 41
1.0
 10
1316.750497270325
 20
267.0954686022973
 30
0.0
 41
0.99870617873446
 10
1315.964394082062
 20
259.3589588809594
 30
0.0
 41
1.0
  0
SPLINE
  5
A3
330
1F
100
AcDbEntity
  8
LINEE VISIBILI 2D
100
AcDbSpline
210
0.0
220
0.0
230
1.0
 70
    12
 71
     2
 72
     6
 73
     3
 74
     0
 42
0.0000000001
 43
0.0000000001
 40
0.0
 40
0.0
 40
0.0
 40
19.66892368131382
 40
19.66892368131382
 40
19.66892368131382
 10
1315.964394082062
 20
259.3589588809594
 30
0.0
 41
1.0
 10
1314.965558834673
 20
249.5618083498483
 30
0.0
 41
0.9979497897835137
 10
1312.726961393733
 20
239.9716875229511
 30
0.0
 41
0.9999999999995592
  0
SPLINE
  5
A4
330
1F
100
AcDbEntity
  8
LINEE VISIBILI 2D
100
AcDbSpline
210
0.0
220
0.0
230
1.0
 70
    12
 71
     2
 72
     6
 73
     3
 74
     0
 42
0.0000000001
 43
0.0000000001
 40
0.0
 40
0.0
 40
0.0
 40
3.58668027468993
 40
3.58668027468993
 40
3.58668027468993
 10
1312.726961393733
 20
239.9716875229511
 30
0.0
 41
0.9999999999756222
 10
1312.320310409626
 20
238.2249800354526
 30
0.0
 41
0.9999310575888076
 10
1311.869558050577
 20
236.4891309101011
 30
0.0
 41
0.9999999996735293
  0
SPLINE
  5
A5
330
1F
100
AcDbEntity
  8
LINEE VISIBILI 2D
100
AcDbSpline
210
0.0
220
0.0
230
1.0
 70
    12
 71
     2
 72
     6
 73
     3
 74
     0
 42
0.0000000001
 43
0.0000000001
 40
0.0
 40
0.0
 40
0.0
 40
7.704997959279055
 40
7.704997959279055
 40
7.704997959279055
 10
1311.869558050576
 20
236.4891309101011
 30
0.0
 41
0.9999999992527655
 10
1310.904169184235
 20
232.758712050633
 30
0.0
 41
0.9996825124734297
 10
1309.752891808579
 20
229.081397809866
 30
0.0
 41
1.0
  0
SPLINE
  5
A6
330
1F
100
AcDbEntity
  8
LINEE VISIBILI 2D
100
AcDbSpline
210
0.0
220
0.0
230
1.0
 70
    12
 71
     2
 72
     6
 73
     3
 74
     0
 42
0.0000000001
 43
0.0000000001
 40
0.0
 40
0.0
 40
0.0
 40
3.777341590492656
 40
3.777341590492656
 40
3.777341590492656
 10
1309.752891808579
 20
229.081397809866
 30
0.0
 41
1.0
 10
1309.187466787861
 20
227.2792394479217
 30
0.0
 41
0.9999235329858698
 10
1308.579292694784
 20
225.4910656494573
 30
0.0
 41
0.9999999999687437
  0
SPLINE
  5
A7
330
1F
100
AcDbEntity
  8
LINEE VISIBILI 2D
100
AcDbSpline
210
0.0
220
0.0
230
1.0
 70
    12
 71
     2
 72
     6
 73
     3
 74
     0
 42
0.0000000001
 43
0.0000000001
 40
0.0
 40
0.0
 40
0.0
 40
31.16582745205773
 40
31.16582745205773
 40
31.16582745205773
 10
1308.579292694784
 20
225.4910656494573
 30
0.0
 41
0.9999999997880993
 10
1303.536927948029
 20
210.6887167014551
 30
0.0
 41
0.9947610609090016
 10
1295.59070351323
 20
197.2205134059401
 30
0.0
 41
0.9999999988911227
  0
SPLINE
  5
A8
330
1F
100
AcDbEntity
  8
LINEE VISIBILI 2D
100
AcDbSpline
210
0.0
220
0.0
230
1.0
 70
    12
 71
     2
 72
     6
 73
     3
 74
     0
 42
0.0000000001
 43
0.0000000001
 40
0.0
 40
0.0
 40
0.0
 40
42.45740327400252
 40
42.45740327400252
 40
42.45740327400252
 10
1295.59070351323
 20
197.2205134059401
 30
0.0
 41
0.9999999993029651
 10
1284.744112051847
 20
178.811864033288
 30
0.0
 41
0.9903547233051251
 10
1269.263312653843
 20
164.0852954520331
 30
0.0
 41
1.0
  0
SPLINE
  5
A9
330
1F
100
AcDbEntity
  8
LINEE VISIBILI 2D
100
AcDbSpline
210
0.0
220
0.0
230
1.0
 70
    12
 71
     2
 72
     6
 73
     3
 74
     0
 42
0.0000000001
 43
0.0000000001
 40
0.0
 40
0.0
 40
0.0
 40
0.1906899822571747
 40
0.1906899822571747
 40
0.1906899822571747
 10
1269.263312653843
 20
164.0852954520331
 30
0.0
 41
1.0
 10
1269.197486505889
 20
164.0161560316016
 30
0.0
 41
0.9999998015520878
 10
1269.12503103833
 20
163.9540000451159
 30
0.0
 41
0.9999999999995013
  0
SPLINE
  5
AA
330
1F
100
AcDbEntity
  8
LINEE VISIBILI 2D
100
AcDbSpline
210
0.0
220
0.0
230
1.0
 70
    12
 71
     2
 72
     6
 73
     3
 74
     0
 42
0.0000000001
 43
0.0000000001
 40
0.0
 40
0.0
 40
0.0
 40
31.98579726868545
 40
31.98579726868545
 40
31.98579726868545
 10
1269.12503103833
 20
163.9540000451159
 30
0.0
 41
0.999999999585631
 10
1257.475523374397
 20
152.9112100054406
 30
0.0
 41
0.9945219681864704
 10
1243.787855938803
 20
144.5265823951124
 30
0.0
 41
0.9999999970491852
  0
SPLINE
  5
AB
330
1F
100
AcDbEntity
  8
LINEE VISIBILI 2D
100
AcDbSpline
210
0.0
220
0.0
230
1.0
 70
    12
 71
     2
 72
     6
 73
     3
 74
     0
 42
0.0000000001
 43
0.0000000001
 40
0.0
 40
0.0
 40
0.0
 40
30.04271847723856
 40
30.04271847723856
 40
30.04271847723856
 10
1243.787855938803
 20
144.5265823951124
 30
0.0
 41
0.9999999975137096
 10
1230.942466730291
 20
136.6458457219931
 30
0.0
 41
0.9951477481813769
 10
1216.796148370404
 20
131.450463123876
 30
0.0
 41
0.9999999963266281
  0
SPLINE
  5
AC
330
1F
100
AcDbEntity
  8
LINEE VISIBILI 2D
100
AcDbSpline
210
0.0
220
0.0
230
1.0
 70
    12
 71
     2
 72
     6
 73
     3
 74
     0
 42
0.0000000001
 43
0.0000000001
 40
0.0
 40
0.0
 40
0.0
 40
9.650449475812135
 40
9.650449475812135
 40
9.650449475812135
 10
1216.796148370404
 20
131.450463123876
 30
0.0
 41
1.0
 10
1212.266647710366
 20
129.7825540254629
 30
0.0
 41
0.9995009245694172
 10
1207.642867020376
 20
128.3972421360937
 30
0.0
 41
1.0
  0
SPLINE
  5
AD
330
1F
100
AcDbEntity
  8
LINEE VISIBILI 2D
100
AcDbSpline
210
0.0
220
0.0
230
1.0
 70
    12
 71
     2
 72
     6
 73
     3
 74
     0
 42
0.0000000001
 43
0.0000000001
 40
0.0
 40
0.0
 40
0.0
 40
8.284654265700913
 40
8.284654265700913
 40
8.284654265700913
 10
1207.642867020376
 20
128.3972421360937
 30
0.0
 41
1.0
 10
1203.673578654973
 20
127.2089040711173
 30
0.0
 41
0.9996320065137295
 10
1199.642846347025
 20
126.2494666612703
 30
0.0
 41
0.9999999999811526
  0
SPLINE
  5
AE
330
1F
100
AcDbEntity
  8
LINEE VISIBILI 2D
100
AcDbSpline
210
0.0
220
0.0
230
1.0
 70
    12
 71
     2
 72
     6
 73
     3
 74
     0
 42
0.0000000001
 43
0.0000000001
 40
0.0
 40
0.0
 40
0.0
 40
2.378004661645252
 40
2.378004661645252
 40
2.378004661645252
 10
1199.642846347025
 20
126.2494666612703
 30
0.0
 41
0.9999999999336275
 10
1198.485405591734
 20
125.9771833707435
 30
0.0
 41
0.9999696939057814
 10
1197.325995283481
 20
125.713382070623
 30
0.0
 41
1.0
  0
SPLINE
  5
AF
330
1F
100
AcDbEntity
  8
LINEE VISIBILI 2D
100
AcDbSpline
210
0.0
220
0.0
230
1.0
 70
    12
 71
     2
 72
     6
 73
     3
 74
     0
 42
0.0000000001
 43
0.0000000001
 40
0.0
 40
0.0
 40
0.0
 40
15.59203782247823
 40
15.59203782247823
 40
15.59203782247823
 10
1199.493285254148
 20
357.1737463744954
 30
0.0
 41
1.0
 10
1198.597111179424
 20
364.9267274968685
 30
0.0
 41
0.998350803677001
 10
1198.595541555325
 20
372.7313313812665
 30
0.0
 41
1.0
  0
SPLINE
  5
B0
330
1F
100
AcDbEntity
  8
LINEE VISIBILI 2D
100
AcDbSpline
210
0.0
220
0.0
230
1.0
 70
    24
 71
     2
 72
     6
 73
     3
 74
     0
 42
0.0000000001
 43
0.0000000001
 40
0.0
 40
0.0
 40
0.0
 40
25.35298768162698
 40
25.35298768162698
 40
25.35298768162698
 10
1198.595541555325
 20
372.7313313812665
 30
0.0
 10
1198.586659256132
 20
385.4078221102081
 30
0.0
 10
1198.577776956939
 20
398.0843128391498
 30
0.0
  0
SPLINE
  5
B1
330
1F
100
AcDbEntity
  8
LINEE VISIBILI 2D
100
AcDbSpline
210
0.0
220
0.0
230
1.0
 70
    12
 71
     2
 72
     8
 73
     5
 74
     0
 42
0.0000000001
 43
0.0000000001
 40
0.0
 40
0.0
 40
0.0
 40
11.05778869485462
 40
11.05778869485462
 40
22.11557738970925
 40
22.11557738970925
 40
22.11557738970925
 10
1198.577776956939
 20
398.0843128391498
 30
0.0
 41
1.0
 10
1198.57051874346
 20
404.0048171710762
 30
0.0
 41
0.9036720516953837
 10
1203.14809856509
 20
407.7595724497361
 30
0.0
 41
1.0
 10
1207.725678386721
 20
411.514327728396
 30
0.0
 41
0.9036720516953837
 10
1213.530408064864
 20
410.3491935774473
 30
0.0
 41
1.0
  0
SPLINE
  5
B2
330
1F
100
AcDbEntity
  8
LINEE VISIBILI 2D
100
AcDbSpline
210
0.0
220
0.0
230
1.0
 70
    12
 71
     2
 72
     6
 73
     3
 74
     0
 42
0.0000000001
 43
0.0000000001
 40
0.0
 40
0.0
 40
0.0
 40
1.484070559351528
 40
1.484070559351528
 40
1.484070559351528
 10
1213.530408064864
 20
410.3491935774473
 30
0.0
 41
1.0
 10
1214.258885823413
 20
410.2034814560106
 30
0.0
 41
0.9982394103041274
 10
1214.964982965328
 20
409.9725297441473
 30
0.0
 41
1.0
  0
SPLINE
  5
B3
330
1F
100
AcDbEntity
  8
LINEE VISIBILI 2D
100
AcDbSpline
210
0.0
220
0.0
230
1.0
 70
    12
 71
     2
 72
     6
 73
     3
 74
     0
 42
0.0000000001
 43
0.0000000001
 40
-2.963631447603779
 40
-2.963631447603779
 40
-2.963631447603779
 40
0.0
 40
0.0
 40
0.0
 10
1214.964982965328
 20
409.9725297441473
 30
0.0
 41
1.0
 10
1216.341422070283
 20
409.4224269574513
 30
0.0
 41
0.9995153363130237
 10
1217.680960306527
 20
408.7877341189669
 30
0.0
 41
1.0
  0
SPLINE
  5
B4
330
1F
100
AcDbEntity
  8
LINEE VISIBILI 2D
100
AcDbSpline
210
0.0
220
0.0
230
1.0
 70
    12
 71
     2
 72
     6
 73
     3
 74
     0
 42
0.0000000001
 43
0.0000000001
 40
-94.82210262011917
 40
-94.82210262011917
 40
-94.82210262011917
 40
0.0
 40
0.0
 40
0.0
 10
1217.680960306527
 20
408.7877341189669
 30
0.0
 41
1.0
 10
1261.880422343763
 20
387.8506710162164
 30
0.0
 41
0.954726533251125
 10
1286.363871984511
 20
345.5125823791677
 30
0.0
 41
1.0
  0
SPLINE
  5
B5
330
1F
100
AcDbEntity
  8
LINEE VISIBILI 2D
100
AcDbSpline
210
0.0
220
0.0
230
1.0
 70
    12
 71
     2
 72
     6
 73
     3
 74
     0
 42
0.0000000001
 43
0.0000000001
 40
-94.82202785173055
 40
-94.82202785173055
 40
-94.82202785173055
 40
0.0
 40
0.0
 40
0.0
 10
1286.363871984511
 20
345.5125823791677
 30
0.0
 41
1.0
 10
1310.847272123524
 20
303.1745297620139
 30
0.0
 41
0.9547270364939181
 10
1306.947982499165
 20
254.4226772617731
 30
0.0
 41
1.0
  0
SPLINE
  5
B6
330
1F
100
AcDbEntity
  8
LINEE VISIBILI 2D
100
AcDbSpline
210
0.0
220
0.0
230
1.0
 70
    12
 71
     2
 72
     6
 73
     3
 74
     0
 42
0.0000000001
 43
0.0000000001
 40
-2.966468107865963
 40
-2.966468107865963
 40
-2.966468107865963
 40
0.0
 40
0.0
 40
0.0
 10
1306.947982499165
 20
254.4226772617731
 30
0.0
 41
1.0
 10
1306.829832250689
 20
252.9436745347726
 30
0.0
 41
0.9995144090663443
 10
1306.619784722687
 20
251.4749034213346
 30
0.0
 41
1.0
  0
SPLINE
  5
B7
330
1F
100
AcDbEntity
  8
LINEE VISIBILI 2D
100
AcDbSpline
210
0.0
220
0.0
230
1.0
 70
    12
 71
     2
 72
     6
 73
     3
 74
     0
 42
0.0000000001
 43
0.0000000001
 40
0.0
 40
0.0
 40
0.0
 40
1.480860041774971
 40
1.480860041774971
 40
1.480860041774971
 10
1306.619784722687
 20
251.4749034213346
 30
0.0
 41
1.0
 10
1306.468417118269
 20
250.7492211413811
 30
0.0
 41
0.998238871498512
 10
1306.232167986331
 20
250.0465738110906
 30
0.0
 41
1.0
  0
SPLINE
  5
B8
330
1F
100
AcDbEntity
  8
LINEE VISIBILI 2D
100
AcDbSpline
210
0.0
220
0.0
230
1.0
 70
    12
 71
     2
 72
     8
 73
     5
 74
     0
 42
0.0000000001
 43
0.0000000001
 40
0.0
 40
0.0
 40
0.0
 40
11.05555207129659
 40
11.05555207129659
 40
22.11110414259318
 40
22.11110414259318
 40
22.11110414259318
 10
1306.232167986331
 20
250.0465738110906
 30
0.0
 41
1.0
 10
1304.342639469123
 20
244.4377822702839
 30
0.0
 41
0.9038488889576751
 10
1298.806904821222
 20
242.3438619103841
 30
0.0
 41
1.0
 10
1293.271170173321
 20
240.2499415504843
 30
0.0
 41
0.9038488889576751
 10
1288.142653421528
 20
243.2041210460703
 30
0.0
 41
1.0
  0
SPLINE
  5
B9
330
1F
100
AcDbEntity
  8
LINEE VISIBILI 2D
100
AcDbSpline
210
0.0
220
0.0
230
1.0
 70
    24
 71
     2
 72
     6
 73
     3
 74
     0
 42
0.0000000001
 43
0.0000000001
 40
0.0
 40
0.0
 40
0.0
 40
25.35298768162446
 40
25.35298768162446
 40
25.35298768162446
 10
1288.142653421528
 20
243.2041210460703
 30
0.0
 10
1277.160049269831
 20
249.5346741137946
 30
0.0
 10
1266.177445118134
 20
255.865227181519
 30
0.0
  0
SPLINE
  5
BA
330
1F
100
AcDbEntity
  8
LINEE VISIBILI 2D
100
AcDbSpline
210
0.0
220
0.0
230
1.0
 70
    12
 71
     2
 72
     6
 73
     3
 74
     0
 42
0.0000000001
 43
0.0000000001
 40
0.0
 40
0.0
 40
0.0
 40
14.69063140207823
 40
14.69063140207823
 40
14.69063140207823
 10
1266.177445118134
 20
255.865227181519
 30
0.0
 41
1.0
 10
1259.808304746534
 20
259.5385300101865
 30
0.0
 41
0.9985370850760533
 10
1253.873065476089
 20
263.8781195699024
 30
0.0
 41
1.0
  0
SPLINE
  5
BB
330
1F
100
AcDbEntity
  8
LINEE VISIBILI 2D
100
AcDbSpline
210
0.0
220
0.0
230
1.0
 70
    12
 71
     2
 72
     6
 73
     3
 74
     0
 42
0.0000000001
 43
0.0000000001
 40
0.0
 40
0.0
 40
0.0
 40
15.92156444820721
 40
15.92156444820721
 40
15.92156444820721
 10
1075.178170115211
 20
264.4842644000461
 30
0.0
 41
1.0
 10
1068.793909048837
 20
259.7134463449888
 30
0.0
 41
0.9982826253976216
 10
1061.895462963279
 20
255.7220886959258
 30
0.0
 41
1.0
  0
SPLINE
  5
BC
330
1F
100
AcDbEntity
  8
LINEE VISIBILI 2D
100
AcDbSpline
210
0.0
220
0.0
230
1.0
 70
    24
 71
     2
 72
     6
 73
     3
 74
     0
 42
0.0000000001
 43
0.0000000001
 40
0.0
 40
0.0
 40
0.0
 40
25.35298768162716
 40
25.35298768162716
 40
25.35298768162716
 10
1061.895462963279
 20
255.7220886959258
 30
0.0
 10
1050.921741110775
 20
249.3761510347085
 30
0.0
 10
1039.948019258271
 20
243.0302133734913
 30
0.0
  0
SPLINE
  5
BD
330
1F
100
AcDbEntity
  8
LINEE VISIBILI 2D
100
AcDbSpline
210
0.0
220
0.0
230
1.0
 70
    12
 71
     2
 72
     8
 73
     5
 74
     0
 42
0.0000000001
 43
0.0000000001
 40
0.0
 40
0.0
 40
0.0
 40
11.05543819760987
 40
11.05543819760987
 40
22.11087639521974
 40
22.11087639521974
 40
22.11087639521974
 10
1039.948019258271
 20
243.0302133734913
 30
0.0
 41
1.0
 10
1034.823974541642
 20
240.0681299780339
 30
0.0
 41
0.903818106311827
 10
1029.285261682983
 20
242.1543783259007
 30
0.0
 41
1.0
 10
1023.746548824324
 20
244.2406266737677
 30
0.0
 41
0.903818106311827
 10
1021.850005383632
 20
249.8471314028502
 30
0.0
 41
1.0
  0
SPLINE
  5
BE
330
1F
100
AcDbEntity
  8
LINEE VISIBILI 2D
100
AcDbSpline
210
0.0
220
0.0
230
1.0
 70
    12
 71
     2
 72
     6
 73
     3
 74
     0
 42
0.0000000001
 43
0.0000000001
 40
0.0
 40
0.0
 40
0.0
 40
1.484070478745429
 40
1.484070478745429
 40
1.484070478745429
 10
1021.850005383632
 20
249.8471314028502
 30
0.0
 41
1.0
 10
1021.61195692351
 20
250.5508676728591
 30
0.0
 41
0.9982394102874543
 10
1021.458918418459
 20
251.2778415534522
 30
0.0
 41
1.0
  0
SPLINE
  5
BF
330
1F
100
AcDbEntity
  8
LINEE VISIBILI 2D
100
AcDbSpline
210
0.0
220
0.0
230
1.0
 70
    12
 71
     2
 72
     6
 73
     3
 74
     0
 42
0.0000000001
 43
0.0000000001
 40
-2.963631516669132
 40
-2.963631516669132
 40
-2.963631516669132
 40
0.0
 40
0.0
 40
0.0
 10
1021.458918418459
 20
251.2778415534522
 30
0.0
 41
1.0
 10
1021.247101846886
 20
252.744924212358
 30
0.0
 41
0.9995153362906108
 10
1021.126992847676
 20
254.2223448079785
 30
0.0
 41
1.0
  0
SPLINE
  5
C0
330
1F
100
AcDbEntity
  8
LINEE VISIBILI 2D
100
AcDbSpline
210
0.0
220
0.0
230
1.0
 70
    12
 71
     2
 72
     6
 73
     3
 74
     0
 42
0.0000000001
 43
0.0000000001
 40
-94.82210261961707
 40
-94.82210261961707
 40
-94.82210261961707
 40
0.0
 40
0.0
 40
0.0
 10
1021.126992847676
 20
254.2223448079785
 30
0.0
 41
1.0
 10
1017.159290356897
 20
302.9687333169428
 30
0.0
 41
0.9547265332517451
 10
1041.583425843739
 20
345.3410669963923
 30
0.0
 41
1.0
  0
SPLINE
  5
C1
330
1F
100
AcDbEntity
  8
LINEE VISIBILI 2D
100
AcDbSpline
210
0.0
220
0.0
230
1.0
 70
    12
 71
     2
 72
     6
 73
     3
 74
     0
 42
0.0000000001
 43
0.0000000001
 40
-94.82202785316728
 40
-94.82202785316728
 40
-94.82202785316728
 40
0.0
 40
0.0
 40
0.0
 10
1041.583425843739
 20
345.3410669963923
 30
0.0
 41
1.0
 10
1066.00755488783
 20
387.7133397970684
 30
0.0
 41
0.9547270364924368
 10
1110.177542447687
 20
408.7123821756977
 30
0.0
 41
1.0
  0
SPLINE
  5
C2
330
1F
100
AcDbEntity
  8
LINEE VISIBILI 2D
100
AcDbSpline
210
0.0
220
0.0
230
1.0
 70
    12
 71
     2
 72
     6
 73
     3
 74
     0
 42
0.0000000001
 43
0.0000000001
 40
-2.966467921160669
 40
-2.966467921160669
 40
-2.966467921160669
 40
0.0
 40
0.0
 40
0.0
 10
1110.177542447687
 20
408.7123821756977
 30
0.0
 41
1.0
 10
1111.517471421402
 20
409.3495623823917
 30
0.0
 41
0.9995144091274352
 10
1112.894488193109
 20
409.9020414144288
 30
0.0
 41
1.0
  0
SPLINE
  5
C3
330
1F
100
AcDbEntity
  8
LINEE VISIBILI 2D
100
AcDbSpline
210
0.0
220
0.0
230
1.0
 70
    12
 71
     2
 72
     6
 73
     3
 74
     0
 42
0.0000000001
 43
0.0000000001
 40
0.0
 40
0.0
 40
0.0
 40
1.480860259592409
 40
1.480860259592409
 40
1.480860259592409
 10
1112.894488193109
 20
409.9020414144288
 30
0.0
 41
1.0
 10
1113.598631395279
 20
410.1337943768403
 30
0.0
 41
0.9982388715204256
 10
1114.325266510299
 20
410.2805202926393
 30
0.0
 41
1.0
  0
SPLINE
  5
C4
330
1F
100
AcDbEntity
  8
LINEE VISIBILI 2D
100
AcDbSpline
210
0.0
220
0.0
230
1.0
 70
    12
 71
     2
 72
     8
 73
     5
 74
     0
 42
0.0000000001
 43
0.0000000001
 40
0.0
 40
0.0
 40
0.0
 40
11.05825683257852
 40
11.05825683257852
 40
22.11651366515704
 40
22.11651366515704
 40
22.11651366515704
 10
1114.325266510299
 20
410.2805202926393
 30
0.0
 41
1.0
 10
1120.128625694704
 20
411.4535286675361
 30
0.0
 41
0.9036808209103356
 10
1124.711585446005
 20
407.7050081075358
 30
0.0
 41
1.0
 10
1129.294545197306
 20
403.9564875475356
 30
0.0
 41
0.9036808209103356
 10
1129.295761661786
 20
398.0357675751839
 30
0.0
 41
1.0
  0
SPLINE
  5
C5
330
1F
100
AcDbEntity
  8
LINEE VISIBILI 2D
100
AcDbSpline
210
0.0
220
0.0
230
1.0
 70
    24
 71
     2
 72
     6
 73
     3
 74
     0
 42
0.0000000001
 43
0.0000000001
 40
0.0
 40
0.0
 40
0.0
 40
25.35298768162699
 40
25.35298768162699
 40
25.35298768162699
 10
1129.295761661786
 20
398.0357675751839
 30
0.0
 10
1129.304643960983
 20
385.3592768462422
 30
0.0
 10
1129.313526260179
 20
372.6827861173006
 30
0.0
  0
SPLINE
  5
C6
330
1F
100
AcDbEntity
  8
LINEE VISIBILI 2D
100
AcDbSpline
210
0.0
220
0.0
230
1.0
 70
    12
 71
     2
 72
     6
 73
     3
 74
     0
 42
0.0000000001
 43
0.0000000001
 40
0.0
 40
0.0
 40
0.0
 40
16.09868140559045
 40
16.09868140559045
 40
16.09868140559045
 10
1129.313526260179
 20
372.6827861173006
 30
0.0
 41
1.0
 10
1129.323140117584
 20
364.6239852442677
 30
0.0
 41
0.9982390252597131
 10
1128.378275733155
 20
356.6207611918943
 30
0.0
 41
1.0
  0
SPLINE
  5
C7
330
1F
100
AcDbEntity
  8
LINEE VISIBILI 2D
100
AcDbSpline
210
0.0
220
0.0
230
1.0
 70
    12
 71
     2
 72
     6
 73
     3
 74
     0
 42
0.0000000001
 43
0.0000000001
 40
0.0
 40
0.0
 40
0.0
 40
153.9029704268225
 40
153.9029704268225
 40
153.9029704268225
 10
1036.601408179498
 20
200.3691210382194
 30
0.0
 41
1.0
 10
1079.347619119155
 20
127.15553204197
 30
0.0
 41
0.8670917863547106
 10
1164.126541275393
 20
127.2057459438147
 30
0.0
 41
1.0
  0
SPLINE
  5
C8
330
1F
100
AcDbEntity
  8
LINEE VISIBILI 2D
100
AcDbSpline
210
0.0
220
0.0
230
1.0
 70
    12
 71
     2
 72
     6
 73
     3
 74
     0
 42
0.0000000001
 43
0.0000000001
 40
-0.4328189626930203
 40
-0.4328189626930203
 40
-0.4328189626930203
 40
0.0
 40
0.0
 40
0.0
 10
1164.126541275393
 20
127.2057459438147
 30
0.0
 41
1.0
 10
1164.342950638809
 20
127.206137258621
 30
0.0
 41
0.9999983651820186
 10
1164.559360002226
 20
127.2057459438147
 30
0.0
 41
1.0
  0
SPLINE
  5
C9
330
1F
100
AcDbEntity
  8
LINEE VISIBILI 2D
100
AcDbSpline
210
0.0
220
0.0
230
1.0
 70
    12
 71
     2
 72
     6
 73
     3
 74
     0
 42
0.0000000001
 43
0.0000000001
 40
0.0
 40
0.0
 40
0.0
 40
153.5074114234778
 40
153.5074114234778
 40
153.5074114234778
 10
1164.559360002226
 20
127.2057459438147
 30
0.0
 41
1.0
 10
1249.081446592269
 20
127.5015171625106
 30
0.0
 41
0.867661840552122
 10
1291.566910869401
 20
200.5703609148583
 30
0.0
 41
1.0
  0
SPLINE
  5
CA
330
1F
100
AcDbEntity
  8
LINEE VISIBILI 2D
100
AcDbSpline
210
0.0
220
0.0
230
1.0
 70
    12
 71
     2
 72
     6
 73
     3
 74
     0
 42
0.0000000001
 43
0.0000000001
 40
0.0
 40
0.0
 40
0.0
 40
153.9090622589609
 40
153.9090622589609
 40
153.9090622589609
 10
1292.166399673999
 20
201.6099214553391
 30
0.0
 41
1.0
 10
1334.21026957441
 20
275.238272821415
 30
0.0
 41
0.8670234452478854
 10
1291.761357371128
 20
348.6338515291754
 30
0.0
 41
1.0
  0
SPLINE
  5
CB
330
1F
100
AcDbEntity
  8
LINEE VISIBILI 2D
100
AcDbSpline
210
0.0
220
0.0
230
1.0
 70
    12
 71
     2
 72
     6
 73
     3
 74
     0
 42
0.0000000001
 43
0.0000000001
 40
0.0
 40
0.0
 40
0.0
 40
153.9314961478485
 40
153.9314961478485
 40
153.9314961478485
 10
1291.761357371128
 20
348.6338515291754
 30
0.0
 41
1.0
 10
1249.296600295112
 20
422.0255999288206
 30
0.0
 41
0.8671378494042158
 10
1164.505590662931
 20
422.3239491155268
 30
0.0
 41
1.0
  0
SPLINE
  5
CC
330
1F
100
AcDbEntity
  8
LINEE VISIBILI 2D
100
AcDbSpline
210
0.0
220
0.0
230
1.0
 70
    12
 71
     2
 72
     6
 73
     3
 74
     0
 42
0.0000000001
 43
0.0000000001
 40
0.0
 40
0.0
 40
0.0
 40
14.43070483141696
 40
14.43070483141696
 40
14.43070483141696
 10
1218.718737878877
 20
202.3736410786512
 30
0.0
 41
1.0
 10
1225.322592472716
 20
199.449797547157
 30
0.0
 41
0.9985843874735102
 10
1231.578478902389
 20
195.8409692785535
 30
0.0
 41
1.0
  0
SPLINE
  5
CD
330
1F
100
AcDbEntity
  8
LINEE VISIBILI 2D
100
AcDbSpline
210
0.0
220
0.0
230
1.0
 70
    24
 71
     2
 72
     6
 73
     3
 74
     0
 42
0.0000000001
 43
0.0000000001
 40
0.0
 40
0.0
 40
0.0
 40
25.35298768162446
 40
25.35298768162446
 40
25.35298768162446
 10
1231.578478902389
 20
195.8409692785535
 30
0.0
 10
1242.561083054086
 20
189.5104162108291
 30
0.0
 10
1253.543687205783
 20
183.1798631431047
 30
0.0
  0
SPLINE
  5
CE
330
1F
100
AcDbEntity
  8
LINEE VISIBILI 2D
100
AcDbSpline
210
0.0
220
0.0
230
1.0
 70
    12
 71
     2
 72
     8
 73
     5
 74
     0
 42
0.0000000001
 43
0.0000000001
 40
0.0
 40
0.0
 40
0.0
 40
11.05886462204604
 40
11.05886462204604
 40
22.11772924409209
 40
22.11772924409209
 40
22.11772924409209
 10
1253.543687205783
 20
183.1798631431047
 30
0.0
 41
1.0
 10
1258.6763045476
 20
180.2270617415838
 30
0.0
 41
0.903605205059404
 10
1259.639370544789
 20
174.3845194200087
 30
0.0
 41
1.0
 10
1260.602436541978
 20
168.5419770984336
 30
0.0
 41
0.903605205059404
 10
1256.689069869411
 20
164.0980646127537
 30
0.0
 41
1.0
  0
SPLINE
  5
CF
330
1F
100
AcDbEntity
  8
LINEE VISIBILI 2D
100
AcDbSpline
210
0.0
220
0.0
230
1.0
 70
    12
 71
     2
 72
     6
 73
     3
 74
     0
 42
0.0000000001
 43
0.0000000001
 40
0.0
 40
0.0
 40
0.0
 40
1.484071273242245
 40
1.484071273242245
 40
1.484071273242245
 10
1256.689069869411
 20
164.0980646127537
 30
0.0
 41
1.0
 10
1256.198640407764
 20
163.5400401141324
 30
0.0
 41
0.9982394104381684
 10
1255.645581570025
 20
163.0440176147313
 30
0.0
 41
1.0
  0
SPLINE
  5
D0
330
1F
100
AcDbEntity
  8
LINEE VISIBILI 2D
100
AcDbSpline
210
0.0
220
0.0
230
1.0
 70
    12
 71
     2
 72
     6
 73
     3
 74
     0
 42
0.0000000001
 43
0.0000000001
 40
-2.963630835792425
 40
-2.963630835792425
 40
-2.963630835792425
 40
0.0
 40
0.0
 40
0.0
 10
1255.645581570025
 20
163.0440176147313
 30
0.0
 41
1.0
 10
1254.480959258463
 20
162.1270379806983
 30
0.0
 41
0.999515336512715
 10
1253.261530270582
 20
161.2843104320018
 30
0.0
 41
1.0
  0
SPLINE
  5
D1
330
1F
100
AcDbEntity
  8
LINEE VISIBILI 2D
100
AcDbSpline
210
0.0
220
0.0
230
1.0
 70
    12
 71
     2
 72
     6
 73
     3
 74
     0
 42
0.0000000001
 43
0.0000000001
 40
-94.82210262483204
 40
-94.82210262483204
 40
-94.82210262483204
 40
0.0
 40
0.0
 40
0.0
 10
1253.261530270582
 20
161.2843104320018
 30
0.0
 41
1.0
 10
1213.029770723069
 20
133.4749850228127
 30
0.0
 41
0.9547265332465079
 10
1164.122185592743
 20
133.4407399801821
 30
0.0
 41
1.0
  0
SPLINE
  5
D2
330
1F
100
AcDbEntity
  8
LINEE VISIBILI 2D
100
AcDbSpline
210
0.0
220
0.0
230
1.0
 70
    12
 71
     2
 72
     6
 73
     3
 74
     0
 42
0.0000000001
 43
0.0000000001
 40
-94.82202785101485
 40
-94.82202785101485
 40
-94.82202785101485
 40
0.0
 40
0.0
 40
0.0
 10
1164.122185592743
 20
133.4407399801821
 30
0.0
 41
1.0
 10
1115.214656410413
 20
133.4065197973548
 30
0.0
 41
0.9547270364946119
 10
1074.943958476026
 20
161.1593299184715
 30
0.0
 41
1.0
  0
SPLINE
  5
D3
330
1F
100
AcDbEntity
  8
LINEE VISIBILI 2D
100
AcDbSpline
210
0.0
220
0.0
230
1.0
 70
    12
 71
     2
 72
     6
 73
     3
 74
     0
 42
0.0000000001
 43
0.0000000001
 40
-2.966468198130037
 40
-2.966468198130037
 40
-2.966468198130037
 40
0.0
 40
0.0
 40
0.0
 10
1074.943958476026
 20
161.1593299184715
 30
0.0
 41
1.0
 10
1073.722179629203
 20
162.0011524242304
 30
0.0
 41
0.9995144090365743
 10
1072.555210262828
 20
162.9174445063145
 30
0.0
 41
1.0
  0
SPLINE
  5
D4
330
1F
100
AcDbEntity
  8
LINEE VISIBILI 2D
100
AcDbSpline
210
0.0
220
0.0
230
1.0
 70
    12
 71
     2
 72
     6
 73
     3
 74
     0
 42
0.0000000001
 43
0.0000000001
 40
0.0
 40
0.0
 40
0.0
 40
1.480859936187417
 40
1.480859936187417
 40
1.480859936187417
 10
1072.555210262828
 20
162.9174445063145
 30
0.0
 41
1.0
 10
1072.002434807696
 20
163.4113737937114
 30
0.0
 41
0.9982388714944184
 10
1071.512048962628
 20
163.9672951619832
 30
0.0
 41
1.0
  0
SPLINE
  5
D5
330
1F
100
AcDbEntity
  8
LINEE VISIBILI 2D
100
AcDbSpline
210
0.0
220
0.0
230
1.0
 70
    12
 71
     2
 72
     8
 73
     5
 74
     0
 42
0.0000000001
 43
0.0000000001
 40
0.0
 40
0.0
 40
0.0
 40
11.05923414430103
 40
11.05923414430103
 40
22.11846828860205
 40
22.11846828860205
 40
22.11846828860205
 10
1071.512048962628
 20
163.9672951619832
 30
0.0
 41
1.0
 10
1067.59272936344
 20
168.4061330560866
 30
0.0
 41
0.9036201144636502
 10
1068.547691828357
 20
174.2501380750189
 30
0.0
 41
1.0
 10
1069.502654293274
 20
180.0941430939512
 30
0.0
 41
0.9036201144636502
 10
1074.631068337672
 20
183.0545007344954
 30
0.0
 41
1.0
  0
SPLINE
  5
D6
330
1F
100
AcDbEntity
  8
LINEE VISIBILI 2D
100
AcDbSpline
210
0.0
220
0.0
230
1.0
 70
    24
 71
     2
 72
     6
 73
     3
 74
     0
 42
0.0000000001
 43
0.0000000001
 40
0.0
 40
0.0
 40
0.0
 40
25.35298768162533
 40
25.35298768162533
 40
25.35298768162533
 10
1074.631068337672
 20
183.0545007344954
 30
0.0
 10
1085.604790190177
 20
189.4004383957108
 30
0.0
 10
1096.578512042681
 20
195.7463760569262
 30
0.0
  0
SPLINE
  5
D7
330
1F
100
AcDbEntity
  8
LINEE VISIBILI 2D
100
AcDbSpline
210
0.0
220
0.0
230
1.0
 70
    12
 71
     2
 72
     6
 73
     3
 74
     0
 42
0.0000000001
 43
0.0000000001
 40
0.0
 40
0.0
 40
0.0
 40
15.17166125084722
 40
15.17166125084722
 40
15.17166125084722
 10
1096.578512042681
 20
195.7463760569262
 30
0.0
 41
1.0
 10
1103.150921560408
 20
199.5501638045018
 30
0.0
 41
0.9984321419963608
 10
1110.107315243185
 20
202.5954807055044
 30
0.0
 41
1.0
  0
SPLINE
  5
D8
330
1F
100
AcDbEntity
  8
LINEE VISIBILI 2D
100
AcDbSpline
210
0.0
220
0.0
230
1.0
 70
    12
 71
     2
 72
    10
 73
     7
 74
     0
 42
0.0000000001
 43
0.0000000001
 40
0.0
 40
0.0
 40
0.0
 40
91.14292063708838
 40
91.14292063708838
 40
94.14292063708865
 40
94.14292063708865
 40
185.2857703504747
 40
185.2857703504747
 40
185.2857703504747
 10
1166.059360002226
 20
364.0160689073709
 30
0.0
 41
1.0
 10
1215.975009014426
 20
363.183100076043
 30
0.0
 41
0.8742474492412893
 10
1241.654205689018
 20
320.3713644007549
 30
0.0
 41
1.0
 10
1242.404205689018
 20
319.0723262950778
 30
0.0
 41
1.0
 10
1243.154205689018
 20
317.7732881894008
 30
0.0
 41
1.0
 10
1267.390635501651
 20
274.1286242454917
 30
0.0
 41
0.8742476407432853
 10
1243.154222905046
 20
230.483910178608
 30
0.0
 41
1.0
  0
SPLINE
  5
D9
330
1F
100
AcDbEntity
  8
LINEE VISIBILI 2D
100
AcDbSpline
210
0.0
220
0.0
230
1.0
 70
    24
 71
     2
 72
     6
 73
     3
 74
     0
 42
0.0000000001
 43
0.0000000001
 40
0.0
 40
0.0
 40
0.0
 40
3.00000000000064
 40
3.00000000000064
 40
3.00000000000064
 10
1243.154222905046
 20
230.483910178608
 30
0.0
 10
1242.404193952961
 20
229.1848226546365
 30
0.0
 10
1241.654165000876
 20
227.885735130665
 30
0.0
  0
SPLINE
  5
DA
330
1F
100
AcDbEntity
  8
LINEE VISIBILI 2D
100
AcDbSpline
210
0.0
220
0.0
230
1.0
 70
    12
 71
     2
 72
     6
 73
     3
 74
     0
 42
0.0000000001
 43
0.0000000001
 40
0.0
 40
0.0
 40
0.0
 40
91.14276243472736
 40
91.14276243472736
 40
91.14276243472736
 10
1241.654165000876
 20
227.885735130665
 30
0.0
 41
1.0
 10
1215.97490553511
 20
185.074065562716
 30
0.0
 41
0.8742478764054697
 10
1166.059243216216
 20
184.2410984581984
 30
0.0
 41
1.0
  0
SPLINE
  5
DB
330
1F
100
AcDbEntity
  8
LINEE VISIBILI 2D
100
AcDbSpline
210
0.0
220
0.0
230
1.0
 70
    24
 71
     2
 72
     6
 73
     3
 74
     0
 42
0.0000000001
 43
0.0000000001
 40
0.0
 40
0.0
 40
0.0
 40
2.999588130798656
 40
2.999588130798656
 40
2.999588130798656
 10
1166.059243216216
 20
184.2410984581984
 30
0.0
 10
1164.559346183516
 20
184.2410984581984
 30
0.0
 10
1163.059449150816
 20
184.2410984581984
 30
0.0
  0
SPLINE
  5
DC
330
1F
100
AcDbEntity
  8
LINEE VISIBILI 2D
100
AcDbSpline
210
0.0
220
0.0
230
1.0
 70
    12
 71
     2
 72
     6
 73
     3
 74
     0
 42
0.0000000001
 43
0.0000000001
 40
0.0
 40
0.0
 40
0.0
 40
91.14271394920502
 40
91.14271394920502
 40
91.14271394920502
 10
1163.059449150816
 20
184.2410984581984
 30
0.0
 41
1.0
 10
1113.143846183439
 20
185.0740650334795
 30
0.0
 41
0.8742480073216344
 10
1087.464567473614
 20
227.8857143410127
 30
0.0
 41
1.0
  0
SPLINE
  5
DD
330
1F
100
AcDbEntity
  8
LINEE VISIBILI 2D
100
AcDbSpline
210
0.0
220
0.0
230
1.0
 70
    24
 71
     2
 72
     6
 73
     3
 74
     0
 42
0.0000000001
 43
0.0000000001
 40
0.0
 40
0.0
 40
0.0
 40
3.00000000000064
 40
3.00000000000064
 40
3.00000000000064
 10
1087.464567473614
 20
227.8857143410127
 30
0.0
 10
1086.714521755389
 20
229.1848312241803
 30
0.0
 10
1085.964476037164
 20
230.4839481073479
 30
0.0
  0
SPLINE
  5
DE
330
1F
100
AcDbEntity
  8
LINEE VISIBILI 2D
100
AcDbSpline
210
0.0
220
0.0
230
1.0
 70
    12
 71
     2
 72
     6
 73
     3
 74
     0
 42
0.0000000001
 43
0.0000000001
 40
0.0
 40
0.0
 40
0.0
 40
91.1425262445733
 40
91.1425262445733
 40
91.1425262445733
 10
1085.964476037164
 20
230.4839481073479
 30
0.0
 41
1.0
 10
1061.728187234371
 20
274.1285384968605
 30
0.0
 41
0.8742485141441186
 10
1085.964456858947
 20
317.7731847221467
 30
0.0
 41
1.0
  0
SPLINE
  5
DF
330
1F
100
AcDbEntity
  8
LINEE VISIBILI 2D
100
AcDbSpline
210
0.0
220
0.0
230
1.0
 70
    12
 71
     2
 72
     8
 73
     5
 74
     0
 42
0.0000000001
 43
0.0000000001
 40
844.2862857337767
 40
844.2862857337767
 40
844.2862857337767
 40
847.286285733777
 40
847.286285733777
 40
856.0778459804266
 40
856.0778459804266
 40
856.0778459804266
 10
1085.964456858947
 20
317.7731847221467
 30
0.0
 41
1.0
 10
1086.714514315434
 20
319.0723262950778
 30
0.0
 41
1.0
 10
1087.464514315434
 20
320.3713644007548
 30
0.0
 41
1.0
 10
1089.726873305113
 20
324.1430217336397
 30
0.0
 41
0.9991941199083865
 10
1092.284476891749
 20
327.7210562679211
 30
0.0
 41
1.0
  0
SPLINE
  5
E0
330
1F
100
AcDbEntity
  8
LINEE VISIBILI 2D
100
AcDbSpline
210
0.0
220
0.0
230
1.0
 70
    12
 71
     2
 72
     6
 73
     3
 74
     0
 42
0.0000000001
 43
0.0000000001
 40
0.0
 40
0.0
 40
0.0
 40
82.37718645982753
 40
82.37718645982753
 40
82.37718645982753
 10
1092.284476891749
 20
327.7210562679211
 30
0.0
 41
1.0
 10
1118.746931049772
 20
363.2721917329301
 30
0.0
 41
0.8973502737723601
 10
1163.05953027049
 20
364.016068907371
 30
0.0
 41
1.0
  0
SPLINE
  5
E1
330
1F
100
AcDbEntity
  8
LINEE VISIBILI 2D
100
AcDbSpline
210
0.0
220
0.0
230
1.0
 70
    24
 71
     2
 72
     6
 73
     3
 74
     0
 42
0.0000000001
 43
0.0000000001
 40
0.0
 40
0.0
 40
0.0
 40
2.999132300399651
 40
2.999132300399651
 40
2.999132300399651
 10
1163.05953027049
 20
364.016068907371
 30
0.0
 10
1164.559445136358
 20
364.0160689073709
 30
0.0
 10
1166.059360002226
 20
364.0160689073709
 30
0.0
  0
SPLINE
  5
E2
330
1F
100
AcDbEntity
  8
LINEE VISIBILI 2D
100
AcDbSpline
210
0.0
220
0.0
230
1.0
 70
    12
 71
     2
 72
     8
 73
     5
 74
     0
 42
0.0000000001
 43
0.0000000001
 40
0.0
 40
0.0
 40
0.0
 40
90.88365747447507
 40
90.88365747447507
 40
181.7673149489544
 40
181.7673149489544
 40
181.7673149489544
 10
1225.708877937795
 20
297.7016982852401
 30
0.0
 41
1.0
 10
1206.186506162758
 20
348.5592155132791
 30
0.0
 41
0.7688418320734622
 10
1152.622933082494
 20
338.6317940354636
 30
0.0
 41
1.0
 10
1099.059360002225
 20
328.7043725576495
 30
0.0
 41
0.768841832073435
 10
1099.059360002226
 20
274.2285975900231
 30
0.0
 41
1.0
  0
SPLINE
  5
E3
330
1F
100
AcDbEntity
  8
LINEE VISIBILI 2D
100
AcDbSpline
210
0.0
220
0.0
230
1.0
 70
    12
 71
     2
 72
     6
 73
     3
 74
     0
 42
0.0000000001
 43
0.0000000001
 40
0.0
 40
0.0
 40
0.0
 40
24.0070038611817
 40
24.0070038611817
 40
24.0070038611817
 10
1099.059360002226
 20
274.2285975900231
 30
0.0
 41
1.0
 10
1099.059360002221
 20
262.0888901470074
 30
0.0
 41
0.983254907563903
 10
1103.409842066656
 20
250.7554968948061
 30
0.0
 41
1.0
  0
SPLINE
  5
E4
330
1F
100
AcDbEntity
  8
LINEE VISIBILI 2D
100
AcDbSpline
210
0.0
220
0.0
230
1.0
 70
    12
 71
     2
 72
     8
 73
     5
 74
     0
 42
0.0000000001
 43
0.0000000001
 40
0.0
 40
0.0
 40
0.0
 40
102.8871594050644
 40
102.8871594050644
 40
205.7743188101334
 40
205.7743188101334
 40
205.7743188101334
 10
1103.409842066656
 20
250.7554968948061
 30
0.0
 41
1.0
 10
1126.882942761873
 20
189.605978959241
 30
0.0
 41
0.707106781186556
 10
1188.032460697439
 20
213.079079654457
 30
0.0
 41
1.0
 10
1249.181978633012
 20
236.5521803496691
 30
0.0
 41
0.7071067811865248
 10
1225.708877937795
 20
297.7016982852401
 30
0.0
 41
1.0
  0
SPLINE
  5
E5
330
1F
100
AcDbEntity
  8
LINEE VISIBILI 2D
100
AcDbSpline
210
0.0
220
0.0
230
1.0
 70
    28
 71
     2
 72
     8
 73
     5
 74
     0
 42
0.0000000001
 43
0.0000000001
 40
861.7198378682718
 40
861.7198378682718
 40
861.7198378682718
 40
1294.459099813909
 40
1294.459099813909
 40
1299.308900830063
 40
1299.308900830063
 40
1299.308900830063
 10
1164.234390462236
 20
1084.713200147406
 30
0.0
 41
0.9999972568886619
 10
889.9420634939538
 20
1084.713200147404
 30
0.0
 41
0.7071081527486394
 10
889.7498700479555
 20
1084.713200147406
 30
0.0
 41
1.0
 10
889.7483419543605
 20
1084.713200147406
 30
0.0
 41
0.9967174987265165
 10
889.7814905054466
 20
1084.713200147406
 30
0.0
 41
0.993508572489383
  0
SPLINE
  5
E6
330
1F
100
AcDbEntity
  8
LINEE VISIBILI 2D
100
AcDbSpline
210
0.0
220
0.0
230
1.0
 70
    12
 71
     2
 72
     6
 73
     3
 74
     0
 42
0.0000000001
 43
0.0000000001
 40
0.0
 40
0.0
 40
0.0
 40
0.7847219971320335
 40
0.7847219971320335
 40
0.7847219971320335
 10
889.7814905054468
 20
1084.713200147406
 30
0.0
 41
1.0
 10
889.251375481233
 20
1084.714773685269
 30
0.0
 41
0.7093350457635575
 10
889.2640551300392
 20
1085.296405176839
 30
0.0
 41
1.0
  0
SPLINE
  5
E7
330
1F
100
AcDbEntity
  8
LINEE VISIBILI 2D
100
AcDbSpline
210
0.0
220
0.0
230
1.0
 70
    24
 71
     2
 72
     6
 73
     3
 74
     0
 42
0.0000000001
 43
0.0000000001
 40
0.0
 40
0.0
 40
0.0
 40
16.25978503881271
 40
16.25978503881271
 40
16.25978503881271
 10
889.2640551300392
 20
1085.296405176839
 30
0.0
 10
891.9769731238248
 20
1093.004417750424
 30
0.0
 10
894.6898911176104
 20
1100.712430324009
 30
0.0
  0
SPLINE
  5
E8
330
1F
100
AcDbEntity
  8
LINEE VISIBILI 2D
100
AcDbSpline
210
0.0
220
0.0
230
1.0
 70
    12
 71
     2
 72
     6
 73
     3
 74
     0
 42
0.0000000001
 43
0.0000000001
 40
0.0
 40
0.0
 40
0.0
 40
1.845654398118714
 40
1.845654398118714
 40
1.845654398118714
 10
894.6898911176104
 20
1100.712430324009
 30
0.0
 41
1.0
 10
895.0461951787552
 20
1101.708830108862
 30
0.0
 41
0.8187175086247742
 10
896.1353302153807
 20
1101.713200119861
 30
0.0
 41
1.0
  0
SPLINE
  5
E9
330
1F
100
AcDbEntity
  8
LINEE VISIBILI 2D
100
AcDbSpline
210
0.0
220
0.0
230
1.0
 70
    12
 71
     2
 72
     8
 73
     5
 74
     0
 42
0.0000000001
 43
0.0000000001
 40
0.0
 40
0.0
 40
0.0
 40
0.0308900943917821
 40
0.0308900943917821
 40
420.9375771931948
 40
420.9375771931948
 40
420.9375771931948
 10
896.1353302153807
 20
1101.713200119861
 30
0.0
 41
1.0
 10
896.1198863039683
 20
1101.713200092315
 30
0.0
 41
1.0
 10
896.1044423925559
 20
1101.713200092314
 30
0.0
 41
1.0
 10
896.2921836170295
 20
1101.713200147404
 30
0.0
 41
0.7071077790650695
 10
1164.230200636
 20
1101.713200147405
 30
0.0
 41
0.9999980042497557
  0
SPLINE
  5
EA
330
1F
100
AcDbEntity
  8
LINEE VISIBILI 2D
100
AcDbSpline
210
0.0
220
0.0
230
1.0
 70
    24
 71
     2
 72
     6
 73
     3
 74
     0
 42
0.0000000001
 43
0.0000000001
 40
0.0
 40
0.0
 40
0.0
 40
267.6890771378162
 40
267.6890771378162
 40
267.6890771378162
 10
1164.230200636
 20
1101.713200147406
 30
0.0
 10
1298.090539206765
 20
1101.713200147406
 30
0.0
 10
1431.95087777753
 20
1101.713200147406
 30
0.0
  0
SPLINE
  5
EB
330
1F
100
AcDbEntity
  8
LINEE VISIBILI 2D
100
AcDbSpline
210
0.0
220
0.0
230
1.0
 70
    12
 71
     2
 72
     6
 73
     3
 74
     0
 42
0.0000000001
 43
0.0000000001
 40
0.0
 40
0.0
 40
0.0
 40
1.845855070974565
 40
1.845855070974565
 40
1.845855070974565
 10
1431.95087777753
 20
1101.713200147406
 30
0.0
 41
1.0
 10
1433.040400842923
 20
1101.709378547367
 30
0.0
 41
0.8184190453335692
 10
1433.396316875303
 20
1100.712430324009
 30
0.0
 41
1.0
  0
SPLINE
  5
EC
330
1F
100
AcDbEntity
  8
LINEE VISIBILI 2D
100
AcDbSpline
210
0.0
220
0.0
230
1.0
 70
    24
 71
     2
 72
     6
 73
     3
 74
     0
 42
0.0000000001
 43
0.0000000001
 40
0.0
 40
0.0
 40
0.0
 40
16.25978503881029
 40
16.25978503881029
 40
16.25978503881029
 10
1433.396316875303
 20
1100.712430324009
 30
0.0
 10
1436.116361077391
 20
1092.962815235707
 30
0.0
 10
1438.836405279479
 20
1085.213200147406
 30
0.0
  0
SPLINE
  5
ED
330
1F
100
AcDbEntity
  8
LINEE VISIBILI 2D
100
AcDbSpline
210
0.0
220
0.0
230
1.0
 70
    12
 71
     2
 72
     6
 73
     3
 74
     0
 42
0.0000000001
 43
0.0000000001
 40
0.0
 40
0.0
 40
0.0
 40
0.7849086161951327
 40
0.7849086161951327
 40
0.7849086161951327
 10
1438.836405279479
 20
1085.213200147406
 30
0.0
 41
1.0
 10
1438.835266921207
 20
1084.714339276414
 30
0.0
 41
0.7087190387888231
 10
1438.304717487467
 20
1084.713200147406
 30
0.0
 41
1.0
  0
SPLINE
  5
EE
330
1F
100
AcDbEntity
  8
LINEE VISIBILI 2D
100
AcDbSpline
210
0.0
220
0.0
230
1.0
 70
    24
 71
     2
 72
     6
 73
     3
 74
     0
 42
0.0000000001
 43
0.0000000001
 40
-274.0377302077043
 40
-274.0377302077043
 40
-274.0377302077043
 40
0.0
 40
0.0
 40
0.0
 10
1438.304717487467
 20
1084.713200147406
 30
0.0
 10
1301.269553974852
 20
1084.713200147406
 30
0.0
 10
1164.234390462236
 20
1084.713200147406
 30
0.0
  0
SPLINE
  5
EF
330
1F
100
AcDbEntity
  8
PREDEFINITO
100
AcDbSpline
210
0.0
220
0.0
230
1.0
 70
    24
 71
     2
 72
     6
 73
     3
 74
     0
 42
0.0000000001
 43
0.0000000001
 40
-152.2956911083144
 40
-152.2956911083144
 40
-152.2956911083144
 40
0.0
 40
0.0
 40
0.0
 10
1012.285808651451
 20
1454.713200147406
 30
0.0
 10
1088.432555754901
 20
1454.713200147406
 30
0.0
 10
1164.57930285835
 20
1454.713200147406
 30
0.0
  0
SPLINE
  5
F0
330
1F
100
AcDbEntity
  8
PREDEFINITO
100
AcDbSpline
210
0.0
220
0.0
230
1.0
 70
    28
 71
     3
 72
    12
 73
     8
 74
     0
 42
0.0000000001
 43
0.0000000001
 40
-959.5832059026716
 40
-959.5832059026716
 40
-959.5832059026716
 40
-959.5832059026716
 40
-931.5264727983385
 40
-902.0819513530402
 40
-839.8074558867485
 40
-777.5448022145894
 40
-720.1097556910806
 40
-720.1097556910806
 40
-720.1097556910806
 40
-720.1097556910806
 10
1164.57930285835
 20
1454.713200147406
 30
0.0
 41
1.0
 10
1173.871395762508
 20
1454.713200147406
 30
0.0
 41
1.0
 10
1192.910112355195
 20
1454.713200147406
 30
0.0
 41
1.0
 10
1231.187912941888
 20
1454.713200147406
 30
0.0
 41
1.0
 10
1274.626246076106
 20
1454.713200147406
 30
0.0
 41
1.0
 10
1308.308056511009
 20
1454.713200147406
 30
0.0
 41
1.0
 10
1315.823244140413
 20
1454.713200147406
 30
0.0
 41
1.0
 10
1315.813136091853
 20
1454.713200147406
 30
0.0
 41
1.0
  0
SPLINE
  5
F1
330
1F
100
AcDbEntity
  8
PREDEFINITO
100
AcDbSpline
210
0.0
220
0.0
230
1.0
 70
    24
 71
     2
 72
     6
 73
     3
 74
     0
 42
0.0000000001
 43
0.0000000001
 40
0.0
 40
0.0
 40
0.0
 40
1.052924527615056
 40
1.052924527615056
 40
1.052924527615056
 10
1315.813136091853
 20
1454.713200147406
 30
0.0
 10
1316.238188624925
 20
1454.402552651441
 30
0.0
 10
1316.663241157997
 20
1454.091905155477
 30
0.0
  0
POLYLINE
  5
F2
330
1F
100
AcDbEntity
  8
PREDEFINITO
100
AcDb2dPolyline
 66
     1
 10
0.0
 20
0.0
 30
0.0
  0
VERTEX
  5
F4
330
F2
100
AcDbEntity
  8
PREDEFINITO
100
AcDbVertex
100
AcDb2dVertex
 10
1316.663241157997
 20
1454.091905155477
 30
0.0
  0
VERTEX
  5
F5
330
F2
100
AcDbEntity
  8
PREDEFINITO
100
AcDbVertex
100
AcDb2dVertex
 10
1316.765028808994
 20
1454.016849402287
 30
0.0
  0
SEQEND
  5
F3
330
F2
100
AcDbEntity
  8
PREDEFINITO
  0
SPLINE
  5
F6
330
1F
100
AcDbEntity
  8
PREDEFINITO
100
AcDbSpline
210
0.0
220
0.0
230
1.0
 70
    24
 71
     2
 72
     6
 73
     3
 74
     0
 42
0.0000000001
 43
0.0000000001
 40
0.0
 40
0.0
 40
0.0
 40
368.666104621046
 40
368.666104621046
 40
368.666104621046
 10
1316.765028808994
 20
1454.016849402287
 30
0.0
 10
1372.73762279332
 20
1278.387287833684
 30
0.0
 10
1428.710216777647
 20
1102.757726265081
 30
0.0
  0
SPLINE
  5
F7
330
1F
100
AcDbEntity
  8
PREDEFINITO
100
AcDbSpline
210
0.0
220
0.0
230
1.0
 70
    12
 71
     2
 72
     6
 73
     3
 74
     0
 42
0.0000000001
 43
0.0000000001
 40
0.0
 40
0.0
 40
0.0
 40
1.621703005622107
 40
1.621703005622107
 40
1.621703005622107
 10
1428.710216777647
 20
1102.757726265081
 30
0.0
 41
1.0
 10
1428.987866395351
 20
1101.903236998073
 30
0.0
 41
0.8599446120531008
 10
1429.870942186742
 20
1101.737652082387
 30
0.0
 41
1.0
  0
POLYLINE
  5
F8
330
1F
100
AcDbEntity
  8
PREDEFINITO
100
AcDb2dPolyline
 66
     1
 10
0.0
 20
0.0
 30
0.0
  0
VERTEX
  5
FA
330
F8
100
AcDbEntity
  8
PREDEFINITO
100
AcDbVertex
100
AcDb2dVertex
 10
1429.870942186742
 20
1101.737652082387
 30
0.0
  0
VERTEX
  5
FB
330
F8
100
AcDbEntity
  8
PREDEFINITO
100
AcDbVertex
100
AcDb2dVertex
 10
1429.985809618086
 20
1101.713200147406
 30
0.0
  0
VERTEX
  5
FC
330
F8
100
AcDbEntity
  8
PREDEFINITO
100
AcDbVertex
100
AcDb2dVertex
 10
898.077903809033
 20
1101.71320009895
 30
0.0
  0
VERTEX
  5
FD
330
F8
100
AcDbEntity
  8
PREDEFINITO
100
AcDbVertex
100
AcDb2dVertex
 10
898.2150738613351
 20
1101.738223267828
 30
0.0
  0
SEQEND
  5
F9
330
F8
100
AcDbEntity
  8
PREDEFINITO
  0
SPLINE
  5
FE
330
1F
100
AcDbEntity
  8
PREDEFINITO
100
AcDbSpline
210
0.0
220
0.0
230
1.0
 70
    12
 71
     2
 72
     6
 73
     3
 74
     0
 42
0.0000000001
 43
0.0000000001
 40
0.0
 40
0.0
 40
0.0
 40
1.622810418463015
 40
1.622810418463015
 40
1.622810418463015
 10
898.2150738613351
 20
1101.738223267828
 30
0.0
 41
1.0
 10
899.1012258239209
 20
1101.899879036266
 30
0.0
 41
0.8576098904284025
 10
899.37599121526
 20
1102.757726265081
 30
0.0
 41
1.0
  0
SPLINE
  5
FF
330
1F
100
AcDbEntity
  8
PREDEFINITO
100
AcDbSpline
210
0.0
220
0.0
230
1.0
 70
    24
 71
     2
 72
     6
 73
     3
 74
     0
 42
0.0000000001
 43
0.0000000001
 40
0.0
 40
0.0
 40
0.0
 40
368.6661046210482
 40
368.6661046210482
 40
368.6661046210482
 10
899.37599121526
 20
1102.757726265081
 30
0.0
 10
955.3485851995902
 20
1278.387287833684
 30
0.0
 10
1011.32117918392
 20
1454.016849402287
 30
0.0
  0
POLYLINE
  5
100
330
1F
100
AcDbEntity
  8
PREDEFINITO
100
AcDb2dPolyline
 66
     1
 10
0.0
 20
0.0
 30
0.0
  0
VERTEX
  5
102
330
100
100
AcDbEntity
  8
PREDEFINITO
100
AcDbVertex
100
AcDb2dVertex
 10
1011.32117918392
 20
1454.016849402287
 30
0.0
  0
VERTEX
  5
103
330
100
100
AcDbEntity
  8
PREDEFINITO
100
AcDbVertex
100
AcDb2dVertex
 10
1012.273143614264
 20
1454.713200147406
 30
0.0
  0
VERTEX
  5
104
330
100
100
AcDbEntity
  8
PREDEFINITO
100
AcDbVertex
100
AcDb2dVertex
 10
1012.285808651451
 20
1454.713200147406
 30
0.0
  0
SEQEND
  5
101
330
100
100
AcDbEntity
  8
PREDEFINITO
  0
POLYLINE
  5
105
330
1F
100
AcDbEntity
  8
PREDEFINITO
100
AcDb2dPolyline
 66
     1
 10
0.0
 20
0.0
 30
0.0
  0
VERTEX
  5
107
330
105
100
AcDbEntity
  8
PREDEFINITO
100
AcDbVertex
100
AcDb2dVertex
 10
1162.848733175382
 20
1592.164893813524
 30
0.0
  0
VERTEX
  5
108
330
105
100
AcDbEntity
  8
PREDEFINITO
100
AcDbVertex
100
AcDb2dVertex
 10
1162.848733175382
 20
1454.713200147406
 30
0.0
  0
SEQEND
  5
106
330
105
100
AcDbEntity
  8
PREDEFINITO
  0
POLYLINE
  5
109
330
1F
100
AcDbEntity
  8
PREDEFINITO
100
AcDb2dPolyline
 66
     1
 10
0.0
 20
0.0
 30
0.0
  0
VERTEX
  5
10B
330
109
100
AcDbEntity
  8
PREDEFINITO
100
AcDbVertex
100
AcDb2dVertex
 10
1162.848733175382
 20
1744.057488447483
 30
0.0
  0
VERTEX
  5
10C
330
109
100
AcDbEntity
  8
PREDEFINITO
100
AcDbVertex
100
AcDb2dVertex
 10
1162.848733175382
 20
1639.718587612526
 30
0.0
  0
SEQEND
  5
10A
330
109
100
AcDbEntity
  8
PREDEFINITO
  0
POLYLINE
  5
10D
330
1F
100
AcDbEntity
  8
PREDEFINITO
100
AcDb2dPolyline
 66
     1
 10
0.0
 20
0.0
 30
0.0
  0
VERTEX
  5
10F
330
10D
100
AcDbEntity
  8
PREDEFINITO
100
AcDbVertex
100
AcDb2dVertex
 10
1164.098333809168
 20
1579.118280314123
 30
0.0
  0
VERTEX
  5
110
330
10D
100
AcDbEntity
  8
PREDEFINITO
100
AcDbVertex
100
AcDb2dVertex
 10
1164.098333809168
 20
1454.713200147406
 30
0.0
  0
SEQEND
  5
10E
330
10D
100
AcDbEntity
  8
PREDEFINITO
  0
POLYLINE
  5
111
330
1F
100
AcDbEntity
  8
PREDEFINITO
100
AcDb2dPolyline
 66
     1
 10
0.0
 20
0.0
 30
0.0
  0
VERTEX
  5
113
330
111
100
AcDbEntity
  8
PREDEFINITO
100
AcDbVertex
100
AcDb2dVertex
 10
1164.098333809168
 20
1757.147503642374
 30
0.0
  0
VERTEX
  5
114
330
111
100
AcDbEntity
  8
PREDEFINITO
100
AcDbVertex
100
AcDb2dVertex
 10
1164.098333809168
 20
1627.234799189913
 30
0.0
  0
SEQEND
  5
112
330
111
100
AcDbEntity
  8
PREDEFINITO
  0
SPLINE
  5
115
330
1F
100
AcDbEntity
  8
LINEE VISIBILI 2D
100
AcDbSpline
210
0.0
220
0.0
230
1.0
 70
    12
 71
     2
 72
     6
 73
     3
 74
     0
 42
0.0000000001
 43
0.0000000001
 40
0.0
 40
0.0
 40
0.0
 40
8.100222808290626
 40
8.100222808290626
 40
8.100222808290626
 10
1165.04429928559
 20
1454.713200147598
 30
0.0
 41
1.0
 10
1165.22363674826
 20
1458.759339153252
 30
0.0
 41
0.9999999820495364
 10
1165.401440910478
 20
1462.805545828458
 30
0.0
 41
1.0
  0
SPLINE
  5
116
330
1F
100
AcDbEntity
  8
LINEE VISIBILI 2D
100
AcDbSpline
210
0.0
220
0.0
230
1.0
 70
    12
 71
     2
 72
     6
 73
     3
 74
     0
 42
0.0000000001
 43
0.0000000001
 40
0.0
 40
0.0
 40
0.0
 40
37.08831330710753
 40
37.08831330710753
 40
37.08831330710753
 10
1165.401440910478
 20
1462.805545828458
 30
0.0
 41
1.0
 10
1166.215496068144
 20
1481.332877125323
 30
0.0
 41
0.9999150724636061
 10
1166.546398253104
 20
1499.87513142537
 30
0.0
 41
1.0
  0
SPLINE
  5
117
330
1F
100
AcDbEntity
  8
LINEE VISIBILI 2D
100
AcDbSpline
210
0.0
220
0.0
230
1.0
 70
    12
 71
     2
 72
     6
 73
     3
 74
     0
 42
0.0000000001
 43
0.0000000001
 40
0.0
 40
0.0
 40
0.0
 40
17.07081469454135
 40
17.07081469454135
 40
17.07081469454135
 10
1166.546398253104
 20
1499.87513142537
 30
0.0
 41
1.0
 10
1166.698700946578
 20
1508.409407719049
 30
0.0
 41
0.9999599621347932
 10
1166.698248875742
 20
1516.945042889492
 30
0.0
 41
1.0
  0
SPLINE
  5
118
330
1F
100
AcDbEntity
  8
LINEE VISIBILI 2D
100
AcDbSpline
210
0.0
220
0.0
230
1.0
 70
    12
 71
     2
 72
     6
 73
     3
 74
     0
 42
0.0000000001
 43
0.0000000001
 40
0.0
 40
0.0
 40
0.0
 40
17.9497089906912
 40
17.9497089906912
 40
17.9497089906912
 10
1166.698248875742
 20
1516.945042889492
 30
0.0
 41
1.0
 10
1166.697770619161
 20
1525.920162458554
 30
0.0
 41
0.999955697035717
 10
1166.528334907107
 20
1534.893682562011
 30
0.0
 41
1.0
  0
SPLINE
  5
119
330
1F
100
AcDbEntity
  8
LINEE VISIBILI 2D
100
AcDbSpline
210
0.0
220
0.0
230
1.0
 70
    12
 71
     2
 72
     6
 73
     3
 74
     0
 42
0.0000000001
 43
0.0000000001
 40
0.0
 40
0.0
 40
0.0
 40
34.92344060498093
 40
34.92344060498093
 40
34.92344060498093
 10
1166.528334907107
 20
1534.893682562011
 30
0.0
 41
1.0
 10
1166.199060839139
 20
1552.357114335122
 30
0.0
 41
0.999586508844722
 10
1164.866448070527
 20
1569.772739902837
 30
0.0
 41
1.0
  0
SPLINE
  5
11A
330
1F
100
AcDbEntity
  8
LINEE VISIBILI 2D
100
AcDbSpline
210
0.0
220
0.0
230
1.0
 70
    12
 71
     2
 72
     6
 73
     3
 74
     0
 42
0.0000000001
 43
0.0000000001
 40
0.0
 40
0.0
 40
0.0
 40
27.27223647304364
 40
27.27223647304364
 40
27.27223647304364
 10
1164.866448070527
 20
1569.772739902837
 30
0.0
 41
1.0
 10
1163.825798162021
 20
1583.370310522374
 30
0.0
 41
0.9998662794547781
 10
1162.341040003364
 20
1596.926577419852
 30
0.0
 41
1.0
  0
SPLINE
  5
11B
330
1F
100
AcDbEntity
  8
LINEE VISIBILI 2D
100
AcDbSpline
210
0.0
220
0.0
230
1.0
 70
    12
 71
     2
 72
     6
 73
     3
 74
     0
 42
0.0000000001
 43
0.0000000001
 40
0.0
 40
0.0
 40
0.0
 40
27.33295436918616
 40
27.33295436918616
 40
27.33295436918616
 10
1162.341040003364
 20
1596.926577419852
 30
0.0
 41
1.0
 10
1160.852906590132
 20
1610.511800659021
 30
0.0
 41
0.9999990648665107
 10
1159.401936378836
 20
1624.101043351668
 30
0.0
 41
1.0
  0
SPLINE
  5
11C
330
1F
100
AcDbEntity
  8
LINEE VISIBILI 2D
100
AcDbSpline
210
0.0
220
0.0
230
1.0
 70
    12
 71
     2
 72
     6
 73
     3
 74
     0
 42
0.0000000001
 43
0.0000000001
 40
0.0
 40
0.0
 40
0.0
 40
27.60529673295166
 40
27.60529673295166
 40
27.60529673295166
 10
1159.401936378836
 20
1624.101043351668
 30
0.0
 41
1.0
 10
1157.936612027639
 20
1637.826171479134
 30
0.0
 41
0.999947977014401
 10
1156.75157503131
 20
1651.578335122969
 30
0.0
 41
1.0
  0
SPLINE
  5
11D
330
1F
100
AcDbEntity
  8
LINEE VISIBILI 2D
100
AcDbSpline
210
0.0
220
0.0
230
1.0
 70
    12
 71
     2
 72
     6
 73
     3
 74
     0
 42
0.0000000001
 43
0.0000000001
 40
0.0
 40
0.0
 40
0.0
 40
27.74201053788568
 40
27.74201053788568
 40
27.74201053788568
 10
1156.75157503131
 20
1651.578335122969
 30
0.0
 41
1.0
 10
1155.560909821643
 20
1665.401568923768
 30
0.0
 41
0.999631075564317
 10
1155.122626388846
 20
1679.269062712683
 30
0.0
 41
1.0
  0
SPLINE
  5
11E
330
1F
100
AcDbEntity
  8
LINEE VISIBILI 2D
100
AcDbSpline
210
0.0
220
0.0
230
1.0
 70
    12
 71
     2
 72
     6
 73
     3
 74
     0
 42
0.0000000001
 43
0.0000000001
 40
0.0
 40
0.0
 40
0.0
 40
12.54040051083336
 40
12.54040051083336
 40
12.54040051083336
 10
1155.122626388846
 20
1679.269062712683
 30
0.0
 41
1.0
 10
1154.9244217009
 20
1685.536650069643
 30
0.0
 41
0.9998755435242832
 10
1154.924052054725
 20
1691.807370621445
 30
0.0
 41
1.0
  0
SPLINE
  5
11F
330
1F
100
AcDbEntity
  8
LINEE VISIBILI 2D
100
AcDbSpline
210
0.0
220
0.0
230
1.0
 70
    12
 71
     2
 72
     6
 73
     3
 74
     0
 42
0.0000000001
 43
0.0000000001
 40
0.0
 40
0.0
 40
0.0
 40
4.688406111874776
 40
4.688406111874776
 40
4.688406111874776
 10
1154.924052054725
 20
1691.807370621445
 30
0.0
 41
1.0
 10
1154.923877944078
 20
1694.151601040581
 30
0.0
 41
0.9999824870966613
 10
1154.951450770524
 20
1696.49566930485
 30
0.0
 41
1.0
  0
SPLINE
  5
120
330
1F
100
AcDbEntity
  8
LINEE VISIBILI 2D
100
AcDbSpline
210
0.0
220
0.0
230
1.0
 70
    12
 71
     2
 72
     6
 73
     3
 74
     0
 42
0.0000000001
 43
0.0000000001
 40
0.0
 40
0.0
 40
0.0
 40
17.21851063055649
 40
17.21851063055649
 40
17.21851063055649
 10
1154.951450770524
 20
1696.49566930485
 30
0.0
 41
1.0
 10
1155.052448521293
 20
1705.105587230425
 30
0.0
 41
0.9997813928433653
 10
1155.513320671009
 20
1713.703754714978
 30
0.0
 41
1.0
  0
SPLINE
  5
121
330
1F
100
AcDbEntity
  8
LINEE VISIBILI 2D
100
AcDbSpline
210
0.0
220
0.0
230
1.0
 70
    12
 71
     2
 72
     6
 73
     3
 74
     0
 42
0.0000000001
 43
0.0000000001
 40
0.0
 40
0.0
 40
0.0
 40
23.30330177222051
 40
23.30330177222051
 40
23.30330177222051
 10
1155.513320671009
 20
1713.703754714978
 30
0.0
 41
1.0
 10
1156.136809543888
 20
1725.340017531335
 30
0.0
 41
0.9998321919767698
 10
1157.186139151615
 20
1736.945630745651
 30
0.0
 41
1.0
  0
SPLINE
  5
122
330
1F
100
AcDbEntity
  8
LINEE VISIBILI 2D
100
AcDbSpline
210
0.0
220
0.0
230
1.0
 70
    12
 71
     2
 72
     6
 73
     3
 74
     0
 42
0.0000000001
 43
0.0000000001
 40
0.0
 40
0.0
 40
0.0
 40
23.18826042514041
 40
23.18826042514041
 40
23.18826042514041
 10
1157.186139151615
 20
1736.945630745651
 30
0.0
 41
1.0
 10
1158.230282377415
 20
1748.492649058755
 30
0.0
 41
0.9999999352062102
 10
1159.266111879001
 20
1760.040416126181
 30
0.0
 41
1.0
  0
SPLINE
  5
123
330
1F
100
AcDbEntity
  8
LINEE VISIBILI 2D
100
AcDbSpline
210
0.0
220
0.0
230
1.0
 70
    12
 71
     2
 72
     6
 73
     3
 74
     0
 42
0.0000000001
 43
0.0000000001
 40
0.0
 40
0.0
 40
0.0
 40
12.46020976014598
 40
12.46020976014598
 40
12.46020976014598
 10
1159.266111879001
 20
1760.040416126181
 30
0.0
 41
1.0
 10
1159.82266529284
 20
1766.245644275511
 30
0.0
 41
0.9999922463978912
 10
1160.330330550209
 20
1772.455063255878
 30
0.0
 41
1.0
  0
SPLINE
  5
124
330
1F
100
AcDbEntity
  8
LINEE VISIBILI 2D
100
AcDbSpline
210
0.0
220
0.0
230
1.0
 70
    12
 71
     2
 72
     6
 73
     3
 74
     0
 42
0.0000000001
 43
0.0000000001
 40
0.0
 40
0.0
 40
0.0
 40
12.44240283232458
 40
12.44240283232458
 40
12.44240283232458
 10
1160.330330550209
 20
1772.455063255878
 30
0.0
 41
1.0
 10
1160.83723568175
 20
1778.655767845318
 30
0.0
 41
0.9999545965791207
 10
1161.225879179314
 20
1784.865006643246
 30
0.0
 41
1.0
  0
SPLINE
  5
125
330
1F
100
AcDbEntity
  8
LINEE VISIBILI 2D
100
AcDbSpline
210
0.0
220
0.0
230
1.0
 70
    12
 71
     2
 72
     6
 73
     3
 74
     0
 42
0.0000000001
 43
0.0000000001
 40
0.0
 40
0.0
 40
0.0
 40
12.22095798494187
 40
12.22095798494187
 40
12.22095798494187
 10
1161.225879179314
 20
1784.865006643246
 30
0.0
 41
1.0
 10
1161.607669144302
 20
1790.963852168064
 30
0.0
 41
0.9999251478882839
 10
1161.840115530787
 20
1797.070213522453
 30
0.0
 41
1.0
  0
SPLINE
  5
126
330
1F
100
AcDbEntity
  8
LINEE VISIBILI 2D
100
AcDbSpline
210
0.0
220
0.0
230
1.0
 70
    12
 71
     2
 72
     6
 73
     3
 74
     0
 42
0.0000000001
 43
0.0000000001
 40
0.0
 40
0.0
 40
0.0
 40
5.695524482824447
 40
5.695524482824447
 40
5.695524482824447
 10
1161.840115530787
 20
1797.070213522453
 30
0.0
 41
1.0
 10
1161.948434874136
 20
1799.915985350026
 30
0.0
 41
0.9999629546050273
 10
1162.007749900232
 20
1802.763200147407
 30
0.0
 41
1.0
  0
SPLINE
  5
127
330
1F
100
AcDbEntity
  8
LINEE VISIBILI 2D
100
AcDbSpline
210
0.0
220
0.0
230
1.0
 70
    12
 71
     2
 72
     6
 73
     3
 74
     0
 42
0.0000000001
 43
0.0000000001
 40
0.0
 40
0.0
 40
0.0
 40
5.885841064619834
 40
5.885841064619834
 40
5.885841064619834
 10
1167.008857760843
 20
1802.763200147407
 30
0.0
 41
1.0
 10
1166.948435911257
 20
1799.820824708366
 30
0.0
 41
0.9999616596987436
 10
1166.836494528114
 20
1796.879958653797
 30
0.0
 41
1.0
  0
SPLINE
  5
128
330
1F
100
AcDbEntity
  8
LINEE VISIBILI 2D
100
AcDbSpline
210
0.0
220
0.0
230
1.0
 70
    12
 71
     2
 72
     6
 73
     3
 74
     0
 42
0.0000000001
 43
0.0000000001
 40
0.0
 40
0.0
 40
0.0
 40
12.34325135123288
 40
12.34325135123288
 40
12.34325135123288
 10
1166.836494528114
 20
1796.879958653797
 30
0.0
 41
1.0
 10
1166.601681891496
 20
1790.712493676261
 30
0.0
 41
0.9999252268765746
 10
1166.216110829657
 20
1784.552615740806
 30
0.0
 41
1.0
  0
SPLINE
  5
129
330
1F
100
AcDbEntity
  8
LINEE VISIBILI 2D
100
AcDbSpline
210
0.0
220
0.0
230
1.0
 70
    12
 71
     2
 72
     6
 73
     3
 74
     0
 42
0.0000000001
 43
0.0000000001
 40
0.0
 40
0.0
 40
0.0
 40
12.53765621888521
 40
12.53765621888521
 40
12.53765621888521
 10
1166.216110829657
 20
1784.552615740806
 30
0.0
 41
1.0
 10
1165.824445286278
 20
1778.295845054054
 30
0.0
 41
0.9999546674202582
 10
1165.313705757446
 20
1772.04766720302
 30
0.0
 41
1.0
  0
SPLINE
  5
12A
330
1F
100
AcDbEntity
  8
LINEE VISIBILI 2D
100
AcDbSpline
210
0.0
220
0.0
230
1.0
 70
    12
 71
     2
 72
     6
 73
     3
 74
     0
 42
0.0000000001
 43
0.0000000001
 40
0.0
 40
0.0
 40
0.0
 40
12.49966197588851
 40
12.49966197588851
 40
12.49966197588851
 10
1165.313705757446
 20
1772.04766720302
 30
0.0
 41
1.0
 10
1164.804433060418
 20
1765.818587615076
 30
0.0
 41
0.9999922464106183
 10
1164.246117454762
 20
1759.593712124131
 30
0.0
 41
1.0
  0
SPLINE
  5
12B
330
1F
100
AcDbEntity
  8
LINEE VISIBILI 2D
100
AcDbSpline
210
0.0
220
0.0
230
1.0
 70
    12
 71
     2
 72
     6
 73
     3
 74
     0
 42
0.0000000001
 43
0.0000000001
 40
0.0
 40
0.0
 40
0.0
 40
23.19186075284802
 40
23.19186075284802
 40
23.19186075284802
 10
1164.246117454762
 20
1759.593712124131
 30
0.0
 41
1.0
 10
1163.210127124979
 20
1748.044152091432
 30
0.0
 41
0.9999999352062108
 10
1162.165821777952
 20
1736.495340904568
 30
0.0
 41
1.0
  0
SPLINE
  5
12C
330
1F
100
AcDbEntity
  8
LINEE VISIBILI 2D
100
AcDbSpline
210
0.0
220
0.0
230
1.0
 70
    12
 71
     2
 72
     6
 73
     3
 74
     0
 42
0.0000000001
 43
0.0000000001
 40
0.0
 40
0.0
 40
0.0
 40
23.12019866440009
 40
23.12019866440009
 40
23.12019866440009
 10
1162.165821777952
 20
1736.495340904568
 30
0.0
 41
1.0
 10
1161.124853856168
 20
1724.980908346102
 30
0.0
 41
0.9998323745500508
 10
1160.506150750363
 20
1713.436083650588
 30
0.0
 41
1.0
  0
SPLINE
  5
12D
330
1F
100
AcDbEntity
  8
LINEE VISIBILI 2D
100
AcDbSpline
210
0.0
220
0.0
230
1.0
 70
    12
 71
     2
 72
     6
 73
     3
 74
     0
 42
0.0000000001
 43
0.0000000001
 40
0.0
 40
0.0
 40
0.0
 40
17.00942814831002
 40
17.00942814831002
 40
17.00942814831002
 10
1160.506150750363
 20
1713.436083650588
 30
0.0
 41
1.0
 10
1160.050872374436
 20
1704.942322852744
 30
0.0
 41
0.9997813835875586
 10
1159.951106011147
 20
1696.436954103341
 30
0.0
 41
1.0
  0
SPLINE
  5
12E
330
1F
100
AcDbEntity
  8
LINEE VISIBILI 2D
100
AcDbSpline
210
0.0
220
0.0
230
1.0
 70
    12
 71
     2
 72
     6
 73
     3
 74
     0
 42
0.0000000001
 43
0.0000000001
 40
0.0
 40
0.0
 40
0.0
 40
4.629414670270665
 40
4.629414670270665
 40
4.629414670270665
 10
1159.951106011147
 20
1696.436954103341
 30
0.0
 41
1.0
 10
1159.923880132215
 20
1694.122379863733
 30
0.0
 41
0.9999824871221071
 10
1159.924052047172
 20
1691.807645509733
 30
0.0
 41
1.0
  0
SPLINE
  5
12F
330
1F
100
AcDbEntity
  8
LINEE VISIBILI 2D
100
AcDbSpline
210
0.0
220
0.0
230
1.0
 70
    12
 71
     2
 72
     6
 73
     3
 74
     0
 42
0.0000000001
 43
0.0000000001
 40
0.0
 40
0.0
 40
0.0
 40
12.38255805484792
 40
12.38255805484792
 40
12.38255805484792
 10
1159.924052047172
 20
1691.807645509733
 30
0.0
 41
1.0
 10
1159.924367213066
 20
1685.615852210371
 30
0.0
 41
0.9998754171742968
 10
1160.120126471054
 20
1679.427154231455
 30
0.0
 41
1.0
  0
SPLINE
  5
130
330
1F
100
AcDbEntity
  8
LINEE VISIBILI 2D
100
AcDbSpline
210
0.0
220
0.0
230
1.0
 70
    12
 71
     2
 72
     6
 73
     3
 74
     0
 42
0.0000000001
 43
0.0000000001
 40
0.0
 40
0.0
 40
0.0
 40
27.47030796329632
 40
27.47030796329632
 40
27.47030796329632
 10
1160.120126471054
 20
1679.427154231455
 30
0.0
 41
1.0
 10
1160.554063752915
 20
1665.695474756559
 30
0.0
 41
0.9996309788330185
 10
1161.733111766505
 20
1652.007627279781
 30
0.0
 41
1.0
  0
SPLINE
  5
131
330
1F
100
AcDbEntity
  8
LINEE VISIBILI 2D
100
AcDbSpline
210
0.0
220
0.0
230
1.0
 70
    12
 71
     2
 72
     6
 73
     3
 74
     0
 42
0.0000000001
 43
0.0000000001
 40
0.0
 40
0.0
 40
0.0
 40
27.50326948785016
 40
27.50326948785016
 40
27.50326948785016
 10
1161.733111766505
 20
1652.007627279781
 30
0.0
 41
1.0
 10
1162.913733697734
 20
1638.306287394037
 30
0.0
 41
0.9999479510580617
 10
1164.373676721353
 20
1624.631889813998
 30
0.0
 41
1.0
  0
SPLINE
  5
132
330
1F
100
AcDbEntity
  8
LINEE VISIBILI 2D
100
AcDbSpline
210
0.0
220
0.0
230
1.0
 70
    12
 71
     2
 72
     6
 73
     3
 74
     0
 42
0.0000000001
 43
0.0000000001
 40
0.0
 40
0.0
 40
0.0
 40
27.31927028184236
 40
27.31927028184236
 40
27.31927028184236
 10
1164.373676721353
 20
1624.631889813998
 30
0.0
 41
1.0
 10
1165.823920510529
 20
1611.049450497785
 30
0.0
 41
0.9999990648664024
 10
1167.311308898247
 20
1597.471028622958
 30
0.0
 41
1.0
  0
SPLINE
  5
133
330
1F
100
AcDbEntity
  8
LINEE VISIBILI 2D
100
AcDbSpline
210
0.0
220
0.0
230
1.0
 70
    12
 71
     2
 72
     6
 73
     3
 74
     0
 42
0.0000000001
 43
0.0000000001
 40
0.0
 40
0.0
 40
0.0
 40
27.43573169252449
 40
27.43573169252449
 40
27.43573169252449
 10
1167.311308898247
 20
1597.471028622958
 30
0.0
 41
1.0
 10
1168.804969885032
 20
1583.833493014748
 30
0.0
 41
0.9998662792521535
 10
1169.851859889088
 20
1570.154405986439
 30
0.0
 41
1.0
  0
SPLINE
  5
134
330
1F
100
AcDbEntity
  8
LINEE VISIBILI 2D
100
AcDbSpline
210
0.0
220
0.0
230
1.0
 70
    12
 71
     2
 72
     6
 73
     3
 74
     0
 42
0.0000000001
 43
0.0000000001
 40
0.0
 40
0.0
 40
0.0
 40
35.21108329380471
 40
35.21108329380471
 40
35.21108329380471
 10
1169.851859889088
 20
1570.154405986439
 30
0.0
 41
1.0
 10
1171.195497747832
 20
1552.595341633508
 30
0.0
 41
0.9995864359743838
 10
1171.527443875817
 20
1534.988072810265
 30
0.0
 41
0.9999999999999891
  0
SPLINE
  5
135
330
1F
100
AcDbEntity
  8
LINEE VISIBILI 2D
100
AcDbSpline
210
0.0
220
0.0
230
1.0
 70
    12
 71
     2
 72
     6
 73
     3
 74
     0
 42
0.0000000001
 43
0.0000000001
 40
0.0
 40
0.0
 40
0.0
 40
18.04382995269175
 40
18.04382995269175
 40
18.04382995269175
 10
1171.527443875817
 20
1534.988072810265
 30
0.0
 41
0.9999999999999978
 10
1171.697767098502
 20
1525.967499211385
 30
0.0
 41
0.9999556980511619
 10
1171.698248868182
 20
1516.945317777778
 30
0.0
 41
1.0
  0
SPLINE
  5
136
330
1F
100
AcDbEntity
  8
LINEE VISIBILI 2D
100
AcDbSpline
210
0.0
220
0.0
230
1.0
 70
    12
 71
     2
 72
     6
 73
     3
 74
     0
 42
0.0000000001
 43
0.0000000001
 40
0.0
 40
0.0
 40
0.0
 40
17.16032613281128
 40
17.16032613281128
 40
17.16032613281128
 10
1171.698248868182
 20
1516.945317777778
 30
0.0
 41
1.0
 10
1171.698704601998
 20
1508.364925685797
 30
0.0
 41
0.9999599607590883
 10
1171.545601958183
 20
1499.785899619847
 30
0.0
 41
1.0
  0
SPLINE
  5
137
330
1F
100
AcDbEntity
  8
LINEE VISIBILI 2D
100
AcDbSpline
210
0.0
220
0.0
230
1.0
 70
    12
 71
     2
 72
     6
 73
     3
 74
     0
 42
0.0000000001
 43
0.0000000001
 40
0.0
 40
0.0
 40
0.0
 40
37.21865231075053
 40
37.21865231075053
 40
37.21865231075053
 10
1171.545601958183
 20
1499.785899619847
 30
0.0
 41
1.0
 10
1171.213537351978
 20
1481.178482488629
 30
0.0
 41
0.9999150719412176
 10
1170.396620343472
 20
1462.586040857715
 30
0.0
 41
1.0
  0
SPLINE
  5
138
330
1F
100
AcDbEntity
  8
LINEE VISIBILI 2D
100
AcDbSpline
210
0.0
220
0.0
230
1.0
 70
    12
 71
     2
 72
     6
 73
     3
 74
     0
 42
0.0000000001
 43
0.0000000001
 40
0.0
 40
0.0
 40
0.0
 40
7.880502366264087
 40
7.880502366264087
 40
7.880502366264087
 10
1170.396620343472
 20
1462.586040857715
 30
0.0
 41
1.0
 10
1170.223639172459
 20
1458.649588488869
 30
0.0
 41
0.9999999830173002
 10
1170.049207060177
 20
1454.713200147263
 30
0.0
 41
1.0
  0
POLYLINE
  5
139
330
1F
100
AcDbEntity
  8
PREDEFINITO
100
AcDb2dPolyline
 66
     1
 10
0.0
 20
0.0
 30
0.0
  0
VERTEX
  5
13B
330
139
100
AcDbEntity
  8
PREDEFINITO
100
AcDbVertex
100
AcDb2dVertex
 10
1074.587876344835
 20
1824.912359590639
 30
0.0
  0
VERTEX
  5
13C
330
139
100
AcDbEntity
  8
PREDEFINITO
100
AcDbVertex
100
AcDb2dVertex
 10
1254.570729371866
 20
1824.912359590639
 30
0.0
  0
VERTEX
  5
13D
330
139
100
AcDbEntity
  8
PREDEFINITO
100
AcDbVertex
100
AcDb2dVertex
 10
1254.570729371866
 20
1829.763200147405
 30
0.0
  0
VERTEX
  5
13E
330
139
100
AcDbEntity
  8
PREDEFINITO
100
AcDbVertex
100
AcDb2dVertex
 10
1074.587876344835
 20
1829.763200147405
 30
0.0
  0
VERTEX
  5
13F
330
139
100
AcDbEntity
  8
PREDEFINITO
100
AcDbVertex
100
AcDb2dVertex
 10
1074.587876344835
 20
1824.912359590639
 30
0.0
  0
SEQEND
  5
13A
330
139
100
AcDbEntity
  8
PREDEFINITO
  0
POLYLINE
  5
140
330
1F
100
AcDbEntity
  8
PREDEFINITO
100
AcDb2dPolyline
 66
     1
 10
0.0
 20
0.0
 30
0.0
  0
VERTEX
  5
142
330
140
100
AcDbEntity
  8
PREDEFINITO
100
AcDbVertex
100
AcDb2dVertex
 10
1164.388642540863
 20
1824.912359590639
 30
0.0
  0
VERTEX
  5
143
330
140
100
AcDbEntity
  8
PREDEFINITO
100
AcDbVertex
100
AcDb2dVertex
 10
1254.570729371866
 20
1824.912359590639
 30
0.0
  0
VERTEX
  5
144
330
140
100
AcDbEntity
  8
PREDEFINITO
100
AcDbVertex
100
AcDb2dVertex
 10
1230.075375476669
 20
1817.038736374334
 30
0.0
  0
VERTEX
  5
145
330
140
100
AcDbEntity
  8
PREDEFINITO
100
AcDbVertex
100
AcDb2dVertex
 10
1230.075375476663
 20
1802.763200147405
 30
0.0
  0
VERTEX
  5
146
330
140
100
AcDbEntity
  8
PREDEFINITO
100
AcDbVertex
100
AcDb2dVertex
 10
1164.575375476663
 20
1802.763200147405
 30
0.0
  0
SEQEND
  5
141
330
140
100
AcDbEntity
  8
PREDEFINITO
  0
POLYLINE
  5
147
330
1F
100
AcDbEntity
  8
PREDEFINITO
100
AcDb2dPolyline
 66
     1
 10
0.0
 20
0.0
 30
0.0
  0
VERTEX
  5
149
330
147
100
AcDbEntity
  8
PREDEFINITO
100
AcDbVertex
100
AcDb2dVertex
 10
1164.575375476663
 20
1802.763200147405
 30
0.0
  0
VERTEX
  5
14A
330
147
100
AcDbEntity
  8
PREDEFINITO
100
AcDbVertex
100
AcDb2dVertex
 10
1099.075375476663
 20
1802.763200147405
 30
0.0
  0
VERTEX
  5
14B
330
147
100
AcDbEntity
  8
PREDEFINITO
100
AcDbVertex
100
AcDb2dVertex
 10
1099.075375476657
 20
1817.038736374334
 30
0.0
  0
VERTEX
  5
14C
330
147
100
AcDbEntity
  8
PREDEFINITO
100
AcDbVertex
100
AcDb2dVertex
 10
1074.58002158146
 20
1824.912359590639
 30
0.0
  0
VERTEX
  5
14D
330
147
100
AcDbEntity
  8
PREDEFINITO
100
AcDbVertex
100
AcDb2dVertex
 10
1164.762108412463
 20
1824.912359590639
 30
0.0
  0
SEQEND
  5
148
330
147
100
AcDbEntity
  8
PREDEFINITO
  0
POLYLINE
  5
14E
330
1F
100
AcDbEntity
  8
PREDEFINITO
100
AcDb2dPolyline
 66
     1
 10
0.0
 20
0.0
 30
0.0
  0
VERTEX
  5
150
330
14E
100
AcDbEntity
  8
PREDEFINITO
100
AcDbVertex
100
AcDb2dVertex
 10
274.0703694853287
 20
1824.912359590635
 30
0.0
  0
VERTEX
  5
151
330
14E
100
AcDbEntity
  8
PREDEFINITO
100
AcDbVertex
100
AcDb2dVertex
 10
364.2524563163315
 20
1824.912359590635
 30
0.0
  0
VERTEX
  5
152
330
14E
100
AcDbEntity
  8
PREDEFINITO
100
AcDbVertex
100
AcDb2dVertex
 10
339.7571024211341
 20
1817.038736374331
 30
0.0
  0
VERTEX
  5
153
330
14E
100
AcDbEntity
  8
PREDEFINITO
100
AcDbVertex
100
AcDb2dVertex
 10
339.7571024211284
 20
1802.763200147401
 30
0.0
  0
VERTEX
  5
154
330
14E
100
AcDbEntity
  8
PREDEFINITO
100
AcDbVertex
100
AcDb2dVertex
 10
274.2571024211284
 20
1802.763200147401
 30
0.0
  0
SEQEND
  5
14F
330
14E
100
AcDbEntity
  8
PREDEFINITO
  0
POLYLINE
  5
155
330
1F
100
AcDbEntity
  8
PREDEFINITO
100
AcDb2dPolyline
 66
     1
 10
0.0
 20
0.0
 30
0.0
  0
VERTEX
  5
157
330
155
100
AcDbEntity
  8
PREDEFINITO
100
AcDbVertex
100
AcDb2dVertex
 10
274.2571024211284
 20
1802.763200147401
 30
0.0
  0
VERTEX
  5
158
330
155
100
AcDbEntity
  8
PREDEFINITO
100
AcDbVertex
100
AcDb2dVertex
 10
208.7571024211284
 20
1802.763200147401
 30
0.0
  0
VERTEX
  5
159
330
155
100
AcDbEntity
  8
PREDEFINITO
100
AcDbVertex
100
AcDb2dVertex
 10
208.7571024211226
 20
1817.038736374331
 30
0.0
  0
VERTEX
  5
15A
330
155
100
AcDbEntity
  8
PREDEFINITO
100
AcDbVertex
100
AcDb2dVertex
 10
184.2617485259252
 20
1824.912359590635
 30
0.0
  0
VERTEX
  5
15B
330
155
100
AcDbEntity
  8
PREDEFINITO
100
AcDbVertex
100
AcDb2dVertex
 10
274.443835356928
 20
1824.912359590635
 30
0.0
  0
SEQEND
  5
156
330
155
100
AcDbEntity
  8
PREDEFINITO
  0
POLYLINE
  5
15C
330
1F
100
AcDbEntity
  8
PREDEFINITO
100
AcDb2dPolyline
 66
     1
 10
0.0
 20
0.0
 30
0.0
  0
VERTEX
  5
15E
330
15C
100
AcDbEntity
  8
PREDEFINITO
100
AcDbVertex
100
AcDb2dVertex
 10
184.2696032893
 20
1824.912359590635
 30
0.0
  0
VERTEX
  5
15F
330
15C
100
AcDbEntity
  8
PREDEFINITO
100
AcDbVertex
100
AcDb2dVertex
 10
364.2524563163315
 20
1824.912359590635
 30
0.0
  0
VERTEX
  5
160
330
15C
100
AcDbEntity
  8
PREDEFINITO
100
AcDbVertex
100
AcDb2dVertex
 10
364.2524563163315
 20
1829.763200147401
 30
0.0
  0
VERTEX
  5
161
330
15C
100
AcDbEntity
  8
PREDEFINITO
100
AcDbVertex
100
AcDb2dVertex
 10
184.2696032893
 20
1829.763200147401
 30
0.0
  0
VERTEX
  5
162
330
15C
100
AcDbEntity
  8
PREDEFINITO
100
AcDbVertex
100
AcDb2dVertex
 10
184.2696032893
 20
1824.912359590635
 30
0.0
  0
SEQEND
  5
15D
330
15C
100
AcDbEntity
  8
PREDEFINITO
  0
SPLINE
  5
163
330
1F
100
AcDbEntity
  8
LINEE VISIBILI 2D
100
AcDbSpline
210
0.0
220
0.0
230
1.0
 70
    24
 71
     2
 72
     6
 73
     3
 74
     0
 42
0.0000000001
 43
0.0000000001
 40
0.0
 40
0.0
 40
0.0
 40
350.8207551265223
 40
350.8207551265223
 40
350.8207551265223
 10
200.6119781284526
 20
1454.713200147408
 30
0.0
 10
222.6142491905125
 20
1628.738200147401
 30
0.0
 10
244.6165202525725
 20
1802.763200147393
 30
0.0
  0
SPLINE
  5
164
330
1F
100
AcDbEntity
  8
LINEE VISIBILI 2D
100
AcDbSpline
210
0.0
220
0.0
230
1.0
 70
    24
 71
     2
 72
     6
 73
     3
 74
     0
 42
0.0000000001
 43
0.0000000001
 40
0.0
 40
0.0
 40
0.0
 40
350.8207551265223
 40
350.8207551265223
 40
350.8207551265223
 10
199.3729781284526
 20
1454.713200147402
 30
0.0
 10
221.3752491905125
 20
1628.738200147395
 30
0.0
 10
243.3775202525725
 20
1802.763200147387
 30
0.0
  0
SPLINE
  5
165
330
1F
100
AcDbEntity
  8
LINEE VISIBILI 2D
100
AcDbSpline
210
0.0
220
0.0
230
1.0
 70
    12
 71
     2
 72
     6
 73
     3
 74
     0
 42
0.0000000001
 43
0.0000000001
 40
0.0
 40
0.0
 40
0.0
 40
7.889236631416905
 40
7.889236631416905
 40
7.889236631416905
 10
269.1069697485436
 20
1454.713200147066
 30
0.0
 41
1.0
 10
268.9483667624904
 20
1458.654628700183
 30
0.0
 41
0.9999999860272355
 10
268.7910815559033
 20
1462.596110060065
 30
0.0
 41
1.0
  0
SPLINE
  5
166
330
1F
100
AcDbEntity
  8
LINEE VISIBILI 2D
100
AcDbSpline
210
0.0
220
0.0
230
1.0
 70
    12
 71
     2
 72
     6
 73
     3
 74
     0
 42
0.0000000001
 43
0.0000000001
 40
0.0
 40
0.0
 40
0.0
 40
8.088764590981123
 40
8.088764590981123
 40
8.088764590981123
 10
273.7871052720511
 20
1462.795476626103
 30
0.0
 41
1.0
 10
273.9483684139979
 20
1458.754310622139
 30
0.0
 41
0.9999999853059182
 10
274.1110170987032
 20
1454.713200146303
 30
0.0
 41
1.0
  0
SPLINE
  5
167
330
1F
100
AcDbEntity
  8
LINEE VISIBILI 2D
100
AcDbSpline
210
0.0
220
0.0
230
1.0
 70
    12
 71
     2
 72
     6
 73
     3
 74
     0
 42
0.0000000001
 43
0.0000000001
 40
0.0
 40
0.0
 40
0.0
 40
37.20925038087708
 40
37.20925038087708
 40
37.20925038087708
 10
268.7910815559662
 20
1462.596110060062
 30
0.0
 41
1.0
 10
268.0493243465401
 20
1481.186807517333
 30
0.0
 41
0.9999303279334785
 10
267.7466401143321
 20
1499.789834635551
 30
0.0
 41
1.0
  0
SPLINE
  5
168
330
1F
100
AcDbEntity
  8
LINEE VISIBILI 2D
100
AcDbSpline
210
0.0
220
0.0
230
1.0
 70
    12
 71
     2
 72
     6
 73
     3
 74
     0
 42
0.0000000001
 43
0.0000000001
 40
0.0
 40
0.0
 40
0.0
 40
37.09119630956447
 40
37.09119630956447
 40
37.09119630956447
 10
272.7459780966819
 20
1499.871196409655
 30
0.0
 41
1.0
 10
273.0477023354361
 20
1481.32719126717
 30
0.0
 41
0.9999303283248274
 10
273.7871052721237
 20
1462.795476626103
 30
0.0
 41
1.0
  0
SPLINE
  5
169
330
1F
100
AcDbEntity
  8
LINEE VISIBILI 2D
100
AcDbSpline
210
0.0
220
0.0
230
1.0
 70
    12
 71
     2
 72
     6
 73
     3
 74
     0
 42
0.0000000001
 43
0.0000000001
 40
0.0
 40
0.0
 40
0.0
 40
17.15595374130736
 40
17.15595374130736
 40
17.15595374130736
 10
267.746640114332
 20
1499.789834635554
 30
0.0
 41
1.0
 10
267.607078072527
 20
1508.366863919115
 30
0.0
 41
0.9999671633965563
 10
267.6065434430419
 20
1516.945028560152
 30
0.0
 41
1.0
  0
SPLINE
  5
16A
330
1F
100
AcDbEntity
  8
LINEE VISIBILI 2D
100
AcDbSpline
210
0.0
220
0.0
230
1.0
 70
    12
 71
     2
 72
     6
 73
     3
 74
     0
 42
0.0000000001
 43
0.0000000001
 40
0.0
 40
0.0
 40
0.0
 40
17.07489191778065
 40
17.07489191778065
 40
17.07489191778065
 10
272.6065434338307
 20
1516.945332107109
 30
0.0
 41
1.0
 10
272.6070765886471
 20
1508.407699270937
 30
0.0
 41
0.9999671644193509
 10
272.7459780966748
 20
1499.871196409658
 30
0.0
 41
1.0
  0
SPLINE
  5
16B
330
1F
100
AcDbEntity
  8
LINEE VISIBILI 2D
100
AcDbSpline
210
0.0
220
0.0
230
1.0
 70
    12
 71
     2
 72
     6
 73
     3
 74
     0
 42
0.0000000001
 43
0.0000000001
 40
0.0
 40
0.0
 40
0.0
 40
18.03917802806338
 40
18.03917802806338
 40
18.03917802806338
 10
267.606543443042
 20
1516.945028560152
 30
0.0
 41
1.0
 10
267.6059819170676
 20
1525.96483603692
 30
0.0
 41
0.9999636669905989
 10
267.7591910421252
 20
1534.983342243453
 30
0.0
 41
1.0
  0
SPLINE
  5
16C
330
1F
100
AcDbEntity
  8
LINEE VISIBILI 2D
100
AcDbSpline
210
0.0
220
0.0
230
1.0
 70
    12
 71
     2
 72
     6
 73
     3
 74
     0
 42
0.0000000001
 43
0.0000000001
 40
0.0
 40
0.0
 40
0.0
 40
17.95394128678276
 40
17.95394128678276
 40
17.95394128678276
 10
272.7584696946506
 20
1534.898413129278
 30
0.0
 41
1.0
 10
272.6059837362733
 20
1525.922520185433
 30
0.0
 41
0.999963666238016
 10
272.6065434338308
 20
1516.945332107109
 30
0.0
 41
1.0
  0
SPLINE
  5
16D
330
1F
100
AcDbEntity
  8
LINEE VISIBILI 2D
100
AcDbSpline
210
0.0
220
0.0
230
1.0
 70
    12
 71
     2
 72
     6
 73
     3
 74
     0
 42
0.0000000001
 43
0.0000000001
 40
0.0
 40
0.0
 40
0.0
 40
35.18938604831028
 40
35.18938604831028
 40
35.18938604831028
 10
267.7591910421179
 20
1534.983342242616
 30
0.0
 41
1.0
 10
268.0576047361266
 20
1552.579487414603
 30
0.0
 41
0.9996606024388145
 10
269.2721136769759
 20
1570.136205321975
 30
0.0
 41
1.0
  0
SPLINE
  5
16E
330
1F
100
AcDbEntity
  8
LINEE VISIBILI 2D
100
AcDbSpline
210
0.0
220
0.0
230
1.0
 70
    12
 71
     2
 72
     6
 73
     3
 74
     0
 42
0.0000000001
 43
0.0000000001
 40
0.0
 40
0.0
 40
0.0
 40
34.92878020025583
 40
34.92878020025583
 40
34.92878020025583
 10
274.2601786574234
 20
1569.790940567294
 30
0.0
 41
1.0
 10
273.0546300259549
 20
1552.364246032024
 30
0.0
 41
0.9996605446227352
 10
272.7584696946506
 20
1534.898413129278
 30
0.0
 41
1.0
  0
SPLINE
  5
16F
330
1F
100
AcDbEntity
  8
LINEE VISIBILI 2D
100
AcDbSpline
210
0.0
220
0.0
230
1.0
 70
    12
 71
     2
 72
     6
 73
     3
 74
     0
 42
0.0000000001
 43
0.0000000001
 40
0.0
 40
0.0
 40
0.0
 40
27.40655268927389
 40
27.40655268927389
 40
27.40655268927389
 10
269.272113676976
 20
1570.136205321975
 30
0.0
 41
1.0
 10
270.2180808017858
 20
1583.807799069983
 30
0.0
 41
0.9998899925706153
 10
271.5691546332311
 20
1597.445318232712
 30
0.0
 41
1.0
  0
SPLINE
  5
170
330
1F
100
AcDbEntity
  8
LINEE VISIBILI 2D
100
AcDbSpline
210
0.0
220
0.0
230
1.0
 70
    12
 71
     2
 72
     6
 73
     3
 74
     0
 42
0.0000000001
 43
0.0000000001
 40
0.0
 40
0.0
 40
0.0
 40
27.25825951054701
 40
27.25825951054701
 40
27.25825951054701
 10
276.5447873570519
 20
1596.952287810098
 30
0.0
 41
1.0
 10
275.2010258067615
 20
1583.388559256579
 30
0.0
 41
0.9998899927517512
 10
274.2601786574231
 20
1569.790940567294
 30
0.0
 41
1.0
  0
SPLINE
  5
171
330
1F
100
AcDbEntity
  8
LINEE VISIBILI 2D
100
AcDbSpline
210
0.0
220
0.0
230
1.0
 70
    12
 71
     2
 72
     6
 73
     3
 74
     0
 42
0.0000000001
 43
0.0000000001
 40
0.0
 40
0.0
 40
0.0
 40
27.30359008332809
 40
27.30359008332809
 40
27.30359008332809
 10
279.2033388161144
 20
1624.126130983859
 30
0.0
 41
1.0
 10
277.8909254007884
 20
1610.537559673388
 30
0.0
 41
0.9999992298741172
 10
276.5447873570527
 20
1596.952287810091
 30
0.0
 41
1.0
  0
SPLINE
  5
172
330
1F
100
AcDbEntity
  8
LINEE VISIBILI 2D
100
AcDbSpline
210
0.0
220
0.0
230
1.0
 70
    12
 71
     2
 72
     6
 73
     3
 74
     0
 42
0.0000000001
 43
0.0000000001
 40
0.0
 40
0.0
 40
0.0
 40
27.29117184685627
 40
27.29117184685627
 40
27.29117184685627
 10
271.5691546332309
 20
1597.445318232709
 30
0.0
 41
1.0
 10
272.9146804255664
 20
1611.024411233889
 30
0.0
 41
0.999999229874018
 10
274.2264969259779
 20
1624.606802181796
 30
0.0
 41
1.0
  0
SPLINE
  5
173
330
1F
100
AcDbEntity
  8
LINEE VISIBILI 2D
100
AcDbSpline
210
0.0
220
0.0
230
1.0
 70
    12
 71
     2
 72
     6
 73
     3
 74
     0
 42
0.0000000001
 43
0.0000000001
 40
0.0
 40
0.0
 40
0.0
 40
27.57735237071283
 40
27.57735237071283
 40
27.57735237071283
 10
281.6000283573521
 20
1651.598745140782
 30
0.0
 41
1.0
 10
280.5288191098011
 20
1637.851346857945
 30
0.0
 41
0.9999571711957406
 10
279.2033388161215
 20
1624.126130983866
 30
0.0
 41
1.0
  0
SPLINE
  5
174
330
1F
100
AcDbEntity
  8
LINEE VISIBILI 2D
100
AcDbSpline
210
0.0
220
0.0
230
1.0
 70
    12
 71
     2
 72
     6
 73
     3
 74
     0
 42
0.0000000001
 43
0.0000000001
 40
0.0
 40
0.0
 40
0.0
 40
27.48480151872701
 40
27.48480151872701
 40
27.48480151872701
 10
274.2264969259777
 20
1624.606802181796
 30
0.0
 41
1.0
 10
275.5474965135031
 20
1638.285958529446
 30
0.0
 41
0.9999571927774702
 10
276.6151422592447
 20
1651.987217261962
 30
0.0
 41
1.0
  0
SPLINE
  5
175
330
1F
100
AcDbEntity
  8
LINEE VISIBILI 2D
100
AcDbSpline
210
0.0
220
0.0
230
1.0
 70
    12
 71
     2
 72
     6
 73
     3
 74
     0
 42
0.0000000001
 43
0.0000000001
 40
0.0
 40
0.0
 40
0.0
 40
27.71993423963934
 40
27.71993423963934
 40
27.71993423963934
 10
283.0714504229327
 20
1679.27679509655
 30
0.0
 41
1.0
 10
282.6765050803723
 20
1665.419654313665
 30
0.0
 41
0.9996969785963676
 10
281.6000283573522
 20
1651.598745140782
 30
0.0
 41
1.0
  0
SPLINE
  5
176
330
1F
100
AcDbEntity
  8
LINEE VISIBILI 2D
100
AcDbSpline
210
0.0
220
0.0
230
1.0
 70
    12
 71
     2
 72
     6
 73
     3
 74
     0
 42
0.0000000001
 43
0.0000000001
 40
0.0
 40
0.0
 40
0.0
 40
27.47371556305431
 40
27.47371556305431
 40
27.47371556305431
 10
276.6151422592447
 20
1651.987217261962
 30
0.0
 41
1.0
 10
277.68200588409
 20
1665.685367260174
 30
0.0
 41
0.9996970623209063
 10
278.0734850759183
 20
1679.419421847582
 30
0.0
 41
1.0
  0
SPLINE
  5
177
330
1F
100
AcDbEntity
  8
LINEE VISIBILI 2D
100
AcDbSpline
210
0.0
220
0.0
230
1.0
 70
    12
 71
     2
 72
     6
 73
     3
 74
     0
 42
0.0000000001
 43
0.0000000001
 40
0.0
 40
0.0
 40
0.0
 40
12.53256056200759
 40
12.53256056200759
 40
12.53256056200759
 10
283.2497854871181
 20
1691.807659839065
 30
0.0
 41
1.0
 10
283.2501940553515
 20
1685.54095265079
 30
0.0
 41
0.9998978153543933
 10
283.0714504229326
 20
1679.276795096546
 30
0.0
 41
1.0
  0
SPLINE
  5
178
330
1F
100
AcDbEntity
  8
LINEE VISIBILI 2D
100
AcDbSpline
210
0.0
220
0.0
230
1.0
 70
    12
 71
     2
 72
     6
 73
     3
 74
     0
 42
0.0000000001
 43
0.0000000001
 40
0.0
 40
0.0
 40
0.0
 40
12.38961046702633
 40
12.38961046702633
 40
12.38961046702633
 10
278.0734850759181
 20
1679.419421847582
 30
0.0
 41
1.0
 10
278.2501427623168
 20
1685.612129464755
 30
0.0
 41
0.9998979235373096
 10
278.2497854963294
 20
1691.807356292105
 30
0.0
 41
1.0
  0
SPLINE
  5
179
330
1F
100
AcDbEntity
  8
LINEE VISIBILI 2D
100
AcDbSpline
210
0.0
220
0.0
230
1.0
 70
    12
 71
     2
 72
     6
 73
     3
 74
     0
 42
0.0000000001
 43
0.0000000001
 40
0.0
 40
0.0
 40
0.0
 40
4.685605077931191
 40
4.685605077931191
 40
4.685605077931191
 10
283.2244705595294
 20
1696.493174099629
 30
0.0
 41
1.0
 10
283.2496842422674
 20
1694.15048480817
 30
0.0
 41
0.9999856377040623
 10
283.2497854871181
 20
1691.807659839065
 30
0.0
 41
1.0
  0
SPLINE
  5
17A
330
1F
100
AcDbEntity
  8
LINEE VISIBILI 2D
100
AcDbSpline
210
0.0
220
0.0
230
1.0
 70
    12
 71
     2
 72
     6
 73
     3
 74
     0
 42
0.0000000001
 43
0.0000000001
 40
0.0
 40
0.0
 40
0.0
 40
4.632182798285247
 40
4.632182798285247
 40
4.632182798285247
 10
278.2497854963294
 20
1691.807356292105
 30
0.0
 41
1.0
 10
278.2496854008431
 20
1694.123469865618
 30
0.0
 41
0.9999856377268719
 10
278.2247592031781
 20
1696.439449308553
 30
0.0
 41
1.0
  0
SPLINE
  5
17B
330
1F
100
AcDbEntity
  8
LINEE VISIBILI 2D
100
AcDbSpline
210
0.0
220
0.0
230
1.0
 70
    12
 71
     2
 72
     6
 73
     3
 74
     0
 42
0.0000000001
 43
0.0000000001
 40
0.0
 40
0.0
 40
0.0
 40
17.20685301527847
 40
17.20685301527847
 40
17.20685301527847
 10
282.7140386062601
 20
1713.691425471166
 30
0.0
 41
1.0
 10
283.1321374522964
 20
1705.097134033915
 30
0.0
 41
0.9998206524752873
 10
283.2244705595294
 20
1696.493174099629
 30
0.0
 41
1.0
  0
SPLINE
  5
17C
330
1F
100
AcDbEntity
  8
LINEE VISIBILI 2D
100
AcDbSpline
210
0.0
220
0.0
230
1.0
 70
    12
 71
     2
 72
     6
 73
     3
 74
     0
 42
0.0000000001
 43
0.0000000001
 40
0.0
 40
0.0
 40
0.0
 40
17.01747052434908
 40
17.01747052434908
 40
17.01747052434908
 10
278.2247592031781
 20
1696.439449308553
 30
0.0
 41
1.0
 10
278.133446600077
 20
1704.948712210656
 30
0.0
 41
0.9998206456864539
 10
277.719947609141
 20
1713.448412894391
 30
0.0
 41
1.0
  0
SPLINE
  5
17D
330
1F
100
AcDbEntity
  8
LINEE VISIBILI 2D
100
AcDbSpline
210
0.0
220
0.0
230
1.0
 70
    12
 71
     2
 72
     6
 73
     3
 74
     0
 42
0.0000000001
 43
0.0000000001
 40
0.0
 40
0.0
 40
0.0
 40
23.28390612465908
 40
23.28390612465908
 40
23.28390612465908
 10
281.1971423113604
 20
1736.924796606861
 30
0.0
 41
1.0
 10
282.1484067237736
 20
1725.320699925758
 30
0.0
 41
0.999862278056598
 10
282.7140386062602
 20
1713.691425471166
 30
0.0
 41
1.0
  0
SPLINE
  5
17E
330
1F
100
AcDbEntity
  8
LINEE VISIBILI 2D
100
AcDbSpline
210
0.0
220
0.0
230
1.0
 70
    12
 71
     2
 72
     6
 73
     3
 74
     0
 42
0.0000000001
 43
0.0000000001
 40
0.0
 40
0.0
 40
0.0
 40
23.11793781053993
 40
23.11793781053993
 40
23.11793781053993
 10
277.719947609141
 20
1713.448412894391
 30
0.0
 41
1.0
 10
277.1584534108306
 20
1724.994799868149
 30
0.0
 41
0.9998621283757941
 10
276.2138674450399
 20
1736.516175013319
 30
0.0
 41
1.0
  0
SPLINE
  5
17F
330
1F
100
AcDbEntity
  8
LINEE VISIBILI 2D
100
AcDbSpline
210
0.0
220
0.0
230
1.0
 70
    12
 71
     2
 72
     6
 73
     3
 74
     0
 42
0.0000000001
 43
0.0000000001
 40
0.0
 40
0.0
 40
0.0
 40
23.17510999172295
 40
23.17510999172295
 40
23.17510999172295
 10
276.2138674400048
 20
1736.51617506818
 30
0.0
 41
1.0
 10
275.2668829905701
 20
1748.064969844037
 30
0.0
 41
0.9999999467110987
 10
274.3274392406856
 20
1759.614380468098
 30
0.0
 41
1.0
  0
SPLINE
  5
180
330
1F
100
AcDbEntity
  8
LINEE VISIBILI 2D
100
AcDbSpline
210
0.0
220
0.0
230
1.0
 70
    12
 71
     2
 72
     6
 73
     3
 74
     0
 42
0.0000000001
 43
0.0000000001
 40
0.0
 40
0.0
 40
0.0
 40
23.17184493235679
 40
23.17184493235679
 40
23.17184493235679
 10
279.3109798837104
 20
1760.019747782186
 30
0.0
 41
1.0
 10
280.2502912786616
 20
1748.471964313781
 30
0.0
 41
0.9999999467110983
 10
281.1971423108305
 20
1736.924796606818
 30
0.0
 41
1.0
  0
SPLINE
  5
181
330
1F
100
AcDbEntity
  8
LINEE VISIBILI 2D
100
AcDbSpline
210
0.0
220
0.0
230
1.0
 70
    12
 71
     2
 72
     6
 73
     3
 74
     0
 42
0.0000000001
 43
0.0000000001
 40
0.0
 40
0.0
 40
0.0
 40
12.489731314836
 40
12.489731314836
 40
12.489731314836
 10
274.3274392412204
 20
1759.61438046812
 30
0.0
 41
1.0
 10
273.8211928738793
 20
1765.838719243497
 30
0.0
 41
0.9999936248612226
 10
273.3594102155328
 20
1772.066514628026
 30
0.0
 41
1.0
  0
SPLINE
  5
182
330
1F
100
AcDbEntity
  8
LINEE VISIBILI 2D
100
AcDbSpline
210
0.0
220
0.0
230
1.0
 70
    12
 71
     2
 72
     6
 73
     3
 74
     0
 42
0.0000000001
 43
0.0000000001
 40
0.0
 40
0.0
 40
0.0
 40
12.45395751240416
 40
12.45395751240416
 40
12.45395751240416
 10
278.3457235852111
 20
1772.436215830865
 30
0.0
 41
1.0
 10
278.8061835378773
 20
1766.226258450783
 30
0.0
 41
0.9999936248496653
 10
279.3109798842414
 20
1760.019747782208
 30
0.0
 41
1.0
  0
SPLINE
  5
183
330
1F
100
AcDbEntity
  8
LINEE VISIBILI 2D
100
AcDbSpline
210
0.0
220
0.0
230
1.0
 70
    12
 71
     2
 72
     6
 73
     3
 74
     0
 42
0.0000000001
 43
0.0000000001
 40
0.0
 40
0.0
 40
0.0
 40
12.52743386112804
 40
12.52743386112804
 40
12.52743386112804
 10
273.3594102155257
 20
1772.066514628026
 30
0.0
 41
1.0
 10
272.8962728556604
 20
1778.313242176825
 30
0.0
 41
0.9999626969965769
 10
272.5411114979506
 20
1784.56703795963
 30
0.0
 41
1.0
  0
SPLINE
  5
184
330
1F
100
AcDbEntity
  8
LINEE VISIBILI 2D
100
AcDbSpline
210
0.0
220
0.0
230
1.0
 70
    12
 71
     2
 72
     6
 73
     3
 74
     0
 42
0.0000000001
 43
0.0000000001
 40
0.0
 40
0.0
 40
0.0
 40
12.4410933833365
 40
12.4410933833365
 40
12.4410933833365
 10
277.5330651638287
 20
1784.850584424414
 30
0.0
 41
1.0
 10
277.8858195153636
 20
1778.639893057573
 30
0.0
 41
0.9999627540946006
 10
278.3457235852038
 20
1772.436215830861
 30
0.0
 41
1.0
  0
SPLINE
  5
185
330
1F
100
AcDbEntity
  8
LINEE VISIBILI 2D
100
AcDbSpline
210
0.0
220
0.0
230
1.0
 70
    12
 71
     2
 72
     6
 73
     3
 74
     0
 42
0.0000000001
 43
0.0000000001
 40
0.0
 40
0.0
 40
0.0
 40
12.33471917429596
 40
12.33471917429596
 40
12.33471917429596
 10
272.5411114979506
 20
1784.56703795963
 30
0.0
 41
1.0
 10
272.1913585636817
 20
1790.724725300186
 30
0.0
 41
0.9999385592645584
 10
271.9781993853612
 20
1796.888652916874
 30
0.0
 41
1.0
  0
SPLINE
  5
186
330
1F
100
AcDbEntity
  8
LINEE VISIBILI 2D
100
AcDbSpline
210
0.0
220
0.0
230
1.0
 70
    12
 71
     2
 72
     6
 73
     3
 74
     0
 42
0.0000000001
 43
0.0000000001
 40
0.0
 40
0.0
 40
0.0
 40
12.2239210306953
 40
12.2239210306953
 40
12.2239210306953
 10
276.9752102146159
 20
1797.061519259369
 30
0.0
 41
1.0
 10
277.1864917748777
 20
1790.952961447206
 30
0.0
 41
0.9999386272859841
 10
277.5330651638288
 20
1784.850584424414
 30
0.0
 41
1.0
  0
SPLINE
  5
187
330
1F
100
AcDbEntity
  8
LINEE VISIBILI 2D
100
AcDbSpline
210
0.0
220
0.0
230
1.0
 70
    12
 71
     2
 72
     6
 73
     3
 74
     0
 42
0.0000000001
 43
0.0000000001
 40
0.0
 40
0.0
 40
0.0
 40
5.87669374143425
 40
5.87669374143425
 40
5.87669374143425
 10
271.9781993853685
 20
1796.888652916874
 30
0.0
 41
1.0
 10
271.8765716697435
 20
1799.825303832116
 30
0.0
 41
0.999968341913822
 10
271.821689693993
 20
1802.763200147392
 30
0.0
 41
1.0
  0
SPLINE
  5
188
330
1F
100
AcDbEntity
  8
LINEE VISIBILI 2D
100
AcDbSpline
210
0.0
220
0.0
230
1.0
 70
    12
 71
     2
 72
     6
 73
     3
 74
     0
 42
0.0000000001
 43
0.0000000001
 40
0.0
 40
0.0
 40
0.0
 40
5.70378193597201
 40
5.70378193597201
 40
5.70378193597201
 10
276.8225615379167
 20
1802.763200147407
 30
0.0
 41
1.0
 10
276.8766145311694
 20
1799.91176344214
 30
0.0
 41
0.9999694861365765
 10
276.9752102146158
 20
1797.061519259369
 30
0.0
 41
1.0
  0
SPLINE
  5
189
330
1F
100
AcDbEntity
  8
LINEE VISIBILI 2D
100
AcDbSpline
210
0.0
220
0.0
230
1.0
 70
    24
 71
     2
 72
     6
 73
     3
 74
     0
 42
0.0000000001
 43
0.0000000001
 40
0.0
 40
0.0
 40
0.0
 40
359.2560002224601
 40
359.2560002224601
 40
359.2560002224601
 10
423.6230560863814
 20
1454.71320014866
 30
0.0
 10
379.1088134310259
 20
1628.738200148029
 30
0.0
 10
334.5945707756703
 20
1802.763200147397
 30
0.0
  0
SPLINE
  5
18A
330
1F
100
AcDbEntity
  8
LINEE VISIBILI 2D
100
AcDbSpline
210
0.0
220
0.0
230
1.0
 70
    24
 71
     2
 72
     6
 73
     3
 74
     0
 42
0.0000000001
 43
0.0000000001
 40
0.0
 40
0.0
 40
0.0
 40
359.3074035258402
 40
359.3074035258402
 40
359.3074035258402
 10
424.8744303475513
 20
1454.663400229951
 30
0.0
 10
380.3538184760527
 20
1628.713300188864
 30
0.0
 10
335.833206604554
 20
1802.763200147777
 30
0.0
  0
POLYLINE
  5
18B
330
1F
100
AcDbEntity
  8
PREDEFINITO
100
AcDb2dPolyline
 66
     1
 10
0.0
 20
0.0
 30
0.0
  0
VERTEX
  5
18D
330
18B
100
AcDbEntity
  8
PREDEFINITO
100
AcDbVertex
100
AcDb2dVertex
 10
544.1465068365403
 20
1100.712451078584
 30
0.0
  0
VERTEX
  5
18E
330
18B
100
AcDbEntity
  8
PREDEFINITO
100
AcDbVertex
100
AcDb2dVertex
 10
544.146514161861
 20
1100.712430324005
 30
0.0
  0
SEQEND
  5
18C
330
18B
100
AcDbEntity
  8
PREDEFINITO
  0
SPLINE
  5
18F
330
1F
100
AcDbEntity
  8
PREDEFINITO
100
AcDbSpline
210
0.0
220
0.0
230
1.0
 70
    24
 71
     2
 72
     6
 73
     3
 74
     0
 42
0.0000000001
 43
0.0000000001
 40
0.0
 40
0.0
 40
0.0
 40
16.25978503881271
 40
16.25978503881271
 40
16.25978503881271
 10
544.146514161861
 20
1100.712430324005
 30
0.0
 10
546.8523059473446
 20
1093.046020265137
 30
0.0
 10
549.5580977328282
 20
1085.37961020627
 30
0.0
  0
SPLINE
  5
190
330
1F
100
AcDbEntity
  8
PREDEFINITO
100
AcDbSpline
210
0.0
220
0.0
230
1.0
 70
     8
 71
     2
 72
     6
 73
     3
 74
     0
 42
0.0000000001
 43
0.0000000001
 40
0.0
 40
0.0
 40
0.0
 40
1.0
 40
1.0
 40
1.0
 10
549.5580977328282
 20
1085.37961020627
 30
0.0
 10
549.5743364838953
 20
1085.33360041158
 30
0.0
 10
549.5866025660362
 20
1085.213200147402
 30
0.0
  0
SPLINE
  5
191
330
1F
100
AcDbEntity
  8
PREDEFINITO
100
AcDbSpline
210
0.0
220
0.0
230
1.0
 70
    12
 71
     2
 72
     6
 73
     3
 74
     0
 42
0.0000000001
 43
0.0000000001
 40
0.0
 40
0.0
 40
0.0
 40
0.7849086162711993
 40
0.7849086162711993
 40
0.7849086162711993
 10
549.5866025660362
 20
1085.213200147402
 30
0.0
 41
1.0
 10
549.5854642079413
 20
1084.714339276233
 30
0.0
 41
0.7087190385378096
 10
549.08657323218
 20
1084.713210523852
 30
0.0
 41
1.0
  0
SPLINE
  5
192
330
1F
100
AcDbEntity
  8
PREDEFINITO
100
AcDbSpline
210
0.0
220
0.0
230
1.0
 70
    24
 71
     2
 72
     6
 73
     3
 74
     0
 42
0.0000000001
 43
0.0000000001
 40
-548.5231588744837
 40
-548.5231588744837
 40
-548.5231588744837
 40
0.0
 40
0.0
 40
0.0
 10
549.08657323218
 20
1084.713210523852
 30
0.0
 10
274.8249787417621
 20
1084.713215712078
 30
0.0
 10
0.5633842513442681
 20
1084.713220900303
 30
0.0
  0
SPLINE
  5
193
330
1F
100
AcDbEntity
  8
PREDEFINITO
100
AcDbSpline
210
0.0
220
0.0
230
1.0
 70
     8
 71
     2
 72
     6
 73
     3
 74
     0
 42
0.0000000001
 43
0.0000000001
 40
-1.0
 40
-1.0
 40
-1.0
 40
0.0
 40
0.0
 40
0.0
 10
0.5633842513442681
 20
1084.713220900303
 30
0.0
 10
0.5320568689885915
 20
1084.711373472512
 30
0.0
 10
0.5000071218090891
 20
1084.713220900303
 30
0.0
  0
SPLINE
  5
194
330
1F
100
AcDbEntity
  8
PREDEFINITO
100
AcDbSpline
210
0.0
220
0.0
230
1.0
 70
    12
 71
     2
 72
     6
 73
     3
 74
     0
 42
0.0000000001
 43
0.0000000001
 40
0.0
 40
0.0
 40
0.0
 40
0.784721997660068
 40
0.784721997660068
 40
0.784721997660068
 10
0.5000071218090891
 20
1084.713220900303
 30
0.0
 41
1.0
 10
0.0015806608638576
 20
1084.714794436927
 30
0.0
 41
0.7093350440012398
 10
0.0000078943121276
 20
1085.213220900303
 30
0.0
 41
1.0
  0
SPLINE
  5
195
330
1F
100
AcDbEntity
  8
PREDEFINITO
100
AcDbSpline
210
0.0
220
0.0
230
1.0
 70
     8
 71
     3
 72
     8
 73
     4
 74
     0
 42
0.0000000001
 43
0.0000000001
 40
0.0
 40
0.0
 40
0.0
 40
0.0
 40
1.0
 40
1.0
 40
1.0
 40
1.0
 10
0.0000078943121276
 20
1085.213220900303
 30
0.0
 10
-0.000232033147977
 20
1085.289256466596
 30
0.0
 10
0.0150318925664762
 20
1085.341244141646
 30
0.0
 10
0.0285801777789896
 20
1085.379630959171
 30
0.0
  0
SPLINE
  5
196
330
1F
100
AcDbEntity
  8
PREDEFINITO
100
AcDbSpline
210
0.0
220
0.0
230
1.0
 70
    24
 71
     2
 72
     6
 73
     3
 74
     0
 42
0.0000000001
 43
0.0000000001
 40
-16.25978459667492
 40
-16.25978459667492
 40
-16.25978459667492
 40
0.0
 40
0.0
 40
0.0
 10
0.0285801777789896
 20
1085.379630959171
 30
0.0
 10
2.734371299033141
 20
1093.046041018039
 30
0.0
 10
5.440162420287292
 20
1100.712451076907
 30
0.0
  0
SPLINE
  5
197
330
1F
100
AcDbEntity
  8
PREDEFINITO
100
AcDbSpline
210
0.0
220
0.0
230
1.0
 70
    12
 71
     2
 72
     6
 73
     3
 74
     0
 42
0.0000000001
 43
0.0000000001
 40
0.0
 40
0.0
 40
0.0
 40
1.845632375288173
 40
1.845632375288173
 40
1.845632375288173
 10
5.440162420287292
 20
1100.712451076907
 30
0.0
 41
1.0
 10
5.796475677869289
 20
1101.708830027889
 30
0.0
 41
0.8187218017906764
 10
6.854639679120737
 20
1101.713200147402
 30
0.0
 41
1.0
  0
SPLINE
  5
198
330
1F
100
AcDbEntity
  8
PREDEFINITO
100
AcDbSpline
210
0.0
220
0.0
230
1.0
 70
    24
 71
     2
 72
     6
 73
     3
 74
     0
 42
0.0000000001
 43
0.0000000001
 40
0.0
 40
0.0
 40
0.0
 40
535.8773232077947
 40
535.8773232077947
 40
535.8773232077947
 10
6.854639679120737
 20
1101.713200147402
 30
0.0
 10
274.7933346287136
 20
1101.713200147402
 30
0.0
 10
542.7320295783065
 20
1101.713200147402
 30
0.0
  0
SPLINE
  5
199
330
1F
100
AcDbEntity
  8
PREDEFINITO
100
AcDbSpline
210
0.0
220
0.0
230
1.0
 70
    12
 71
     2
 72
     6
 73
     3
 74
     0
 42
0.0000000001
 43
0.0000000001
 40
0.0
 40
0.0
 40
0.0
 40
1.845833044698737
 40
1.845833044698737
 40
1.845833044698737
 10
542.7320295783065
 20
1101.713200147402
 30
0.0
 41
1.0
 10
543.7905816012772
 20
1101.709378466853
 30
0.0
 41
0.818423337094123
 10
544.1465068365403
 20
1100.712451078584
 30
0.0
 41
1.0
  0
POLYLINE
  5
19A
330
1F
100
AcDbEntity
  8
PREDEFINITO
100
AcDb2dPolyline
 66
     1
 10
0.0
 20
0.0
 30
0.0
  0
VERTEX
  5
19C
330
19A
100
AcDbEntity
  8
PREDEFINITO
100
AcDbVertex
100
AcDb2dVertex
 10
8.965271148455418
 20
1101.713200147402
 30
0.0
  0
VERTEX
  5
19D
330
19A
100
AcDbEntity
  8
PREDEFINITO
100
AcDbVertex
100
AcDb2dVertex
 10
540.6538138060795
 20
1101.713200147402
 30
0.0
  0
SEQEND
  5
19B
330
19A
100
AcDbEntity
  8
PREDEFINITO
  0
POLYLINE
  5
19E
330
1F
100
AcDbEntity
  8
PREDEFINITO
100
AcDb2dPolyline
 66
     1
 10
0.0
 20
0.0
 30
0.0
  0
VERTEX
  5
1A0
330
19E
100
AcDbEntity
  8
PREDEFINITO
100
AcDbVertex
100
AcDb2dVertex
 10
540.6538138060795
 20
1101.713200147402
 30
0.0
  0
VERTEX
  5
1A1
330
19E
100
AcDbEntity
  8
PREDEFINITO
100
AcDbVertex
100
AcDb2dVertex
 10
540.4356302659575
 20
1101.784005598481
 30
0.0
  0
SEQEND
  5
19F
330
19E
100
AcDbEntity
  8
PREDEFINITO
  0
SPLINE
  5
1A2
330
1F
100
AcDbEntity
  8
PREDEFINITO
100
AcDbSpline
210
0.0
220
0.0
230
1.0
 70
    12
 71
     2
 72
     6
 73
     3
 74
     0
 42
0.0000000001
 43
0.0000000001
 40
-1.430372091809766
 40
-1.430372091809766
 40
-1.430372091809766
 40
0.0
 40
0.0
 40
0.0
 10
540.4356302659575
 20
1101.784005598481
 30
0.0
 41
1.0
 10
539.7002045797541
 20
1102.022667724036
 30
0.0
 41
0.8911916691969752
 10
539.4604110689344
 20
1102.757735663591
 30
0.0
 41
1.0
  0
SPLINE
  5
1A3
330
1F
100
AcDbEntity
  8
PREDEFINITO
100
AcDbSpline
210
0.0
220
0.0
230
1.0
 70
    24
 71
     2
 72
     6
 73
     3
 74
     0
 42
0.0000000001
 43
0.0000000001
 40
-368.666084892516
 40
-368.666084892516
 40
-368.666084892516
 40
0.0
 40
0.0
 40
0.0
 10
539.4604110689344
 20
1102.757735663591
 30
0.0
 10
483.4878881319053
 20
1278.387400518513
 30
0.0
 10
427.5153651948763
 20
1454.017065373434
 30
0.0
  0
POLYLINE
  5
1A4
330
1F
100
AcDbEntity
  8
PREDEFINITO
100
AcDb2dPolyline
 66
     1
 10
0.0
 20
0.0
 30
0.0
  0
VERTEX
  5
1A6
330
1A4
100
AcDbEntity
  8
PREDEFINITO
100
AcDbVertex
100
AcDb2dVertex
 10
427.5153651948763
 20
1454.017065373434
 30
0.0
  0
VERTEX
  5
1A7
330
1A4
100
AcDbEntity
  8
PREDEFINITO
100
AcDbVertex
100
AcDb2dVertex
 10
427.4134252736411
 20
1454.09188713636
 30
0.0
  0
SEQEND
  5
1A5
330
1A4
100
AcDbEntity
  8
PREDEFINITO
  0
SPLINE
  5
1A8
330
1F
100
AcDbEntity
  8
PREDEFINITO
100
AcDbSpline
210
0.0
220
0.0
230
1.0
 70
    24
 71
     2
 72
     6
 73
     3
 74
     0
 42
0.0000000001
 43
0.0000000001
 40
-1.052955082659963
 40
-1.052955082659963
 40
-1.052955082659963
 40
0.0
 40
0.0
 40
0.0
 10
427.4134252736411
 20
1454.09188713636
 30
0.0
 10
426.9876354205475
 20
1454.402543641881
 30
0.0
 10
426.5618455674539
 20
1454.713200147402
 30
0.0
  0
SPLINE
  5
1A9
330
1F
100
AcDbEntity
  8
PREDEFINITO
100
AcDbSpline
210
0.0
220
0.0
230
1.0
 70
    24
 71
     3
 72
     8
 73
     4
 74
     0
 42
0.0000000001
 43
0.0000000001
 40
0.0
 40
0.0
 40
0.0
 40
0.0
 40
303.5361768006952
 40
303.5361768006952
 40
303.5361768006952
 40
303.5361768006952
 10
426.5618455674539
 20
1454.713200147402
 30
0.0
 10
325.3816488119922
 20
1454.713200147401
 30
0.0
 10
224.2029232117599
 20
1454.713200147401
 30
0.0
 10
123.0241976115285
 20
1454.713200147402
 30
0.0
  0
SPLINE
  5
1AA
330
1F
100
AcDbEntity
  8
PREDEFINITO
100
AcDbSpline
210
0.0
220
0.0
230
1.0
 70
    24
 71
     2
 72
     6
 73
     3
 74
     0
 42
0.0000000001
 43
0.0000000001
 40
-1.06139406777094
 40
-1.06139406777094
 40
-1.06139406777094
 40
0.0
 40
0.0
 40
0.0
 10
123.0241976115285
 20
1454.713200147402
 30
0.0
 10
122.5957359123724
 20
1454.400054950838
 30
0.0
 10
122.1672742132164
 20
1454.086909754274
 30
0.0
  0
POLYLINE
  5
1AB
330
1F
100
AcDbEntity
  8
PREDEFINITO
100
AcDb2dPolyline
 66
     1
 10
0.0
 20
0.0
 30
0.0
  0
VERTEX
  5
1AD
330
1AB
100
AcDbEntity
  8
PREDEFINITO
100
AcDbVertex
100
AcDb2dVertex
 10
122.1672742132164
 20
1454.086909754274
 30
0.0
  0
VERTEX
  5
1AE
330
1AB
100
AcDbEntity
  8
PREDEFINITO
100
AcDbVertex
100
AcDb2dVertex
 10
122.0714139612101
 20
1454.016849402284
 30
0.0
  0
SEQEND
  5
1AC
330
1AB
100
AcDbEntity
  8
PREDEFINITO
  0
SPLINE
  5
1AF
330
1F
100
AcDbEntity
  8
PREDEFINITO
100
AcDbSpline
210
0.0
220
0.0
230
1.0
 70
    24
 71
     2
 72
     6
 73
     3
 74
     0
 42
0.0000000001
 43
0.0000000001
 40
0.0
 40
0.0
 40
0.0
 40
368.6660962765499
 40
368.6660962765499
 40
368.6660962765499
 10
122.0714139612101
 20
1454.016849402284
 30
0.0
 10
66.09881747437794
 20
1278.387287833681
 30
0.0
 10
10.12622098754582
 20
1102.757726265078
 30
0.0
  0
SPLINE
  5
1B0
330
1F
100
AcDbEntity
  8
PREDEFINITO
100
AcDbSpline
210
0.0
220
0.0
230
1.0
 70
    12
 71
     2
 72
     6
 73
     3
 74
     0
 42
0.0000000001
 43
0.0000000001
 40
-1.622810420461425
 40
-1.622810420461425
 40
-1.622810420461425
 40
0.0
 40
0.0
 40
0.0
 10
10.12622098754582
 20
1102.757726265078
 30
0.0
 41
1.0
 10
9.851423114225026
 20
1101.89987903222
 30
0.0
 41
0.8576098882335361
 10
8.965271148455418
 20
1101.738223266144
 30
0.0
 41
1.0
  0
POLYLINE
  5
1B1
330
1F
100
AcDbEntity
  8
PREDEFINITO
100
AcDb2dPolyline
 66
     1
 10
0.0
 20
0.0
 30
0.0
  0
VERTEX
  5
1B3
330
1B1
100
AcDbEntity
  8
PREDEFINITO
100
AcDbVertex
100
AcDb2dVertex
 10
8.965271148455418
 20
1101.738223266144
 30
0.0
  0
VERTEX
  5
1B4
330
1B1
100
AcDbEntity
  8
PREDEFINITO
100
AcDbVertex
100
AcDb2dVertex
 10
8.965271148455418
 20
1101.713200147402
 30
0.0
  0
SEQEND
  5
1B2
330
1B1
100
AcDbEntity
  8
PREDEFINITO
  0
SPLINE
  5
1B5
330
1F
100
AcDbEntity
  8
LINEE VISIBILI 2D
100
AcDbSpline
210
0.0
220
0.0
230
1.0
 70
    24
 71
     2
 72
     6
 73
     3
 74
     0
 42
0.0000000001
 43
0.0000000001
 40
0.0
 40
0.0
 40
0.0
 40
356.6216786254645
 40
356.6216786254645
 40
356.6216786254645
 10
1034.039020389369
 20
1454.644487014186
 30
0.0
 10
1072.744263032061
 20
1628.703843580793
 30
0.0
 10
1111.449505674753
 20
1802.763200147401
 30
0.0
  0
SPLINE
  5
1B6
330
1F
100
AcDbEntity
  8
LINEE VISIBILI 2D
100
AcDbSpline
210
0.0
220
0.0
230
1.0
 70
    24
 71
     2
 72
     6
 73
     3
 74
     0
 42
0.0000000001
 43
0.0000000001
 40
0.0
 40
0.0
 40
0.0
 40
356.4239955858546
 40
356.4239955858546
 40
356.4239955858546
 10
1292.907906524267
 20
1454.713200148719
 30
0.0
 10
1254.504579423891
 20
1628.738200148626
 30
0.0
 10
1216.101252323515
 20
1802.763200148534
 30
0.0
  0
SPLINE
  5
1B7
330
1F
100
AcDbEntity
  8
LINEE VISIBILI 2D
100
AcDbSpline
210
0.0
220
0.0
230
1.0
 70
    24
 71
     2
 72
     6
 73
     3
 74
     0
 42
0.0000000001
 43
0.0000000001
 40
0.0
 40
0.0
 40
0.0
 40
356.5512871409978
 40
356.5512871409978
 40
356.5512871409978
 10
1035.283610567975
 20
1454.713200147618
 30
0.0
 10
1073.981213407341
 20
1628.73820014751
 30
0.0
 10
1112.678816246707
 20
1802.763200147401
 30
0.0
  0
SPLINE
  5
1B8
330
1F
100
AcDbEntity
  8
LINEE VISIBILI 2D
100
AcDbSpline
210
0.0
220
0.0
230
1.0
 70
    24
 71
     2
 72
     6
 73
     3
 74
     0
 42
0.0000000001
 43
0.0000000001
 40
0.0
 40
0.0
 40
0.0
 40
356.4586211421284
 40
356.4586211421284
 40
356.4586211421284
 10
1294.144239766574
 20
1454.679388100665
 30
0.0
 10
1255.737181894479
 20
1628.721294124032
 30
0.0
 10
1217.330124022385
 20
1802.763200147399
 30
0.0
  0
ENDSEC
  0
SECTION
  2
OBJECTS
  0
DICTIONARY
  5
C
330
0
100
AcDbDictionary
281
     1
  3
ACAD_GROUP
350
D
  3
ACAD_LAYOUT
350
1A
  3
ACAD_MLEADERSTYLE
350
1BA
  3
ACAD_MLINESTYLE
350
17
  3
ACAD_PLOTSETTINGS
350
19
  3
ACAD_PLOTSTYLENAME
350
E
  3
ACAD_SCALELIST
350
3B
  3
ACAD_TABLESTYLE
350
1B9
  3
ACAD_VISUALSTYLE
350
2A
  0
DICTIONARY
  5
D
102
{ACAD_REACTORS
330
C
102
}
330
C
100
AcDbDictionary
281
     1
  0
DICTIONARY
  5
1A
102
{ACAD_REACTORS
330
C
102
}
330
C
100
AcDbDictionary
281
     1
  3
Layout1
350
1E
  3
Layout2
350
26
  3
Model
350
22
  0
DICTIONARY
  5
1BA
102
{ACAD_REACTORS
330
C
102
}
330
C
100
AcDbDictionary
281
     1
  0
DICTIONARY
  5
17
102
{ACAD_REACTORS
330
C
102
}
330
C
100
AcDbDictionary
281
     1
  3
Standard
350
18
  0
DICTIONARY
  5
19
102
{ACAD_REACTORS
330
C
102
}
330
C
100
AcDbDictionary
281
     1
  0
ACDBDICTIONARYWDFLT
  5
E
102
{ACAD_REACTORS
330
C
102
}
330
C
100
AcDbDictionary
281
     1
  3
Normal
350
F
100
AcDbDictionaryWithDefault
340
F
  0
DICTIONARY
  5
3B
102
{ACAD_REACTORS
330
C
102
}
330
C
100
AcDbDictionary
281
     1
  3
A0
350
3C
  3
A1
350
3D
  3
A2
350
3E
  3
A3
350
3F
  3
A4
350
40
  3
A5
350
41
  3
A6
350
42
  3
A7
350
43
  3
A8
350
44
  3
A9
350
45
  3
B0
350
46
  3
B1
350
47
  3
B2
350
48
  3
B3
350
49
  3
B4
350
4A
  3
B5
350
4B
  3
B6
350
4C
  3
B7
350
4D
  3
B8
350
4E
  3
B9
350
4F
  3
C0
350
50
  3
C1
350
51
  3
C2
350
52
  3
C3
350
53
  3
C4
350
54
  3
C5
350
55
  3
C6
350
56
  3
C7
350
57
  3
C8
350
58
  3
C9
350
59
  3
D0
350
5A
  3
D1
350
5B
  3
D2
350
5C
  0
DICTIONARY
  5
1B9
102
{ACAD_REACTORS
330
C
102
}
330
C
100
AcDbDictionary
281
     1
  0
DICTIONARY
  5
2A
102
{ACAD_REACTORS
330
C
102
}
330
C
100
AcDbDictionary
281
     1
  3
2dWireframe
350
2F
  3
3D Hidden
350
31
  3
3dWireframe
350
30
  3
Basic
350
32
  3
Brighten
350
36
  3
ColorChange
350
3A
  3
Conceptual
350
34
  3
Dim
350
35
  3
Facepattern
350
39
  3
Flat
350
2B
  3
FlatWithEdges
350
2C
  3
Gouraud
350
2D
  3
GouraudWithEdges
350
2E
  3
Linepattern
350
38
  3
Realistic
350
33
  3
Thicken
350
37
  0
LAYOUT
  5
1E
102
{ACAD_REACTORS
330
1A
102
}
330
1A
100
AcDbPlotSettings
  1

  2
none_device
  4

  6

 40
0.0
 41
0.0
 42
0.0
 43
0.0
 44
0.0
 45
0.0
 46
0.0
 47
0.0
 48
0.0
 49
0.0
140
0.0
141
0.0
142
1.0
143
1.0
 70
   688
 72
     0
 73
     0
 74
     5
  7

 75
    16
 76
     0
 77
     2
 78
   300
147
1.0
148
0.0
149
0.0
100
AcDbLayout
  1
Layout1
 70
     1
 71
     1
 10
0.0
 20
0.0
 11
12.0
 21
9.0
 12
0.0
 22
0.0
 32
0.0
 14
1.000000000000000E+20
 24
1.000000000000000E+20
 34
1.000000000000000E+20
 15
-1.000000000000000E+20
 25
-1.000000000000000E+20
 35
-1.000000000000000E+20
146
0.0
 13
0.0
 23
0.0
 33
0.0
 16
1.0
 26
0.0
 36
0.0
 17
0.0
 27
1.0
 37
0.0
 76
     0
330
1B
  0
LAYOUT
  5
26
102
{ACAD_REACTORS
330
1A
102
}
330
1A
100
AcDbPlotSettings
  1

  2
none_device
  4

  6

 40
0.0
 41
0.0
 42
0.0
 43
0.0
 44
0.0
 45
0.0
 46
0.0
 47
0.0
 48
0.0
 49
0.0
140
0.0
141
0.0
142
1.0
143
1.0
 70
   688
 72
     0
 73
     0
 74
     5
  7

 75
    16
 76
     0
 77
     2
 78
   300
147
1.0
148
0.0
149
0.0
100
AcDbLayout
  1
Layout2
 70
     1
 71
     2
 10
0.0
 20
0.0
 11
0.0
 21
0.0
 12
0.0
 22
0.0
 32
0.0
 14
0.0
 24
0.0
 34
0.0
 15
0.0
 25
0.0
 35
0.0
146
0.0
 13
0.0
 23
0.0
 33
0.0
 16
1.0
 26
0.0
 36
0.0
 17
0.0
 27
1.0
 37
0.0
 76
     0
330
23
  0
LAYOUT
  5
22
102
{ACAD_REACTORS
330
1A
102
}
330
1A
100
AcDbPlotSettings
  1

  2
none_device
  4

  6

 40
0.0
 41
0.0
 42
0.0
 43
0.0
 44
0.0
 45
0.0
 46
0.0
 47
0.0
 48
0.0
 49
0.0
140
0.0
141
0.0
142
1.0
143
1.0
 70
  1712
 72
     0
 73
     0
 74
     0
  7

 75
     0
 76
     0
 77
     2
 78
   300
147
1.0
148
0.0
149
0.0
100
AcDbLayout
  1
Model
 70
     1
 71
     0
 10
0.0
 20
0.0
 11
12.0
 21
9.0
 12
0.0
 22
0.0
 32
0.0
 14
0.0000078943121276
 24
0.0000674523652941
 34
0.0
 15
1438.836405279479
 25
1829.763200147405
 35
0.0
146
0.0
 13
0.0
 23
0.0
 33
0.0
 16
1.0
 26
0.0
 36
0.0
 17
0.0
 27
1.0
 37
0.0
 76
     0
330
1F
331
29
  0
MLINESTYLE
  5
18
102
{ACAD_REACTORS
330
17
102
}
330
17
100
AcDbMlineStyle
  2
Standard
 70
     0
  3

 62
   256
 51
90.0
 52
90.0
 71
     2
 49
0.5
 62
   256
  6
BYLAYER
 49
-0.5
 62
   256
  6
BYLAYER
  0
ACDBPLACEHOLDER
  5
F
102
{ACAD_REACTORS
330
E
102
}
330
E
  0
SCALE
  5
3C
102
{ACAD_REACTORS
330
3B
102
}
330
3B
100
AcDbScale
 70
     0
300
1:1
140
1.0
141
1.0
290
     1
  0
SCALE
  5
3D
102
{ACAD_REACTORS
330
3B
102
}
330
3B
100
AcDbScale
 70
     0
300
1:2
140
1.0
141
2.0
290
     0
  0
SCALE
  5
3E
102
{ACAD_REACTORS
330
3B
102
}
330
3B
100
AcDbScale
 70
     0
300
1:4
140
1.0
141
4.0
290
     0
  0
SCALE
  5
3F
102
{ACAD_REACTORS
330
3B
102
}
330
3B
100
AcDbScale
 70
     0
300
1:5
140
1.0
141
5.0
290
     0
  0
SCALE
  5
40
102
{ACAD_REACTORS
330
3B
102
}
330
3B
100
AcDbScale
 70
     0
300
1:8
140
1.0
141
8.0
290
     0
  0
SCALE
  5
41
102
{ACAD_REACTORS
330
3B
102
}
330
3B
100
AcDbScale
 70
     0
300
1:10
140
1.0
141
10.0
290
     0
  0
SCALE
  5
42
102
{ACAD_REACTORS
330
3B
102
}
330
3B
100
AcDbScale
 70
     0
300
1:16
140
1.0
141
16.0
290
     0
  0
SCALE
  5
43
102
{ACAD_REACTORS
330
3B
102
}
330
3B
100
AcDbScale
 70
     0
300
1:20
140
1.0
141
20.0
290
     0
  0
SCALE
  5
44
102
{ACAD_REACTORS
330
3B
102
}
330
3B
100
AcDbScale
 70
     0
300
1:30
140
1.0
141
30.0
290
     0
  0
SCALE
  5
45
102
{ACAD_REACTORS
330
3B
102
}
330
3B
100
AcDbScale
 70
     0
300
1:40
140
1.0
141
40.0
290
     0
  0
SCALE
  5
46
102
{ACAD_REACTORS
330
3B
102
}
330
3B
100
AcDbScale
 70
     0
300
1:50
140
1.0
141
50.0
290
     0
  0
SCALE
  5
47
102
{ACAD_REACTORS
330
3B
102
}
330
3B
100
AcDbScale
 70
     0
300
1:100
140
1.0
141
100.0
290
     0
  0
SCALE
  5
48
102
{ACAD_REACTORS
330
3B
102
}
330
3B
100
AcDbScale
 70
     0
300
2:1
140
2.0
141
1.0
290
     0
  0
SCALE
  5
49
102
{ACAD_REACTORS
330
3B
102
}
330
3B
100
AcDbScale
 70
     0
300
4:1
140
4.0
141
1.0
290
     0
  0
SCALE
  5
4A
102
{ACAD_REACTORS
330
3B
102
}
330
3B
100
AcDbScale
 70
     0
300
8:1
140
8.0
141
1.0
290
     0
  0
SCALE
  5
4B
102
{ACAD_REACTORS
330
3B
102
}
330
3B
100
AcDbScale
 70
     0
300
10:1
140
10.0
141
1.0
290
     0
  0
SCALE
  5
4C
102
{ACAD_REACTORS
330
3B
102
}
330
3B
100
AcDbScale
 70
     0
300
100:1
140
100.0
141
1.0
290
     0
  0
SCALE
  5
4D
102
{ACAD_REACTORS
330
3B
102
}
330
3B
100
AcDbScale
 70
     0
300
1/128" = 1'-0"
140
0.0078125
141
12.0
290
     0
  0
SCALE
  5
4E
102
{ACAD_REACTORS
330
3B
102
}
330
3B
100
AcDbScale
 70
     0
300
1/64" = 1'-0"
140
0.015625
141
12.0
290
     0
  0
SCALE
  5
4F
102
{ACAD_REACTORS
330
3B
102
}
330
3B
100
AcDbScale
 70
     0
300
1/32" = 1'-0"
140
0.03125
141
12.0
290
     0
  0
SCALE
  5
50
102
{ACAD_REACTORS
330
3B
102
}
330
3B
100
AcDbScale
 70
     0
300
1/16" = 1'-0"
140
0.0625
141
12.0
290
     0
  0
SCALE
  5
51
102
{ACAD_REACTORS
330
3B
102
}
330
3B
100
AcDbScale
 70
     0
300
3/32" = 1'-0"
140
0.09375
141
12.0
290
     0
  0
SCALE
  5
52
102
{ACAD_REACTORS
330
3B
102
}
330
3B
100
AcDbScale
 70
     0
300
1/8" = 1'-0"
140
0.125
141
12.0
290
     0
  0
SCALE
  5
53
102
{ACAD_REACTORS
330
3B
102
}
330
3B
100
AcDbScale
 70
     0
300
3/16" = 1'-0"
140
0.1875
141
12.0
290
     0
  0
SCALE
  5
54
102
{ACAD_REACTORS
330
3B
102
}
330
3B
100
AcDbScale
 70
     0
300
1/4" = 1'-0"
140
0.25
141
12.0
290
     0
  0
SCALE
  5
55
102
{ACAD_REACTORS
330
3B
102
}
330
3B
100
AcDbScale
 70
     0
300
3/8" = 1'-0"
140
0.375
141
12.0
290
     0
  0
SCALE
  5
56
102
{ACAD_REACTORS
330
3B
102
}
330
3B
100
AcDbScale
 70
     0
300
1/2" = 1'-0"
140
0.5
141
12.0
290
     0
  0
SCALE
  5
57
102
{ACAD_REACTORS
330
3B
102
}
330
3B
100
AcDbScale
 70
     0
300
3/4" = 1'-0"
140
0.75
141
12.0
290
     0
  0
SCALE
  5
58
102
{ACAD_REACTORS
330
3B
102
}
330
3B
100
AcDbScale
 70
     0
300
1" = 1'-0"
140
1.0
141
12.0
290
     0
  0
SCALE
  5
59
102
{ACAD_REACTORS
330
3B
102
}
330
3B
100
AcDbScale
 70
     0
300
1-1/2" = 1'-0"
140
1.5
141
12.0
290
     0
  0
SCALE
  5
5A
102
{ACAD_REACTORS
330
3B
102
}
330
3B
100
AcDbScale
 70
     0
300
3" = 1'-0"
140
3.0
141
12.0
290
     0
  0
SCALE
  5
5B
102
{ACAD_REACTORS
330
3B
102
}
330
3B
100
AcDbScale
 70
     0
300
6" = 1'-0"
140
6.0
141
12.0
290
     0
  0
SCALE
  5
5C
102
{ACAD_REACTORS
330
3B
102
}
330
3B
100
AcDbScale
 70
     0
300
1'-0" = 1'-0"
140
12.0
141
12.0
290
     0
  0
VISUALSTYLE
  5
2F
102
{ACAD_REACTORS
330
2A
102
}
330
2A
100
AcDbVisualStyle
  2
2dWireframe
 70
     4
 71
     0
 72
     2
 73
     0
 90
        0
 40
-0.6
 41
-30.0
 62
     5
 63
     7
421
 16777215
 74
     1
 91
        4
 64
     7
 65
   257
 75
     1
175
     1
 42
1.0
 92
        0
 66
   257
 43
1.0
 76
     1
 77
     6
 78
     2
 67
     7
 79
     5
170
     0
171
     0
290
     0
174
     0
 93
        1
 44
0.0
173
     0
291
     0
 45
0.0
1001
ACAD
1000
AcDbSavedByObjectVersion
1070
     0
  0
VISUALSTYLE
  5
31
102
{ACAD_REACTORS
330
2A
102
}
330
2A
100
AcDbVisualStyle
  2
3D Hidden
 70
     6
 71
     1
 72
     2
 73
     2
 90
        0
 40
-0.6
 41
-30.0
 62
     5
 63
     7
421
 16777215
 74
     2
 91
        2
 64
     7
 65
   257
 75
     2
175
     1
 42
40.0
 92
        0
 66
   257
 43
1.0
 76
     1
 77
     6
 78
     2
 67
     7
 79
     3
170
     0
171
     0
290
     0
174
     0
 93
        1
 44
0.0
173
     0
291
     0
 45
0.0
1001
ACAD
1000
AcDbSavedByObjectVersion
1070
     0
  0
VISUALSTYLE
  5
30
102
{ACAD_REACTORS
330
2A
102
}
330
2A
100
AcDbVisualStyle
  2
3dWireframe
 70
     5
 71
     0
 72
     2
 73
     0
 90
        0
 40
-0.6
 41
-30.0
 62
     5
 63
     7
421
 16777215
 74
     1
 91
        4
 64
     7
 65
   257
 75
     1
175
     1
 42
1.0
 92
        0
 66
   257
 43
1.0
 76
     1
 77
     6
 78
     2
 67
     7
 79
     5
170
     0
171
     0
290
     0
174
     0
 93
        1
 44
0.0
173
     0
291
     0
 45
0.0
1001
ACAD
1000
AcDbSavedByObjectVersion
1070
     0
  0
VISUALSTYLE
  5
32
102
{ACAD_REACTORS
330
2A
102
}
330
2A
100
AcDbVisualStyle
  2
Basic
 70
     7
 71
     1
 72
     0
 73
     1
 90
        0
 40
-0.6
 41
-30.0
 62
     5
 63
     7
421
 16777215
 74
     0
 91
        4
 64
     7
 65
   257
 75
     1
175
     1
 42
1.0
 92
        8
 66
     7
 43
1.0
 76
     1
 77
     6
 78
     2
 67
     7
 79
     5
170
     0
171
     0
290
     0
174
     0
 93
        1
 44
0.0
173
     0
291
     1
 45
0.0
1001
ACAD
1000
AcDbSavedByObjectVersion
1070
     0
  0
VISUALSTYLE
  5
36
102
{ACAD_REACTORS
330
2A
102
}
330
2A
100
AcDbVisualStyle
  2
Brighten
 70
    12
 71
     2
 72
     2
 73
     0
 90
        0
 40
-0.6
 41
-30.0
 62
     5
 63
     7
421
 16777215
 74
     1
 91
        4
 64
     7
 65
   257
 75
     1
175
     1
 42
1.0
 92
        8
 66
     7
 43
1.0
 76
     1
 77
     6
 78
     2
 67
     7
 79
     5
170
     0
171
     0
290
     0
174
     0
 93
        1
 44
50.0
173
     0
291
     1
 45
0.0
1001
ACAD
1000
AcDbSavedByObjectVersion
1070
     0
  0
VISUALSTYLE
  5
3A
102
{ACAD_REACTORS
330
2A
102
}
330
2A
100
AcDbVisualStyle
  2
ColorChange
 70
    16
 71
     2
 72
     2
 73
     3
 90
        0
 40
-0.6
 41
-30.0
 62
     5
 63
     8
421
  8421504
 74
     1
 91
        4
 64
     7
 65
   257
 75
     1
175
     1
 42
1.0
 92
        8
 66
     8
424
  8421504
 43
1.0
 76
     1
 77
     6
 78
     2
 67
     7
 79
     5
170
     0
171
     0
290
     0
174
     0
 93
        1
 44
0.0
173
     0
291
     1
 45
0.0
1001
ACAD
1000
AcDbSavedByObjectVersion
1070
     0
  0
VISUALSTYLE
  5
34
102
{ACAD_REACTORS
330
2A
102
}
330
2A
100
AcDbVisualStyle
  2
Conceptual
 70
     9
 71
     3
 72
     2
 73
     0
 90
        0
 40
-0.6
 41
-30.0
 62
     5
 63
     7
421
 16777215
 74
     2
 91
        2
 64
     7
 65
   257
 75
     1
175
     1
 42
40.0
 92
        8
 66
     7
 43
1.0
 76
     1
 77
     6
 78
     2
 67
     7
 79
     3
170
     0
171
     0
290
     0
174
     0
 93
        1
 44
0.0
173
     0
291
     0
 45
0.0
1001
ACAD
1000
AcDbSavedByObjectVersion
1070
     0
  0
VISUALSTYLE
  5
35
102
{ACAD_REACTORS
330
2A
102
}
330
2A
100
AcDbVisualStyle
  2
Dim
 70
    11
 71
     2
 72
     2
 73
     0
 90
        0
 40
-0.6
 41
-30.0
 62
     5
 63
     7
421
 16777215
 74
     1
 91
        4
 64
     7
 65
   257
 75
     1
175
     1
 42
1.0
 92
        8
 66
     7
 43
1.0
 76
     1
 77
     6
 78
     2
 67
     7
 79
     5
170
     0
171
     0
290
     0
174
     0
 93
        1
 44
-50.0
173
     0
291
     1
 45
0.0
1001
ACAD
1000
AcDbSavedByObjectVersion
1070
     0
  0
VISUALSTYLE
  5
39
102
{ACAD_REACTORS
330
2A
102
}
330
2A
100
AcDbVisualStyle
  2
Facepattern
 70
    15
 71
     2
 72
     2
 73
     0
 90
        0
 40
-0.6
 41
-30.0
 62
     5
 63
     7
421
 16777215
 74
     1
 91
        4
 64
     7
 65
   257
 75
     1
175
     1
 42
1.0
 92
        8
 66
     7
 43
1.0
 76
     1
 77
     6
 78
     2
 67
     7
 79
     5
170
     0
171
     0
290
     0
174
     0
 93
        1
 44
0.0
173
     0
291
     1
 45
0.0
1001
ACAD
1000
AcDbSavedByObjectVersion
1070
     0
  0
VISUALSTYLE
  5
2B
102
{ACAD_REACTORS
330
2A
102
}
330
2A
100
AcDbVisualStyle
  2
Flat
 70
     0
 71
     2
 72
     1
 73
     1
 90
        2
 40
-0.6
 41
30.0
 62
     5
 63
     7
421
 16777215
 74
     0
 91
        4
 64
     7
 65
   257
 75
     1
175
     1
 42
1.0
 92
        8
 66
     7
 43
1.0
 76
     1
 77
     6
 78
     2
 67
     7
 79
     5
170
     0
171
     0
290
     0
174
     0
 93
       13
 44
0.0
173
     0
291
     1
 45
0.0
1001
ACAD
1000
AcDbSavedByObjectVersion
1070
     0
  0
VISUALSTYLE
  5
2C
102
{ACAD_REACTORS
330
2A
102
}
330
2A
100
AcDbVisualStyle
  2
FlatWithEdges
 70
     1
 71
     2
 72
     1
 73
     1
 90
        2
 40
-0.6
 41
30.0
 62
     5
 63
     7
421
 16777215
 74
     1
 91
        4
 64
     7
 65
   257
 75
     1
175
     1
 42
1.0
 92
        0
 66
   257
 43
1.0
 76
     1
 77
     6
 78
     2
 67
     7
 79
     5
170
     0
171
     0
290
     0
174
     0
 93
       13
 44
0.0
173
     0
291
     1
 45
0.0
1001
ACAD
1000
AcDbSavedByObjectVersion
1070
     0
  0
VISUALSTYLE
  5
2D
102
{ACAD_REACTORS
330
2A
102
}
330
2A
100
AcDbVisualStyle
  2
Gouraud
 70
     2
 71
     2
 72
     2
 73
     1
 90
        2
 40
-0.6
 41
30.0
 62
     5
 63
     7
421
 16777215
 74
     0
 91
        4
 64
     7
 65
   257
 75
     1
175
     1
 42
1.0
 92
        0
 66
     7
 43
1.0
 76
     1
 77
     6
 78
     2
 67
     7
 79
     5
170
     0
171
     0
290
     0
174
     0
 93
       13
 44
0.0
173
     0
291
     1
 45
0.0
1001
ACAD
1000
AcDbSavedByObjectVersion
1070
     0
  0
VISUALSTYLE
  5
2E
102
{ACAD_REACTORS
330
2A
102
}
330
2A
100
AcDbVisualStyle
  2
GouraudWithEdges
 70
     3
 71
     2
 72
     2
 73
     1
 90
        2
 40
-0.6
 41
30.0
 62
     5
 63
     7
421
 16777215
 74
     1
 91
        4
 64
     7
 65
   257
 75
     1
175
     1
 42
1.0
 92
        0
 66
   257
 43
1.0
 76
     1
 77
     6
 78
     2
 67
     7
 79
     5
170
     0
171
     0
290
     0
174
     0
 93
       13
 44
0.0
173
     0
291
     1
 45
0.0
1001
ACAD
1000
AcDbSavedByObjectVersion
1070
     0
  0
VISUALSTYLE
  5
38
102
{ACAD_REACTORS
330
2A
102
}
330
2A
100
AcDbVisualStyle
  2
Linepattern
 70
    14
 71
     2
 72
     2
 73
     0
 90
        0
 40
-0.6
 41
-30.0
 62
     5
 63
     7
421
 16777215
 74
     1
 91
        4
 64
     7
 65
   257
 75
     7
175
     7
 42
1.0
 92
        8
 66
     7
 43
1.0
 76
     1
 77
     6
 78
     2
 67
     7
 79
     5
170
     0
171
     0
290
     0
174
     0
 93
        1
 44
0.0
173
     0
291
     1
 45
0.0
1001
ACAD
1000
AcDbSavedByObjectVersion
1070
     0
  0
VISUALSTYLE
  5
33
102
{ACAD_REACTORS
330
2A
102
}
330
2A
100
AcDbVisualStyle
  2
Realistic
 70
     8
 71
     2
 72
     2
 73
     0
 90
        0
 40
-0.6
 41
-30.0
 62
     5
 63
     7
421
 16777215
 74
     1
 91
        0
 64
     7
 65
   257
 75
     1
175
     1
 42
1.0
 92
        8
 66
     8
424
  7895160
 43
1.0
 76
     1
 77
     6
 78
     2
 67
     7
 79
     5
170
     0
171
     0
290
     0
174
     0
 93
       13
 44
0.0
173
     0
291
     0
 45
0.0
1001
ACAD
1000
AcDbSavedByObjectVersion
1070
     0
  0
VISUALSTYLE
  5
37
102
{ACAD_REACTORS
330
2A
102
}
330
2A
100
AcDbVisualStyle
  2
Thicken
 70
    13
 71
     2
 72
     2
 73
     0
 90
        0
 40
-0.6
 41
-30.0
 62
     5
 63
     7
421
 16777215
 74
     1
 91
        4
 64
     7
 65
   257
 75
     1
175
     1
 42
1.0
 92
       12
 66
     7
 43
1.0
 76
     1
 77
     6
 78
     2
 67
     7
 79
     5
170
     0
171
     0
290
     0
174
     0
 93
        1
 44
0.0
173
     0
291
     1
 45
0.0
1001
ACAD
1000
AcDbSavedByObjectVersion
1070
     0
  0
ENDSEC
  0
EOF
