  0
SECTION
  2
HEADER
  9
$ACADVER
  1
AC1018
  9
$ACADMAINTVER
 70
     0
  9
$DWGCODEPAGE
  3
ANSI_1252
  9
$INSBASE
 10
0.0
 20
0.0
 30
0.0
  9
$EXTMIN
 10
889.1853143374544
 20
0.0000674523636741
 30
0.0
  9
$EXTMAX
 10
1438.731884302688
 20
3101.494565753273
 30
0.0
  9
$LIMMIN
 10
0.0
 20
0.0
  9
$LIMMAX
 10
12.0
 20
9.0
  9
$ORTHOMODE
 70
     0
  9
$REGENMODE
 70
     1
  9
$FILLMODE
 70
     1
  9
$QTEXTMODE
 70
     0
  9
$MIRRTEXT
 70
     1
  9
$LTSCALE
 40
1.0
  9
$ATTMODE
 70
     1
  9
$TEXTSIZE
 40
0.2
  9
$TRACEWID
 40
0.05
  9
$TEXTSTYLE
  7
Standard
  9
$CLAYER
  8
PREDEFINITO
  9
$CELTYPE
  6
ByLayer
  9
$CECOLOR
 62
   256
  9
$CELTSCALE
 40
1.0
  9
$DISPSILH
 70
     0
  9
$DIMSCALE
 40
1.0
  9
$DIMASZ
 40
0.18
  9
$DIMEXO
 40
0.0625
  9
$DIMDLI
 40
0.38
  9
$DIMRND
 40
0.0
  9
$DIMDLE
 40
0.0
  9
$DIMEXE
 40
0.18
  9
$DIMTP
 40
0.0
  9
$DIMTM
 40
0.0
  9
$DIMTXT
 40
0.18
  9
$DIMCEN
 40
0.09
  9
$DIMTSZ
 40
0.0
  9
$DIMTOL
 70
     0
  9
$DIMLIM
 70
     0
  9
$DIMTIH
 70
     1
  9
$DIMTOH
 70
     1
  9
$DIMSE1
 70
     0
  9
$DIMSE2
 70
     0
  9
$DIMTAD
 70
     0
  9
$DIMZIN
 70
     0
  9
$DIMBLK
  1

  9
$DIMASO
 70
     1
  9
$DIMSHO
 70
     1
  9
$DIMPOST
  1

  9
$DIMAPOST
  1

  9
$DIMALT
 70
     0
  9
$DIMALTD
 70
     2
  9
$DIMALTF
 40
25.4
  9
$DIMLFAC
 40
1.0
  9
$DIMTOFL
 70
     0
  9
$DIMTVP
 40
0.0
  9
$DIMTIX
 70
     0
  9
$DIMSOXD
 70
     0
  9
$DIMSAH
 70
     0
  9
$DIMBLK1
  1

  9
$DIMBLK2
  1

  9
$DIMSTYLE
  2
Standard
  9
$DIMCLRD
 70
     0
  9
$DIMCLRE
 70
     0
  9
$DIMCLRT
 70
     0
  9
$DIMTFAC
 40
1.0
  9
$DIMGAP
 40
0.09
  9
$DIMJUST
 70
     0
  9
$DIMSD1
 70
     0
  9
$DIMSD2
 70
     0
  9
$DIMTOLJ
 70
     1
  9
$DIMTZIN
 70
     0
  9
$DIMALTZ
 70
     0
  9
$DIMALTTZ
 70
     0
  9
$DIMUPT
 70
     0
  9
$DIMDEC
 70
     4
  9
$DIMTDEC
 70
     4
  9
$DIMALTU
 70
     2
  9
$DIMALTTD
 70
     2
  9
$DIMTXSTY
  7
Standard
  9
$DIMAUNIT
 70
     0
  9
$DIMADEC
 70
     0
  9
$DIMALTRND
 40
0.0
  9
$DIMAZIN
 70
     0
  9
$DIMDSEP
 70
    46
  9
$DIMATFIT
 70
     3
  9
$DIMFRAC
 70
     0
  9
$DIMLDRBLK
  1

  9
$DIMLUNIT
 70
     2
  9
$DIMLWD
 70
    -2
  9
$DIMLWE
 70
    -2
  9
$DIMTMOVE
 70
     0
  9
$LUNITS
 70
     2
  9
$LUPREC
 70
     3
  9
$SKETCHINC
 40
0.1
  9
$FILLETRAD
 40
0.5
  9
$AUNITS
 70
     0
  9
$AUPREC
 70
     0
  9
$MENU
  1
.
  9
$ELEVATION
 40
0.0
  9
$PELEVATION
 40
0.0
  9
$THICKNESS
 40
0.0
  9
$LIMCHECK
 70
     0
  9
$CHAMFERA
 40
0.5
  9
$CHAMFERB
 40
0.5
  9
$CHAMFERC
 40
1.0
  9
$CHAMFERD
 40
0.0
  9
$SKPOLY
 70
     0
  9
$TDCREATE
 40
2455862.724176667
  9
$TDUCREATE
 40
2455862.640843333
  9
$TDUPDATE
 40
2455862.724176678
  9
$TDUUPDATE
 40
2455862.640843345
  9
$TDINDWG
 40
0.0000000116
  9
$TDUSRTIMER
 40
0.0000000116
  9
$USRTIMER
 70
     1
  9
$ANGBASE
 50
0.0
  9
$ANGDIR
 70
     0
  9
$PDMODE
 70
     0
  9
$PDSIZE
 40
0.0
  9
$PLINEWID
 40
0.0
  9
$SPLFRAME
 70
     0
  9
$SPLINETYPE
 70
     6
  9
$SPLINESEGS
 70
     8
  9
$HANDSEED
  5
CC
  9
$SURFTAB1
 70
     6
  9
$SURFTAB2
 70
     6
  9
$SURFTYPE
 70
     6
  9
$SURFU
 70
     6
  9
$SURFV
 70
     6
  9
$UCSBASE
  2

  9
$UCSNAME
  2

  9
$UCSORG
 10
0.0
 20
0.0
 30
0.0
  9
$UCSXDIR
 10
1.0
 20
0.0
 30
0.0
  9
$UCSYDIR
 10
0.0
 20
1.0
 30
0.0
  9
$UCSORTHOREF
  2

  9
$UCSORTHOVIEW
 70
     0
  9
$UCSORGTOP
 10
0.0
 20
0.0
 30
0.0
  9
$UCSORGBOTTOM
 10
0.0
 20
0.0
 30
0.0
  9
$UCSORGLEFT
 10
0.0
 20
0.0
 30
0.0
  9
$UCSORGRIGHT
 10
0.0
 20
0.0
 30
0.0
  9
$UCSORGFRONT
 10
0.0
 20
0.0
 30
0.0
  9
$UCSORGBACK
 10
0.0
 20
0.0
 30
0.0
  9
$PUCSBASE
  2

  9
$PUCSNAME
  2

  9
$PUCSORG
 10
0.0
 20
0.0
 30
0.0
  9
$PUCSXDIR
 10
1.0
 20
0.0
 30
0.0
  9
$PUCSYDIR
 10
0.0
 20
1.0
 30
0.0
  9
$PUCSORTHOREF
  2

  9
$PUCSORTHOVIEW
 70
     0
  9
$PUCSORGTOP
 10
0.0
 20
0.0
 30
0.0
  9
$PUCSORGBOTTOM
 10
0.0
 20
0.0
 30
0.0
  9
$PUCSORGLEFT
 10
0.0
 20
0.0
 30
0.0
  9
$PUCSORGRIGHT
 10
0.0
 20
0.0
 30
0.0
  9
$PUCSORGFRONT
 10
0.0
 20
0.0
 30
0.0
  9
$PUCSORGBACK
 10
0.0
 20
0.0
 30
0.0
  9
$USERI1
 70
     0
  9
$USERI2
 70
     0
  9
$USERI3
 70
     0
  9
$USERI4
 70
     0
  9
$USERI5
 70
     0
  9
$USERR1
 40
0.0
  9
$USERR2
 40
0.0
  9
$USERR3
 40
0.0
  9
$USERR4
 40
0.0
  9
$USERR5
 40
0.0
  9
$WORLDVIEW
 70
     1
  9
$SHADEDGE
 70
     3
  9
$SHADEDIF
 70
    70
  9
$TILEMODE
 70
     1
  9
$MAXACTVP
 70
    64
  9
$PINSBASE
 10
0.0
 20
0.0
 30
0.0
  9
$PLIMCHECK
 70
     0
  9
$PEXTMIN
 10
1.000000000000000E+20
 20
1.000000000000000E+20
 30
1.000000000000000E+20
  9
$PEXTMAX
 10
-1.000000000000000E+20
 20
-1.000000000000000E+20
 30
-1.000000000000000E+20
  9
$PLIMMIN
 10
0.0
 20
0.0
  9
$PLIMMAX
 10
12.0
 20
9.0
  9
$UNITMODE
 70
     0
  9
$VISRETAIN
 70
     1
  9
$PLINEGEN
 70
     0
  9
$PSLTSCALE
 70
     1
  9
$TREEDEPTH
 70
  3020
  9
$CMLSTYLE
  2
Standard
  9
$CMLJUST
 70
     0
  9
$CMLSCALE
 40
1.0
  9
$PROXYGRAPHICS
 70
     1
  9
$MEASUREMENT
 70
     0
  9
$CELWEIGHT
370
    -1
  9
$ENDCAPS
280
     0
  9
$JOINSTYLE
280
     0
  9
$LWDISPLAY
290
     0
  9
$INSUNITS
 70
     4
  9
$HYPERLINKBASE
  1

  9
$STYLESHEET
  1

  9
$XEDIT
290
     1
  9
$CEPSNTYPE
380
     0
  9
$PSTYLEMODE
290
     1
  9
$FINGERPRINTGUID
  2
{F89982D6-5914-42B0-AB7A-CACEB034BE75}
  9
$VERSIONGUID
  2
{FAEB1C32-E019-11D5-929B-00C0DF256EC4}
  9
$EXTNAMES
290
     1
  9
$PSVPSCALE
 40
0.0
  9
$OLESTARTUP
290
     0
  9
$SORTENTS
280
   127
  9
$INDEXCTL
280
     0
  9
$HIDETEXT
280
     1
  9
$XCLIPFRAME
290
     0
  9
$HALOGAP
280
     0
  9
$OBSCOLOR
 70
   257
  9
$OBSLTYPE
280
     0
  9
$INTERSECTIONDISPLAY
280
     0
  9
$INTERSECTIONCOLOR
 70
   257
  9
$DIMASSOC
280
     2
  9
$PROJECTNAME
  1

  0
ENDSEC
  0
SECTION
  2
CLASSES
  0
CLASS
  1
ACDBDICTIONARYWDFLT
  2
AcDbDictionaryWithDefault
  3
ObjectDBX Classes
 90
        0
 91
        3
280
     0
281
     0
  0
CLASS
  1
VISUALSTYLE
  2
AcDbVisualStyle
  3
ObjectDBX Classes
 90
     4095
 91
        3
280
     0
281
     0
  0
CLASS
  1
SCALE
  2
AcDbScale
  3
ObjectDBX Classes
 90
     1153
 91
        3
280
     0
281
     0
  0
ENDSEC
  0
SECTION
  2
TABLES
  0
TABLE
  2
VPORT
  5
8
330
0
100
AcDbSymbolTable
 70
     1
  0
VPORT
  5
29
330
8
100
AcDbSymbolTableRecord
100
AcDbViewportTableRecord
  2
*Active
 70
     0
 10
0.0
 20
0.0
 11
1.0
 21
1.0
 12
0.0
 22
0.0
 13
0.0
 23
0.0
 14
0.5
 24
0.5
 15
0.5
 25
0.5
 16
0.0
 26
0.0
 36
1.0
 17
1163.958599320071
 27
1550.747316602818
 37
0.0
 40
3163.524388266928
 41
0.1771876655806715
 42
50.0
 43
0.0
 44
0.0
 50
0.0
 51
0.0
 71
     0
 72
   100
 73
     1
 74
     3
 75
     0
 76
     0
 77
     0
 78
     0
281
     0
 65
     1
110
0.0
120
0.0
130
0.0
111
1.0
121
0.0
131
0.0
112
0.0
122
1.0
132
0.0
 79
     0
146
0.0
  0
ENDTAB
  0
TABLE
  2
LTYPE
  5
5
330
0
100
AcDbSymbolTable
 70
     1
  0
LTYPE
  5
14
330
5
100
AcDbSymbolTableRecord
100
AcDbLinetypeTableRecord
  2
ByBlock
 70
     0
  3

 72
    65
 73
     0
 40
0.0
  0
LTYPE
  5
15
330
5
100
AcDbSymbolTableRecord
100
AcDbLinetypeTableRecord
  2
ByLayer
 70
     0
  3

 72
    65
 73
     0
 40
0.0
  0
LTYPE
  5
16
330
5
100
AcDbSymbolTableRecord
100
AcDbLinetypeTableRecord
  2
Continuous
 70
     0
  3
Solid line
 72
    65
 73
     0
 40
0.0
  0
ENDTAB
  0
TABLE
  2
LAYER
  5
2
330
0
100
AcDbSymbolTable
 70
     3
  0
LAYER
  5
10
330
2
100
AcDbSymbolTableRecord
100
AcDbLayerTableRecord
  2
0
 70
     0
 62
     7
  6
Continuous
370
    -3
390
F
  0
LAYER
  5
5D
330
2
100
AcDbSymbolTableRecord
100
AcDbLayerTableRecord
  2
PREDEFINITO
 70
     0
 62
     7
  6
Continuous
370
    -3
390
F
  0
LAYER
  5
76
330
2
100
AcDbSymbolTableRecord
100
AcDbLayerTableRecord
  2
LINEE VISIBILI 2D
 70
     0
 62
     7
  6
Continuous
370
    -3
390
F
  0
ENDTAB
  0
TABLE
  2
STYLE
  5
3
330
0
100
AcDbSymbolTable
 70
     1
  0
STYLE
  5
11
330
3
100
AcDbSymbolTableRecord
100
AcDbTextStyleTableRecord
  2
Standard
 70
     0
 40
0.0
 41
1.0
 50
0.0
 71
     0
 42
0.2
  3
txt
  4

  0
ENDTAB
  0
TABLE
  2
VIEW
  5
6
330
0
100
AcDbSymbolTable
 70
     0
  0
ENDTAB
  0
TABLE
  2
UCS
  5
7
330
0
100
AcDbSymbolTable
 70
     0
  0
ENDTAB
  0
TABLE
  2
APPID
  5
9
330
0
100
AcDbSymbolTable
 70
     1
  0
APPID
  5
12
330
9
100
AcDbSymbolTableRecord
100
AcDbRegAppTableRecord
  2
ACAD
 70
     0
  0
ENDTAB
  0
TABLE
  2
DIMSTYLE
  5
A
330
0
100
AcDbSymbolTable
 70
     1
100
AcDbDimStyleTable
  0
DIMSTYLE
105
27
330
A
100
AcDbSymbolTableRecord
100
AcDbDimStyleTableRecord
  2
Standard
 70
     0
340
11
  0
ENDTAB
  0
TABLE
  2
BLOCK_RECORD
  5
1
330
0
100
AcDbSymbolTable
 70
     1
  0
BLOCK_RECORD
  5
1F
330
1
100
AcDbSymbolTableRecord
100
AcDbBlockTableRecord
  2
*Model_Space
340
22
  0
BLOCK_RECORD
  5
1B
330
1
100
AcDbSymbolTableRecord
100
AcDbBlockTableRecord
  2
*Paper_Space
340
1E
  0
BLOCK_RECORD
  5
23
330
1
100
AcDbSymbolTableRecord
100
AcDbBlockTableRecord
  2
*Paper_Space0
340
26
  0
ENDTAB
  0
ENDSEC
  0
SECTION
  2
BLOCKS
  0
BLOCK
  5
20
330
1F
100
AcDbEntity
  8
0
100
AcDbBlockBegin
  2
*Model_Space
 70
     0
 10
0.0
 20
0.0
 30
0.0
  3
*Model_Space
  1

  0
ENDBLK
  5
21
330
1F
100
AcDbEntity
  8
0
100
AcDbBlockEnd
  0
BLOCK
  5
1C
330
1B
100
AcDbEntity
 67
     1
  8
0
100
AcDbBlockBegin
  2
*Paper_Space
 70
     0
 10
0.0
 20
0.0
 30
0.0
  3
*Paper_Space
  1

  0
ENDBLK
  5
1D
330
1B
100
AcDbEntity
 67
     1
  8
0
100
AcDbBlockEnd
  0
BLOCK
  5
24
330
23
100
AcDbEntity
  8
0
100
AcDbBlockBegin
  2
*Paper_Space0
 70
     0
 10
0.0
 20
0.0
 30
0.0
  3
*Paper_Space0
  1

  0
ENDBLK
  5
25
330
23
100
AcDbEntity
  8
0
100
AcDbBlockEnd
  0
ENDSEC
  0
SECTION
  2
ENTITIES
  0
POLYLINE
  5
5E
330
1F
100
AcDbEntity
  8
PREDEFINITO
100
AcDb2dPolyline
 66
     1
 10
0.0
 20
0.0
 30
0.0
  0
VERTEX
  5
60
330
5E
100
AcDbEntity
  8
PREDEFINITO
100
AcDbVertex
100
AcDb2dVertex
 10
898.1305751786015
 20
2748.591576998412
 30
0.0
  0
VERTEX
  5
61
330
5E
100
AcDbEntity
  8
PREDEFINITO
100
AcDbVertex
100
AcDb2dVertex
 10
898.0110802522175
 20
2748.566553884228
 30
0.0
  0
VERTEX
  5
62
330
5E
100
AcDbEntity
  8
PREDEFINITO
100
AcDbVertex
100
AcDb2dVertex
 10
1429.940749100066
 20
2748.566553884228
 30
0.0
  0
VERTEX
  5
63
330
5E
100
AcDbEntity
  8
PREDEFINITO
100
AcDbVertex
100
AcDb2dVertex
 10
1429.786443501953
 20
2748.591005817567
 30
0.0
  0
SEQEND
  5
5F
330
5E
100
AcDbEntity
  8
PREDEFINITO
  0
SPLINE
  5
64
330
1F
100
AcDbEntity
  8
PREDEFINITO
100
AcDbSpline
210
0.0
220
0.0
230
1.0
 70
    12
 71
     2
 72
     6
 73
     3
 74
     0
 42
0.0000000001
 43
0.0000000001
 40
-1.621703005679253
 40
-1.621703005679253
 40
-1.621703005679253
 40
0.0
 40
0.0
 40
0.0
 10
1429.786443501953
 20
2748.591005817567
 30
0.0
 41
1.0
 10
1428.903367712159
 20
2748.756590736356
 30
0.0
 41
0.8599446134734607
 10
1428.625718093187
 20
2749.611080001904
 30
0.0
 41
1.0
  0
SPLINE
  5
65
330
1F
100
AcDbEntity
  8
PREDEFINITO
100
AcDbSpline
210
0.0
220
0.0
230
1.0
 70
    24
 71
     2
 72
     6
 73
     3
 74
     0
 42
0.0000000001
 43
0.0000000001
 40
-368.6658292037156
 40
-368.6658292037156
 40
-368.6658292037156
 40
0.0
 40
0.0
 40
0.0
 10
1428.625718093187
 20
2749.611080001904
 30
0.0
 10
1372.653371772566
 20
2925.240575967208
 30
0.0
 10
1316.681025451944
 20
3100.870071932513
 30
0.0
  0
SPLINE
  5
66
330
1F
100
AcDbEntity
  8
PREDEFINITO
100
AcDbSpline
210
0.0
220
0.0
230
1.0
 70
    24
 71
     2
 72
     6
 73
     3
 74
     0
 42
0.0000000001
 43
0.0000000001
 40
-0.6553031633949268
 40
-0.6553031633949268
 40
-0.6553031633949268
 40
0.0
 40
0.0
 40
0.0
 10
1316.681025451944
 20
3100.870071932513
 30
0.0
 10
1316.581730448301
 20
3101.182318842893
 30
0.0
 10
1316.482435444658
 20
3101.494565753273
 30
0.0
  0
SPLINE
  5
67
330
1F
100
AcDbEntity
  8
PREDEFINITO
100
AcDbSpline
210
0.0
220
0.0
230
1.0
 70
    28
 71
     3
 72
    12
 73
     8
 74
     0
 42
0.0000000001
 43
0.0000000001
 40
720.1097556913903
 40
720.1097556913903
 40
720.1097556913903
 40
720.1097556913903
 40
777.5453438943553
 40
839.8078122956098
 40
902.0821224557602
 40
931.526556284923
 40
959.5832059026712
 40
959.5832059026712
 40
959.5832059026712
 40
959.5832059026712
 10
1316.482435444658
 20
3101.494565753273
 30
0.0
 41
1.0
 10
1316.492376127482
 20
3101.494565753273
 30
0.0
 41
1.0
 10
1308.939270070743
 20
3101.494565753273
 30
0.0
 41
1.0
 10
1275.08922011496
 20
3101.494565753273
 30
0.0
 41
1.0
 10
1231.434602381358
 20
3101.494565753273
 30
0.0
 41
1.0
 10
1192.966430859435
 20
3101.494565753273
 30
0.0
 41
1.0
 10
1173.833017555971
 20
3101.494565753273
 30
0.0
 41
1.0
 10
1164.494804173888
 20
3101.494565753273
 30
0.0
 41
1.0
  0
SPLINE
  5
68
330
1F
100
AcDbEntity
  8
PREDEFINITO
100
AcDbSpline
210
0.0
220
0.0
230
1.0
 70
    24
 71
     2
 72
     6
 73
     3
 74
     0
 42
0.0000000001
 43
0.0000000001
 40
0.0
 40
0.0
 40
0.0
 40
153.0494650450596
 40
153.0494650450596
 40
153.0494650450596
 10
1164.494804173888
 20
3101.494565753273
 30
0.0
 10
1087.967448839368
 20
3101.494565753273
 30
0.0
 10
1011.440093504848
 20
3101.494565753273
 30
0.0
  0
SPLINE
  5
69
330
1F
100
AcDbEntity
  8
PREDEFINITO
100
AcDbSpline
210
0.0
220
0.0
230
1.0
 70
    24
 71
     2
 72
     6
 73
     3
 74
     0
 42
0.0000000001
 43
0.0000000001
 40
-0.6553031480423207
 40
-0.6553031480423207
 40
-0.6553031480423207
 40
0.0
 40
0.0
 40
0.0
 10
1011.440093504848
 20
3101.494565753273
 30
0.0
 10
1011.338164771991
 20
3101.18232557995
 30
0.0
 10
1011.236236039135
 20
3100.870085406627
 30
0.0
  0
SPLINE
  5
6A
330
1F
100
AcDbEntity
  8
PREDEFINITO
100
AcDbSpline
210
0.0
220
0.0
230
1.0
 70
    24
 71
     2
 72
     6
 73
     3
 74
     0
 42
0.0000000001
 43
0.0000000001
 40
-368.6658574873888
 40
-368.6658574873888
 40
-368.6658574873888
 40
0.0
 40
0.0
 40
0.0
 10
1011.236236039135
 20
3100.870085406627
 30
0.0
 10
955.2638642849671
 20
2925.240582704266
 30
0.0
 10
899.2914925307996
 20
2749.611080001904
 30
0.0
  0
SPLINE
  5
6B
330
1F
100
AcDbEntity
  8
PREDEFINITO
100
AcDbSpline
210
0.0
220
0.0
230
1.0
 70
    12
 71
     2
 72
     6
 73
     3
 74
     0
 42
0.0000000001
 43
0.0000000001
 40
-1.622810422885766
 40
-1.622810422885766
 40
-1.622810422885766
 40
0.0
 40
0.0
 40
0.0
 10
899.2914925307996
 20
2749.611080001904
 30
0.0
 41
1.0
 10
899.016727145593
 20
2748.753232766616
 30
0.0
 41
0.8576098879062364
 10
898.1305751786015
 20
2748.591576998412
 30
0.0
 41
1.0
  0
POLYLINE
  5
6C
330
1F
100
AcDbEntity
  8
PREDEFINITO
100
AcDb2dPolyline
 66
     1
 10
0.0
 20
0.0
 30
0.0
  0
VERTEX
  5
6E
330
6C
100
AcDbEntity
  8
PREDEFINITO
100
AcDbVertex
100
AcDb2dVertex
 10
1151.984506580382
 20
2732.232914980827
 30
0.0
  0
VERTEX
  5
6F
330
6C
100
AcDbEntity
  8
PREDEFINITO
100
AcDbVertex
100
AcDb2dVertex
 10
1177.00764341767
 20
2732.232909264123
 30
0.0
  0
SEQEND
  5
6D
330
6C
100
AcDbEntity
  8
PREDEFINITO
  0
SPLINE
  5
70
330
1F
100
AcDbEntity
  8
PREDEFINITO
100
AcDbSpline
210
0.0
220
0.0
230
1.0
 70
    24
 71
     2
 72
     6
 73
     3
 74
     0
 42
0.0000000001
 43
0.0000000001
 40
0.0
 40
0.0
 40
0.0
 40
1369.966355379916
 40
1369.966355379916
 40
1369.966355379916
 10
1177.00764341767
 20
2732.232909264123
 30
0.0
 10
1177.00764341767
 20
2047.249731574165
 30
0.0
 10
1177.00764341767
 20
1362.266553884207
 30
0.0
  0
POLYLINE
  5
71
330
1F
100
AcDbEntity
  8
PREDEFINITO
100
AcDb2dPolyline
 66
     1
 10
0.0
 20
0.0
 30
0.0
  0
VERTEX
  5
73
330
71
100
AcDbEntity
  8
PREDEFINITO
100
AcDbVertex
100
AcDb2dVertex
 10
1177.00764341767
 20
1362.266553884207
 30
0.0
  0
VERTEX
  5
74
330
71
100
AcDbEntity
  8
PREDEFINITO
100
AcDbVertex
100
AcDb2dVertex
 10
1151.984506580382
 20
1362.266553884207
 30
0.0
  0
SEQEND
  5
72
330
71
100
AcDbEntity
  8
PREDEFINITO
  0
SPLINE
  5
75
330
1F
100
AcDbEntity
  8
PREDEFINITO
100
AcDbSpline
210
0.0
220
0.0
230
1.0
 70
    24
 71
     2
 72
     6
 73
     3
 74
     0
 42
0.0000000001
 43
0.0000000001
 40
0.0
 40
0.0
 40
0.0
 40
1369.966361096621
 40
1369.966361096621
 40
1369.966361096621
 10
1151.984506580382
 20
1362.266553884207
 30
0.0
 10
1151.984506580382
 20
2047.249734432517
 30
0.0
 10
1151.984506580382
 20
2732.232914980827
 30
0.0
  0
SPLINE
  5
77
330
1F
100
AcDbEntity
  8
LINEE VISIBILI 2D
100
AcDbSpline
210
0.0
220
0.0
230
1.0
 70
    24
 71
     2
 72
     6
 73
     3
 74
     0
 42
0.0000000001
 43
0.0000000001
 40
0.0
 40
0.0
 40
0.0
 40
3.200000000000273
 40
3.200000000000273
 40
3.200000000000273
 10
1087.740104684499
 20
1325.766553884207
 30
0.0
 10
1087.745664240437
 20
1324.166553884206
 30
0.0
 10
1087.751223796376
 20
1322.566553884206
 30
0.0
  0
SPLINE
  5
78
330
1F
100
AcDbEntity
  8
LINEE VISIBILI 2D
100
AcDbSpline
210
0.0
220
0.0
230
1.0
 70
    24
 71
     2
 72
     6
 73
     3
 74
     0
 42
0.0000000001
 43
0.0000000001
 40
0.0
 40
0.0
 40
0.0
 40
5.852761776246325
 40
5.852761776246325
 40
5.852761776246325
 10
1087.751223796376
 20
1322.566553884206
 30
0.0
 10
1090.688723794572
 20
1322.566553884206
 30
0.0
 10
1093.626223792768
 20
1322.566553884206
 30
0.0
  0
SPLINE
  5
79
330
1F
100
AcDbEntity
  8
LINEE VISIBILI 2D
100
AcDbSpline
210
0.0
220
0.0
230
1.0
 70
    24
 71
     2
 72
     6
 73
     3
 74
     0
 42
0.0000000001
 43
0.0000000001
 40
0.0
 40
0.0
 40
0.0
 40
17.60276178346203
 40
17.60276178346203
 40
17.60276178346203
 10
1093.626223792768
 20
1322.566553884206
 30
0.0
 10
1102.433164238633
 20
1322.566553884206
 30
0.0
 10
1111.240104684499
 20
1322.566553884207
 30
0.0
  0
SPLINE
  5
7A
330
1F
100
AcDbEntity
  8
LINEE VISIBILI 2D
100
AcDbSpline
210
0.0
220
0.0
230
1.0
 70
    24
 71
     2
 72
     6
 73
     3
 74
     0
 42
0.0000000001
 43
0.0000000001
 40
-3.200000000000273
 40
-3.200000000000273
 40
-3.200000000000273
 40
0.0
 40
0.0
 40
0.0
 10
1111.240104684499
 20
1322.566553884207
 30
0.0
 10
1111.240104684499
 20
1324.166553884207
 30
0.0
 10
1111.240104684499
 20
1325.766553884207
 30
0.0
  0
SPLINE
  5
7B
330
1F
100
AcDbEntity
  8
LINEE VISIBILI 2D
100
AcDbSpline
210
0.0
220
0.0
230
1.0
 70
    24
 71
     2
 72
     6
 73
     3
 74
     0
 42
0.0000000001
 43
0.0000000001
 40
0.0
 40
0.0
 40
0.0
 40
16.2597850388121
 40
16.2597850388121
 40
16.2597850388121
 10
889.1938088621819
 20
2732.232963943095
 30
0.0
 10
891.8996006476646
 20
2739.899374001963
 30
0.0
 10
894.6053924331471
 20
2747.565784060831
 30
0.0
  0
SPLINE
  5
7C
330
1F
100
AcDbEntity
  8
LINEE VISIBILI 2D
100
AcDbSpline
210
0.0
220
0.0
230
1.0
 70
    12
 71
     2
 72
     6
 73
     3
 74
     0
 42
0.0000000001
 43
0.0000000001
 40
0.0
 40
0.0
 40
0.0
 40
1.845643973722347
 40
1.845643973722347
 40
1.845643973722347
 10
894.6053924331471
 20
2747.565784060831
 30
0.0
 41
1.0
 10
894.9617186543721
 20
2748.562153494099
 30
0.0
 41
0.8187342009761754
 10
896.0508319893286
 20
2748.566553884228
 30
0.0
 41
1.0
  0
SPLINE
  5
7D
330
1F
100
AcDbEntity
  8
LINEE VISIBILI 2D
100
AcDbSpline
210
0.0
220
0.0
230
1.0
 70
    28
 71
     2
 72
     8
 73
     5
 74
     0
 42
0.0000000001
 43
0.0000000001
 40
414.3009630101374
 40
414.3009630101374
 40
414.3009630101374
 40
419.0384354261595
 40
419.0384354261595
 40
841.754337544406
 40
841.754337544406
 40
841.754337544406
 10
896.0508319893286
 20
2748.566553884228
 30
0.0
 41
0.9935085352192924
 10
896.0184510072645
 20
2748.566553884229
 30
0.0
 41
0.9967174796642011
 10
896.0199437080953
 20
2748.566553884228
 30
0.0
 41
1.0
 10
896.2076858371344
 20
2748.566553884228
 30
0.0
 41
0.7071067811865476
 10
1164.146347441032
 20
2748.566553884228
 30
0.0
 41
1.0
  0
SPLINE
  5
7E
330
1F
100
AcDbEntity
  8
LINEE VISIBILI 2D
100
AcDbSpline
210
0.0
220
0.0
230
1.0
 70
    24
 71
     2
 72
     6
 73
     3
 74
     0
 42
0.0000000001
 43
0.0000000001
 40
0.0
 40
0.0
 40
0.0
 40
267.6890771378185
 40
267.6890771378185
 40
267.6890771378185
 10
1164.146347441032
 20
2748.566553884228
 30
0.0
 10
1298.006363267049
 20
2748.566553884228
 30
0.0
 10
1431.866379093067
 20
2748.566553884228
 30
0.0
  0
SPLINE
  5
7F
330
1F
100
AcDbEntity
  8
LINEE VISIBILI 2D
100
AcDbSpline
210
0.0
220
0.0
230
1.0
 70
    12
 71
     2
 72
     6
 73
     3
 74
     0
 42
0.0000000001
 43
0.0000000001
 40
0.0
 40
0.0
 40
0.0
 40
1.845855071183407
 40
1.845855071183407
 40
1.845855071183407
 10
1431.866379093067
 20
2748.566553884228
 30
0.0
 41
1.0
 10
1432.955902158859
 20
2748.562732284755
 30
0.0
 41
0.8184190450254141
 10
1433.311818190839
 20
2747.565784060831
 30
0.0
 41
1.0
  0
SPLINE
  5
80
330
1F
100
AcDbEntity
  8
LINEE VISIBILI 2D
100
AcDbSpline
210
0.0
220
0.0
230
1.0
 70
    24
 71
     2
 72
     6
 73
     3
 74
     0
 42
0.0000000001
 43
0.0000000001
 40
0.0
 40
0.0
 40
0.0
 40
16.2597850388121
 40
16.2597850388121
 40
16.2597850388121
 10
1433.311818190839
 20
2747.565784060831
 30
0.0
 10
1436.003875656143
 20
2739.887170269682
 30
0.0
 10
1438.695933121447
 20
2732.208556478534
 30
0.0
  0
SPLINE
  5
81
330
1F
100
AcDbEntity
  8
LINEE VISIBILI 2D
100
AcDbSpline
210
0.0
220
0.0
230
1.0
 70
    12
 71
     2
 72
     6
 73
     3
 74
     0
 42
0.0000000001
 43
0.0000000001
 40
-274.5173438478672
 40
-274.5173438478672
 40
-274.5173438478672
 40
0.0
 40
0.0
 40
0.0
 10
1438.695933121447
 20
2732.208556478534
 30
0.0
 41
1.0
 10
1301.409805850139
 20
2732.25584055322
 30
0.0
 41
0.9999999406637357
 10
1164.151130402991
 20
2732.232963943105
 30
0.0
 41
1.0
  0
SPLINE
  5
82
330
1F
100
AcDbEntity
  8
LINEE VISIBILI 2D
100
AcDbSpline
210
0.0
220
0.0
230
1.0
 70
    12
 71
     2
 72
     8
 73
     5
 74
     0
 42
0.0000000001
 43
0.0000000001
 40
-275.02926335583
 40
-275.02926335583
 40
-275.02926335583
 40
-0.0065839571427419
 40
-0.0065839571427419
 40
0.0
 40
0.0
 40
0.0
 10
1164.151130402991
 20
2732.232963943105
 30
0.0
 41
1.0
 10
1026.668213317753
 20
2732.257861592925
 30
0.0
 41
0.9999999342399049
 10
889.1853143374547
 20
2732.183040925435
 30
0.0
 41
1.0
 10
889.1886022466333
 20
2732.182897413785
 30
0.0
 41
0.999964522831115
 10
889.1938088621818
 20
2732.232963943095
 30
0.0
 41
0.9999364083327218
  0
SPLINE
  5
83
330
1F
100
AcDbEntity
  8
LINEE VISIBILI 2D
100
AcDbSpline
210
0.0
220
0.0
230
1.0
 70
    24
 71
     2
 72
     6
 73
     3
 74
     0
 42
0.0000000001
 43
0.0000000001
 40
0.0
 40
0.0
 40
0.0
 40
4.0
 40
4.0
 40
4.0
 10
979.4948041738883
 20
1358.266553884206
 30
0.0
 10
979.4948041738883
 20
1360.266553884206
 30
0.0
 10
979.4948041738883
 20
1362.266553884206
 30
0.0
  0
SPLINE
  5
84
330
1F
100
AcDbEntity
  8
LINEE VISIBILI 2D
100
AcDbSpline
210
0.0
220
0.0
230
1.0
 70
    24
 71
     2
 72
     6
 73
     3
 74
     0
 42
0.0000000001
 43
0.0000000001
 40
-185.0
 40
-185.0
 40
-185.0
 40
0.0
 40
0.0
 40
0.0
 10
979.4948041738883
 20
1362.266553884206
 30
0.0
 10
1071.994804173888
 20
1362.266553884207
 30
0.0
 10
1164.494804173888
 20
1362.266553884207
 30
0.0
  0
SPLINE
  5
85
330
1F
100
AcDbEntity
  8
LINEE VISIBILI 2D
100
AcDbSpline
210
0.0
220
0.0
230
1.0
 70
    24
 71
     2
 72
     6
 73
     3
 74
     0
 42
0.0000000001
 43
0.0000000001
 40
-185.0
 40
-185.0
 40
-185.0
 40
0.0
 40
0.0
 40
0.0
 10
1164.494804173888
 20
1362.266553884207
 30
0.0
 10
1256.994804173888
 20
1362.266553884207
 30
0.0
 10
1349.494804173888
 20
1362.266553884207
 30
0.0
  0
SPLINE
  5
86
330
1F
100
AcDbEntity
  8
LINEE VISIBILI 2D
100
AcDbSpline
210
0.0
220
0.0
230
1.0
 70
    24
 71
     2
 72
     6
 73
     3
 74
     0
 42
0.0000000001
 43
0.0000000001
 40
0.0
 40
0.0
 40
0.0
 40
4.0
 40
4.0
 40
4.0
 10
1349.494804173888
 20
1362.266553884206
 30
0.0
 10
1349.494804173888
 20
1360.266553884206
 30
0.0
 10
1349.494804173888
 20
1358.266553884206
 30
0.0
  0
SPLINE
  5
87
330
1F
100
AcDbEntity
  8
LINEE VISIBILI 2D
100
AcDbSpline
210
0.0
220
0.0
230
1.0
 70
    24
 71
     2
 72
     6
 73
     3
 74
     0
 42
0.0000000001
 43
0.0000000001
 40
0.0
 40
0.0
 40
0.0
 40
12.33870056611243
 40
12.33870056611243
 40
12.33870056611243
 10
1349.494804173888
 20
1358.266553884206
 30
0.0
 10
1345.821962597558
 20
1353.309627652132
 30
0.0
 10
1342.149121021228
 20
1348.352701420058
 30
0.0
  0
SPLINE
  5
88
330
1F
100
AcDbEntity
  8
LINEE VISIBILI 2D
100
AcDbSpline
210
0.0
220
0.0
230
1.0
 70
    24
 71
     2
 72
     6
 73
     3
 74
     0
 42
0.0000000001
 43
0.0000000001
 40
0.0
 40
0.0
 40
0.0
 40
31.89955026688374
 40
31.89955026688374
 40
31.89955026688374
 10
1342.149121021228
 20
1348.352701420058
 30
0.0
 10
1330.835915504826
 20
1337.109627652132
 30
0.0
 10
1319.522709988425
 20
1325.866553884206
 30
0.0
  0
SPLINE
  5
89
330
1F
100
AcDbEntity
  8
LINEE VISIBILI 2D
100
AcDbSpline
210
0.0
220
0.0
230
1.0
 70
    24
 71
     2
 72
     6
 73
     3
 74
     0
 42
0.0000000001
 43
0.0000000001
 40
0.0
 40
0.0
 40
0.0
 40
155.0279058145363
 40
155.0279058145363
 40
155.0279058145363
 10
1319.522709988425
 20
1325.866553884206
 30
0.0
 10
1242.008757081157
 20
1325.866553884206
 30
0.0
 10
1164.494804173888
 20
1325.866553884206
 30
0.0
  0
SPLINE
  5
8A
330
1F
100
AcDbEntity
  8
LINEE VISIBILI 2D
100
AcDbSpline
210
0.0
220
0.0
230
1.0
 70
    24
 71
     2
 72
     6
 73
     3
 74
     0
 42
0.0000000001
 43
0.0000000001
 40
0.0
 40
0.0
 40
0.0
 40
155.0279058145363
 40
155.0279058145363
 40
155.0279058145363
 10
1164.494804173888
 20
1325.866553884206
 30
0.0
 10
1086.98085126662
 20
1325.866553884206
 30
0.0
 10
1009.466898359352
 20
1325.866553884206
 30
0.0
  0
SPLINE
  5
8B
330
1F
100
AcDbEntity
  8
LINEE VISIBILI 2D
100
AcDbSpline
210
0.0
220
0.0
230
1.0
 70
    24
 71
     2
 72
     6
 73
     3
 74
     0
 42
0.0000000001
 43
0.0000000001
 40
0.0
 40
0.0
 40
0.0
 40
31.89955026688374
 40
31.89955026688374
 40
31.89955026688374
 10
1009.466898359352
 20
1325.866553884206
 30
0.0
 10
998.1536928429504
 20
1337.109627652132
 30
0.0
 10
986.8404873265488
 20
1348.352701420058
 30
0.0
  0
SPLINE
  5
8C
330
1F
100
AcDbEntity
  8
LINEE VISIBILI 2D
100
AcDbSpline
210
0.0
220
0.0
230
1.0
 70
    24
 71
     2
 72
     6
 73
     3
 74
     0
 42
0.0000000001
 43
0.0000000001
 40
0.0
 40
0.0
 40
0.0
 40
12.33870056611243
 40
12.33870056611243
 40
12.33870056611243
 10
986.8404873265488
 20
1348.352701420058
 30
0.0
 10
983.1676457502185
 20
1353.309627652132
 30
0.0
 10
979.4948041738883
 20
1358.266553884206
 30
0.0
  0
SPLINE
  5
8D
330
1F
100
AcDbEntity
  8
LINEE VISIBILI 2D
100
AcDbSpline
210
0.0
220
0.0
230
1.0
 70
    24
 71
     2
 72
     6
 73
     3
 74
     0
 42
0.0000000001
 43
0.0000000001
 40
0.0
 40
0.0
 40
0.0
 40
3.200000000000273
 40
3.200000000000273
 40
3.200000000000273
 10
1282.770482661452
 20
1325.766553884207
 30
0.0
 10
1282.770482661452
 20
1324.166553884206
 30
0.0
 10
1282.770482661452
 20
1322.566553884206
 30
0.0
  0
SPLINE
  5
8E
330
1F
100
AcDbEntity
  8
LINEE VISIBILI 2D
100
AcDbSpline
210
0.0
220
0.0
230
1.0
 70
    24
 71
     2
 72
     6
 73
     3
 74
     0
 42
0.0000000001
 43
0.0000000001
 40
0.0
 40
0.0
 40
0.0
 40
23.5
 40
23.5
 40
23.5
 10
1282.770482661452
 20
1322.566553884206
 30
0.0
 10
1294.520482661452
 20
1322.566553884206
 30
0.0
 10
1306.270482661452
 20
1322.566553884206
 30
0.0
  0
SPLINE
  5
8F
330
1F
100
AcDbEntity
  8
LINEE VISIBILI 2D
100
AcDbSpline
210
0.0
220
0.0
230
1.0
 70
    24
 71
     2
 72
     6
 73
     3
 74
     0
 42
0.0000000001
 43
0.0000000001
 40
-3.200000000000273
 40
-3.200000000000273
 40
-3.200000000000273
 40
0.0
 40
0.0
 40
0.0
 10
1306.270482661452
 20
1322.566553884206
 30
0.0
 10
1306.270482661452
 20
1324.166553884206
 30
0.0
 10
1306.270482661452
 20
1325.766553884207
 30
0.0
  0
SPLINE
  5
90
330
1F
100
AcDbEntity
  8
LINEE VISIBILI 2D
100
AcDbSpline
210
0.0
220
0.0
230
1.0
 70
    24
 71
     2
 72
     6
 73
     3
 74
     0
 42
0.0000000001
 43
0.0000000001
 40
0.0
 40
0.0
 40
0.0
 40
3.200000000000273
 40
3.200000000000273
 40
3.200000000000273
 10
1217.752943928281
 20
1325.766553884207
 30
0.0
 10
1217.752943928281
 20
1324.166553884206
 30
0.0
 10
1217.752943928281
 20
1322.566553884206
 30
0.0
  0
SPLINE
  5
91
330
1F
100
AcDbEntity
  8
LINEE VISIBILI 2D
100
AcDbSpline
210
0.0
220
0.0
230
1.0
 70
    24
 71
     2
 72
     6
 73
     3
 74
     0
 42
0.0000000001
 43
0.0000000001
 40
0.0
 40
0.0
 40
0.0
 40
17.62500000000023
 40
17.62500000000023
 40
17.62500000000023
 10
1217.752943928281
 20
1322.566553884206
 30
0.0
 10
1226.571003483981
 20
1322.566553884206
 30
0.0
 10
1235.389063039681
 20
1322.566553884206
 30
0.0
  0
SPLINE
  5
92
330
1F
100
AcDbEntity
  8
LINEE VISIBILI 2D
100
AcDbSpline
210
0.0
220
0.0
230
1.0
 70
    24
 71
     2
 72
     6
 73
     3
 74
     0
 42
0.0000000001
 43
0.0000000001
 40
0.0
 40
0.0
 40
0.0
 40
5.748894803641178
 40
5.748894803641178
 40
5.748894803641178
 10
1235.389063039681
 20
1322.566553884206
 30
0.0
 10
1238.295036740591
 20
1322.566553884206
 30
0.0
 10
1241.201010441501
 20
1322.566553884206
 30
0.0
  0
SPLINE
  5
93
330
1F
100
AcDbEntity
  8
LINEE VISIBILI 2D
100
AcDbSpline
210
0.0
220
0.0
230
1.0
 70
    24
 71
     2
 72
     6
 73
     3
 74
     0
 42
0.0000000001
 43
0.0000000001
 40
-3.200000000000273
 40
-3.200000000000273
 40
-3.200000000000273
 40
0.0
 40
0.0
 40
0.0
 10
1241.201010441501
 20
1322.566553884206
 30
0.0
 10
1241.226977184891
 20
1324.166553884206
 30
0.0
 10
1241.252943928281
 20
1325.766553884207
 30
0.0
  0
SPLINE
  5
94
330
1F
100
AcDbEntity
  8
LINEE VISIBILI 2D
100
AcDbSpline
210
0.0
220
0.0
230
1.0
 70
    24
 71
     2
 72
     6
 73
     3
 74
     0
 42
0.0000000001
 43
0.0000000001
 40
0.0
 40
0.0
 40
0.0
 40
3.200000000000273
 40
3.200000000000273
 40
3.200000000000273
 10
1022.744804173888
 20
1325.766553884207
 30
0.0
 10
1022.744804173888
 20
1324.166553884206
 30
0.0
 10
1022.744804173888
 20
1322.566553884206
 30
0.0
  0
SPLINE
  5
95
330
1F
100
AcDbEntity
  8
LINEE VISIBILI 2D
100
AcDbSpline
210
0.0
220
0.0
230
1.0
 70
    24
 71
     2
 72
     6
 73
     3
 74
     0
 42
0.0000000001
 43
0.0000000001
 40
0.0
 40
0.0
 40
0.0
 40
23.5
 40
23.5
 40
23.5
 10
1022.744804173888
 20
1322.566553884206
 30
0.0
 10
1034.494804173888
 20
1322.566553884206
 30
0.0
 10
1046.244804173888
 20
1322.566553884206
 30
0.0
  0
SPLINE
  5
96
330
1F
100
AcDbEntity
  8
LINEE VISIBILI 2D
100
AcDbSpline
210
0.0
220
0.0
230
1.0
 70
    24
 71
     2
 72
     6
 73
     3
 74
     0
 42
0.0000000001
 43
0.0000000001
 40
-3.200000000000273
 40
-3.200000000000273
 40
-3.200000000000273
 40
0.0
 40
0.0
 40
0.0
 10
1046.244804173888
 20
1322.566553884206
 30
0.0
 10
1046.244804173888
 20
1324.166553884206
 30
0.0
 10
1046.244804173888
 20
1325.766553884207
 30
0.0
  0
CIRCLE
  5
97
330
1F
100
AcDbEntity
  8
PREDEFINITO
100
AcDbCircle
 10
1164.507643423206
 20
274.7647964463768
 30
0.0
 40
51.49602775016507
  0
SPLINE
  5
98
330
1F
100
AcDbEntity
  8
LINEE VISIBILI 2D
100
AcDbSpline
210
0.0
220
0.0
230
1.0
 70
    12
 71
     2
 72
     8
 73
     5
 74
     0
 42
0.0000000001
 43
0.0000000001
 40
3.237802608589782
 40
3.237802608589782
 40
3.237802608589782
 40
4.71238898038469
 40
4.71238898038469
 40
6.169231178864607
 40
6.169231178864607
 40
6.169231178864607
 10
1207.043856607873
 20
325.6081555228337
 30
0.0
 41
0.9663186270904521
 10
1223.984589074967
 20
333.2121785939459
 30
0.0
 41
0.7250462447065201
 10
1234.691614699527
 20
314.667066214266
 30
0.0
 41
1.0
 10
1245.221747025925
 20
296.4283420145219
 30
0.0
 41
0.7283548519070577
 10
1230.613853040185
 20
285.4523600652857
 30
0.0
 41
0.9605867603152771
  0
SPLINE
  5
99
330
1F
100
AcDbEntity
  8
LINEE VISIBILI 2D
100
AcDbSpline
210
0.0
220
0.0
230
1.0
 70
    12
 71
     2
 72
     8
 73
     5
 74
     0
 42
0.0000000001
 43
0.0000000001
 40
3.688423546810599
 40
3.688423546810599
 40
3.688423546810599
 40
4.71238898038469
 40
4.71238898038469
 40
5.722197418306211
 40
5.722197418306211
 40
5.722197418306211
 10
1208.213277033815
 20
322.6132073121663
 30
0.0
 41
0.8670654417471869
 10
1220.20818125503
 20
321.6923735503529
 30
0.0
 41
0.8090697522796103
 10
1226.871086927376
 20
310.1518823998098
 30
0.0
 41
1.0
 10
1233.420504886597
 20
298.807957734436
 30
0.0
 41
0.8117094885424713
 10
1228.466234721049
 20
288.0445594001056
 30
0.0
 41
0.8655093665351568
  0
SPLINE
  5
9A
330
1F
100
AcDbEntity
  8
LINEE VISIBILI 2D
100
AcDbSpline
210
0.0
220
0.0
230
1.0
 70
    12
 71
     2
 72
     8
 73
     5
 74
     0
 42
0.0000000001
 43
0.0000000001
 40
3.269170067940543
 40
3.269170067940543
 40
3.269170067940543
 40
4.71238898038469
 40
4.71238898038469
 40
6.153004117988111
 40
6.153004117988111
 40
6.153004117988111
 10
1187.181380974627
 20
211.9026140934841
 30
0.0
 41
0.9562875080091808
 10
1184.743592867988
 20
194.0214403911428
 30
0.0
 41
0.7308950718132086
 10
1163.95277819378
 20
194.0214403911428
 30
0.0
 41
1.0
 10
1143.213249575307
 20
194.0214403911428
 30
0.0
 41
0.7313805758732554
 10
1140.730971124709
 20
211.8532870638128
 30
0.0
 41
0.9554758367125786
  0
SPLINE
  5
9B
330
1F
100
AcDbEntity
  8
LINEE VISIBILI 2D
100
AcDbSpline
210
0.0
220
0.0
230
1.0
 70
    12
 71
     2
 72
     8
 73
     5
 74
     0
 42
0.0000000001
 43
0.0000000001
 40
3.71755015636781
 40
3.71755015636781
 40
3.71755015636781
 40
4.71238898038469
 40
4.71238898038469
 40
5.705092014515258
 40
5.705092014515258
 40
5.705092014515258
 10
1183.702961854005
 20
212.456143947668
 30
0.0
 41
0.8639674861078793
 10
1176.813210506827
 20
203.0518080200552
 30
0.0
 41
0.814500746916414
 10
1163.95277819378
 20
203.0518080200552
 30
0.0
 41
1.0
 10
1151.126226987509
 20
203.0518080200553
 30
0.0
 41
0.8148989897463979
 10
1144.230535887275
 20
212.4180983781923
 30
0.0
 41
0.8637561717357256
  0
SPLINE
  5
9C
330
1F
100
AcDbEntity
  8
LINEE VISIBILI 2D
100
AcDbSpline
210
0.0
220
0.0
230
1.0
 70
    12
 71
     2
 72
     8
 73
     5
 74
     0
 42
0.0000000001
 43
0.0000000001
 40
3.286238055165251
 40
3.286238055165251
 40
3.286238055165251
 40
4.71238898038469
 40
4.71238898038469
 40
6.12166490890657
 40
6.12166490890657
 40
6.12166490890657
 10
1098.45442919814
 20
286.7515308676794
 30
0.0
 41
0.9510255375312482
 10
1084.612087157451
 20
297.8905840548426
 30
0.0
 41
0.7340775962637923
 10
1094.840019628357
 20
315.6058827508355
 30
0.0
 41
1.0
 10
1104.903792412151
 20
333.036848528195
 30
0.0
 41
0.7372241353891409
 10
1121.331200506364
 20
327.0176898606304
 30
0.0
 41
0.9459590507254553
  0
SPLINE
  5
9D
330
1F
100
AcDbEntity
  8
LINEE VISIBILI 2D
100
AcDbSpline
210
0.0
220
0.0
230
1.0
 70
    12
 71
     2
 72
     8
 73
     5
 74
     0
 42
0.0000000001
 43
0.0000000001
 40
3.735336458208341
 40
3.735336458208341
 40
3.735336458208341
 40
4.71238898038469
 40
4.71238898038469
 40
5.675087588266093
 40
5.675087588266093
 40
5.675087588266093
 10
1100.774597552564
 20
289.6463636844594
 30
0.0
 41
0.8622738017141667
 10
1096.370904356133
 20
300.1967176220493
 30
0.0
 41
0.8178172094698315
 10
1102.660547400508
 20
311.0906989363793
 30
0.0
 41
1.0
 10
1108.837573638885
 20
321.7896222209346
 30
0.0
 41
0.8204936635006332
 10
1119.972701658023
 20
323.402862686202
 30
0.0
 41
0.8610164896699102
  0
SPLINE
  5
9E
330
1F
100
AcDbEntity
  8
LINEE VISIBILI 2D
100
AcDbSpline
210
0.0
220
0.0
230
1.0
 70
    15
 71
     2
 72
    12
 73
     9
 74
     0
 42
0.0000000001
 43
0.0000000001
 40
0.0
 40
0.0
 40
0.0
 40
231.8423294283425
 40
231.8423294283425
 40
463.684658856685
 40
463.684658856685
 40
695.5269882850275
 40
695.5269882850275
 40
927.36931771337
 40
927.36931771337
 40
927.36931771337
 10
1164.494804173888
 20
127.1703350900161
 30
0.0
 41
1.0
 10
1016.900308170238
 20
126.6538375884482
 30
0.0
 41
0.707106855412886
 10
1016.383779682121
 20
274.2483334836591
 30
0.0
 41
1.0
 10
1015.867251194004
 20
421.84282937887
 30
0.0
 41
0.707106855412886
 10
1163.461746980769
 20
422.3593888535366
 30
0.0
 41
1.0
 10
1311.056242767535
 20
422.8759483282032
 30
0.0
 41
0.707106855412886
 10
1311.572833228751
 20
275.2814526498893
 30
0.0
 41
1.0
 10
1312.089423689967
 20
127.6869569715752
 30
0.0
 41
0.707106855412886
 10
1164.494804173888
 20
127.1703350900161
 30
0.0
 41
1.0
  0
SPLINE
  5
9F
330
1F
100
AcDbEntity
  8
LINEE VISIBILI 2D
100
AcDbSpline
210
0.0
220
0.0
230
1.0
 70
    12
 71
     2
 72
     8
 73
     5
 74
     0
 42
0.0000000001
 43
0.0000000001
 40
0.0
 40
0.0
 40
0.0
 40
19.47787445225659
 40
19.47787445225659
 40
38.95470089964034
 40
38.95470089964034
 40
38.95470089964034
 10
1164.50764341767
 20
262.364796451913
 30
0.0
 41
1.0
 10
1176.90764341767
 20
262.364796451913
 30
0.0
 41
0.7071067811865427
 10
1176.90764341767
 20
274.764796451913
 30
0.0
 41
1.0
 10
1176.90764341767
 20
287.1637484913244
 30
0.0
 41
0.7071366616580899
 10
1164.508167420106
 20
287.1647964297695
 30
0.0
 41
1.0
  0
SPLINE
  5
A0
330
1F
100
AcDbEntity
  8
LINEE VISIBILI 2D
100
AcDbSpline
210
0.0
220
0.0
230
1.0
 70
    12
 71
     2
 72
     8
 73
     5
 74
     0
 42
0.0000000001
 43
0.0000000001
 40
0.0
 40
0.0
 40
0.0
 40
19.47787445225691
 40
19.47787445225691
 40
38.94301103961388
 40
38.94301103961388
 40
38.94301103961388
 10
1164.508167420106
 20
287.1647964297695
 30
0.0
 41
1.0
 10
1152.10764341767
 20
287.1647964519134
 30
0.0
 41
0.7071067811865233
 10
1152.10764341767
 20
274.764796451913
 30
0.0
 41
1.0
 10
1152.10764341767
 20
262.3775277788221
 30
0.0
 41
0.7074698746196177
 10
1164.50764341767
 20
262.364796451913
 30
0.0
 41
1.0
  0
SPLINE
  5
A1
330
1F
100
AcDbEntity
  8
LINEE VISIBILI 2D
100
AcDbSpline
210
0.0
220
0.0
230
1.0
 70
    12
 71
     2
 72
     8
 73
     5
 74
     0
 42
0.0000000001
 43
0.0000000001
 40
0.0
 40
0.0
 40
0.0
 40
28.2743338823082
 40
28.2743338823082
 40
56.54866776461647
 40
56.54866776461647
 40
56.54866776461647
 10
1164.50764341767
 20
292.7647964519131
 30
0.0
 41
1.0
 10
1182.50764341767
 20
292.7647964519131
 30
0.0
 41
0.7071067811865375
 10
1182.50764341767
 20
274.764796451913
 30
0.0
 41
1.0
 10
1182.50764341767
 20
256.7647964519129
 30
0.0
 41
0.707106781186552
 10
1164.501223818072
 20
256.7647975966702
 30
0.0
 41
1.0
  0
SPLINE
  5
A2
330
1F
100
AcDbEntity
  8
LINEE VISIBILI 2D
100
AcDbSpline
210
0.0
220
0.0
230
1.0
 70
    12
 71
     2
 72
     8
 73
     5
 74
     0
 42
0.0000000001
 43
0.0000000001
 40
0.0
 40
0.0
 40
0.0
 40
28.26791428257357
 40
28.26791428257357
 40
56.54224816488199
 40
56.54224816488199
 40
56.54224816488199
 10
1164.501223818072
 20
256.7647975966702
 30
0.0
 41
1.0
 10
1146.50764341767
 20
256.7712149071625
 30
0.0
 41
0.7072328627906596
 10
1146.50764341767
 20
274.764796451913
 30
0.0
 41
1.0
 10
1146.50764341767
 20
292.7647964519132
 30
0.0
 41
0.707106781186542
 10
1164.50764341767
 20
292.7647964519131
 30
0.0
 41
1.0
  0
SPLINE
  5
A3
330
1F
100
AcDbEntity
  8
LINEE VISIBILI 2D
100
AcDbSpline
210
0.0
220
0.0
230
1.0
 70
    12
 71
     2
 72
    12
 73
     9
 74
     0
 42
0.0000000001
 43
0.0000000001
 40
0.0
 40
0.0
 40
0.0
 40
24.62223242250996
 40
24.62223242250996
 40
49.24446484502018
 40
49.24446484502018
 40
73.86669726753016
 40
73.86669726753016
 40
98.48892969004018
 40
98.48892969004018
 40
98.48892969004018
 10
1185.40764341767
 20
274.764796451913
 30
0.0
 41
1.0
 10
1185.40764341767
 20
260.7998629193996
 30
0.0
 41
0.8314696123025437
 10
1172.5057271541
 20
255.4557142224271
 30
0.0
 41
1.0
 10
1159.603810890531
 20
250.1115655254542
 30
0.0
 41
0.8314696123025397
 10
1149.729111690871
 20
259.986264725114
 30
0.0
 41
1.0
 10
1139.854412491211
 20
269.8609639247737
 30
0.0
 41
0.8314696123025404
 10
1145.198561188184
 20
282.7628801883432
 30
0.0
 41
1.0
 10
1150.542709885156
 20
295.6647964519132
 30
0.0
 41
0.8314696123025304
 10
1164.50764341767
 20
295.6647964519129
 30
0.0
 41
1.0
  0
SPLINE
  5
A4
330
1F
100
AcDbEntity
  8
LINEE VISIBILI 2D
100
AcDbSpline
210
0.0
220
0.0
230
1.0
 70
    12
 71
     2
 72
     6
 73
     3
 74
     0
 42
0.0000000001
 43
0.0000000001
 40
0.0
 40
0.0
 40
0.0
 40
32.82964323001305
 40
32.82964323001305
 40
32.82964323001305
 10
1164.50764341767
 20
295.6647964519129
 30
0.0
 41
1.0
 10
1185.40764341767
 20
295.6647964519127
 30
0.0
 41
0.7071067811865503
 10
1185.40764341767
 20
274.764796451913
 30
0.0
 41
1.0
  0
SPLINE
  5
A5
330
1F
100
AcDbEntity
  8
LINEE VISIBILI 2D
100
AcDbSpline
210
0.0
220
0.0
230
1.0
 70
    12
 71
     2
 72
     8
 73
     5
 74
     0
 42
0.0000000001
 43
0.0000000001
 40
0.0
 40
0.0
 40
0.0
 40
431.6129691440451
 40
431.6129691440451
 40
863.2259382880902
 40
863.2259382880902
 40
863.2259382880902
 10
1163.766068237155
 20
549.5466283471885
 30
0.0
 41
1.0
 10
888.99278552055
 20
549.3540995302856
 30
0.0
 41
0.7071067811865457
 10
889.1853143374544
 20
274.5808168136805
 30
0.0
 41
1.0
 10
889.3778476895636
 20
-0.1924658997468741
 30
0.0
 41
0.7071067811865457
 10
1164.151130402991
 20
0.0000674523637372
 30
0.0
 41
1.0
  0
SPLINE
  5
A6
330
1F
100
AcDbEntity
  8
LINEE VISIBILI 2D
100
AcDbSpline
210
0.0
220
0.0
230
1.0
 70
    12
 71
     2
 72
     8
 73
     5
 74
     0
 42
0.0000000001
 43
0.0000000001
 40
0.0
 40
0.0
 40
0.0
 40
431.6129691440414
 40
431.6129691440414
 40
863.2259382880827
 40
863.2259382880827
 40
863.2259382880827
 10
1164.151130402991
 20
0.0000674523637372
 30
0.0
 41
1.0
 10
1438.924413119592
 20
0.1925962692709947
 30
0.0
 41
0.7071067811865521
 10
1438.731884302688
 20
274.9658789858719
 30
0.0
 41
1.0
 10
1438.539350950578
 20
549.7391616992951
 30
0.0
 41
0.7071067811865519
 10
1163.766068237155
 20
549.5466283471885
 30
0.0
 41
1.0
  0
SPLINE
  5
A7
330
1F
100
AcDbEntity
  8
LINEE VISIBILI 2D
100
AcDbSpline
210
0.0
220
0.0
230
1.0
 70
    12
 71
     2
 72
     8
 73
     5
 74
     0
 42
0.0000000001
 43
0.0000000001
 40
0.0
 40
0.0
 40
0.0
 40
11.05543819761192
 40
11.05543819761192
 40
22.11087639522383
 40
22.11087639522383
 40
22.11087639522383
 10
1039.883463429934
 20
243.0302133734896
 30
0.0
 41
1.0
 10
1034.759418713305
 20
240.0681299780313
 30
0.0
 41
0.9038181063118486
 10
1029.220705854645
 20
242.1543783258977
 30
0.0
 41
1.0
 10
1023.681992995984
 20
244.240626673764
 30
0.0
 41
0.9038181063118486
 10
1021.785449555291
 20
249.847131402847
 30
0.0
 41
1.0
  0
SPLINE
  5
A8
330
1F
100
AcDbEntity
  8
LINEE VISIBILI 2D
100
AcDbSpline
210
0.0
220
0.0
230
1.0
 70
    12
 71
     2
 72
     6
 73
     3
 74
     0
 42
0.0000000001
 43
0.0000000001
 40
0.0
 40
0.0
 40
0.0
 40
1.484070478747504
 40
1.484070478747504
 40
1.484070478747504
 10
1021.785449555291
 20
249.847131402847
 30
0.0
 41
1.0
 10
1021.547401095173
 20
250.5508676728582
 30
0.0
 41
0.9982394102877975
 10
1021.394362590118
 20
251.2778415534514
 30
0.0
 41
1.0
  0
SPLINE
  5
A9
330
1F
100
AcDbEntity
  8
LINEE VISIBILI 2D
100
AcDbSpline
210
0.0
220
0.0
230
1.0
 70
    12
 71
     2
 72
     6
 73
     3
 74
     0
 42
0.0000000001
 43
0.0000000001
 40
-2.96363151666562
 40
-2.96363151666562
 40
-2.96363151666562
 40
0.0
 40
0.0
 40
0.0
 10
1021.394362590118
 20
251.2778415534514
 30
0.0
 41
1.0
 10
1021.182546018551
 20
252.7449242123562
 30
0.0
 41
0.9995153362907312
 10
1021.062437019337
 20
254.2223448079745
 30
0.0
 41
1.0
  0
SPLINE
  5
AA
330
1F
100
AcDbEntity
  8
LINEE VISIBILI 2D
100
AcDbSpline
210
0.0
220
0.0
230
1.0
 70
    12
 71
     2
 72
     6
 73
     3
 74
     0
 42
0.0000000001
 43
0.0000000001
 40
-94.82210261961717
 40
-94.82210261961717
 40
-94.82210261961717
 40
0.0
 40
0.0
 40
0.0
 10
1021.062437019337
 20
254.2223448079745
 30
0.0
 41
1.0
 10
1017.094734528568
 20
302.9687333169375
 30
0.0
 41
0.9547265332518092
 10
1041.518870015399
 20
345.3410669963907
 30
0.0
 41
1.0
  0
SPLINE
  5
AB
330
1F
100
AcDbEntity
  8
LINEE VISIBILI 2D
100
AcDbSpline
210
0.0
220
0.0
230
1.0
 70
    12
 71
     2
 72
     6
 73
     3
 74
     0
 42
0.0000000001
 43
0.0000000001
 40
-94.82202785317004
 40
-94.82202785317004
 40
-94.82202785317004
 40
0.0
 40
0.0
 40
0.0
 10
1041.518870015399
 20
345.3410669963907
 30
0.0
 41
1.0
 10
1065.942999059495
 20
387.7133397970648
 30
0.0
 41
0.9547270364924614
 10
1110.112986619351
 20
408.7123821756968
 30
0.0
 41
1.0
  0
SPLINE
  5
AC
330
1F
100
AcDbEntity
  8
LINEE VISIBILI 2D
100
AcDbSpline
210
0.0
220
0.0
230
1.0
 70
    12
 71
     2
 72
     6
 73
     3
 74
     0
 42
0.0000000001
 43
0.0000000001
 40
-2.966467921159224
 40
-2.966467921159224
 40
-2.966467921159224
 40
0.0
 40
0.0
 40
0.0
 10
1110.112986619351
 20
408.7123821756968
 30
0.0
 41
1.0
 10
1111.452915593066
 20
409.3495623823912
 30
0.0
 41
0.9995144091274062
 10
1112.829932364773
 20
409.9020414144263
 30
0.0
 41
1.0
  0
SPLINE
  5
AD
330
1F
100
AcDbEntity
  8
LINEE VISIBILI 2D
100
AcDbSpline
210
0.0
220
0.0
230
1.0
 70
    12
 71
     2
 72
     6
 73
     3
 74
     0
 42
0.0000000001
 43
0.0000000001
 40
0.0
 40
0.0
 40
0.0
 40
1.480860259590402
 40
1.480860259590402
 40
1.480860259590402
 10
1112.829932364773
 20
409.9020414144263
 30
0.0
 41
1.0
 10
1113.53407556694
 20
410.1337943768388
 30
0.0
 41
0.9982388715204114
 10
1114.26071068196
 20
410.2805202926384
 30
0.0
 41
1.0
  0
SPLINE
  5
AE
330
1F
100
AcDbEntity
  8
LINEE VISIBILI 2D
100
AcDbSpline
210
0.0
220
0.0
230
1.0
 70
    12
 71
     2
 72
     8
 73
     5
 74
     0
 42
0.0000000001
 43
0.0000000001
 40
0.0
 40
0.0
 40
0.0
 40
11.05825683258004
 40
11.05825683258004
 40
22.11651366516007
 40
22.11651366516007
 40
22.11651366516007
 10
1114.26071068196
 20
410.2805202926384
 30
0.0
 41
1.0
 10
1120.064069866365
 20
411.4535286675327
 30
0.0
 41
0.9036808209104288
 10
1124.647029617667
 20
407.7050081075323
 30
0.0
 41
1.0
 10
1129.229989368968
 20
403.9564875475318
 30
0.0
 41
0.9036808209104288
 10
1129.231205833451
 20
398.0357675751798
 30
0.0
 41
1.0
  0
SPLINE
  5
AF
330
1F
100
AcDbEntity
  8
LINEE VISIBILI 2D
100
AcDbSpline
210
0.0
220
0.0
230
1.0
 70
    24
 71
     2
 72
     6
 73
     3
 74
     0
 42
0.0000000001
 43
0.0000000001
 40
0.0
 40
0.0
 40
0.0
 40
25.35298768162562
 40
25.35298768162562
 40
25.35298768162562
 10
1129.231205833451
 20
398.0357675751798
 30
0.0
 10
1129.240088132646
 20
385.3592768462388
 30
0.0
 10
1129.24897043184
 20
372.6827861172978
 30
0.0
  0
SPLINE
  5
B0
330
1F
100
AcDbEntity
  8
LINEE VISIBILI 2D
100
AcDbSpline
210
0.0
220
0.0
230
1.0
 70
    12
 71
     2
 72
     6
 73
     3
 74
     0
 42
0.0000000001
 43
0.0000000001
 40
0.0
 40
0.0
 40
0.0
 40
141.3704061567242
 40
141.3704061567242
 40
141.3704061567242
 10
1129.24897043184
 20
372.6827861172978
 30
0.0
 41
1.0
 10
1129.299665210856
 20
294.7427776802926
 30
0.0
 41
0.8660505313668986
 10
1061.830907134942
 20
255.7220886959234
 30
0.0
 41
1.0
  0
SPLINE
  5
B1
330
1F
100
AcDbEntity
  8
LINEE VISIBILI 2D
100
AcDbSpline
210
0.0
220
0.0
230
1.0
 70
    24
 71
     2
 72
     6
 73
     3
 74
     0
 42
0.0000000001
 43
0.0000000001
 40
0.0
 40
0.0
 40
0.0
 40
25.35298768162602
 40
25.35298768162602
 40
25.35298768162602
 10
1061.830907134942
 20
255.7220886959234
 30
0.0
 10
1050.857185282438
 20
249.3761510347065
 30
0.0
 10
1039.883463429934
 20
243.0302133734896
 30
0.0
  0
SPLINE
  5
B2
330
1F
100
AcDbEntity
  8
LINEE VISIBILI 2D
100
AcDbSpline
210
0.0
220
0.0
230
1.0
 70
    12
 71
     2
 72
     8
 73
     5
 74
     0
 42
0.0000000001
 43
0.0000000001
 40
0.0
 40
0.0
 40
0.0
 40
11.05886462204842
 40
11.05886462204842
 40
22.11772924409683
 40
22.11772924409683
 40
22.11772924409683
 10
1253.479131377445
 20
183.1798631431036
 30
0.0
 41
1.0
 10
1258.611748719264
 20
180.2270617415829
 30
0.0
 41
0.9036052050593306
 10
1259.574814716452
 20
174.3845194200061
 30
0.0
 41
1.0
 10
1260.537880713641
 20
168.5419770984293
 30
0.0
 41
0.9036052050593306
 10
1256.624514041071
 20
164.0980646127501
 30
0.0
 41
1.0
  0
SPLINE
  5
B3
330
1F
100
AcDbEntity
  8
LINEE VISIBILI 2D
100
AcDbSpline
210
0.0
220
0.0
230
1.0
 70
    12
 71
     2
 72
     6
 73
     3
 74
     0
 42
0.0000000001
 43
0.0000000001
 40
0.0
 40
0.0
 40
0.0
 40
1.484071273239997
 40
1.484071273239997
 40
1.484071273239997
 10
1256.624514041071
 20
164.0980646127501
 30
0.0
 41
1.0
 10
1256.134084579427
 20
163.5400401141269
 30
0.0
 41
0.9982394104378223
 10
1255.581025741685
 20
163.0440176147301
 30
0.0
 41
1.0
  0
SPLINE
  5
B4
330
1F
100
AcDbEntity
  8
LINEE VISIBILI 2D
100
AcDbSpline
210
0.0
220
0.0
230
1.0
 70
    12
 71
     2
 72
     6
 73
     3
 74
     0
 42
0.0000000001
 43
0.0000000001
 40
-2.963630835791858
 40
-2.963630835791858
 40
-2.963630835791858
 40
0.0
 40
0.0
 40
0.0
 10
1255.581025741685
 20
163.0440176147301
 30
0.0
 41
1.0
 10
1254.416403430126
 20
162.1270379806948
 30
0.0
 41
0.9995153365126853
 10
1253.196974442244
 20
161.2843104319983
 30
0.0
 41
1.0
  0
SPLINE
  5
B5
330
1F
100
AcDbEntity
  8
LINEE VISIBILI 2D
100
AcDbSpline
210
0.0
220
0.0
230
1.0
 70
    12
 71
     2
 72
     6
 73
     3
 74
     0
 42
0.0000000001
 43
0.0000000001
 40
-94.8221026248286
 40
-94.8221026248286
 40
-94.8221026248286
 40
0.0
 40
0.0
 40
0.0
 10
1253.196974442244
 20
161.2843104319983
 30
0.0
 41
1.0
 10
1212.965214894734
 20
133.4749850228101
 30
0.0
 41
0.9547265332465038
 10
1164.057629764409
 20
133.4407399801808
 30
0.0
 41
1.0
  0
SPLINE
  5
B6
330
1F
100
AcDbEntity
  8
LINEE VISIBILI 2D
100
AcDbSpline
210
0.0
220
0.0
230
1.0
 70
    12
 71
     2
 72
     6
 73
     3
 74
     0
 42
0.0000000001
 43
0.0000000001
 40
-94.8220278510175
 40
-94.8220278510175
 40
-94.8220278510175
 40
0.0
 40
0.0
 40
0.0
 10
1164.057629764409
 20
133.4407399801808
 30
0.0
 41
1.0
 10
1115.150100582076
 20
133.4065197973484
 30
0.0
 41
0.9547270364945809
 10
1074.87940264769
 20
161.1593299184706
 30
0.0
 41
1.0
  0
SPLINE
  5
B7
330
1F
100
AcDbEntity
  8
LINEE VISIBILI 2D
100
AcDbSpline
210
0.0
220
0.0
230
1.0
 70
    12
 71
     2
 72
     6
 73
     3
 74
     0
 42
0.0000000001
 43
0.0000000001
 40
-2.96646819813235
 40
-2.96646819813235
 40
-2.96646819813235
 40
0.0
 40
0.0
 40
0.0
 10
1074.87940264769
 20
161.1593299184706
 30
0.0
 41
1.0
 10
1073.657623800864
 20
162.0011524242283
 30
0.0
 41
0.9995144090365868
 10
1072.490654434487
 20
162.9174445063104
 30
0.0
 41
1.0
  0
SPLINE
  5
B8
330
1F
100
AcDbEntity
  8
LINEE VISIBILI 2D
100
AcDbSpline
210
0.0
220
0.0
230
1.0
 70
    12
 71
     2
 72
     6
 73
     3
 74
     0
 42
0.0000000001
 43
0.0000000001
 40
0.0
 40
0.0
 40
0.0
 40
1.480859936186744
 40
1.480859936186744
 40
1.480859936186744
 10
1072.490654434487
 20
162.9174445063104
 30
0.0
 41
1.0
 10
1071.937878979359
 20
163.411373793711
 30
0.0
 41
0.9982388714948098
 10
1071.447493134288
 20
163.9672951619796
 30
0.0
 41
1.0
  0
SPLINE
  5
B9
330
1F
100
AcDbEntity
  8
LINEE VISIBILI 2D
100
AcDbSpline
210
0.0
220
0.0
230
1.0
 70
    12
 71
     2
 72
     8
 73
     5
 74
     0
 42
0.0000000001
 43
0.0000000001
 40
0.0
 40
0.0
 40
0.0
 40
11.05923414430271
 40
11.05923414430271
 40
22.11846828860543
 40
22.11846828860543
 40
22.11846828860543
 10
1071.447493134288
 20
163.9672951619796
 30
0.0
 41
1.0
 10
1067.528173535098
 20
168.4061330560832
 30
0.0
 41
0.9036201144635535
 10
1068.483136000017
 20
174.2501380750166
 30
0.0
 41
1.0
 10
1069.438098464936
 20
180.09414309395
 30
0.0
 41
0.9036201144635535
 10
1074.566512509337
 20
183.0545007344912
 30
0.0
 41
1.0
  0
SPLINE
  5
BA
330
1F
100
AcDbEntity
  8
LINEE VISIBILI 2D
100
AcDbSpline
210
0.0
220
0.0
230
1.0
 70
    24
 71
     2
 72
     6
 73
     3
 74
     0
 42
0.0000000001
 43
0.0000000001
 40
0.0
 40
0.0
 40
0.0
 40
25.35298768162555
 40
25.35298768162555
 40
25.35298768162555
 10
1074.566512509337
 20
183.0545007344912
 30
0.0
 10
1085.540234361841
 20
189.4004383957083
 30
0.0
 10
1096.513956214344
 20
195.7463760569253
 30
0.0
  0
SPLINE
  5
BB
330
1F
100
AcDbEntity
  8
LINEE VISIBILI 2D
100
AcDbSpline
210
0.0
220
0.0
230
1.0
 70
    12
 71
     2
 72
     6
 73
     3
 74
     0
 42
0.0000000001
 43
0.0000000001
 40
0.0
 40
0.0
 40
0.0
 40
70.69060178085432
 40
70.69060178085432
 40
70.69060178085432
 10
1096.513956214344
 20
195.7463760569253
 30
0.0
 41
1.0
 10
1127.820667529458
 20
213.8826815981579
 30
0.0
 41
0.9657267010914964
 10
1164.001266558048
 20
213.880235119251
 30
0.0
 41
1.0
  0
SPLINE
  5
BC
330
1F
100
AcDbEntity
  8
LINEE VISIBILI 2D
100
AcDbSpline
210
0.0
220
0.0
230
1.0
 70
    12
 71
     2
 72
     6
 73
     3
 74
     0
 42
0.0000000001
 43
0.0000000001
 40
0.0
 40
0.0
 40
0.0
 40
70.6910208317919
 40
70.6910208317919
 40
70.6910208317919
 10
1164.001266558048
 20
213.880235119251
 30
0.0
 41
1.0
 10
1200.182478576657
 20
213.9358243208509
 30
0.0
 41
0.9657092019402836
 10
1231.513923074049
 20
195.8409692785513
 30
0.0
 41
1.0
  0
SPLINE
  5
BD
330
1F
100
AcDbEntity
  8
LINEE VISIBILI 2D
100
AcDbSpline
210
0.0
220
0.0
230
1.0
 70
    24
 71
     2
 72
     6
 73
     3
 74
     0
 42
0.0000000001
 43
0.0000000001
 40
0.0
 40
0.0
 40
0.0
 40
25.35298768162567
 40
25.35298768162567
 40
25.35298768162567
 10
1231.513923074049
 20
195.8409692785513
 30
0.0
 10
1242.496527225747
 20
189.5104162108274
 30
0.0
 10
1253.479131377445
 20
183.1798631431036
 30
0.0
  0
SPLINE
  5
BE
330
1F
100
AcDbEntity
  8
LINEE VISIBILI 2D
100
AcDbSpline
210
0.0
220
0.0
230
1.0
 70
    12
 71
     2
 72
     8
 73
     5
 74
     0
 42
0.0000000001
 43
0.0000000001
 40
0.0
 40
0.0
 40
0.0
 40
11.0577886948567
 40
11.0577886948567
 40
22.1155773897134
 40
22.1155773897134
 40
22.1155773897134
 10
1198.5132211286
 20
398.0843128391468
 30
0.0
 41
1.0
 10
1198.505962915121
 20
404.0048171710743
 30
0.0
 41
0.9036720516953929
 10
1203.083542736752
 20
407.7595724497347
 30
0.0
 41
1.0
 10
1207.661122558384
 20
411.514327728395
 30
0.0
 41
0.9036720516953929
 10
1213.465852236528
 20
410.3491935774462
 30
0.0
 41
1.0
  0
SPLINE
  5
BF
330
1F
100
AcDbEntity
  8
LINEE VISIBILI 2D
100
AcDbSpline
210
0.0
220
0.0
230
1.0
 70
    12
 71
     2
 72
     6
 73
     3
 74
     0
 42
0.0000000001
 43
0.0000000001
 40
0.0
 40
0.0
 40
0.0
 40
1.484070559347367
 40
1.484070559347367
 40
1.484070559347367
 10
1213.465852236528
 20
410.3491935774462
 30
0.0
 41
1.0
 10
1214.194329995074
 20
410.2034814560062
 30
0.0
 41
0.9982394103043029
 10
1214.900427136987
 20
409.9725297441441
 30
0.0
 41
1.0
  0
SPLINE
  5
C0
330
1F
100
AcDbEntity
  8
LINEE VISIBILI 2D
100
AcDbSpline
210
0.0
220
0.0
230
1.0
 70
    12
 71
     2
 72
     6
 73
     3
 74
     0
 42
0.0000000001
 43
0.0000000001
 40
-2.963631447606159
 40
-2.963631447606159
 40
-2.963631447606159
 40
0.0
 40
0.0
 40
0.0
 10
1214.900427136987
 20
409.9725297441441
 30
0.0
 41
1.0
 10
1216.276866241946
 20
409.4224269574515
 30
0.0
 41
0.999515336312978
 10
1217.61640447819
 20
408.7877341189662
 30
0.0
 41
1.0
  0
SPLINE
  5
C1
330
1F
100
AcDbEntity
  8
LINEE VISIBILI 2D
100
AcDbSpline
210
0.0
220
0.0
230
1.0
 70
    12
 71
     2
 72
     6
 73
     3
 74
     0
 42
0.0000000001
 43
0.0000000001
 40
-94.82210262011719
 40
-94.82210262011719
 40
-94.82210262011719
 40
0.0
 40
0.0
 40
0.0
 10
1217.61640447819
 20
408.7877341189662
 30
0.0
 41
1.0
 10
1261.815866515424
 20
387.8506710162141
 30
0.0
 41
0.9547265332511344
 10
1286.299316156172
 20
345.5125823791668
 30
0.0
 41
1.0
  0
SPLINE
  5
C2
330
1F
100
AcDbEntity
  8
LINEE VISIBILI 2D
100
AcDbSpline
210
0.0
220
0.0
230
1.0
 70
    12
 71
     2
 72
     6
 73
     3
 74
     0
 42
0.0000000001
 43
0.0000000001
 40
-94.82202785173443
 40
-94.82202785173443
 40
-94.82202785173443
 40
0.0
 40
0.0
 40
0.0
 10
1286.299316156172
 20
345.5125823791668
 30
0.0
 41
1.0
 10
1310.782716295192
 20
303.1745297620138
 30
0.0
 41
0.9547270364938758
 10
1306.883426670827
 20
254.4226772617701
 30
0.0
 41
1.0
  0
SPLINE
  5
C3
330
1F
100
AcDbEntity
  8
LINEE VISIBILI 2D
100
AcDbSpline
210
0.0
220
0.0
230
1.0
 70
    12
 71
     2
 72
     6
 73
     3
 74
     0
 42
0.0000000001
 43
0.0000000001
 40
-2.966468107866143
 40
-2.966468107866143
 40
-2.966468107866143
 40
0.0
 40
0.0
 40
0.0
 10
1306.883426670827
 20
254.4226772617701
 30
0.0
 41
1.0
 10
1306.765276422352
 20
252.9436745347695
 30
0.0
 41
0.9995144090663415
 10
1306.55522889435
 20
251.4749034213314
 30
0.0
 41
1.0
  0
SPLINE
  5
C4
330
1F
100
AcDbEntity
  8
LINEE VISIBILI 2D
100
AcDbSpline
210
0.0
220
0.0
230
1.0
 70
    12
 71
     2
 72
     6
 73
     3
 74
     0
 42
0.0000000001
 43
0.0000000001
 40
0.0
 40
0.0
 40
0.0
 40
1.480860041774353
 40
1.480860041774353
 40
1.480860041774353
 10
1306.55522889435
 20
251.4749034213314
 30
0.0
 41
1.0
 10
1306.403861289934
 20
250.7492211413776
 30
0.0
 41
0.9982388714982199
 10
1306.167612157991
 20
250.046573811089
 30
0.0
 41
1.0
  0
SPLINE
  5
C5
330
1F
100
AcDbEntity
  8
LINEE VISIBILI 2D
100
AcDbSpline
210
0.0
220
0.0
230
1.0
 70
    12
 71
     2
 72
     8
 73
     5
 74
     0
 42
0.0000000001
 43
0.0000000001
 40
0.0
 40
0.0
 40
0.0
 40
11.05555207129528
 40
11.05555207129528
 40
22.11110414259056
 40
22.11110414259056
 40
22.11110414259056
 10
1306.167612157991
 20
250.046573811089
 30
0.0
 41
1.0
 10
1304.278083640783
 20
244.4377822702828
 30
0.0
 41
0.9038488889576718
 10
1298.742348992884
 20
242.3438619103826
 30
0.0
 41
1.0
 10
1293.206614344984
 20
240.2499415504825
 30
0.0
 41
0.9038488889576718
 10
1288.078097593191
 20
243.2041210460676
 30
0.0
 41
1.0
  0
SPLINE
  5
C6
330
1F
100
AcDbEntity
  8
LINEE VISIBILI 2D
100
AcDbSpline
210
0.0
220
0.0
230
1.0
 70
    24
 71
     2
 72
     6
 73
     3
 74
     0
 42
0.0000000001
 43
0.0000000001
 40
0.0
 40
0.0
 40
0.0
 40
25.35298768162516
 40
25.35298768162516
 40
25.35298768162516
 10
1288.078097593191
 20
243.2041210460676
 30
0.0
 10
1277.095493441493
 20
249.5346741137913
 30
0.0
 10
1266.112889289795
 20
255.865227181515
 30
0.0
  0
SPLINE
  5
C7
330
1F
100
AcDbEntity
  8
LINEE VISIBILI 2D
100
AcDbSpline
210
0.0
220
0.0
230
1.0
 70
    12
 71
     2
 72
     6
 73
     3
 74
     0
 42
0.0000000001
 43
0.0000000001
 40
0.0
 40
0.0
 40
0.0
 40
141.3717621368432
 40
141.3717621368432
 40
141.3717621368432
 10
1266.112889289795
 20
255.865227181515
 30
0.0
 41
1.0
 10
1198.585311753535
 20
294.7888979777902
 30
0.0
 41
0.8660235593933941
 10
1198.530985726989
 20
372.7313313812654
 30
0.0
 41
1.0
  0
SPLINE
  5
C8
330
1F
100
AcDbEntity
  8
LINEE VISIBILI 2D
100
AcDbSpline
210
0.0
220
0.0
230
1.0
 70
    24
 71
     2
 72
     6
 73
     3
 74
     0
 42
0.0000000001
 43
0.0000000001
 40
0.0
 40
0.0
 40
0.0
 40
25.35298768162517
 40
25.35298768162517
 40
25.35298768162517
 10
1198.530985726989
 20
372.7313313812654
 30
0.0
 10
1198.522103427794
 20
385.4078221102061
 30
0.0
 10
1198.5132211286
 20
398.0843128391468
 30
0.0
  0
SPLINE
  5
C9
330
1F
100
AcDbEntity
  8
LINEE VISIBILI 2D
100
AcDbSpline
210
0.0
220
0.0
230
1.0
 70
    15
 71
     2
 72
    12
 73
     9
 74
     0
 42
0.0000000001
 43
0.0000000001
 40
0.0
 40
0.0
 40
0.0
 40
239.5838937771103
 40
239.5838937771103
 40
479.1677875542206
 40
479.1677875542206
 40
718.7516813313309
 40
718.7516813313309
 40
958.3355751084413
 40
958.3355751084413
 40
958.3355751084413
 10
1164.494804173888
 20
122.2418915007902
 30
0.0
 41
1.0
 10
1011.971902633178
 20
121.7057296513294
 30
0.0
 41
0.7071067811865476
 10
1011.435740783717
 20
274.2286311920394
 30
0.0
 41
1.0
 10
1010.899578934257
 20
426.7515327327495
 30
0.0
 41
0.7071067811865476
 10
1163.422480474967
 20
427.2876945822102
 30
0.0
 41
1.0
 10
1315.945382015676
 20
427.8238564316709
 30
0.0
 41
0.7071067811865476
 10
1316.481543865137
 20
275.300954890961
 30
0.0
 41
1.0
 10
1317.017705714598
 20
122.778053350251
 30
0.0
 41
0.7071067811865476
 10
1164.494804173888
 20
122.2418915007902
 30
0.0
 41
1.0
  0
ENDSEC
  0
SECTION
  2
OBJECTS
  0
DICTIONARY
  5
C
330
0
100
AcDbDictionary
281
     1
  3
ACAD_GROUP
350
D
  3
ACAD_LAYOUT
350
1A
  3
ACAD_MLEADERSTYLE
350
CB
  3
ACAD_MLINESTYLE
350
17
  3
ACAD_PLOTSETTINGS
350
19
  3
ACAD_PLOTSTYLENAME
350
E
  3
ACAD_SCALELIST
350
3B
  3
ACAD_TABLESTYLE
350
CA
  3
ACAD_VISUALSTYLE
350
2A
  0
DICTIONARY
  5
D
102
{ACAD_REACTORS
330
C
102
}
330
C
100
AcDbDictionary
281
     1
  0
DICTIONARY
  5
1A
102
{ACAD_REACTORS
330
C
102
}
330
C
100
AcDbDictionary
281
     1
  3
Layout1
350
1E
  3
Layout2
350
26
  3
Model
350
22
  0
DICTIONARY
  5
CB
102
{ACAD_REACTORS
330
C
102
}
330
C
100
AcDbDictionary
281
     1
  0
DICTIONARY
  5
17
102
{ACAD_REACTORS
330
C
102
}
330
C
100
AcDbDictionary
281
     1
  3
Standard
350
18
  0
DICTIONARY
  5
19
102
{ACAD_REACTORS
330
C
102
}
330
C
100
AcDbDictionary
281
     1
  0
ACDBDICTIONARYWDFLT
  5
E
102
{ACAD_REACTORS
330
C
102
}
330
C
100
AcDbDictionary
281
     1
  3
Normal
350
F
100
AcDbDictionaryWithDefault
340
F
  0
DICTIONARY
  5
3B
102
{ACAD_REACTORS
330
C
102
}
330
C
100
AcDbDictionary
281
     1
  3
A0
350
3C
  3
A1
350
3D
  3
A2
350
3E
  3
A3
350
3F
  3
A4
350
40
  3
A5
350
41
  3
A6
350
42
  3
A7
350
43
  3
A8
350
44
  3
A9
350
45
  3
B0
350
46
  3
B1
350
47
  3
B2
350
48
  3
B3
350
49
  3
B4
350
4A
  3
B5
350
4B
  3
B6
350
4C
  3
B7
350
4D
  3
B8
350
4E
  3
B9
350
4F
  3
C0
350
50
  3
C1
350
51
  3
C2
350
52
  3
C3
350
53
  3
C4
350
54
  3
C5
350
55
  3
C6
350
56
  3
C7
350
57
  3
C8
350
58
  3
C9
350
59
  3
D0
350
5A
  3
D1
350
5B
  3
D2
350
5C
  0
DICTIONARY
  5
CA
102
{ACAD_REACTORS
330
C
102
}
330
C
100
AcDbDictionary
281
     1
  0
DICTIONARY
  5
2A
102
{ACAD_REACTORS
330
C
102
}
330
C
100
AcDbDictionary
281
     1
  3
2dWireframe
350
2F
  3
3D Hidden
350
31
  3
3dWireframe
350
30
  3
Basic
350
32
  3
Brighten
350
36
  3
ColorChange
350
3A
  3
Conceptual
350
34
  3
Dim
350
35
  3
Facepattern
350
39
  3
Flat
350
2B
  3
FlatWithEdges
350
2C
  3
Gouraud
350
2D
  3
GouraudWithEdges
350
2E
  3
Linepattern
350
38
  3
Realistic
350
33
  3
Thicken
350
37
  0
LAYOUT
  5
1E
102
{ACAD_REACTORS
330
1A
102
}
330
1A
100
AcDbPlotSettings
  1

  2
none_device
  4

  6

 40
0.0
 41
0.0
 42
0.0
 43
0.0
 44
0.0
 45
0.0
 46
0.0
 47
0.0
 48
0.0
 49
0.0
140
0.0
141
0.0
142
1.0
143
1.0
 70
   688
 72
     0
 73
     0
 74
     5
  7

 75
    16
 76
     0
 77
     2
 78
   300
147
1.0
148
0.0
149
0.0
100
AcDbLayout
  1
Layout1
 70
     1
 71
     1
 10
0.0
 20
0.0
 11
12.0
 21
9.0
 12
0.0
 22
0.0
 32
0.0
 14
1.000000000000000E+20
 24
1.000000000000000E+20
 34
1.000000000000000E+20
 15
-1.000000000000000E+20
 25
-1.000000000000000E+20
 35
-1.000000000000000E+20
146
0.0
 13
0.0
 23
0.0
 33
0.0
 16
1.0
 26
0.0
 36
0.0
 17
0.0
 27
1.0
 37
0.0
 76
     0
330
1B
  0
LAYOUT
  5
26
102
{ACAD_REACTORS
330
1A
102
}
330
1A
100
AcDbPlotSettings
  1

  2
none_device
  4

  6

 40
0.0
 41
0.0
 42
0.0
 43
0.0
 44
0.0
 45
0.0
 46
0.0
 47
0.0
 48
0.0
 49
0.0
140
0.0
141
0.0
142
1.0
143
1.0
 70
   688
 72
     0
 73
     0
 74
     5
  7

 75
    16
 76
     0
 77
     2
 78
   300
147
1.0
148
0.0
149
0.0
100
AcDbLayout
  1
Layout2
 70
     1
 71
     2
 10
0.0
 20
0.0
 11
0.0
 21
0.0
 12
0.0
 22
0.0
 32
0.0
 14
0.0
 24
0.0
 34
0.0
 15
0.0
 25
0.0
 35
0.0
146
0.0
 13
0.0
 23
0.0
 33
0.0
 16
1.0
 26
0.0
 36
0.0
 17
0.0
 27
1.0
 37
0.0
 76
     0
330
23
  0
LAYOUT
  5
22
102
{ACAD_REACTORS
330
1A
102
}
330
1A
100
AcDbPlotSettings
  1

  2
none_device
  4

  6

 40
0.0
 41
0.0
 42
0.0
 43
0.0
 44
0.0
 45
0.0
 46
0.0
 47
0.0
 48
0.0
 49
0.0
140
0.0
141
0.0
142
1.0
143
1.0
 70
  1712
 72
     0
 73
     0
 74
     0
  7

 75
     0
 76
     0
 77
     2
 78
   300
147
1.0
148
0.0
149
0.0
100
AcDbLayout
  1
Model
 70
     1
 71
     0
 10
0.0
 20
0.0
 11
12.0
 21
9.0
 12
0.0
 22
0.0
 32
0.0
 14
889.1853143374544
 24
0.0000674523636741
 34
0.0
 15
1438.731884302688
 25
3101.494565753273
 35
0.0
146
0.0
 13
0.0
 23
0.0
 33
0.0
 16
1.0
 26
0.0
 36
0.0
 17
0.0
 27
1.0
 37
0.0
 76
     0
330
1F
331
29
  0
MLINESTYLE
  5
18
102
{ACAD_REACTORS
330
17
102
}
330
17
100
AcDbMlineStyle
  2
Standard
 70
     0
  3

 62
   256
 51
90.0
 52
90.0
 71
     2
 49
0.5
 62
   256
  6
BYLAYER
 49
-0.5
 62
   256
  6
BYLAYER
  0
ACDBPLACEHOLDER
  5
F
102
{ACAD_REACTORS
330
E
102
}
330
E
  0
SCALE
  5
3C
102
{ACAD_REACTORS
330
3B
102
}
330
3B
100
AcDbScale
 70
     0
300
1:1
140
1.0
141
1.0
290
     1
  0
SCALE
  5
3D
102
{ACAD_REACTORS
330
3B
102
}
330
3B
100
AcDbScale
 70
     0
300
1:2
140
1.0
141
2.0
290
     0
  0
SCALE
  5
3E
102
{ACAD_REACTORS
330
3B
102
}
330
3B
100
AcDbScale
 70
     0
300
1:4
140
1.0
141
4.0
290
     0
  0
SCALE
  5
3F
102
{ACAD_REACTORS
330
3B
102
}
330
3B
100
AcDbScale
 70
     0
300
1:5
140
1.0
141
5.0
290
     0
  0
SCALE
  5
40
102
{ACAD_REACTORS
330
3B
102
}
330
3B
100
AcDbScale
 70
     0
300
1:8
140
1.0
141
8.0
290
     0
  0
SCALE
  5
41
102
{ACAD_REACTORS
330
3B
102
}
330
3B
100
AcDbScale
 70
     0
300
1:10
140
1.0
141
10.0
290
     0
  0
SCALE
  5
42
102
{ACAD_REACTORS
330
3B
102
}
330
3B
100
AcDbScale
 70
     0
300
1:16
140
1.0
141
16.0
290
     0
  0
SCALE
  5
43
102
{ACAD_REACTORS
330
3B
102
}
330
3B
100
AcDbScale
 70
     0
300
1:20
140
1.0
141
20.0
290
     0
  0
SCALE
  5
44
102
{ACAD_REACTORS
330
3B
102
}
330
3B
100
AcDbScale
 70
     0
300
1:30
140
1.0
141
30.0
290
     0
  0
SCALE
  5
45
102
{ACAD_REACTORS
330
3B
102
}
330
3B
100
AcDbScale
 70
     0
300
1:40
140
1.0
141
40.0
290
     0
  0
SCALE
  5
46
102
{ACAD_REACTORS
330
3B
102
}
330
3B
100
AcDbScale
 70
     0
300
1:50
140
1.0
141
50.0
290
     0
  0
SCALE
  5
47
102
{ACAD_REACTORS
330
3B
102
}
330
3B
100
AcDbScale
 70
     0
300
1:100
140
1.0
141
100.0
290
     0
  0
SCALE
  5
48
102
{ACAD_REACTORS
330
3B
102
}
330
3B
100
AcDbScale
 70
     0
300
2:1
140
2.0
141
1.0
290
     0
  0
SCALE
  5
49
102
{ACAD_REACTORS
330
3B
102
}
330
3B
100
AcDbScale
 70
     0
300
4:1
140
4.0
141
1.0
290
     0
  0
SCALE
  5
4A
102
{ACAD_REACTORS
330
3B
102
}
330
3B
100
AcDbScale
 70
     0
300
8:1
140
8.0
141
1.0
290
     0
  0
SCALE
  5
4B
102
{ACAD_REACTORS
330
3B
102
}
330
3B
100
AcDbScale
 70
     0
300
10:1
140
10.0
141
1.0
290
     0
  0
SCALE
  5
4C
102
{ACAD_REACTORS
330
3B
102
}
330
3B
100
AcDbScale
 70
     0
300
100:1
140
100.0
141
1.0
290
     0
  0
SCALE
  5
4D
102
{ACAD_REACTORS
330
3B
102
}
330
3B
100
AcDbScale
 70
     0
300
1/128" = 1'-0"
140
0.0078125
141
12.0
290
     0
  0
SCALE
  5
4E
102
{ACAD_REACTORS
330
3B
102
}
330
3B
100
AcDbScale
 70
     0
300
1/64" = 1'-0"
140
0.015625
141
12.0
290
     0
  0
SCALE
  5
4F
102
{ACAD_REACTORS
330
3B
102
}
330
3B
100
AcDbScale
 70
     0
300
1/32" = 1'-0"
140
0.03125
141
12.0
290
     0
  0
SCALE
  5
50
102
{ACAD_REACTORS
330
3B
102
}
330
3B
100
AcDbScale
 70
     0
300
1/16" = 1'-0"
140
0.0625
141
12.0
290
     0
  0
SCALE
  5
51
102
{ACAD_REACTORS
330
3B
102
}
330
3B
100
AcDbScale
 70
     0
300
3/32" = 1'-0"
140
0.09375
141
12.0
290
     0
  0
SCALE
  5
52
102
{ACAD_REACTORS
330
3B
102
}
330
3B
100
AcDbScale
 70
     0
300
1/8" = 1'-0"
140
0.125
141
12.0
290
     0
  0
SCALE
  5
53
102
{ACAD_REACTORS
330
3B
102
}
330
3B
100
AcDbScale
 70
     0
300
3/16" = 1'-0"
140
0.1875
141
12.0
290
     0
  0
SCALE
  5
54
102
{ACAD_REACTORS
330
3B
102
}
330
3B
100
AcDbScale
 70
     0
300
1/4" = 1'-0"
140
0.25
141
12.0
290
     0
  0
SCALE
  5
55
102
{ACAD_REACTORS
330
3B
102
}
330
3B
100
AcDbScale
 70
     0
300
3/8" = 1'-0"
140
0.375
141
12.0
290
     0
  0
SCALE
  5
56
102
{ACAD_REACTORS
330
3B
102
}
330
3B
100
AcDbScale
 70
     0
300
1/2" = 1'-0"
140
0.5
141
12.0
290
     0
  0
SCALE
  5
57
102
{ACAD_REACTORS
330
3B
102
}
330
3B
100
AcDbScale
 70
     0
300
3/4" = 1'-0"
140
0.75
141
12.0
290
     0
  0
SCALE
  5
58
102
{ACAD_REACTORS
330
3B
102
}
330
3B
100
AcDbScale
 70
     0
300
1" = 1'-0"
140
1.0
141
12.0
290
     0
  0
SCALE
  5
59
102
{ACAD_REACTORS
330
3B
102
}
330
3B
100
AcDbScale
 70
     0
300
1-1/2" = 1'-0"
140
1.5
141
12.0
290
     0
  0
SCALE
  5
5A
102
{ACAD_REACTORS
330
3B
102
}
330
3B
100
AcDbScale
 70
     0
300
3" = 1'-0"
140
3.0
141
12.0
290
     0
  0
SCALE
  5
5B
102
{ACAD_REACTORS
330
3B
102
}
330
3B
100
AcDbScale
 70
     0
300
6" = 1'-0"
140
6.0
141
12.0
290
     0
  0
SCALE
  5
5C
102
{ACAD_REACTORS
330
3B
102
}
330
3B
100
AcDbScale
 70
     0
300
1'-0" = 1'-0"
140
12.0
141
12.0
290
     0
  0
VISUALSTYLE
  5
2F
102
{ACAD_REACTORS
330
2A
102
}
330
2A
100
AcDbVisualStyle
  2
2dWireframe
 70
     4
 71
     0
 72
     2
 73
     0
 90
        0
 40
-0.6
 41
-30.0
 62
     5
 63
     7
421
 16777215
 74
     1
 91
        4
 64
     7
 65
   257
 75
     1
175
     1
 42
1.0
 92
        0
 66
   257
 43
1.0
 76
     1
 77
     6
 78
     2
 67
     7
 79
     5
170
     0
171
     0
290
     0
174
     0
 93
        1
 44
0.0
173
     0
291
     0
 45
0.0
1001
ACAD
1000
AcDbSavedByObjectVersion
1070
     0
  0
VISUALSTYLE
  5
31
102
{ACAD_REACTORS
330
2A
102
}
330
2A
100
AcDbVisualStyle
  2
3D Hidden
 70
     6
 71
     1
 72
     2
 73
     2
 90
        0
 40
-0.6
 41
-30.0
 62
     5
 63
     7
421
 16777215
 74
     2
 91
        2
 64
     7
 65
   257
 75
     2
175
     1
 42
40.0
 92
        0
 66
   257
 43
1.0
 76
     1
 77
     6
 78
     2
 67
     7
 79
     3
170
     0
171
     0
290
     0
174
     0
 93
        1
 44
0.0
173
     0
291
     0
 45
0.0
1001
ACAD
1000
AcDbSavedByObjectVersion
1070
     0
  0
VISUALSTYLE
  5
30
102
{ACAD_REACTORS
330
2A
102
}
330
2A
100
AcDbVisualStyle
  2
3dWireframe
 70
     5
 71
     0
 72
     2
 73
     0
 90
        0
 40
-0.6
 41
-30.0
 62
     5
 63
     7
421
 16777215
 74
     1
 91
        4
 64
     7
 65
   257
 75
     1
175
     1
 42
1.0
 92
        0
 66
   257
 43
1.0
 76
     1
 77
     6
 78
     2
 67
     7
 79
     5
170
     0
171
     0
290
     0
174
     0
 93
        1
 44
0.0
173
     0
291
     0
 45
0.0
1001
ACAD
1000
AcDbSavedByObjectVersion
1070
     0
  0
VISUALSTYLE
  5
32
102
{ACAD_REACTORS
330
2A
102
}
330
2A
100
AcDbVisualStyle
  2
Basic
 70
     7
 71
     1
 72
     0
 73
     1
 90
        0
 40
-0.6
 41
-30.0
 62
     5
 63
     7
421
 16777215
 74
     0
 91
        4
 64
     7
 65
   257
 75
     1
175
     1
 42
1.0
 92
        8
 66
     7
 43
1.0
 76
     1
 77
     6
 78
     2
 67
     7
 79
     5
170
     0
171
     0
290
     0
174
     0
 93
        1
 44
0.0
173
     0
291
     1
 45
0.0
1001
ACAD
1000
AcDbSavedByObjectVersion
1070
     0
  0
VISUALSTYLE
  5
36
102
{ACAD_REACTORS
330
2A
102
}
330
2A
100
AcDbVisualStyle
  2
Brighten
 70
    12
 71
     2
 72
     2
 73
     0
 90
        0
 40
-0.6
 41
-30.0
 62
     5
 63
     7
421
 16777215
 74
     1
 91
        4
 64
     7
 65
   257
 75
     1
175
     1
 42
1.0
 92
        8
 66
     7
 43
1.0
 76
     1
 77
     6
 78
     2
 67
     7
 79
     5
170
     0
171
     0
290
     0
174
     0
 93
        1
 44
50.0
173
     0
291
     1
 45
0.0
1001
ACAD
1000
AcDbSavedByObjectVersion
1070
     0
  0
VISUALSTYLE
  5
3A
102
{ACAD_REACTORS
330
2A
102
}
330
2A
100
AcDbVisualStyle
  2
ColorChange
 70
    16
 71
     2
 72
     2
 73
     3
 90
        0
 40
-0.6
 41
-30.0
 62
     5
 63
     8
421
  8421504
 74
     1
 91
        4
 64
     7
 65
   257
 75
     1
175
     1
 42
1.0
 92
        8
 66
     8
424
  8421504
 43
1.0
 76
     1
 77
     6
 78
     2
 67
     7
 79
     5
170
     0
171
     0
290
     0
174
     0
 93
        1
 44
0.0
173
     0
291
     1
 45
0.0
1001
ACAD
1000
AcDbSavedByObjectVersion
1070
     0
  0
VISUALSTYLE
  5
34
102
{ACAD_REACTORS
330
2A
102
}
330
2A
100
AcDbVisualStyle
  2
Conceptual
 70
     9
 71
     3
 72
     2
 73
     0
 90
        0
 40
-0.6
 41
-30.0
 62
     5
 63
     7
421
 16777215
 74
     2
 91
        2
 64
     7
 65
   257
 75
     1
175
     1
 42
40.0
 92
        8
 66
     7
 43
1.0
 76
     1
 77
     6
 78
     2
 67
     7
 79
     3
170
     0
171
     0
290
     0
174
     0
 93
        1
 44
0.0
173
     0
291
     0
 45
0.0
1001
ACAD
1000
AcDbSavedByObjectVersion
1070
     0
  0
VISUALSTYLE
  5
35
102
{ACAD_REACTORS
330
2A
102
}
330
2A
100
AcDbVisualStyle
  2
Dim
 70
    11
 71
     2
 72
     2
 73
     0
 90
        0
 40
-0.6
 41
-30.0
 62
     5
 63
     7
421
 16777215
 74
     1
 91
        4
 64
     7
 65
   257
 75
     1
175
     1
 42
1.0
 92
        8
 66
     7
 43
1.0
 76
     1
 77
     6
 78
     2
 67
     7
 79
     5
170
     0
171
     0
290
     0
174
     0
 93
        1
 44
-50.0
173
     0
291
     1
 45
0.0
1001
ACAD
1000
AcDbSavedByObjectVersion
1070
     0
  0
VISUALSTYLE
  5
39
102
{ACAD_REACTORS
330
2A
102
}
330
2A
100
AcDbVisualStyle
  2
Facepattern
 70
    15
 71
     2
 72
     2
 73
     0
 90
        0
 40
-0.6
 41
-30.0
 62
     5
 63
     7
421
 16777215
 74
     1
 91
        4
 64
     7
 65
   257
 75
     1
175
     1
 42
1.0
 92
        8
 66
     7
 43
1.0
 76
     1
 77
     6
 78
     2
 67
     7
 79
     5
170
     0
171
     0
290
     0
174
     0
 93
        1
 44
0.0
173
     0
291
     1
 45
0.0
1001
ACAD
1000
AcDbSavedByObjectVersion
1070
     0
  0
VISUALSTYLE
  5
2B
102
{ACAD_REACTORS
330
2A
102
}
330
2A
100
AcDbVisualStyle
  2
Flat
 70
     0
 71
     2
 72
     1
 73
     1
 90
        2
 40
-0.6
 41
30.0
 62
     5
 63
     7
421
 16777215
 74
     0
 91
        4
 64
     7
 65
   257
 75
     1
175
     1
 42
1.0
 92
        8
 66
     7
 43
1.0
 76
     1
 77
     6
 78
     2
 67
     7
 79
     5
170
     0
171
     0
290
     0
174
     0
 93
       13
 44
0.0
173
     0
291
     1
 45
0.0
1001
ACAD
1000
AcDbSavedByObjectVersion
1070
     0
  0
VISUALSTYLE
  5
2C
102
{ACAD_REACTORS
330
2A
102
}
330
2A
100
AcDbVisualStyle
  2
FlatWithEdges
 70
     1
 71
     2
 72
     1
 73
     1
 90
        2
 40
-0.6
 41
30.0
 62
     5
 63
     7
421
 16777215
 74
     1
 91
        4
 64
     7
 65
   257
 75
     1
175
     1
 42
1.0
 92
        0
 66
   257
 43
1.0
 76
     1
 77
     6
 78
     2
 67
     7
 79
     5
170
     0
171
     0
290
     0
174
     0
 93
       13
 44
0.0
173
     0
291
     1
 45
0.0
1001
ACAD
1000
AcDbSavedByObjectVersion
1070
     0
  0
VISUALSTYLE
  5
2D
102
{ACAD_REACTORS
330
2A
102
}
330
2A
100
AcDbVisualStyle
  2
Gouraud
 70
     2
 71
     2
 72
     2
 73
     1
 90
        2
 40
-0.6
 41
30.0
 62
     5
 63
     7
421
 16777215
 74
     0
 91
        4
 64
     7
 65
   257
 75
     1
175
     1
 42
1.0
 92
        0
 66
     7
 43
1.0
 76
     1
 77
     6
 78
     2
 67
     7
 79
     5
170
     0
171
     0
290
     0
174
     0
 93
       13
 44
0.0
173
     0
291
     1
 45
0.0
1001
ACAD
1000
AcDbSavedByObjectVersion
1070
     0
  0
VISUALSTYLE
  5
2E
102
{ACAD_REACTORS
330
2A
102
}
330
2A
100
AcDbVisualStyle
  2
GouraudWithEdges
 70
     3
 71
     2
 72
     2
 73
     1
 90
        2
 40
-0.6
 41
30.0
 62
     5
 63
     7
421
 16777215
 74
     1
 91
        4
 64
     7
 65
   257
 75
     1
175
     1
 42
1.0
 92
        0
 66
   257
 43
1.0
 76
     1
 77
     6
 78
     2
 67
     7
 79
     5
170
     0
171
     0
290
     0
174
     0
 93
       13
 44
0.0
173
     0
291
     1
 45
0.0
1001
ACAD
1000
AcDbSavedByObjectVersion
1070
     0
  0
VISUALSTYLE
  5
38
102
{ACAD_REACTORS
330
2A
102
}
330
2A
100
AcDbVisualStyle
  2
Linepattern
 70
    14
 71
     2
 72
     2
 73
     0
 90
        0
 40
-0.6
 41
-30.0
 62
     5
 63
     7
421
 16777215
 74
     1
 91
        4
 64
     7
 65
   257
 75
     7
175
     7
 42
1.0
 92
        8
 66
     7
 43
1.0
 76
     1
 77
     6
 78
     2
 67
     7
 79
     5
170
     0
171
     0
290
     0
174
     0
 93
        1
 44
0.0
173
     0
291
     1
 45
0.0
1001
ACAD
1000
AcDbSavedByObjectVersion
1070
     0
  0
VISUALSTYLE
  5
33
102
{ACAD_REACTORS
330
2A
102
}
330
2A
100
AcDbVisualStyle
  2
Realistic
 70
     8
 71
     2
 72
     2
 73
     0
 90
        0
 40
-0.6
 41
-30.0
 62
     5
 63
     7
421
 16777215
 74
     1
 91
        0
 64
     7
 65
   257
 75
     1
175
     1
 42
1.0
 92
        8
 66
     8
424
  7895160
 43
1.0
 76
     1
 77
     6
 78
     2
 67
     7
 79
     5
170
     0
171
     0
290
     0
174
     0
 93
       13
 44
0.0
173
     0
291
     0
 45
0.0
1001
ACAD
1000
AcDbSavedByObjectVersion
1070
     0
  0
VISUALSTYLE
  5
37
102
{ACAD_REACTORS
330
2A
102
}
330
2A
100
AcDbVisualStyle
  2
Thicken
 70
    13
 71
     2
 72
     2
 73
     0
 90
        0
 40
-0.6
 41
-30.0
 62
     5
 63
     7
421
 16777215
 74
     1
 91
        4
 64
     7
 65
   257
 75
     1
175
     1
 42
1.0
 92
       12
 66
     7
 43
1.0
 76
     1
 77
     6
 78
     2
 67
     7
 79
     5
170
     0
171
     0
290
     0
174
     0
 93
        1
 44
0.0
173
     0
291
     1
 45
0.0
1001
ACAD
1000
AcDbSavedByObjectVersion
1070
     0
  0
ENDSEC
  0
EOF
