  0
SECTION
  2
HEADER
  9
$ACADVER
  1
AC1018
  9
$ACADMAINTVER
 70
     0
  9
$DWGCODEPAGE
  3
ANSI_1252
  9
$INSBASE
 10
0.0
 20
0.0
 30
0.0
  9
$EXTMIN
 10
0.0
 20
0.0
 30
0.0
  9
$EXTMAX
 10
383.0089745733023
 20
635.2116761212325
 30
0.0
  9
$LIMMIN
 10
0.0
 20
0.0
  9
$LIMMAX
 10
12.0
 20
9.0
  9
$ORTHOMODE
 70
     0
  9
$REGENMODE
 70
     1
  9
$FILLMODE
 70
     1
  9
$QTEXTMODE
 70
     0
  9
$MIRRTEXT
 70
     1
  9
$LTSCALE
 40
1.0
  9
$ATTMODE
 70
     1
  9
$TEXTSIZE
 40
0.2
  9
$TRACEWID
 40
0.05
  9
$TEXTSTYLE
  7
Standard
  9
$CLAYER
  8
Predefinito
  9
$CELTYPE
  6
ByLayer
  9
$CECOLOR
 62
   256
  9
$CELTSCALE
 40
1.0
  9
$DISPSILH
 70
     0
  9
$DIMSCALE
 40
1.0
  9
$DIMASZ
 40
0.18
  9
$DIMEXO
 40
0.0625
  9
$DIMDLI
 40
0.38
  9
$DIMRND
 40
0.0
  9
$DIMDLE
 40
0.0
  9
$DIMEXE
 40
0.18
  9
$DIMTP
 40
0.0
  9
$DIMTM
 40
0.0
  9
$DIMTXT
 40
0.18
  9
$DIMCEN
 40
0.09
  9
$DIMTSZ
 40
0.0
  9
$DIMTOL
 70
     0
  9
$DIMLIM
 70
     0
  9
$DIMTIH
 70
     1
  9
$DIMTOH
 70
     1
  9
$DIMSE1
 70
     0
  9
$DIMSE2
 70
     0
  9
$DIMTAD
 70
     0
  9
$DIMZIN
 70
     0
  9
$DIMBLK
  1

  9
$DIMASO
 70
     1
  9
$DIMSHO
 70
     1
  9
$DIMPOST
  1

  9
$DIMAPOST
  1

  9
$DIMALT
 70
     0
  9
$DIMALTD
 70
     2
  9
$DIMALTF
 40
25.4
  9
$DIMLFAC
 40
1.0
  9
$DIMTOFL
 70
     0
  9
$DIMTVP
 40
0.0
  9
$DIMTIX
 70
     0
  9
$DIMSOXD
 70
     0
  9
$DIMSAH
 70
     0
  9
$DIMBLK1
  1

  9
$DIMBLK2
  1

  9
$DIMSTYLE
  2
Standard
  9
$DIMCLRD
 70
     0
  9
$DIMCLRE
 70
     0
  9
$DIMCLRT
 70
     0
  9
$DIMTFAC
 40
1.0
  9
$DIMGAP
 40
0.09
  9
$DIMJUST
 70
     0
  9
$DIMSD1
 70
     0
  9
$DIMSD2
 70
     0
  9
$DIMTOLJ
 70
     1
  9
$DIMTZIN
 70
     0
  9
$DIMALTZ
 70
     0
  9
$DIMALTTZ
 70
     0
  9
$DIMUPT
 70
     0
  9
$DIMDEC
 70
     4
  9
$DIMTDEC
 70
     4
  9
$DIMALTU
 70
     2
  9
$DIMALTTD
 70
     2
  9
$DIMTXSTY
  7
Standard
  9
$DIMAUNIT
 70
     0
  9
$DIMADEC
 70
     0
  9
$DIMALTRND
 40
0.0
  9
$DIMAZIN
 70
     0
  9
$DIMDSEP
 70
    46
  9
$DIMATFIT
 70
     3
  9
$DIMFRAC
 70
     0
  9
$DIMLDRBLK
  1

  9
$DIMLUNIT
 70
     2
  9
$DIMLWD
 70
    -2
  9
$DIMLWE
 70
    -2
  9
$DIMTMOVE
 70
     2
  9
$LUNITS
 70
     2
  9
$LUPREC
 70
     3
  9
$SKETCHINC
 40
0.1
  9
$FILLETRAD
 40
0.5
  9
$AUNITS
 70
     0
  9
$AUPREC
 70
     0
  9
$MENU
  1
.
  9
$ELEVATION
 40
0.0
  9
$PELEVATION
 40
0.0
  9
$THICKNESS
 40
0.0
  9
$LIMCHECK
 70
     0
  9
$CHAMFERA
 40
0.5
  9
$CHAMFERB
 40
0.5
  9
$CHAMFERC
 40
1.0
  9
$CHAMFERD
 40
0.0
  9
$SKPOLY
 70
     0
  9
$TDCREATE
 40
2455883.466070671
  9
$TDUCREATE
 40
2455883.424404005
  9
$TDUPDATE
 40
2455883.466070683
  9
$TDUUPDATE
 40
2455883.424404016
  9
$TDINDWG
 40
0.0000000116
  9
$TDUSRTIMER
 40
0.0000000116
  9
$USRTIMER
 70
     1
  9
$ANGBASE
 50
0.0
  9
$ANGDIR
 70
     0
  9
$PDMODE
 70
     0
  9
$PDSIZE
 40
0.0
  9
$PLINEWID
 40
0.0
  9
$SPLFRAME
 70
     0
  9
$SPLINETYPE
 70
     6
  9
$SPLINESEGS
 70
     8
  9
$HANDSEED
  5
81
  9
$SURFTAB1
 70
     6
  9
$SURFTAB2
 70
     6
  9
$SURFTYPE
 70
     6
  9
$SURFU
 70
     6
  9
$SURFV
 70
     6
  9
$UCSBASE
  2

  9
$UCSNAME
  2

  9
$UCSORG
 10
0.0
 20
0.0
 30
0.0
  9
$UCSXDIR
 10
1.0
 20
0.0
 30
0.0
  9
$UCSYDIR
 10
0.0
 20
1.0
 30
0.0
  9
$UCSORTHOREF
  2

  9
$UCSORTHOVIEW
 70
     0
  9
$UCSORGTOP
 10
0.0
 20
0.0
 30
0.0
  9
$UCSORGBOTTOM
 10
0.0
 20
0.0
 30
0.0
  9
$UCSORGLEFT
 10
0.0
 20
0.0
 30
0.0
  9
$UCSORGRIGHT
 10
0.0
 20
0.0
 30
0.0
  9
$UCSORGFRONT
 10
0.0
 20
0.0
 30
0.0
  9
$UCSORGBACK
 10
0.0
 20
0.0
 30
0.0
  9
$PUCSBASE
  2

  9
$PUCSNAME
  2

  9
$PUCSORG
 10
0.0
 20
0.0
 30
0.0
  9
$PUCSXDIR
 10
1.0
 20
0.0
 30
0.0
  9
$PUCSYDIR
 10
0.0
 20
1.0
 30
0.0
  9
$PUCSORTHOREF
  2

  9
$PUCSORTHOVIEW
 70
     0
  9
$PUCSORGTOP
 10
0.0
 20
0.0
 30
0.0
  9
$PUCSORGBOTTOM
 10
0.0
 20
0.0
 30
0.0
  9
$PUCSORGLEFT
 10
0.0
 20
0.0
 30
0.0
  9
$PUCSORGRIGHT
 10
0.0
 20
0.0
 30
0.0
  9
$PUCSORGFRONT
 10
0.0
 20
0.0
 30
0.0
  9
$PUCSORGBACK
 10
0.0
 20
0.0
 30
0.0
  9
$USERI1
 70
     0
  9
$USERI2
 70
     0
  9
$USERI3
 70
     0
  9
$USERI4
 70
     0
  9
$USERI5
 70
     0
  9
$USERR1
 40
0.0
  9
$USERR2
 40
0.0
  9
$USERR3
 40
0.0
  9
$USERR4
 40
0.0
  9
$USERR5
 40
0.0
  9
$WORLDVIEW
 70
     1
  9
$SHADEDGE
 70
     3
  9
$SHADEDIF
 70
    70
  9
$TILEMODE
 70
     1
  9
$MAXACTVP
 70
    64
  9
$PINSBASE
 10
0.0
 20
0.0
 30
0.0
  9
$PLIMCHECK
 70
     0
  9
$PEXTMIN
 10
1.000000000000000E+20
 20
1.000000000000000E+20
 30
1.000000000000000E+20
  9
$PEXTMAX
 10
-1.000000000000000E+20
 20
-1.000000000000000E+20
 30
-1.000000000000000E+20
  9
$PLIMMIN
 10
0.0
 20
0.0
  9
$PLIMMAX
 10
12.0
 20
9.0
  9
$UNITMODE
 70
     0
  9
$VISRETAIN
 70
     1
  9
$PLINEGEN
 70
     0
  9
$PSLTSCALE
 70
     1
  9
$TREEDEPTH
 70
  3020
  9
$CMLSTYLE
  2
Standard
  9
$CMLJUST
 70
     0
  9
$CMLSCALE
 40
1.0
  9
$PROXYGRAPHICS
 70
     1
  9
$MEASUREMENT
 70
     0
  9
$CELWEIGHT
370
    -1
  9
$ENDCAPS
280
     0
  9
$JOINSTYLE
280
     0
  9
$LWDISPLAY
290
     0
  9
$INSUNITS
 70
     4
  9
$HYPERLINKBASE
  1

  9
$STYLESHEET
  1

  9
$XEDIT
290
     1
  9
$CEPSNTYPE
380
     0
  9
$PSTYLEMODE
290
     1
  9
$FINGERPRINTGUID
  2
{B29B586A-D42E-43D3-AC86-0BD378799931}
  9
$VERSIONGUID
  2
{FAEB1C32-E019-11D5-929B-00C0DF256EC4}
  9
$EXTNAMES
290
     1
  9
$PSVPSCALE
 40
0.0
  9
$OLESTARTUP
290
     0
  9
$SORTENTS
280
   127
  9
$INDEXCTL
280
     0
  9
$HIDETEXT
280
     1
  9
$XCLIPFRAME
290
     0
  9
$HALOGAP
280
     0
  9
$OBSCOLOR
 70
   257
  9
$OBSLTYPE
280
     0
  9
$INTERSECTIONDISPLAY
280
     0
  9
$INTERSECTIONCOLOR
 70
   257
  9
$DIMASSOC
280
     2
  9
$PROJECTNAME
  1

  0
ENDSEC
  0
SECTION
  2
CLASSES
  0
CLASS
  1
ACDBDICTIONARYWDFLT
  2
AcDbDictionaryWithDefault
  3
ObjectDBX Classes
 90
        0
 91
        4
280
     0
281
     0
  0
CLASS
  1
VISUALSTYLE
  2
AcDbVisualStyle
  3
ObjectDBX Classes
 90
     4095
 91
        4
280
     0
281
     0
  0
ENDSEC
  0
SECTION
  2
TABLES
  0
TABLE
  2
VPORT
  5
8
330
0
100
AcDbSymbolTable
 70
     1
  0
VPORT
  5
29
330
8
100
AcDbSymbolTableRecord
100
AcDbViewportTableRecord
  2
*Active
 70
     0
 10
0.0
 20
0.0
 11
1.0
 21
1.0
 12
191.5044872866512
 22
317.6058380606162
 13
0.0
 23
0.0
 14
0.5
 24
0.5
 15
0.5
 25
0.5
 16
0.0
 26
0.0
 36
1.0
 17
0.0
 27
0.0
 37
0.0
 40
647.9159096436572
 41
0.6029627429269793
 42
50.0
 43
0.0
 44
0.0
 50
0.0
 51
0.0
 71
     0
 72
   100
 73
     1
 74
     3
 75
     0
 76
     0
 77
     0
 78
     0
281
     0
 65
     1
110
0.0
120
0.0
130
0.0
111
1.0
121
0.0
131
0.0
112
0.0
122
1.0
132
0.0
 79
     0
146
0.0
  0
ENDTAB
  0
TABLE
  2
LTYPE
  5
5
330
0
100
AcDbSymbolTable
 70
     1
  0
LTYPE
  5
14
330
5
100
AcDbSymbolTableRecord
100
AcDbLinetypeTableRecord
  2
ByBlock
 70
     0
  3

 72
    65
 73
     0
 40
0.0
  0
LTYPE
  5
15
330
5
100
AcDbSymbolTableRecord
100
AcDbLinetypeTableRecord
  2
ByLayer
 70
     0
  3

 72
    65
 73
     0
 40
0.0
  0
LTYPE
  5
16
330
5
100
AcDbSymbolTableRecord
100
AcDbLinetypeTableRecord
  2
Continuous
 70
     0
  3
Solid line
 72
    65
 73
     0
 40
0.0
  0
ENDTAB
  0
TABLE
  2
LAYER
  5
2
330
0
100
AcDbSymbolTable
 70
     3
  0
LAYER
  5
10
330
2
100
AcDbSymbolTableRecord
100
AcDbLayerTableRecord
  2
0
 70
     0
 62
     7
  6
Continuous
370
    -3
390
F
  0
LAYER
  5
3B
330
2
100
AcDbSymbolTableRecord
100
AcDbLayerTableRecord
  2
Linee visibili 2D
 70
     0
 62
     7
  6
Continuous
370
    -3
390
F
  0
LAYER
  5
44
330
2
100
AcDbSymbolTableRecord
100
AcDbLayerTableRecord
  2
Predefinito
 70
     0
 62
     7
  6
Continuous
370
    -3
390
F
  0
ENDTAB
  0
TABLE
  2
STYLE
  5
3
330
0
100
AcDbSymbolTable
 70
     1
  0
STYLE
  5
11
330
3
100
AcDbSymbolTableRecord
100
AcDbTextStyleTableRecord
  2
Standard
 70
     0
 40
0.0
 41
1.0
 50
0.0
 71
     0
 42
0.2
  3
txt
  4

  0
ENDTAB
  0
TABLE
  2
VIEW
  5
6
330
0
100
AcDbSymbolTable
 70
     0
  0
ENDTAB
  0
TABLE
  2
UCS
  5
7
330
0
100
AcDbSymbolTable
 70
     0
  0
ENDTAB
  0
TABLE
  2
APPID
  5
9
330
0
100
AcDbSymbolTable
 70
     1
  0
APPID
  5
12
330
9
100
AcDbSymbolTableRecord
100
AcDbRegAppTableRecord
  2
ACAD
 70
     0
  0
ENDTAB
  0
TABLE
  2
DIMSTYLE
  5
A
330
0
100
AcDbSymbolTable
 70
     1
100
AcDbDimStyleTable
  0
DIMSTYLE
105
27
330
A
100
AcDbSymbolTableRecord
100
AcDbDimStyleTableRecord
  2
Standard
 70
     0
340
11
  0
ENDTAB
  0
TABLE
  2
BLOCK_RECORD
  5
1
330
0
100
AcDbSymbolTable
 70
     1
  0
BLOCK_RECORD
  5
1F
330
1
100
AcDbSymbolTableRecord
100
AcDbBlockTableRecord
  2
*Model_Space
340
22
  0
BLOCK_RECORD
  5
1B
330
1
100
AcDbSymbolTableRecord
100
AcDbBlockTableRecord
  2
*Paper_Space
340
1E
  0
BLOCK_RECORD
  5
23
330
1
100
AcDbSymbolTableRecord
100
AcDbBlockTableRecord
  2
*Paper_Space0
340
26
  0
ENDTAB
  0
ENDSEC
  0
SECTION
  2
BLOCKS
  0
BLOCK
  5
20
330
1F
100
AcDbEntity
  8
0
100
AcDbBlockBegin
  2
*Model_Space
 70
     0
 10
0.0
 20
0.0
 30
0.0
  3
*Model_Space
  1

  0
ENDBLK
  5
21
330
1F
100
AcDbEntity
  8
0
100
AcDbBlockEnd
  0
BLOCK
  5
1C
330
1B
100
AcDbEntity
 67
     1
  8
0
100
AcDbBlockBegin
  2
*Paper_Space
 70
     0
 10
0.0
 20
0.0
 30
0.0
  3
*Paper_Space
  1

  0
ENDBLK
  5
1D
330
1B
100
AcDbEntity
 67
     1
  8
0
100
AcDbBlockEnd
  0
BLOCK
  5
24
330
23
100
AcDbEntity
  8
0
100
AcDbBlockBegin
  2
*Paper_Space0
 70
     0
 10
0.0
 20
0.0
 30
0.0
  3
*Paper_Space0
  1

  0
ENDBLK
  5
25
330
23
100
AcDbEntity
  8
0
100
AcDbBlockEnd
  0
ENDSEC
  0
SECTION
  2
ENTITIES
  0
SPLINE
  5
3C
330
1F
100
AcDbEntity
  8
Linee visibili 2D
100
AcDbSpline
210
0.0
220
0.0
230
1.0
 70
    24
 71
     2
 72
     6
 73
     3
 74
     0
 42
0.0000000001
 43
0.0000000001
 40
0.0
 40
0.0
 40
0.0
 40
167.0
 40
167.0
 40
167.0
 10
167.0
 20
635.2116761212325
 30
0.0
 10
83.5
 20
635.2116761212325
 30
0.0
 10
0.0
 20
635.2116761212325
 30
0.0
  0
SPLINE
  5
3D
330
1F
100
AcDbEntity
  8
Linee visibili 2D
100
AcDbSpline
210
0.0
220
0.0
230
1.0
 70
    24
 71
     2
 72
     6
 73
     3
 74
     0
 42
0.0000000001
 43
0.0000000001
 40
0.0
 40
0.0
 40
0.0
 40
266.0
 40
266.0
 40
266.0
 10
0.0
 20
635.2116761212325
 30
0.0
 10
0.0
 20
502.2116761212325
 30
0.0
 10
0.0
 20
369.2116761212325
 30
0.0
  0
SPLINE
  5
3E
330
1F
100
AcDbEntity
  8
Linee visibili 2D
100
AcDbSpline
210
0.0
220
0.0
230
1.0
 70
    24
 71
     2
 72
     6
 73
     3
 74
     0
 42
0.0000000001
 43
0.0000000001
 40
0.0
 40
0.0
 40
0.0
 40
167.0
 40
167.0
 40
167.0
 10
0.0
 20
369.2116761212325
 30
0.0
 10
83.5
 20
369.2116761212325
 30
0.0
 10
167.0
 20
369.2116761212325
 30
0.0
  0
SPLINE
  5
3F
330
1F
100
AcDbEntity
  8
Linee visibili 2D
100
AcDbSpline
210
0.0
220
0.0
230
1.0
 70
    24
 71
     2
 72
     6
 73
     3
 74
     0
 42
0.0000000001
 43
0.0000000001
 40
0.0
 40
0.0
 40
0.0
 40
266.0
 40
266.0
 40
266.0
 10
167.0
 20
369.2116761212325
 30
0.0
 10
167.0
 20
502.2116761212325
 30
0.0
 10
167.0
 20
635.2116761212325
 30
0.0
  0
SPLINE
  5
40
330
1F
100
AcDbEntity
  8
Linee visibili 2D
100
AcDbSpline
210
0.0
220
0.0
230
1.0
 70
    12
 71
     2
 72
     6
 73
     3
 74
     0
 42
0.0000000001
 43
0.0000000001
 40
-215.2483677054387
 40
-215.2483677054387
 40
-215.2483677054387
 40
-146.5520801398732
 40
-146.5520801398732
 40
-146.5520801398732
 10
33.82524459823465
 20
491.3241416723719
 30
0.0
 41
0.9656765759202985
 10
37.92074310622041
 20
452.0110183772145
 30
0.0
 41
0.7254126073623883
 10
83.500000000001
 20
452.0110183772145
 30
0.0
 41
1.0
  0
SPLINE
  5
41
330
1F
100
AcDbEntity
  8
Linee visibili 2D
100
AcDbSpline
210
0.0
220
0.0
230
1.0
 70
    12
 71
     2
 72
     6
 73
     3
 74
     0
 42
0.0000000001
 43
0.0000000001
 40
-146.5520801398732
 40
-146.5520801398732
 40
-146.5520801398732
 40
-78.19074673920653
 40
-78.19074673920653
 40
-78.19074673920653
 10
83.500000000001
 20
452.0110183772145
 30
0.0
 41
1.0
 10
128.7734597378314
 20
452.0110183772145
 30
0.0
 41
0.7267514597815226
 10
133.1436020920054
 20
491.0358951781463
 30
0.0
 41
0.9633458243186097
  0
SPLINE
  5
42
330
1F
100
AcDbEntity
  8
Linee visibili 2D
100
AcDbSpline
210
0.0
220
0.0
230
1.0
 70
     8
 71
     3
 72
    15
 73
    11
 74
     0
 42
0.0000000001
 43
0.0000000001
 40
0.0
 40
0.0
 40
0.0
 40
0.0
 40
29.95250336197924
 40
60.62724592516943
 40
92.43098082231933
 40
124.8354913273183
 40
157.8932051694713
 40
189.1084705622269
 40
219.8799035174628
 40
249.9016449472757
 40
249.9016449472757
 40
249.9016449472757
 40
249.9016449472757
 10
83.500000000001
 20
603.4956933655025
 30
0.0
 10
93.48478019993551
 20
603.5362253453301
 30
0.0
 10
113.6705176653996
 20
599.0406102628716
 30
0.0
 10
138.9673997520255
 20
580.3696630887391
 30
0.0
 10
155.6238840931258
 20
552.8113869272144
 30
0.0
 10
161.487675532272
 20
520.3991654809566
 30
0.0
 10
155.6257149210738
 20
488.1607651989641
 30
0.0
 10
138.9025623694051
 20
460.6078532174553
 30
0.0
 10
113.7567797252944
 20
441.9669324576457
 30
0.0
 10
93.5030749722997
 20
437.4698360390757
 30
0.0
 10
83.5000000000011
 20
437.4956933660335
 30
0.0
  0
SPLINE
  5
43
330
1F
100
AcDbEntity
  8
Linee visibili 2D
100
AcDbSpline
210
0.0
220
0.0
230
1.0
 70
     8
 71
     3
 72
    15
 73
    11
 74
     0
 42
0.0000000001
 43
0.0000000001
 40
0.0
 40
0.0
 40
0.0
 40
0.0
 40
30.37335814437181
 40
60.77633506429202
 40
92.78955512631838
 40
125.0201655640764
 40
157.0188730981678
 40
188.7968845947726
 40
219.7045772909287
 40
249.8764639053594
 40
249.8764639053594
 40
249.8764639053594
 40
249.8764639053594
 10
83.500000000001
 20
437.4956933660335
 30
0.0
 10
73.37664916599127
 20
437.4808491764184
 30
0.0
 10
53.13637579579373
 20
442.0243392671358
 30
0.0
 10
27.82663463260853
 20
460.8746399021387
 30
0.0
 10
11.29401391437836
 20
488.4143742090878
 30
0.0
 10
5.594454157530351
 20
520.5019563379628
 30
0.0
 10
11.29720881269983
 20
552.5018451721023
 30
0.0
 10
27.76947137594007
 20
580.0793527043589
 30
0.0
 10
53.10424420152563
 20
598.9755922272043
 30
0.0
 10
73.44228057570402
 20
603.5108876941835
 30
0.0
 10
83.500000000001
 20
603.4956933655025
 30
0.0
  0
POLYLINE
  5
45
330
1F
100
AcDbEntity
  8
Predefinito
100
AcDb2dPolyline
 66
     1
 10
0.0
 20
0.0
 30
0.0
  0
VERTEX
  5
46
330
45
100
AcDbEntity
  8
Predefinito
100
AcDbVertex
100
AcDb2dVertex
 10
317.1919870103656
 20
437.820363617731
 30
0.0
  0
VERTEX
  5
47
330
45
100
AcDbEntity
  8
Predefinito
100
AcDbVertex
100
AcDb2dVertex
 10
317.2382770741881
 20
438.3249189013837
 30
0.0
  0
SEQEND
  5
48
330
45
100
AcDbEntity
  8
Predefinito
  0
SPLINE
  5
49
330
1F
100
AcDbEntity
  8
Predefinito
100
AcDbSpline
210
0.0
220
0.0
230
1.0
 70
     8
 71
     3
 72
    12
 73
     8
 74
     0
 42
0.0000000001
 43
0.0000000001
 40
0.0
 40
0.0
 40
0.0
 40
0.0
 40
1.643898912881487
 40
3.367038486502119
 40
6.982715842734036
 40
10.0885702779996
 40
14.41586714252568
 40
14.41586714252568
 40
14.41586714252568
 40
14.41586714252568
 10
317.2382770741881
 20
438.3249189013837
 30
0.0
 10
317.2992064267729
 20
438.8642087003353
 30
0.0
 10
317.5508944463015
 20
439.9815030166844
 30
0.0
 10
318.5962781919894
 20
442.0494227787028
 30
0.0
 10
320.508680969258
 20
444.2227384283071
 30
0.0
 10
323.9624286083675
 20
445.6840815171241
 30
0.0
 10
326.4779939537307
 20
445.7495642465067
 30
0.0
 10
327.9085350984678
 20
445.8259996656662
 30
0.0
  0
SPLINE
  5
4A
330
1F
100
AcDbEntity
  8
Predefinito
100
AcDbSpline
210
0.0
220
0.0
230
1.0
 70
    12
 71
     2
 72
     6
 73
     3
 74
     0
 42
0.0000000001
 43
0.0000000001
 40
0.0
 40
0.0
 40
0.0
 40
0.5173240991206245
 40
0.5173240991206245
 40
0.5173240991206245
 10
327.9085350984678
 20
445.8259996656662
 30
0.0
 41
1.0
 10
328.1930197591746
 20
445.829569948024
 30
0.0
 41
0.8691456665449012
 10
328.3352732873297
 20
446.0759602944684
 30
0.0
 41
1.0
  0
SPLINE
  5
4B
330
1F
100
AcDbEntity
  8
Predefinito
100
AcDbSpline
210
0.0
220
0.0
230
1.0
 70
    24
 71
     2
 72
     6
 73
     3
 74
     0
 42
0.0000000001
 43
0.0000000001
 40
-109.1159193321446
 40
-109.1159193321446
 40
-109.1159193321446
 40
0.0
 40
0.0
 40
0.0
 10
328.3352732873297
 20
446.0759602944684
 30
0.0
 10
355.6264417007649
 20
493.3456505846865
 30
0.0
 10
382.9176101142
 20
540.6153408749046
 30
0.0
  0
SPLINE
  5
4C
330
1F
100
AcDbEntity
  8
Predefinito
100
AcDbSpline
210
0.0
220
0.0
230
1.0
 70
    12
 71
     2
 72
     6
 73
     3
 74
     0
 42
0.0000000001
 43
0.0000000001
 40
-0.7853971145991107
 40
-0.7853971145991107
 40
-0.7853971145991107
 40
0.0
 40
0.0
 40
0.0
 10
382.9176101142
 20
540.6153408749046
 30
0.0
 41
1.0
 10
383.1919867507941
 20
541.0905751499046
 30
0.0
 41
0.7071075227990796
 10
382.7589754815845
 20
541.3405755337864
 30
0.0
 41
1.0
  0
SPLINE
  5
4D
330
1F
100
AcDbEntity
  8
Predefinito
100
AcDbSpline
210
0.0
220
0.0
230
1.0
 70
     8
 71
     3
 72
    15
 73
    11
 74
     0
 42
0.0000000001
 43
0.0000000001
 40
0.0
 40
0.0
 40
0.0
 40
0.0
 40
30.87443891493217
 40
39.09155753246311
 40
39.68916882432876
 40
44.32057407212919
 40
60.45605348321389
 40
77.1890117469809
 40
85.40602376517352
 40
93.31501252579297
 40
93.31501252579297
 40
93.31501252579297
 40
93.31501252579297
 10
382.7589754815845
 20
541.3405755337864
 30
0.0
 10
373.8531925650026
 20
546.4904758710616
 30
0.0
 10
362.5503492536193
 20
552.9952491380353
 30
0.0
 10
351.1138278452914
 20
559.621615853126
 30
0.0
 10
347.2003569189206
 20
561.8453628606591
 30
0.0
 10
341.1918649087555
 20
565.558131302316
 30
0.0
 10
330.3718162266914
 20
572.1597774576579
 30
0.0
 10
322.1578049566308
 20
583.4777615295454
 30
0.0
 10
318.2154382951389
 20
593.709911876121
 30
0.0
 10
317.3438162937455
 20
599.0656478262899
 30
0.0
 10
317.2350353657839
 20
601.694101722763
 30
0.0
  0
POLYLINE
  5
4E
330
1F
100
AcDbEntity
  8
Predefinito
100
AcDb2dPolyline
 66
     1
 10
0.0
 20
0.0
 30
0.0
  0
VERTEX
  5
4F
330
4E
100
AcDbEntity
  8
Predefinito
100
AcDbVertex
100
AcDb2dVertex
 10
317.2350353657839
 20
601.694101722763
 30
0.0
  0
VERTEX
  5
50
330
4E
100
AcDbEntity
  8
Predefinito
100
AcDbVertex
100
AcDb2dVertex
 10
317.1919870103656
 20
602.7342713522761
 30
0.0
  0
SEQEND
  5
51
330
4E
100
AcDbEntity
  8
Predefinito
  0
POLYLINE
  5
52
330
1F
100
AcDbEntity
  8
Predefinito
100
AcDb2dPolyline
 66
     1
 10
0.0
 20
0.0
 30
0.0
  0
VERTEX
  5
53
330
52
100
AcDbEntity
  8
Predefinito
100
AcDbVertex
100
AcDb2dVertex
 10
270.2116761212325
 20
369.2116761212325
 30
0.0
  0
VERTEX
  5
54
330
52
100
AcDbEntity
  8
Predefinito
100
AcDbVertex
100
AcDb2dVertex
 10
270.2116761212325
 20
635.2116761212325
 30
0.0
  0
SEQEND
  5
55
330
52
100
AcDbEntity
  8
Predefinito
  0
SPLINE
  5
56
330
1F
100
AcDbEntity
  8
Predefinito
100
AcDbSpline
210
0.0
220
0.0
230
1.0
 70
    24
 71
     2
 72
     6
 73
     3
 74
     0
 42
0.0000000001
 43
0.0000000001
 40
0.0
 40
0.0
 40
0.0
 40
46.98031088913308
 40
46.98031088913308
 40
46.98031088913308
 10
270.2116761212325
 20
635.2116761212325
 30
0.0
 10
293.701831565799
 20
635.2116761212325
 30
0.0
 10
317.1919870103656
 20
635.2116761212325
 30
0.0
  0
SPLINE
  5
57
330
1F
100
AcDbEntity
  8
Predefinito
100
AcDbSpline
210
0.0
220
0.0
230
1.0
 70
    24
 71
     2
 72
     6
 73
     3
 74
     0
 42
0.0000000001
 43
0.0000000001
 40
0.0
 40
0.0
 40
0.0
 40
266.0
 40
266.0
 40
266.0
 10
317.1919870103656
 20
635.2116761212325
 30
0.0
 10
317.1919870103656
 20
502.2116761212325
 30
0.0
 10
317.1919870103656
 20
369.2116761212325
 30
0.0
  0
SPLINE
  5
58
330
1F
100
AcDbEntity
  8
Predefinito
100
AcDbSpline
210
0.0
220
0.0
230
1.0
 70
    24
 71
     2
 72
     6
 73
     3
 74
     0
 42
0.0000000001
 43
0.0000000001
 40
-46.98031088913308
 40
-46.98031088913308
 40
-46.98031088913308
 40
0.0
 40
0.0
 40
0.0
 10
317.1919870103656
 20
369.2116761212325
 30
0.0
 10
293.701831565799
 20
369.2116761212325
 30
0.0
 10
270.2116761212325
 20
369.2116761212325
 30
0.0
  0
POLYLINE
  5
59
330
1F
100
AcDbEntity
  8
Predefinito
100
AcDb2dPolyline
 66
     1
 10
0.0
 20
0.0
 30
0.0
  0
VERTEX
  5
5A
330
59
100
AcDbEntity
  8
Predefinito
100
AcDbVertex
100
AcDb2dVertex
 10
317.1919870103656
 20
159.1615228204411
 30
0.0
  0
VERTEX
  5
5B
330
59
100
AcDbEntity
  8
Predefinito
100
AcDbVertex
100
AcDb2dVertex
 10
317.2388624134974
 20
158.3601885058128
 30
0.0
  0
SEQEND
  5
5C
330
59
100
AcDbEntity
  8
Predefinito
  0
SPLINE
  5
5D
330
1F
100
AcDbEntity
  8
Predefinito
100
AcDbSpline
210
0.0
220
0.0
230
1.0
 70
     8
 71
     3
 72
    14
 73
    10
 74
     0
 42
0.0000000001
 43
0.0000000001
 40
0.0
 40
0.0
 40
0.0
 40
0.0
 40
4.16663521789479
 40
9.828269188156964
 40
20.33297502396353
 40
25.61325089388477
 40
31.8365657706324
 40
36.6979405096841
 40
47.33126547400309
 40
47.33126547400309
 40
47.33126547400309
 40
47.33126547400309
 10
317.2388624134974
 20
158.3601885058128
 30
0.0
 10
317.2996296490418
 20
156.9560737060017
 30
0.0
 10
318.2735665919666
 20
153.8047136708756
 30
0.0
 10
321.7991231535577
 20
147.9476139661007
 30
0.0
 10
327.549596423211
 20
143.399480107318
 30
0.0
 10
334.4129661366343
 20
140.7718833947581
 30
0.0
 10
339.7463793768035
 20
139.5312352475106
 30
0.0
 10
346.9425135294915
 20
138.7457596561358
 30
0.0
 10
352.1191532476703
 20
138.687932747409
 30
0.0
 10
355.655819480991
 20
138.5092039228613
 30
0.0
  0
SPLINE
  5
5E
330
1F
100
AcDbEntity
  8
Predefinito
100
AcDbSpline
210
0.0
220
0.0
230
1.0
 70
     8
 71
     3
 72
    12
 73
     8
 74
     0
 42
0.0000000001
 43
0.0000000001
 40
0.0
 40
0.0
 40
0.0
 40
0.0
 40
5.533906133331481
 40
11.59539449670332
 40
26.38820202587206
 40
45.40342995029639
 40
66.36915009158137
 40
66.36915009158137
 40
66.36915009158137
 40
66.36915009158137
 10
355.655819480991
 20
138.5092039228613
 30
0.0
 10
357.4993992517445
 20
138.4288717183449
 30
0.0
 10
361.3251564635224
 20
137.5648278738933
 30
0.0
 10
368.7678653965004
 20
132.5928632552224
 30
0.0
 10
376.2962008478648
 20
121.365052630861
 30
0.0
 10
381.7463799499857
 20
103.8241788936408
 30
0.0
 10
383.0116155188213
 20
90.48675980885064
 30
0.0
 10
383.0089745733023
 20
83.50000000000097
 30
0.0
  0
SPLINE
  5
5F
330
1F
100
AcDbEntity
  8
Predefinito
100
AcDbSpline
210
0.0
220
0.0
230
1.0
 70
     8
 71
     3
 72
    13
 73
     9
 74
     0
 42
0.0000000001
 43
0.0000000001
 40
0.0
 40
0.0
 40
0.0
 40
0.0
 40
10.89910347663143
 40
21.07299387248743
 40
39.63473598429785
 40
54.67521727985115
 40
60.84081863897075
 40
66.35993794136371
 40
66.35993794136371
 40
66.35993794136371
 40
66.35993794136371
 10
383.0089745733023
 20
83.50000000000097
 30
0.0
 10
383.0060121147561
 20
79.8655066024124
 30
0.0
 10
382.6672250198075
 20
72.84567952324504
 30
0.0
 10
380.6696674867675
 20
59.76112401103114
 30
0.0
 10
376.3240254940783
 20
45.75109090397014
 30
0.0
 10
368.8831872840051
 20
34.50726002993919
 30
0.0
 10
361.3601193921663
 20
29.43399026691938
 30
0.0
 10
357.5027175292454
 20
28.57474271889242
 30
0.0
 10
355.6635897953297
 20
28.49096939622451
 30
0.0
  0
SPLINE
  5
60
330
1F
100
AcDbEntity
  8
Predefinito
100
AcDbSpline
210
0.0
220
0.0
230
1.0
 70
     8
 71
     3
 72
    14
 73
    10
 74
     0
 42
0.0000000001
 43
0.0000000001
 40
0.0
 40
0.0
 40
0.0
 40
0.0
 40
10.63993492164768
 40
15.50173900386498
 40
21.7054509479957
 40
27.00485893792166
 40
37.48782573203295
 40
43.16993263935488
 40
47.33471749228445
 40
47.33471749228445
 40
47.33471749228445
 40
47.33471749228445
 10
355.6635897953297
 20
28.49096939622451
 30
0.0
 10
352.1229132006269
 20
28.31200198072354
 30
0.0
 10
346.9459586709535
 20
28.25102339032585
 30
0.0
 10
339.750902926335
 20
27.47296991732942
 30
0.0
 10
334.4221368845314
 20
26.2235378165502
 30
0.0
 10
327.559860969643
 20
23.60643349216956
 30
0.0
 10
321.8095318488507
 20
19.05618766894998
 30
0.0
 10
318.2728594895118
 20
13.20538270383046
 30
0.0
 10
317.3010061977088
 20
10.04596846207168
 30
0.0
 10
317.2390183440577
 20
8.641402316136647
 30
0.0
  0
POLYLINE
  5
61
330
1F
100
AcDbEntity
  8
Predefinito
100
AcDb2dPolyline
 66
     1
 10
0.0
 20
0.0
 30
0.0
  0
VERTEX
  5
62
330
61
100
AcDbEntity
  8
Predefinito
100
AcDbVertex
100
AcDb2dVertex
 10
317.2390183440577
 20
8.641402316136647
 30
0.0
  0
VERTEX
  5
63
330
61
100
AcDbEntity
  8
Predefinito
100
AcDbVertex
100
AcDb2dVertex
 10
317.1919870103656
 20
7.838477179558936
 30
0.0
  0
SEQEND
  5
64
330
61
100
AcDbEntity
  8
Predefinito
  0
SPLINE
  5
65
330
1F
100
AcDbEntity
  8
Linee visibili 2D
100
AcDbSpline
210
0.0
220
0.0
230
1.0
 70
    24
 71
     2
 72
     6
 73
     3
 74
     0
 42
0.0000000001
 43
0.0000000001
 40
0.0
 40
0.0
 40
0.0
 40
46.98031088913308
 40
46.98031088913308
 40
46.98031088913308
 10
270.2116761212325
 20
167.0
 30
0.0
 10
293.701831565799
 20
167.0
 30
0.0
 10
317.1919870103656
 20
167.0
 30
0.0
  0
SPLINE
  5
66
330
1F
100
AcDbEntity
  8
Linee visibili 2D
100
AcDbSpline
210
0.0
220
0.0
230
1.0
 70
    24
 71
     2
 72
     6
 73
     3
 74
     0
 42
0.0000000001
 43
0.0000000001
 40
0.0
 40
0.0
 40
0.0
 40
167.0
 40
167.0
 40
167.0
 10
317.1919870103656
 20
167.0
 30
0.0
 10
317.1919870103656
 20
83.5
 30
0.0
 10
317.1919870103656
 20
0.0
 30
0.0
  0
SPLINE
  5
67
330
1F
100
AcDbEntity
  8
Linee visibili 2D
100
AcDbSpline
210
0.0
220
0.0
230
1.0
 70
    24
 71
     2
 72
     6
 73
     3
 74
     0
 42
0.0000000001
 43
0.0000000001
 40
-46.98031088913308
 40
-46.98031088913308
 40
-46.98031088913308
 40
0.0
 40
0.0
 40
0.0
 10
317.1919870103656
 20
0.0
 30
0.0
 10
293.701831565799
 20
0.0
 30
0.0
 10
270.2116761212325
 20
0.0
 30
0.0
  0
SPLINE
  5
68
330
1F
100
AcDbEntity
  8
Linee visibili 2D
100
AcDbSpline
210
0.0
220
0.0
230
1.0
 70
    24
 71
     2
 72
     6
 73
     3
 74
     0
 42
0.0000000001
 43
0.0000000001
 40
-167.0
 40
-167.0
 40
-167.0
 40
0.0
 40
0.0
 40
0.0
 10
270.2116761212325
 20
0.0
 30
0.0
 10
270.2116761212325
 20
83.5
 30
0.0
 10
270.2116761212325
 20
167.0
 30
0.0
  0
SPLINE
  5
69
330
1F
100
AcDbEntity
  8
Linee visibili 2D
100
AcDbSpline
210
0.0
220
0.0
230
1.0
 70
     8
 71
     3
 72
    14
 73
    10
 74
     0
 42
0.0000000001
 43
0.0000000001
 40
0.0
 40
0.0
 40
0.0
 40
0.0
 40
15.02730152283483
 40
31.70671283687773
 40
68.20113372343872
 40
85.37055524232298
 40
100.9242852426082
 40
114.695595010509
 40
127.2465488296337
 40
127.2465488296337
 40
127.2465488296337
 40
127.2465488296337
 10
57.88709008183976
 20
77.61906948568834
 30
0.0
 10
52.8818820778905
 20
77.83585064600612
 30
0.0
 10
42.46838451681249
 20
80.4118414424082
 30
0.0
 10
22.854846172687
 20
92.25828478304416
 30
0.0
 10
7.8452858208069
 20
111.1127800452694
 30
0.0
 10
0.2860128440099334
 20
133.0677009806458
 30
0.0
 10
-0.5692177830954965
 20
148.740342820912
 30
0.0
 10
3.673180593319416
 20
162.3451401760482
 30
0.0
 10
10.04106413276258
 20
168.8100739311498
 30
0.0
 10
13.65940950795039
 20
170.9011468558573
 30
0.0
  0
SPLINE
  5
6A
330
1F
100
AcDbEntity
  8
Linee visibili 2D
100
AcDbSpline
210
0.0
220
0.0
230
1.0
 70
     8
 71
     3
 72
    10
 73
     6
 74
     0
 42
0.0000000001
 43
0.0000000001
 40
0.0
 40
0.0
 40
0.0
 40
0.0
 40
20.83323531876463
 40
28.12992170499673
 40
30.69408814744403
 40
30.69408814744403
 40
30.69408814744403
 40
30.69408814744403
 10
13.65940950795039
 20
170.9011468558573
 30
0.0
 10
19.64447733820505
 20
174.4222500908774
 30
0.0
 10
27.74542342033824
 20
179.1466861207879
 30
0.0
 10
36.45199114661166
 20
184.520549888394
 30
0.0
 10
39.20984650714485
 20
186.3103199089382
 30
0.0
 10
39.87617602307682
 20
186.8481074521101
 30
0.0
  0
SPLINE
  5
6B
330
1F
100
AcDbEntity
  8
Linee visibili 2D
100
AcDbSpline
210
0.0
220
0.0
230
1.0
 70
     8
 71
     3
 72
    12
 73
     8
 74
     0
 42
0.0000000001
 43
0.0000000001
 40
0.0
 40
0.0
 40
0.0
 40
0.0
 40
7.603401579950877
 40
14.83231755261279
 40
28.12530692011881
 40
42.84851399087066
 40
59.76096311488039
 40
59.76096311488039
 40
59.76096311488039
 40
59.76096311488039
 10
52.11048101246097
 20
82.59648446431837
 30
0.0
 10
54.6126660056795
 20
82.14938369345417
 30
0.0
 10
59.56347140276618
 20
81.8880606832106
 30
0.0
 10
68.89741672446128
 20
83.56376226426619
 30
0.0
 10
78.74924257271546
 20
90.96953848467916
 30
0.0
 10
83.71900790483987
 20
105.6736496645435
 30
0.0
 10
82.6078056563624
 20
116.296388161888
 30
0.0
 10
81.2675630954747
 20
121.7770717468371
 30
0.0
  0
SPLINE
  5
6C
330
1F
100
AcDbEntity
  8
Linee visibili 2D
100
AcDbSpline
210
0.0
220
0.0
230
1.0
 70
     8
 71
     3
 72
    15
 73
    11
 74
     0
 42
0.0000000001
 43
0.0000000001
 40
0.0
 40
0.0
 40
0.0
 40
0.0
 40
15.79974912818464
 40
32.56506476136801
 40
48.98994509267091
 40
64.05837728816263
 40
77.41731097067985
 40
89.11707652092902
 40
100.5738752742519
 40
113.0045621157137
 40
113.0045621157137
 40
113.0045621157137
 40
113.0045621157137
 10
81.2675630954747
 20
121.7770717468371
 30
0.0
 10
79.99425656815178
 20
126.889616305378
 30
0.0
 10
75.93289173324219
 20
137.0425318347665
 30
0.0
 10
66.49809978856626
 20
150.4963903104646
 30
0.0
 10
54.45520213892635
 20
161.3308305957978
 30
0.0
 10
41.05682213764549
 20
168.2795307666019
 30
0.0
 10
27.65474327099967
 20
170.5181697170386
 30
0.0
 10
15.53284570211483
 20
167.2409652362959
 30
0.0
 10
6.965489108773242
 20
158.424729358941
 30
0.0
 10
4.703924050313055
 20
150.5926120941695
 30
0.0
 10
4.199659441606732
 20
146.4910726211232
 30
0.0
  0
SPLINE
  5
6D
330
1F
100
AcDbEntity
  8
Linee visibili 2D
100
AcDbSpline
210
0.0
220
0.0
230
1.0
 70
     8
 71
     3
 72
    12
 73
     8
 74
     0
 42
0.0000000001
 43
0.0000000001
 40
0.0
 40
0.0
 40
0.0
 40
0.0
 40
9.640093578325088
 40
20.37221235924893
 40
43.36475261915088
 40
65.71068476221696
 40
86.03795486281182
 40
86.03795486281182
 40
86.03795486281182
 40
86.03795486281182
 10
4.199659441606732
 20
146.4910726211232
 30
0.0
 10
3.93444185023414
 20
143.2855779618791
 30
0.0
 10
4.16239049050775
 20
136.4659847787729
 30
0.0
 10
7.561975841031256
 20
122.3355713755266
 30
0.0
 10
16.59955897374732
 20
105.7120078217003
 30
0.0
 10
32.39967946466447
 20
90.20973766042746
 30
0.0
 10
45.44738065331236
 20
83.96690494978012
 30
0.0
 10
52.11048101246097
 20
82.59648446431837
 30
0.0
  0
SPLINE
  5
6E
330
1F
100
AcDbEntity
  8
Linee visibili 2D
100
AcDbSpline
210
0.0
220
0.0
230
1.0
 70
     8
 71
     3
 72
    12
 73
     8
 74
     0
 42
0.0000000001
 43
0.0000000001
 40
0.0
 40
0.0
 40
0.0
 40
0.0
 40
10.23534682445727
 40
19.75282809215926
 40
38.14070894681667
 40
54.83365879869797
 40
69.95930920673094
 40
69.95930920673094
 40
69.95930920673094
 40
69.95930920673094
 10
21.37441895552714
 20
175.4381878410143
 30
0.0
 10
22.42786659708943
 20
178.6826682819929
 30
0.0
 10
24.76593509192536
 20
184.8487547788011
 30
0.0
 10
30.47970339199601
 20
196.2213408281588
 30
0.0
 10
39.21937346852088
 20
208.3681504347227
 30
0.0
 10
52.27892110774147
 20
219.113291186284
 30
0.0
 10
62.3101353109698
 20
223.008888359908
 30
0.0
 10
67.27952390229436
 20
223.8890838378496
 30
0.0
  0
SPLINE
  5
6F
330
1F
100
AcDbEntity
  8
Linee visibili 2D
100
AcDbSpline
210
0.0
220
0.0
230
1.0
 70
     8
 71
     3
 72
    17
 73
    13
 74
     0
 42
0.0000000001
 43
0.0000000001
 40
0.0
 40
0.0
 40
0.0
 40
0.0
 40
11.21242833409441
 40
22.17221502353554
 40
46.06996951484609
 40
73.53016365042441
 40
104.3577486518288
 40
136.3923277826404
 40
165.7618765349545
 40
192.0898419005426
 40
203.3175782009455
 40
214.8790080740754
 40
214.8790080740754
 40
214.8790080740754
 40
214.8790080740754
 10
67.27952390229436
 20
223.8890838378496
 30
0.0
 10
70.98523358022116
 20
224.5601562219534
 30
0.0
 10
78.38397943955192
 20
224.8115782593045
 30
0.0
 10
93.46529366157478
 20
220.7015609869389
 30
0.0
 10
109.7657699022387
 20
206.8581035874508
 30
0.0
 10
121.7424193881605
 20
181.7236265671018
 30
0.0
 10
125.7431406028868
 20
151.5873821129137
 30
0.0
 10
121.1753395040214
 20
120.8673749681957
 30
0.0
 10
108.8177993658279
 20
94.0098274928622
 30
0.0
 10
92.8965896686785
 20
77.74883224318675
 30
0.0
 10
77.84906688817631
 20
70.79002117373645
 30
0.0
 10
70.31195407083133
 20
69.60122157537899
 30
0.0
 10
66.43911215138533
 20
69.58915648782924
 30
0.0
  0
SPLINE
  5
70
330
1F
100
AcDbEntity
  8
Linee visibili 2D
100
AcDbSpline
210
0.0
220
0.0
230
1.0
 70
    12
 71
     3
 72
    12
 73
     8
 74
     0
 42
0.0000000001
 43
0.0000000001
 40
-1.0
 40
-1.0
 40
-1.0
 40
-1.0
 40
-0.9375
 40
-0.875
 40
-0.8125
 40
-0.78125
 40
-0.7810354585009769
 40
-0.7810354585009769
 40
-0.7810354585009769
 40
-0.7810354585009769
 10
66.43911215138533
 20
69.58915648782924
 30
0.0
 41
738.243399378708
 10
63.02507697907276
 20
69.5767202915325
 30
0.0
 41
741.1122472075854
 10
56.28527511700685
 20
70.47999713601546
 30
0.0
 41
746.9248319418571
 10
46.72484583607263
 20
74.51872316427689
 30
0.0
 41
755.5808220108835
 10
39.46935100377152
 20
79.96914158451582
 30
0.0
 41
762.5076302138677
 10
35.52063826401073
 20
84.11270177697304
 30
0.0
 41
766.4421109208661
 10
34.25241876097514
 20
85.58996053138493
 30
0.0
 41
767.7282477404648
 10
34.24378806401513
 20
85.6000208686095
 30
0.0
 41
767.7370158262219
  0
SPLINE
  5
71
330
1F
100
AcDbEntity
  8
Linee visibili 2D
100
AcDbSpline
210
0.0
220
0.0
230
1.0
 70
    12
 71
     2
 72
     8
 73
     5
 74
     0
 42
0.0000000001
 43
0.0000000001
 40
-282.2091653857025
 40
-282.2091653857025
 40
-282.2091653857025
 40
-219.8281202098098
 40
-219.8281202098098
 40
-146.5520801398732
 40
-146.5520801398732
 40
-146.5520801398732
 10
21.20102326758247
 20
168.5386210899348
 30
0.0
 41
653.7732533580421
 10
-2.846204259249229
 20
157.728737796462
 30
0.0
 41
549.5915035815195
 10
9.590342704097665
 20
123.7234847256379
 30
0.0
 41
744.3430358830955
 10
24.53921084697941
 20
82.84879130637445
 30
0.0
 41
537.0823217293357
 10
58.90829833161123
 20
83.52302876731319
 30
0.0
 41
729.6950516580085
  0
SPLINE
  5
72
330
1F
100
AcDbEntity
  8
Linee visibili 2D
100
AcDbSpline
210
0.0
220
0.0
230
1.0
 70
    12
 71
     2
 72
     6
 73
     3
 74
     0
 42
0.0000000001
 43
0.0000000001
 40
-146.5520801398732
 40
-146.5520801398732
 40
-146.5520801398732
 40
-115.4528271642235
 40
-115.4528271642235
 40
-115.4528271642235
 10
58.90829833161123
 20
83.52302876731319
 30
0.0
 41
729.6950516580085
 10
71.34302322589721
 20
83.76696766571841
 30
0.0
 41
630.029149628236
 10
78.37063016985464
 20
93.00040617472989
 30
0.0
 41
606.8456275429223
  0
SPLINE
  5
73
330
1F
100
AcDbEntity
  8
Linee visibili 2D
100
AcDbSpline
210
0.0
220
0.0
230
1.0
 70
    24
 71
     2
 72
     6
 73
     3
 74
     0
 42
0.0000000001
 43
0.0000000001
 40
0.0
 40
0.0
 40
0.0
 40
100.5733984748445
 40
100.5733984748445
 40
100.5733984748445
 10
10.98138404733899
 20
109.0407414671464
 30
0.0
 10
10.39159753369785
 20
58.75750099814631
 30
0.0
 10
9.801811020056713
 20
8.474260529146175
 30
0.0
  0
SPLINE
  5
74
330
1F
100
AcDbEntity
  8
Linee visibili 2D
100
AcDbSpline
210
0.0
220
0.0
230
1.0
 70
    24
 71
     2
 72
     6
 73
     3
 74
     0
 42
0.0000000001
 43
0.0000000001
 40
0.0
 40
0.0
 40
0.0
 40
121.1010503254884
 40
121.1010503254884
 40
121.1010503254884
 10
9.801811020056713
 20
8.474260529146175
 30
0.0
 10
70.20390390271398
 20
4.237130264573088
 30
0.0
 10
130.6059967853712
 20
0.0000000000000017
 30
0.0
  0
SPLINE
  5
75
330
1F
100
AcDbEntity
  8
Linee visibili 2D
100
AcDbSpline
210
0.0
220
0.0
230
1.0
 70
    24
 71
     2
 72
     6
 73
     3
 74
     0
 42
0.0000000001
 43
0.0000000001
 40
0.0
 40
0.0
 40
0.0
 40
120.2016635704246
 40
120.2016635704246
 40
120.2016635704246
 10
130.1407956660531
 20
266.0
 30
0.0
 10
71.33599354762931
 20
253.586087277276
 30
0.0
 10
12.53119142920556
 20
241.172174554552
 30
0.0
  0
SPLINE
  5
76
330
1F
100
AcDbEntity
  8
Linee visibili 2D
100
AcDbSpline
210
0.0
220
0.0
230
1.0
 70
    24
 71
     2
 72
     6
 73
     3
 74
     0
 42
0.0000000001
 43
0.0000000001
 40
0.0
 40
0.0
 40
0.0
 40
71.55592693270957
 40
71.55592693270957
 40
71.55592693270957
 10
12.53119142920556
 20
241.172174554552
 30
0.0
 10
12.11157032346597
 20
205.3966719315638
 30
0.0
 10
11.69194921772638
 20
169.6211693085756
 30
0.0
  0
SPLINE
  5
77
330
1F
100
AcDbEntity
  8
Linee visibili 2D
100
AcDbSpline
210
0.0
220
0.0
230
1.0
 70
    24
 71
     2
 72
     6
 73
     3
 74
     0
 42
0.0000000001
 43
0.0000000001
 40
0.0
 40
0.0
 40
0.0
 40
92.69247183264744
 40
92.69247183264744
 40
92.69247183264744
 10
13.73969017119225
 20
104.9953914752932
 30
0.0
 10
13.21078429213729
 20
58.65217360921667
 30
0.0
 10
12.68187841308233
 20
12.30895574314014
 30
0.0
  0
SPLINE
  5
78
330
1F
100
AcDbEntity
  8
Linee visibili 2D
100
AcDbSpline
210
0.0
220
0.0
230
1.0
 70
    12
 71
     2
 72
    12
 73
     9
 74
     0
 42
0.0000000001
 43
0.0000000001
 40
0.0
 40
0.0
 40
0.0
 40
158.0043253562336
 40
158.0043253562336
 40
414.9955223331212
 40
414.9955223331212
 40
572.9998476893549
 40
572.9998476893549
 40
650.1257466806707
 40
650.1257466806707
 40
650.1257466806707
 10
12.68187841308233
 20
12.30895574314014
 30
0.0
 41
780.510652896733
 10
66.09431633747789
 20
8.822480100151227
 30
0.0
 41
733.2231694855102
 10
126.8711174917792
 20
4.855298576192546
 30
0.0
 41
685.9356860742874
 10
126.697986207198
 20
134.7129597355878
 30
0.0
 41
696.0169277624084
 10
126.5297986497052
 20
260.8625629397536
 30
0.0
 41
706.0981694505294
 10
67.4009600592
 20
248.654857867474
 30
0.0
 41
753.3856528617522
 10
15.25637970667854
 20
237.8891186235515
 30
0.0
 41
800.673136272975
 10
14.87836137691256
 20
204.7668061149121
 30
0.0
 41
797.6476442044082
 10
14.49746446779813
 20
171.3922698455378
 30
0.0
 41
794.6221521358414
  0
SPLINE
  5
79
330
1F
100
AcDbEntity
  8
Linee visibili 2D
100
AcDbSpline
210
0.0
220
0.0
230
1.0
 70
    24
 71
     2
 72
     6
 73
     3
 74
     0
 42
0.0000000001
 43
0.0000000001
 40
0.0
 40
0.0
 40
0.0
 40
26.67826689601052
 40
26.67826689601052
 40
26.67826689601052
 10
157.0601503229384
 20
3.450751394347722
 30
0.0
 10
143.8330735541549
 20
1.725375697173862
 30
0.0
 10
130.6059967853712
 20
0.0000000000000017
 30
0.0
  0
SPLINE
  5
7A
330
1F
100
AcDbEntity
  8
Linee visibili 2D
100
AcDbSpline
210
0.0
220
0.0
230
1.0
 70
    24
 71
     2
 72
     6
 73
     3
 74
     0
 42
0.0000000001
 43
0.0000000001
 40
0.0
 40
0.0
 40
0.0
 40
266.0004067893157
 40
266.0004067893157
 40
266.0004067893157
 10
130.6059967853712
 20
0.0000000000000017
 30
0.0
 10
130.3733962257122
 20
133.0
 30
0.0
 10
130.1407956660531
 20
266.0
 30
0.0
  0
SPLINE
  5
7B
330
1F
100
AcDbEntity
  8
Linee visibili 2D
100
AcDbSpline
210
0.0
220
0.0
230
1.0
 70
    24
 71
     2
 72
     6
 73
     3
 74
     0
 42
0.0000000001
 43
0.0000000001
 40
-27.63932159357856
 40
-27.63932159357856
 40
-27.63932159357856
 40
0.0
 40
0.0
 40
0.0
 10
130.1407956660531
 20
266.0
 30
0.0
 10
143.0072180702535
 20
260.9563704482779
 30
0.0
 10
155.8736404744539
 20
255.9127408965558
 30
0.0
  0
SPLINE
  5
7C
330
1F
100
AcDbEntity
  8
Linee visibili 2D
100
AcDbSpline
210
0.0
220
0.0
230
1.0
 70
    24
 71
     2
 72
     6
 73
     3
 74
     0
 42
0.0000000001
 43
0.0000000001
 40
-252.4647776404336
 40
-252.4647776404336
 40
-252.4647776404336
 40
0.0
 40
0.0
 40
0.0
 10
155.8736404744539
 20
255.9127408965558
 30
0.0
 10
156.4668953986962
 20
129.6817461454518
 30
0.0
 10
157.0601503229384
 20
3.450751394347722
 30
0.0
  0
SPLINE
  5
7D
330
1F
100
AcDbEntity
  8
Linee visibili 2D
100
AcDbSpline
210
0.0
220
0.0
230
1.0
 70
    11
 71
     3
 72
    21
 73
    17
 74
     0
 42
0.0000000001
 43
0.0000000001
 40
0.0
 40
0.0
 40
0.0
 40
0.0
 40
17.32565095398826
 40
35.03043515427287
 40
54.05417535431689
 40
73.61819795158698
 40
112.6848204242918
 40
130.9408797469574
 40
148.4123012643259
 40
165.1237262735837
 40
182.3031591706726
 40
200.5292690366302
 40
219.5450821972062
 40
257.39268876785
 40
275.2321737457405
 40
292.2244206549875
 40
292.2244206549875
 40
292.2244206549875
 40
292.2244206549875
 10
132.9522872347503
 20
488.4863762786719
 30
0.0
 10
133.7599005020043
 20
494.2011107883159
 30
0.0
 10
132.5777768121909
 20
506.1539379333552
 30
0.0
 10
122.8987738371606
 20
521.8441470888336
 30
0.0
 10
107.2210031313888
 20
532.7900122274519
 30
0.0
 10
81.79606463040555
 20
539.2615768933947
 30
0.0
 10
55.42261782225356
 20
532.5510692535022
 30
0.0
 10
37.97199335100536
 20
513.8678066506292
 30
0.0
 10
32.50068256980382
 20
496.8186944006596
 30
0.0
 10
35.10439950790605
 20
479.4281572214266
 30
0.0
 10
44.95323961884442
 20
464.6671758572566
 30
0.0
 10
60.22789237669402
 20
454.3186765483078
 30
0.0
 10
84.78087707591918
 20
448.0931511193788
 30
0.0
 10
110.4350019556609
 20
454.2774813180063
 30
0.0
 10
127.923522172939
 20
471.7767876053708
 30
0.0
 10
132.181805260779
 20
482.8719839664037
 30
0.0
 10
132.9522872078962
 20
488.4863760846352
 30
0.0
  0
SPLINE
  5
7E
330
1F
100
AcDbEntity
  8
Linee visibili 2D
100
AcDbSpline
210
0.0
220
0.0
230
1.0
 70
    15
 71
     2
 72
    12
 73
     9
 74
     0
 42
0.0000000001
 43
0.0000000001
 40
0.0
 40
0.0
 40
0.0
 40
158.0043253562336
 40
158.0043253562336
 40
414.9955223331212
 40
414.9955223331212
 40
572.9998476893549
 40
572.9998476893549
 40
829.9910446662425
 40
829.9910446662425
 40
829.9910446662425
 10
4.495674643766435
 20
373.6913680097766
 30
0.0
 41
1.0
 10
83.49783732188325
 20
373.6913680097766
 30
0.0
 41
1.0
 10
162.5000000000001
 20
373.6913680097766
 30
0.0
 41
1.0
 10
162.5000000000001
 20
502.1869664982204
 30
0.0
 41
1.0
 10
162.5000000000001
 20
630.6825649866643
 30
0.0
 41
1.0
 10
83.49783732188325
 20
630.6825649866643
 30
0.0
 41
1.0
 10
4.495674643766435
 20
630.6825649866643
 30
0.0
 41
1.0
 10
4.495674643766435
 20
502.1869664982204
 30
0.0
 41
1.0
 10
4.495674643766435
 20
373.6913680097766
 30
0.0
 41
1.0
  0
ENDSEC
  0
SECTION
  2
OBJECTS
  0
DICTIONARY
  5
C
330
0
100
AcDbDictionary
281
     1
  3
ACAD_GROUP
350
D
  3
ACAD_LAYOUT
350
1A
  3
ACAD_MLEADERSTYLE
350
80
  3
ACAD_MLINESTYLE
350
17
  3
ACAD_PLOTSETTINGS
350
19
  3
ACAD_PLOTSTYLENAME
350
E
  3
ACAD_TABLESTYLE
350
7F
  3
ACAD_VISUALSTYLE
350
2A
  0
DICTIONARY
  5
D
102
{ACAD_REACTORS
330
C
102
}
330
C
100
AcDbDictionary
281
     1
  0
DICTIONARY
  5
1A
102
{ACAD_REACTORS
330
C
102
}
330
C
100
AcDbDictionary
281
     1
  3
Layout1
350
1E
  3
Layout2
350
26
  3
Model
350
22
  0
DICTIONARY
  5
80
102
{ACAD_REACTORS
330
C
102
}
330
C
100
AcDbDictionary
281
     1
  0
DICTIONARY
  5
17
102
{ACAD_REACTORS
330
C
102
}
330
C
100
AcDbDictionary
281
     1
  3
Standard
350
18
  0
DICTIONARY
  5
19
102
{ACAD_REACTORS
330
C
102
}
330
C
100
AcDbDictionary
281
     1
  0
ACDBDICTIONARYWDFLT
  5
E
102
{ACAD_REACTORS
330
C
102
}
330
C
100
AcDbDictionary
281
     1
  3
Normal
350
F
100
AcDbDictionaryWithDefault
340
F
  0
DICTIONARY
  5
7F
102
{ACAD_REACTORS
330
C
102
}
330
C
100
AcDbDictionary
281
     1
  0
DICTIONARY
  5
2A
102
{ACAD_REACTORS
330
C
102
}
330
C
100
AcDbDictionary
281
     1
  3
2dWireframe
350
2F
  3
3D Hidden
350
31
  3
3dWireframe
350
30
  3
Basic
350
32
  3
Brighten
350
36
  3
ColorChange
350
3A
  3
Conceptual
350
34
  3
Dim
350
35
  3
Facepattern
350
39
  3
Flat
350
2B
  3
FlatWithEdges
350
2C
  3
Gouraud
350
2D
  3
GouraudWithEdges
350
2E
  3
Linepattern
350
38
  3
Realistic
350
33
  3
Thicken
350
37
  0
LAYOUT
  5
1E
102
{ACAD_REACTORS
330
1A
102
}
330
1A
100
AcDbPlotSettings
  1

  2
none_device
  4

  6

 40
0.0
 41
0.0
 42
0.0
 43
0.0
 44
0.0
 45
0.0
 46
0.0
 47
0.0
 48
0.0
 49
0.0
140
0.0
141
0.0
142
1.0
143
1.0
 70
   688
 72
     0
 73
     0
 74
     5
  7

 75
    16
 76
     0
 77
     2
 78
   300
147
1.0
148
0.0
149
0.0
100
AcDbLayout
  1
Layout1
 70
     1
 71
     1
 10
0.0
 20
0.0
 11
12.0
 21
9.0
 12
0.0
 22
0.0
 32
0.0
 14
1.000000000000000E+20
 24
1.000000000000000E+20
 34
1.000000000000000E+20
 15
-1.000000000000000E+20
 25
-1.000000000000000E+20
 35
-1.000000000000000E+20
146
0.0
 13
0.0
 23
0.0
 33
0.0
 16
1.0
 26
0.0
 36
0.0
 17
0.0
 27
1.0
 37
0.0
 76
     0
330
1B
  0
LAYOUT
  5
26
102
{ACAD_REACTORS
330
1A
102
}
330
1A
100
AcDbPlotSettings
  1

  2
none_device
  4

  6

 40
0.0
 41
0.0
 42
0.0
 43
0.0
 44
0.0
 45
0.0
 46
0.0
 47
0.0
 48
0.0
 49
0.0
140
0.0
141
0.0
142
1.0
143
1.0
 70
   688
 72
     0
 73
     0
 74
     5
  7

 75
    16
 76
     0
 77
     2
 78
   300
147
1.0
148
0.0
149
0.0
100
AcDbLayout
  1
Layout2
 70
     1
 71
     2
 10
0.0
 20
0.0
 11
0.0
 21
0.0
 12
0.0
 22
0.0
 32
0.0
 14
0.0
 24
0.0
 34
0.0
 15
0.0
 25
0.0
 35
0.0
146
0.0
 13
0.0
 23
0.0
 33
0.0
 16
1.0
 26
0.0
 36
0.0
 17
0.0
 27
1.0
 37
0.0
 76
     0
330
23
  0
LAYOUT
  5
22
102
{ACAD_REACTORS
330
1A
102
}
330
1A
100
AcDbPlotSettings
  1

  2
none_device
  4

  6

 40
0.0
 41
0.0
 42
0.0
 43
0.0
 44
0.0
 45
0.0
 46
0.0
 47
0.0
 48
0.0
 49
0.0
140
0.0
141
0.0
142
1.0
143
1.0
 70
  1712
 72
     0
 73
     0
 74
     0
  7

 75
     0
 76
     0
 77
     2
 78
   300
147
1.0
148
0.0
149
0.0
100
AcDbLayout
  1
Model
 70
     1
 71
     0
 10
0.0
 20
0.0
 11
12.0
 21
9.0
 12
0.0
 22
0.0
 32
0.0
 14
0.0
 24
0.0
 34
0.0
 15
383.0089745733023
 25
635.2116761212325
 35
0.0
146
0.0
 13
0.0
 23
0.0
 33
0.0
 16
1.0
 26
0.0
 36
0.0
 17
0.0
 27
1.0
 37
0.0
 76
     0
330
1F
331
29
  0
MLINESTYLE
  5
18
102
{ACAD_REACTORS
330
17
102
}
330
17
100
AcDbMlineStyle
  2
Standard
 70
     0
  3

 62
   256
 51
90.0
 52
90.0
 71
     2
 49
0.5
 62
   256
  6
BYLAYER
 49
-0.5
 62
   256
  6
BYLAYER
  0
ACDBPLACEHOLDER
  5
F
102
{ACAD_REACTORS
330
E
102
}
330
E
  0
VISUALSTYLE
  5
2F
102
{ACAD_REACTORS
330
2A
102
}
330
2A
100
AcDbVisualStyle
  2
2dWireframe
 70
     4
 71
     0
 72
     2
 73
     0
 90
        0
 40
-0.6
 41
-30.0
 62
     5
 63
     7
421
 16777215
 74
     1
 91
        4
 64
     7
 65
   257
 75
     1
175
     1
 42
1.0
 92
        0
 66
   257
 43
1.0
 76
     1
 77
     6
 78
     2
 67
     7
 79
     5
170
     0
171
     0
290
     0
174
     0
 93
        1
 44
0.0
173
     0
291
     0
 45
0.0
1001
ACAD
1000
AcDbSavedByObjectVersion
1070
     0
  0
VISUALSTYLE
  5
31
102
{ACAD_REACTORS
330
2A
102
}
330
2A
100
AcDbVisualStyle
  2
3D Hidden
 70
     6
 71
     1
 72
     2
 73
     2
 90
        0
 40
-0.6
 41
-30.0
 62
     5
 63
     7
421
 16777215
 74
     2
 91
        2
 64
     7
 65
   257
 75
     2
175
     1
 42
40.0
 92
        0
 66
   257
 43
1.0
 76
     1
 77
     6
 78
     2
 67
     7
 79
     3
170
     0
171
     0
290
     0
174
     0
 93
        1
 44
0.0
173
     0
291
     0
 45
0.0
1001
ACAD
1000
AcDbSavedByObjectVersion
1070
     0
  0
VISUALSTYLE
  5
30
102
{ACAD_REACTORS
330
2A
102
}
330
2A
100
AcDbVisualStyle
  2
3dWireframe
 70
     5
 71
     0
 72
     2
 73
     0
 90
        0
 40
-0.6
 41
-30.0
 62
     5
 63
     7
421
 16777215
 74
     1
 91
        4
 64
     7
 65
   257
 75
     1
175
     1
 42
1.0
 92
        0
 66
   257
 43
1.0
 76
     1
 77
     6
 78
     2
 67
     7
 79
     5
170
     0
171
     0
290
     0
174
     0
 93
        1
 44
0.0
173
     0
291
     0
 45
0.0
1001
ACAD
1000
AcDbSavedByObjectVersion
1070
     0
  0
VISUALSTYLE
  5
32
102
{ACAD_REACTORS
330
2A
102
}
330
2A
100
AcDbVisualStyle
  2
Basic
 70
     7
 71
     1
 72
     0
 73
     1
 90
        0
 40
-0.6
 41
-30.0
 62
     5
 63
     7
421
 16777215
 74
     0
 91
        4
 64
     7
 65
   257
 75
     1
175
     1
 42
1.0
 92
        8
 66
     7
 43
1.0
 76
     1
 77
     6
 78
     2
 67
     7
 79
     5
170
     0
171
     0
290
     0
174
     0
 93
        1
 44
0.0
173
     0
291
     1
 45
0.0
1001
ACAD
1000
AcDbSavedByObjectVersion
1070
     0
  0
VISUALSTYLE
  5
36
102
{ACAD_REACTORS
330
2A
102
}
330
2A
100
AcDbVisualStyle
  2
Brighten
 70
    12
 71
     2
 72
     2
 73
     0
 90
        0
 40
-0.6
 41
-30.0
 62
     5
 63
     7
421
 16777215
 74
     1
 91
        4
 64
     7
 65
   257
 75
     1
175
     1
 42
1.0
 92
        8
 66
     7
 43
1.0
 76
     1
 77
     6
 78
     2
 67
     7
 79
     5
170
     0
171
     0
290
     0
174
     0
 93
        1
 44
50.0
173
     0
291
     1
 45
0.0
1001
ACAD
1000
AcDbSavedByObjectVersion
1070
     0
  0
VISUALSTYLE
  5
3A
102
{ACAD_REACTORS
330
2A
102
}
330
2A
100
AcDbVisualStyle
  2
ColorChange
 70
    16
 71
     2
 72
     2
 73
     3
 90
        0
 40
-0.6
 41
-30.0
 62
     5
 63
     8
421
  8421504
 74
     1
 91
        4
 64
     7
 65
   257
 75
     1
175
     1
 42
1.0
 92
        8
 66
     8
424
  8421504
 43
1.0
 76
     1
 77
     6
 78
     2
 67
     7
 79
     5
170
     0
171
     0
290
     0
174
     0
 93
        1
 44
0.0
173
     0
291
     1
 45
0.0
1001
ACAD
1000
AcDbSavedByObjectVersion
1070
     0
  0
VISUALSTYLE
  5
34
102
{ACAD_REACTORS
330
2A
102
}
330
2A
100
AcDbVisualStyle
  2
Conceptual
 70
     9
 71
     3
 72
     2
 73
     0
 90
        0
 40
-0.6
 41
-30.0
 62
     5
 63
     7
421
 16777215
 74
     2
 91
        2
 64
     7
 65
   257
 75
     1
175
     1
 42
40.0
 92
        8
 66
     7
 43
1.0
 76
     1
 77
     6
 78
     2
 67
     7
 79
     3
170
     0
171
     0
290
     0
174
     0
 93
        1
 44
0.0
173
     0
291
     0
 45
0.0
1001
ACAD
1000
AcDbSavedByObjectVersion
1070
     0
  0
VISUALSTYLE
  5
35
102
{ACAD_REACTORS
330
2A
102
}
330
2A
100
AcDbVisualStyle
  2
Dim
 70
    11
 71
     2
 72
     2
 73
     0
 90
        0
 40
-0.6
 41
-30.0
 62
     5
 63
     7
421
 16777215
 74
     1
 91
        4
 64
     7
 65
   257
 75
     1
175
     1
 42
1.0
 92
        8
 66
     7
 43
1.0
 76
     1
 77
     6
 78
     2
 67
     7
 79
     5
170
     0
171
     0
290
     0
174
     0
 93
        1
 44
-50.0
173
     0
291
     1
 45
0.0
1001
ACAD
1000
AcDbSavedByObjectVersion
1070
     0
  0
VISUALSTYLE
  5
39
102
{ACAD_REACTORS
330
2A
102
}
330
2A
100
AcDbVisualStyle
  2
Facepattern
 70
    15
 71
     2
 72
     2
 73
     0
 90
        0
 40
-0.6
 41
-30.0
 62
     5
 63
     7
421
 16777215
 74
     1
 91
        4
 64
     7
 65
   257
 75
     1
175
     1
 42
1.0
 92
        8
 66
     7
 43
1.0
 76
     1
 77
     6
 78
     2
 67
     7
 79
     5
170
     0
171
     0
290
     0
174
     0
 93
        1
 44
0.0
173
     0
291
     1
 45
0.0
1001
ACAD
1000
AcDbSavedByObjectVersion
1070
     0
  0
VISUALSTYLE
  5
2B
102
{ACAD_REACTORS
330
2A
102
}
330
2A
100
AcDbVisualStyle
  2
Flat
 70
     0
 71
     2
 72
     1
 73
     1
 90
        2
 40
-0.6
 41
30.0
 62
     5
 63
     7
421
 16777215
 74
     0
 91
        4
 64
     7
 65
   257
 75
     1
175
     1
 42
1.0
 92
        8
 66
     7
 43
1.0
 76
     1
 77
     6
 78
     2
 67
     7
 79
     5
170
     0
171
     0
290
     0
174
     0
 93
       13
 44
0.0
173
     0
291
     1
 45
0.0
1001
ACAD
1000
AcDbSavedByObjectVersion
1070
     0
  0
VISUALSTYLE
  5
2C
102
{ACAD_REACTORS
330
2A
102
}
330
2A
100
AcDbVisualStyle
  2
FlatWithEdges
 70
     1
 71
     2
 72
     1
 73
     1
 90
        2
 40
-0.6
 41
30.0
 62
     5
 63
     7
421
 16777215
 74
     1
 91
        4
 64
     7
 65
   257
 75
     1
175
     1
 42
1.0
 92
        0
 66
   257
 43
1.0
 76
     1
 77
     6
 78
     2
 67
     7
 79
     5
170
     0
171
     0
290
     0
174
     0
 93
       13
 44
0.0
173
     0
291
     1
 45
0.0
1001
ACAD
1000
AcDbSavedByObjectVersion
1070
     0
  0
VISUALSTYLE
  5
2D
102
{ACAD_REACTORS
330
2A
102
}
330
2A
100
AcDbVisualStyle
  2
Gouraud
 70
     2
 71
     2
 72
     2
 73
     1
 90
        2
 40
-0.6
 41
30.0
 62
     5
 63
     7
421
 16777215
 74
     0
 91
        4
 64
     7
 65
   257
 75
     1
175
     1
 42
1.0
 92
        0
 66
     7
 43
1.0
 76
     1
 77
     6
 78
     2
 67
     7
 79
     5
170
     0
171
     0
290
     0
174
     0
 93
       13
 44
0.0
173
     0
291
     1
 45
0.0
1001
ACAD
1000
AcDbSavedByObjectVersion
1070
     0
  0
VISUALSTYLE
  5
2E
102
{ACAD_REACTORS
330
2A
102
}
330
2A
100
AcDbVisualStyle
  2
GouraudWithEdges
 70
     3
 71
     2
 72
     2
 73
     1
 90
        2
 40
-0.6
 41
30.0
 62
     5
 63
     7
421
 16777215
 74
     1
 91
        4
 64
     7
 65
   257
 75
     1
175
     1
 42
1.0
 92
        0
 66
   257
 43
1.0
 76
     1
 77
     6
 78
     2
 67
     7
 79
     5
170
     0
171
     0
290
     0
174
     0
 93
       13
 44
0.0
173
     0
291
     1
 45
0.0
1001
ACAD
1000
AcDbSavedByObjectVersion
1070
     0
  0
VISUALSTYLE
  5
38
102
{ACAD_REACTORS
330
2A
102
}
330
2A
100
AcDbVisualStyle
  2
Linepattern
 70
    14
 71
     2
 72
     2
 73
     0
 90
        0
 40
-0.6
 41
-30.0
 62
     5
 63
     7
421
 16777215
 74
     1
 91
        4
 64
     7
 65
   257
 75
     7
175
     7
 42
1.0
 92
        8
 66
     7
 43
1.0
 76
     1
 77
     6
 78
     2
 67
     7
 79
     5
170
     0
171
     0
290
     0
174
     0
 93
        1
 44
0.0
173
     0
291
     1
 45
0.0
1001
ACAD
1000
AcDbSavedByObjectVersion
1070
     0
  0
VISUALSTYLE
  5
33
102
{ACAD_REACTORS
330
2A
102
}
330
2A
100
AcDbVisualStyle
  2
Realistic
 70
     8
 71
     2
 72
     2
 73
     0
 90
        0
 40
-0.6
 41
-30.0
 62
     5
 63
     7
421
 16777215
 74
     1
 91
        0
 64
     7
 65
   257
 75
     1
175
     1
 42
1.0
 92
        8
 66
     8
424
  7895160
 43
1.0
 76
     1
 77
     6
 78
     2
 67
     7
 79
     5
170
     0
171
     0
290
     0
174
     0
 93
       13
 44
0.0
173
     0
291
     0
 45
0.0
1001
ACAD
1000
AcDbSavedByObjectVersion
1070
     0
  0
VISUALSTYLE
  5
37
102
{ACAD_REACTORS
330
2A
102
}
330
2A
100
AcDbVisualStyle
  2
Thicken
 70
    13
 71
     2
 72
     2
 73
     0
 90
        0
 40
-0.6
 41
-30.0
 62
     5
 63
     7
421
 16777215
 74
     1
 91
        4
 64
     7
 65
   257
 75
     1
175
     1
 42
1.0
 92
       12
 66
     7
 43
1.0
 76
     1
 77
     6
 78
     2
 67
     7
 79
     5
170
     0
171
     0
290
     0
174
     0
 93
        1
 44
0.0
173
     0
291
     1
 45
0.0
1001
ACAD
1000
AcDbSavedByObjectVersion
1070
     0
  0
ENDSEC
  0
EOF
