  0
SECTION
  2
HEADER
  9
$ACADVER
  1
AC1018
  9
$ACADMAINTVER
 70
     0
  9
$DWGCODEPAGE
  3
ANSI_1252
  9
$INSBASE
 10
0.0
 20
0.0
 30
0.0
  9
$EXTMIN
 10
0.0000000000000568
 20
0.0437782158745167
 30
0.0
  9
$EXTMAX
 10
1594.829991560032
 20
1524.245036571367
 30
0.0
  9
$LIMMIN
 10
0.0
 20
0.0
  9
$LIMMAX
 10
12.0
 20
9.0
  9
$ORTHOMODE
 70
     0
  9
$REGENMODE
 70
     1
  9
$FILLMODE
 70
     1
  9
$QTEXTMODE
 70
     0
  9
$MIRRTEXT
 70
     1
  9
$LTSCALE
 40
1.0
  9
$ATTMODE
 70
     1
  9
$TEXTSIZE
 40
0.2
  9
$TRACEWID
 40
0.05
  9
$TEXTSTYLE
  7
Standard
  9
$CLAYER
  8
Predefinito
  9
$CELTYPE
  6
ByLayer
  9
$CECOLOR
 62
   256
  9
$CELTSCALE
 40
1.0
  9
$DISPSILH
 70
     0
  9
$DIMSCALE
 40
1.0
  9
$DIMASZ
 40
0.18
  9
$DIMEXO
 40
0.0625
  9
$DIMDLI
 40
0.38
  9
$DIMRND
 40
0.0
  9
$DIMDLE
 40
0.0
  9
$DIMEXE
 40
0.18
  9
$DIMTP
 40
0.0
  9
$DIMTM
 40
0.0
  9
$DIMTXT
 40
0.18
  9
$DIMCEN
 40
0.09
  9
$DIMTSZ
 40
0.0
  9
$DIMTOL
 70
     0
  9
$DIMLIM
 70
     0
  9
$DIMTIH
 70
     1
  9
$DIMTOH
 70
     1
  9
$DIMSE1
 70
     0
  9
$DIMSE2
 70
     0
  9
$DIMTAD
 70
     0
  9
$DIMZIN
 70
     0
  9
$DIMBLK
  1

  9
$DIMASO
 70
     1
  9
$DIMSHO
 70
     1
  9
$DIMPOST
  1

  9
$DIMAPOST
  1

  9
$DIMALT
 70
     0
  9
$DIMALTD
 70
     2
  9
$DIMALTF
 40
25.4
  9
$DIMLFAC
 40
1.0
  9
$DIMTOFL
 70
     0
  9
$DIMTVP
 40
0.0
  9
$DIMTIX
 70
     0
  9
$DIMSOXD
 70
     0
  9
$DIMSAH
 70
     0
  9
$DIMBLK1
  1

  9
$DIMBLK2
  1

  9
$DIMSTYLE
  2
Standard
  9
$DIMCLRD
 70
     0
  9
$DIMCLRE
 70
     0
  9
$DIMCLRT
 70
     0
  9
$DIMTFAC
 40
1.0
  9
$DIMGAP
 40
0.09
  9
$DIMJUST
 70
     0
  9
$DIMSD1
 70
     0
  9
$DIMSD2
 70
     0
  9
$DIMTOLJ
 70
     1
  9
$DIMTZIN
 70
     0
  9
$DIMALTZ
 70
     0
  9
$DIMALTTZ
 70
     0
  9
$DIMUPT
 70
     0
  9
$DIMDEC
 70
     4
  9
$DIMTDEC
 70
     4
  9
$DIMALTU
 70
     2
  9
$DIMALTTD
 70
     2
  9
$DIMTXSTY
  7
Standard
  9
$DIMAUNIT
 70
     0
  9
$DIMADEC
 70
     0
  9
$DIMALTRND
 40
0.0
  9
$DIMAZIN
 70
     0
  9
$DIMDSEP
 70
    46
  9
$DIMATFIT
 70
     3
  9
$DIMFRAC
 70
     0
  9
$DIMLDRBLK
  1

  9
$DIMLUNIT
 70
     2
  9
$DIMLWD
 70
    -2
  9
$DIMLWE
 70
    -2
  9
$DIMTMOVE
 70
     2
  9
$LUNITS
 70
     2
  9
$LUPREC
 70
     3
  9
$SKETCHINC
 40
0.1
  9
$FILLETRAD
 40
0.5
  9
$AUNITS
 70
     0
  9
$AUPREC
 70
     0
  9
$MENU
  1
.
  9
$ELEVATION
 40
0.0
  9
$PELEVATION
 40
0.0
  9
$THICKNESS
 40
0.0
  9
$LIMCHECK
 70
     0
  9
$CHAMFERA
 40
0.5
  9
$CHAMFERB
 40
0.5
  9
$CHAMFERC
 40
1.0
  9
$CHAMFERD
 40
0.0
  9
$SKPOLY
 70
     0
  9
$TDCREATE
 40
2458270.676556782
  9
$TDUCREATE
 40
2458270.593223449
  9
$TDUPDATE
 40
2458270.676556794
  9
$TDUUPDATE
 40
2458270.59322346
  9
$TDINDWG
 40
0.0000000116
  9
$TDUSRTIMER
 40
0.0000000116
  9
$USRTIMER
 70
     1
  9
$ANGBASE
 50
0.0
  9
$ANGDIR
 70
     0
  9
$PDMODE
 70
     0
  9
$PDSIZE
 40
0.0
  9
$PLINEWID
 40
0.0
  9
$SPLFRAME
 70
     0
  9
$SPLINETYPE
 70
     6
  9
$SPLINESEGS
 70
     8
  9
$HANDSEED
  5
208
  9
$SURFTAB1
 70
     6
  9
$SURFTAB2
 70
     6
  9
$SURFTYPE
 70
     6
  9
$SURFU
 70
     6
  9
$SURFV
 70
     6
  9
$UCSBASE
  2

  9
$UCSNAME
  2

  9
$UCSORG
 10
0.0
 20
0.0
 30
0.0
  9
$UCSXDIR
 10
1.0
 20
0.0
 30
0.0
  9
$UCSYDIR
 10
0.0
 20
1.0
 30
0.0
  9
$UCSORTHOREF
  2

  9
$UCSORTHOVIEW
 70
     0
  9
$UCSORGTOP
 10
0.0
 20
0.0
 30
0.0
  9
$UCSORGBOTTOM
 10
0.0
 20
0.0
 30
0.0
  9
$UCSORGLEFT
 10
0.0
 20
0.0
 30
0.0
  9
$UCSORGRIGHT
 10
0.0
 20
0.0
 30
0.0
  9
$UCSORGFRONT
 10
0.0
 20
0.0
 30
0.0
  9
$UCSORGBACK
 10
0.0
 20
0.0
 30
0.0
  9
$PUCSBASE
  2

  9
$PUCSNAME
  2

  9
$PUCSORG
 10
0.0
 20
0.0
 30
0.0
  9
$PUCSXDIR
 10
1.0
 20
0.0
 30
0.0
  9
$PUCSYDIR
 10
0.0
 20
1.0
 30
0.0
  9
$PUCSORTHOREF
  2

  9
$PUCSORTHOVIEW
 70
     0
  9
$PUCSORGTOP
 10
0.0
 20
0.0
 30
0.0
  9
$PUCSORGBOTTOM
 10
0.0
 20
0.0
 30
0.0
  9
$PUCSORGLEFT
 10
0.0
 20
0.0
 30
0.0
  9
$PUCSORGRIGHT
 10
0.0
 20
0.0
 30
0.0
  9
$PUCSORGFRONT
 10
0.0
 20
0.0
 30
0.0
  9
$PUCSORGBACK
 10
0.0
 20
0.0
 30
0.0
  9
$USERI1
 70
     0
  9
$USERI2
 70
     0
  9
$USERI3
 70
     0
  9
$USERI4
 70
     0
  9
$USERI5
 70
     0
  9
$USERR1
 40
0.0
  9
$USERR2
 40
0.0
  9
$USERR3
 40
0.0
  9
$USERR4
 40
0.0
  9
$USERR5
 40
0.0
  9
$WORLDVIEW
 70
     1
  9
$SHADEDGE
 70
     3
  9
$SHADEDIF
 70
    70
  9
$TILEMODE
 70
     1
  9
$MAXACTVP
 70
    64
  9
$PINSBASE
 10
0.0
 20
0.0
 30
0.0
  9
$PLIMCHECK
 70
     0
  9
$PEXTMIN
 10
1.000000000000000E+20
 20
1.000000000000000E+20
 30
1.000000000000000E+20
  9
$PEXTMAX
 10
-1.000000000000000E+20
 20
-1.000000000000000E+20
 30
-1.000000000000000E+20
  9
$PLIMMIN
 10
0.0
 20
0.0
  9
$PLIMMAX
 10
12.0
 20
9.0
  9
$UNITMODE
 70
     0
  9
$VISRETAIN
 70
     1
  9
$PLINEGEN
 70
     0
  9
$PSLTSCALE
 70
     1
  9
$TREEDEPTH
 70
  3020
  9
$CMLSTYLE
  2
Standard
  9
$CMLJUST
 70
     0
  9
$CMLSCALE
 40
1.0
  9
$PROXYGRAPHICS
 70
     1
  9
$MEASUREMENT
 70
     0
  9
$CELWEIGHT
370
    -1
  9
$ENDCAPS
280
     0
  9
$JOINSTYLE
280
     0
  9
$LWDISPLAY
290
     0
  9
$INSUNITS
 70
     4
  9
$HYPERLINKBASE
  1

  9
$STYLESHEET
  1

  9
$XEDIT
290
     1
  9
$CEPSNTYPE
380
     0
  9
$PSTYLEMODE
290
     1
  9
$FINGERPRINTGUID
  2
{74552D98-8BC7-4DEB-8703-8FC96054D990}
  9
$VERSIONGUID
  2
{FAEB1C32-E019-11D5-929B-00C0DF256EC4}
  9
$EXTNAMES
290
     1
  9
$PSVPSCALE
 40
0.0
  9
$OLESTARTUP
290
     0
  9
$SORTENTS
280
   127
  9
$INDEXCTL
280
     0
  9
$HIDETEXT
280
     1
  9
$XCLIPFRAME
290
     0
  9
$HALOGAP
280
     0
  9
$OBSCOLOR
 70
   257
  9
$OBSLTYPE
280
     0
  9
$INTERSECTIONDISPLAY
280
     0
  9
$INTERSECTIONCOLOR
 70
   257
  9
$DIMASSOC
280
     2
  9
$PROJECTNAME
  1

  0
ENDSEC
  0
SECTION
  2
CLASSES
  0
CLASS
  1
ACDBDICTIONARYWDFLT
  2
AcDbDictionaryWithDefault
  3
ObjectDBX Classes
 90
        0
 91
        4
280
     0
281
     0
  0
CLASS
  1
VISUALSTYLE
  2
AcDbVisualStyle
  3
ObjectDBX Classes
 90
     4095
 91
        4
280
     0
281
     0
  0
ENDSEC
  0
SECTION
  2
TABLES
  0
TABLE
  2
VPORT
  5
8
330
0
100
AcDbSymbolTable
 70
     1
  0
VPORT
  5
29
330
8
100
AcDbSymbolTableRecord
100
AcDbViewportTableRecord
  2
*Active
 70
     0
 10
0.0
 20
0.0
 11
1.0
 21
1.0
 12
797.4149957800159
 22
762.1444073936208
 13
0.0
 23
0.0
 14
0.5
 24
0.5
 15
0.5
 25
0.5
 16
0.0
 26
0.0
 36
1.0
 17
0.0
 27
0.0
 37
0.0
 40
1554.685283522603
 41
1.046338193737448
 42
50.0
 43
0.0
 44
0.0
 50
0.0
 51
0.0
 71
     0
 72
   100
 73
     1
 74
     3
 75
     0
 76
     0
 77
     0
 78
     0
281
     0
 65
     1
110
0.0
120
0.0
130
0.0
111
1.0
121
0.0
131
0.0
112
0.0
122
1.0
132
0.0
 79
     0
146
0.0
  0
ENDTAB
  0
TABLE
  2
LTYPE
  5
5
330
0
100
AcDbSymbolTable
 70
     1
  0
LTYPE
  5
14
330
5
100
AcDbSymbolTableRecord
100
AcDbLinetypeTableRecord
  2
ByBlock
 70
     0
  3

 72
    65
 73
     0
 40
0.0
  0
LTYPE
  5
15
330
5
100
AcDbSymbolTableRecord
100
AcDbLinetypeTableRecord
  2
ByLayer
 70
     0
  3

 72
    65
 73
     0
 40
0.0
  0
LTYPE
  5
16
330
5
100
AcDbSymbolTableRecord
100
AcDbLinetypeTableRecord
  2
Continuous
 70
     0
  3
Solid line
 72
    65
 73
     0
 40
0.0
  0
ENDTAB
  0
TABLE
  2
LAYER
  5
2
330
0
100
AcDbSymbolTable
 70
     2
  0
LAYER
  5
10
330
2
100
AcDbSymbolTableRecord
100
AcDbLayerTableRecord
  2
0
 70
     0
 62
     7
  6
Continuous
370
    -3
390
F
  0
LAYER
  5
3B
330
2
100
AcDbSymbolTableRecord
100
AcDbLayerTableRecord
  2
Predefinito
 70
     0
 62
     7
  6
Continuous
370
    -3
390
F
  0
ENDTAB
  0
TABLE
  2
STYLE
  5
3
330
0
100
AcDbSymbolTable
 70
     1
  0
STYLE
  5
11
330
3
100
AcDbSymbolTableRecord
100
AcDbTextStyleTableRecord
  2
Standard
 70
     0
 40
0.0
 41
1.0
 50
0.0
 71
     0
 42
0.2
  3
txt
  4

  0
ENDTAB
  0
TABLE
  2
VIEW
  5
6
330
0
100
AcDbSymbolTable
 70
     0
  0
ENDTAB
  0
TABLE
  2
UCS
  5
7
330
0
100
AcDbSymbolTable
 70
     0
  0
ENDTAB
  0
TABLE
  2
APPID
  5
9
330
0
100
AcDbSymbolTable
 70
     1
  0
APPID
  5
12
330
9
100
AcDbSymbolTableRecord
100
AcDbRegAppTableRecord
  2
ACAD
 70
     0
  0
ENDTAB
  0
TABLE
  2
DIMSTYLE
  5
A
330
0
100
AcDbSymbolTable
 70
     1
100
AcDbDimStyleTable
  0
DIMSTYLE
105
27
330
A
100
AcDbSymbolTableRecord
100
AcDbDimStyleTableRecord
  2
Standard
 70
     0
340
11
  0
ENDTAB
  0
TABLE
  2
BLOCK_RECORD
  5
1
330
0
100
AcDbSymbolTable
 70
     1
  0
BLOCK_RECORD
  5
1F
330
1
100
AcDbSymbolTableRecord
100
AcDbBlockTableRecord
  2
*Model_Space
340
22
  0
BLOCK_RECORD
  5
1B
330
1
100
AcDbSymbolTableRecord
100
AcDbBlockTableRecord
  2
*Paper_Space
340
1E
  0
BLOCK_RECORD
  5
23
330
1
100
AcDbSymbolTableRecord
100
AcDbBlockTableRecord
  2
*Paper_Space0
340
26
  0
ENDTAB
  0
ENDSEC
  0
SECTION
  2
BLOCKS
  0
BLOCK
  5
20
330
1F
100
AcDbEntity
  8
0
100
AcDbBlockBegin
  2
*Model_Space
 70
     0
 10
0.0
 20
0.0
 30
0.0
  3
*Model_Space
  1

  0
ENDBLK
  5
21
330
1F
100
AcDbEntity
  8
0
100
AcDbBlockEnd
  0
BLOCK
  5
1C
330
1B
100
AcDbEntity
 67
     1
  8
0
100
AcDbBlockBegin
  2
*Paper_Space
 70
     0
 10
0.0
 20
0.0
 30
0.0
  3
*Paper_Space
  1

  0
ENDBLK
  5
1D
330
1B
100
AcDbEntity
 67
     1
  8
0
100
AcDbBlockEnd
  0
BLOCK
  5
24
330
23
100
AcDbEntity
  8
0
100
AcDbBlockBegin
  2
*Paper_Space0
 70
     0
 10
0.0
 20
0.0
 30
0.0
  3
*Paper_Space0
  1

  0
ENDBLK
  5
25
330
23
100
AcDbEntity
  8
0
100
AcDbBlockEnd
  0
ENDSEC
  0
SECTION
  2
ENTITIES
  0
SPLINE
  5
3C
330
1F
100
AcDbEntity
  8
Predefinito
100
AcDbSpline
210
0.0
220
0.0
230
1.0
 70
    12
 71
     2
 72
     6
 73
     3
 74
     0
 42
0.0000000001
 43
0.0000000001
 40
0.0
 40
0.0
 40
0.0
 40
4.518443340942547
 40
4.518443340942547
 40
4.518443340942547
 10
1357.315724766356
 20
1273.845719972862
 30
0.0
 41
1.0
 10
1357.094159251053
 20
1271.597368825969
 30
0.0
 41
0.9999865402779095
 10
1356.845871417967
 20
1269.320238904276
 30
0.0
 41
1.0
  0
SPLINE
  5
3D
330
1F
100
AcDbEntity
  8
Predefinito
100
AcDbSpline
210
0.0
220
0.0
230
1.0
 70
    12
 71
     2
 72
     6
 73
     3
 74
     0
 42
0.0000000001
 43
0.0000000001
 40
0.0
 40
0.0
 40
0.0
 40
12.14688299423913
 40
12.14688299423913
 40
12.14688299423913
 10
1356.845871417967
 20
1269.320238904276
 30
0.0
 41
1.0
 10
1356.183659547923
 20
1263.250965715688
 30
0.0
 41
0.9998845881462141
 10
1355.3359221588
 20
1257.194389573376
 30
0.0
 41
1.0
  0
SPLINE
  5
3E
330
1F
100
AcDbEntity
  8
Predefinito
100
AcDbSpline
210
0.0
220
0.0
230
1.0
 70
    12
 71
     2
 72
     6
 73
     3
 74
     0
 42
0.0000000001
 43
0.0000000001
 40
0.0
 40
0.0
 40
0.0
 40
5.265206938619253
 40
5.265206938619253
 40
5.265206938619253
 10
1355.3359221588
 20
1257.194389573376
 30
0.0
 41
1.0
 10
1354.964520084561
 20
1254.545964220717
 30
0.0
 41
0.999983718650395
 10
1354.562147633962
 20
1251.896944850263
 30
0.0
 41
1.0
  0
SPLINE
  5
3F
330
1F
100
AcDbEntity
  8
Predefinito
100
AcDbSpline
210
0.0
220
0.0
230
1.0
 70
    12
 71
     2
 72
     6
 73
     3
 74
     0
 42
0.0000000001
 43
0.0000000001
 40
0.0
 40
0.0
 40
0.0
 40
5.227935214855798
 40
5.227935214855798
 40
5.227935214855798
 10
1354.562147633962
 20
1251.896944850263
 30
0.0
 41
1.0
 10
1354.162052432317
 20
1249.266449249559
 30
0.0
 41
0.9999949484768786
 10
1353.744486999819
 20
1246.633830290654
 30
0.0
 41
1.0
  0
SPLINE
  5
40
330
1F
100
AcDbEntity
  8
Predefinito
100
AcDbSpline
210
0.0
220
0.0
230
1.0
 70
    12
 71
     2
 72
     6
 73
     3
 74
     0
 42
0.0000000001
 43
0.0000000001
 40
0.0
 40
0.0
 40
0.0
 40
4.981269010941337
 40
4.981269010941337
 40
4.981269010941337
 10
1353.744486999819
 20
1246.633830290654
 30
0.0
 41
1.0
 10
1353.345945836853
 20
1244.123074976025
 30
0.0
 41
0.9999984132768678
 10
1352.938035326731
 20
1241.611161156974
 30
0.0
 41
1.0
  0
SPLINE
  5
41
330
1F
100
AcDbEntity
  8
Predefinito
100
AcDbSpline
210
0.0
220
0.0
230
1.0
 70
    12
 71
     2
 72
     6
 73
     3
 74
     0
 42
0.0000000001
 43
0.0000000001
 40
0.0
 40
0.0
 40
0.0
 40
5.018680712643222
 40
5.018680712643222
 40
5.018680712643222
 10
1352.938035326731
 20
1241.611161156974
 30
0.0
 41
1.0
 10
1352.526941568934
 20
1239.080815544359
 30
0.0
 41
0.999999699107626
 10
1352.121040577875
 20
1236.557714575926
 30
0.0
 41
1.0
  0
SPLINE
  5
42
330
1F
100
AcDbEntity
  8
Predefinito
100
AcDbSpline
210
0.0
220
0.0
230
1.0
 70
    12
 71
     2
 72
     6
 73
     3
 74
     0
 42
0.0000000001
 43
0.0000000001
 40
0.0
 40
0.0
 40
0.0
 40
5.103852382062791
 40
5.103852382062791
 40
5.103852382062791
 10
1352.121040577875
 20
1236.557714575926
 30
0.0
 41
1.0
 10
1351.708506091446
 20
1233.992543938309
 30
0.0
 41
0.9999977050103156
 10
1351.307268629701
 20
1231.427536870793
 30
0.0
 41
1.0
  0
SPLINE
  5
43
330
1F
100
AcDbEntity
  8
Predefinito
100
AcDbSpline
210
0.0
220
0.0
230
1.0
 70
    12
 71
     2
 72
     6
 73
     3
 74
     0
 42
0.0000000001
 43
0.0000000001
 40
0.0
 40
0.0
 40
0.0
 40
5.119279225406848
 40
5.119279225406848
 40
5.119279225406848
 10
1351.307268629701
 20
1231.427536870793
 30
0.0
 41
1.0
 10
1350.905142117668
 20
1228.854844947735
 30
0.0
 41
0.9999880298953596
 10
1350.528561327957
 20
1226.280694089957
 30
0.0
 41
1.0
  0
SPLINE
  5
44
330
1F
100
AcDbEntity
  8
Predefinito
100
AcDbSpline
210
0.0
220
0.0
230
1.0
 70
    12
 71
     2
 72
     6
 73
     3
 74
     0
 42
0.0000000001
 43
0.0000000001
 40
0.0
 40
0.0
 40
0.0
 40
5.131650986792713
 40
5.131650986792713
 40
5.131650986792713
 10
1350.528561327957
 20
1226.280694089957
 30
0.0
 41
1.0
 10
1350.151566835636
 20
1223.700339205578
 30
0.0
 41
0.9999806140822408
 10
1349.807215247735
 20
1221.119029105188
 30
0.0
 41
1.0
  0
SPLINE
  5
45
330
1F
100
AcDbEntity
  8
Predefinito
100
AcDbSpline
210
0.0
220
0.0
230
1.0
 70
    12
 71
     2
 72
     6
 73
     3
 74
     0
 42
0.0000000001
 43
0.0000000001
 40
0.0
 40
0.0
 40
0.0
 40
5.153842246900113
 40
5.153842246900113
 40
5.153842246900113
 10
1349.807215247735
 20
1221.119029105188
 30
0.0
 41
1.0
 10
1349.461985663967
 20
1218.526608551603
 30
0.0
 41
0.9999612400456569
 10
1349.163036866841
 20
1215.933460114675
 30
0.0
 41
1.0
  0
SPLINE
  5
46
330
1F
100
AcDbEntity
  8
Predefinito
100
AcDbSpline
210
0.0
220
0.0
230
1.0
 70
    12
 71
     2
 72
     6
 73
     3
 74
     0
 42
0.0000000001
 43
0.0000000001
 40
0.0
 40
0.0
 40
0.0
 40
5.231466115431542
 40
5.231466115431542
 40
5.231466115431542
 10
1349.163036866841
 20
1215.933460114675
 30
0.0
 41
1.0
 10
1348.860267214012
 20
1213.30166120674
 30
0.0
 41
0.9999492637783552
 10
1348.611135570703
 20
1210.670115302867
 30
0.0
 41
1.0
  0
SPLINE
  5
47
330
1F
100
AcDbEntity
  8
Predefinito
100
AcDbSpline
210
0.0
220
0.0
230
1.0
 70
    12
 71
     2
 72
     6
 73
     3
 74
     0
 42
0.0000000001
 43
0.0000000001
 40
0.0
 40
0.0
 40
0.0
 40
5.283635591431116
 40
5.283635591431116
 40
5.283635591431116
 10
1348.611135570703
 20
1210.670115302867
 30
0.0
 41
1.0
 10
1348.360127422792
 20
1208.012501217911
 30
0.0
 41
0.9999245987481786
 10
1348.175752000799
 20
1205.367987281798
 30
0.0
 41
1.0
  0
SPLINE
  5
48
330
1F
100
AcDbEntity
  8
Predefinito
100
AcDbSpline
210
0.0
220
0.0
230
1.0
 70
    12
 71
     2
 72
     6
 73
     3
 74
     0
 42
0.0000000001
 43
0.0000000001
 40
0.0
 40
0.0
 40
0.0
 40
5.782607263976493
 40
5.782607263976493
 40
5.782607263976493
 10
1348.175752000799
 20
1205.367987281798
 30
0.0
 41
1.0
 10
1347.974276381303
 20
1202.474508602447
 30
0.0
 41
0.9998972013831292
 10
1347.855997365851
 20
1199.580025657362
 30
0.0
 41
1.0
  0
SPLINE
  5
49
330
1F
100
AcDbEntity
  8
Predefinito
100
AcDbSpline
210
0.0
220
0.0
230
1.0
 70
    12
 71
     2
 72
     6
 73
     3
 74
     0
 42
0.0000000001
 43
0.0000000001
 40
0.0
 40
0.0
 40
0.0
 40
5.799272788366288
 40
5.799272788366288
 40
5.799272788366288
 10
1347.855997365851
 20
1199.580025657362
 30
0.0
 41
1.0
 10
1347.73756933584
 20
1196.677162717974
 30
0.0
 41
0.9998735327472748
 10
1347.711559012132
 20
1193.776275667502
 30
0.0
 41
1.0
  0
SPLINE
  5
4A
330
1F
100
AcDbEntity
  8
Predefinito
100
AcDbSpline
210
0.0
220
0.0
230
1.0
 70
    12
 71
     2
 72
     6
 73
     3
 74
     0
 42
0.0000000001
 43
0.0000000001
 40
0.0
 40
0.0
 40
0.0
 40
1.482169156713744
 40
1.482169156713744
 40
1.482169156713744
 10
1347.711559012132
 20
1193.776275667502
 30
0.0
 41
1.0
 10
1347.704921204797
 20
1193.034093690508
 30
0.0
 41
0.9999912538437662
 10
1347.70449236484
 20
1192.292925264306
 30
0.0
 41
1.0
  0
SPLINE
  5
4B
330
1F
100
AcDbEntity
  8
Predefinito
100
AcDbSpline
210
0.0
220
0.0
230
1.0
 70
    12
 71
     2
 72
     6
 73
     3
 74
     0
 42
0.0000000001
 43
0.0000000001
 40
0.0
 40
0.0
 40
0.0
 40
5.396652764116677
 40
5.396652764116677
 40
5.396652764116677
 10
1347.70449236484
 20
1192.292925264306
 30
0.0
 41
1.0
 10
1347.702940991199
 20
1189.59430920957
 30
0.0
 41
0.9998830141392329
 10
1347.784058168883
 20
1186.892812733902
 30
0.0
 41
1.0
  0
SPLINE
  5
4C
330
1F
100
AcDbEntity
  8
Predefinito
100
AcDbSpline
210
0.0
220
0.0
230
1.0
 70
    12
 71
     2
 72
     6
 73
     3
 74
     0
 42
0.0000000001
 43
0.0000000001
 40
0.0
 40
0.0
 40
0.0
 40
6.848559424331044
 40
6.848559424331044
 40
6.848559424331044
 10
1347.784058168883
 20
1186.892812733902
 30
0.0
 41
1.0
 10
1347.887004204749
 20
1183.465451998071
 30
0.0
 41
0.9998031120432138
 10
1348.126203579742
 20
1180.039957806944
 30
0.0
 41
1.0
  0
SPLINE
  5
4D
330
1F
100
AcDbEntity
  8
Predefinito
100
AcDbSpline
210
0.0
220
0.0
230
1.0
 70
    12
 71
     2
 72
     6
 73
     3
 74
     0
 42
0.0000000001
 43
0.0000000001
 40
0.0
 40
0.0
 40
0.0
 40
6.587015918925146
 40
6.587015918925146
 40
6.587015918925146
 10
1348.126203579742
 20
1180.039957806944
 30
0.0
 41
1.0
 10
1348.356555776688
 20
1176.744985494106
 30
0.0
 41
0.999817761146284
 10
1348.714291671398
 20
1173.444933813879
 30
0.0
 41
1.0
  0
SPLINE
  5
4E
330
1F
100
AcDbEntity
  8
Predefinito
100
AcDbSpline
210
0.0
220
0.0
230
1.0
 70
    12
 71
     2
 72
     6
 73
     3
 74
     0
 42
0.0000000001
 43
0.0000000001
 40
0.0
 40
0.0
 40
0.0
 40
6.488175536393326
 40
6.488175536393326
 40
6.488175536393326
 10
1348.714291671398
 20
1173.444933813879
 30
0.0
 41
1.0
 10
1349.06757220227
 20
1170.194160331246
 30
0.0
 41
0.9998385763192758
 10
1349.538734895945
 20
1166.949204972646
 30
0.0
 41
1.0
  0
SPLINE
  5
4F
330
1F
100
AcDbEntity
  8
Predefinito
100
AcDbSpline
210
0.0
220
0.0
230
1.0
 70
    12
 71
     2
 72
     6
 73
     3
 74
     0
 42
0.0000000001
 43
0.0000000001
 40
0.0
 40
0.0
 40
0.0
 40
6.404320162180469
 40
6.404320162180469
 40
6.404320162180469
 10
1349.538734895945
 20
1166.949204972646
 30
0.0
 41
1.0
 10
1350.005031614747
 20
1163.745935726696
 30
0.0
 41
0.9998480843566719
 10
1350.584330027886
 20
1160.551946238639
 30
0.0
 41
1.0
  0
SPLINE
  5
50
330
1F
100
AcDbEntity
  8
Predefinito
100
AcDbSpline
210
0.0
220
0.0
230
1.0
 70
    12
 71
     2
 72
     6
 73
     3
 74
     0
 42
0.0000000001
 43
0.0000000001
 40
0.0
 40
0.0
 40
0.0
 40
6.307858196255281
 40
6.307858196255281
 40
6.307858196255281
 10
1350.584330027886
 20
1160.551946238639
 30
0.0
 41
1.0
 10
1351.156397318274
 20
1157.405726514372
 30
0.0
 41
0.9998752874866313
 10
1351.829419738466
 20
1154.270506947113
 30
0.0
 41
1.0
  0
SPLINE
  5
51
330
1F
100
AcDbEntity
  8
Predefinito
100
AcDbSpline
210
0.0
220
0.0
230
1.0
 70
    12
 71
     2
 72
     6
 73
     3
 74
     0
 42
0.0000000001
 43
0.0000000001
 40
0.0
 40
0.0
 40
0.0
 40
3.495169999685737
 40
3.495169999685737
 40
3.495169999685737
 10
1351.829419738466
 20
1154.270506947113
 30
0.0
 41
1.0
 10
1352.208230706586
 20
1152.510736152994
 30
0.0
 41
0.9999622912591122
 10
1352.618710977075
 20
1150.752950645263
 30
0.0
 41
1.0
  0
SPLINE
  5
52
330
1F
100
AcDbEntity
  8
Predefinito
100
AcDbSpline
210
0.0
220
0.0
230
1.0
 70
    12
 71
     2
 72
     6
 73
     3
 74
     0
 42
0.0000000001
 43
0.0000000001
 40
0.0
 40
0.0
 40
0.0
 40
3.461808651038825
 40
3.461808651038825
 40
3.461808651038825
 10
1352.618710977075
 20
1150.752950645263
 30
0.0
 41
1.0
 10
1353.026230318763
 20
1149.011614844354
 30
0.0
 41
0.9999716173537612
 10
1353.461043707021
 20
1147.272322401179
 30
0.0
 41
1.0
  0
SPLINE
  5
53
330
1F
100
AcDbEntity
  8
Predefinito
100
AcDbSpline
210
0.0
220
0.0
230
1.0
 70
    12
 71
     2
 72
     6
 73
     3
 74
     0
 42
0.0000000001
 43
0.0000000001
 40
0.0
 40
0.0
 40
0.0
 40
3.862678710295634
 40
3.862678710295634
 40
3.862678710295634
 10
1353.461043707021
 20
1147.272322401179
 30
0.0
 41
1.0
 10
1353.945277618799
 20
1145.338784225466
 30
0.0
 41
0.9999765680342155
 10
1354.457007237174
 20
1143.408113534391
 30
0.0
 41
1.0
  0
SPLINE
  5
54
330
1F
100
AcDbEntity
  8
Predefinito
100
AcDbSpline
210
0.0
220
0.0
230
1.0
 70
    12
 71
     2
 72
     6
 73
     3
 74
     0
 42
0.0000000001
 43
0.0000000001
 40
0.0
 40
0.0
 40
0.0
 40
3.843525876837084
 40
3.843525876837084
 40
3.843525876837084
 10
1354.457007237174
 20
1143.408113534391
 30
0.0
 41
1.0
 10
1354.966837052707
 20
1141.48686641171
 30
0.0
 41
0.9999914925151107
 10
1355.493179661872
 20
1139.567470976873
 30
0.0
 41
1.0
  0
SPLINE
  5
55
330
1F
100
AcDbEntity
  8
Predefinito
100
AcDbSpline
210
0.0
220
0.0
230
1.0
 70
    12
 71
     2
 72
     6
 73
     3
 74
     0
 42
0.0000000001
 43
0.0000000001
 40
0.0
 40
0.0
 40
0.0
 40
4.464268312202714
 40
4.464268312202714
 40
4.464268312202714
 10
1355.493179661872
 20
1139.567470976873
 30
0.0
 41
1.0
 10
1356.102049002692
 20
1137.348879377368
 30
0.0
 41
0.9999942689948029
 10
1356.727155487563
 20
1135.130131164808
 30
0.0
 41
1.0
  0
SPLINE
  5
56
330
1F
100
AcDbEntity
  8
Predefinito
100
AcDbSpline
210
0.0
220
0.0
230
1.0
 70
    12
 71
     2
 72
     6
 73
     3
 74
     0
 42
0.0000000001
 43
0.0000000001
 40
0.0
 40
0.0
 40
0.0
 40
2.095194691082964
 40
2.095194691082964
 40
2.095194691082964
 10
1356.727155487563
 20
1135.130131164808
 30
0.0
 41
1.0
 10
1357.031083152031
 20
1134.051554771641
 30
0.0
 41
0.9999999683497993
 10
1357.315724766352
 20
1133.043368580457
 30
0.0
 41
1.0
  0
SPLINE
  5
57
330
1F
100
AcDbEntity
  8
Predefinito
100
AcDbSpline
210
0.0
220
0.0
230
1.0
 70
    12
 71
     2
 72
     6
 73
     3
 74
     0
 42
0.0000000001
 43
0.0000000001
 40
0.0
 40
0.0
 40
0.0
 40
11.96409025990339
 40
11.96409025990339
 40
11.96409025990339
 10
1358.515724766358
 20
1352.359377038341
 30
0.0
 41
1.0
 10
1358.904708130001
 20
1346.38968669929
 30
0.0
 41
0.9999235744843665
 10
1359.146459842848
 20
1340.400231331718
 30
0.0
 41
1.0
  0
SPLINE
  5
58
330
1F
100
AcDbEntity
  8
Predefinito
100
AcDbSpline
210
0.0
220
0.0
230
1.0
 70
    12
 71
     2
 72
     6
 73
     3
 74
     0
 42
0.0000000001
 43
0.0000000001
 40
0.0
 40
0.0
 40
0.0
 40
15.32646574705443
 40
15.32646574705443
 40
15.32646574705443
 10
1359.146459842848
 20
1340.400231331718
 30
0.0
 41
1.0
 10
1359.455691008911
 20
1332.730634895634
 30
0.0
 41
0.9998800938597923
 10
1359.52717795246
 20
1325.064817094408
 30
0.0
 41
1.0
  0
SPLINE
  5
59
330
1F
100
AcDbEntity
  8
Predefinito
100
AcDbSpline
210
0.0
220
0.0
230
1.0
 70
    12
 71
     2
 72
     6
 73
     3
 74
     0
 42
0.0000000001
 43
0.0000000001
 40
0.0
 40
0.0
 40
0.0
 40
4.080073843124252
 40
4.080073843124252
 40
4.080073843124252
 10
1359.52717795246
 20
1325.064817094408
 30
0.0
 41
1.0
 10
1359.546204557492
 20
1323.022551884759
 30
0.0
 41
0.9999916744658963
 10
1359.548560937256
 20
1320.982364688838
 30
0.0
 41
1.0
  0
SPLINE
  5
5A
330
1F
100
AcDbEntity
  8
Predefinito
100
AcDbSpline
210
0.0
220
0.0
230
1.0
 70
    12
 71
     2
 72
     6
 73
     3
 74
     0
 42
0.0000000001
 43
0.0000000001
 40
0.0
 40
0.0
 40
0.0
 40
11.26077452653481
 40
11.26077452653481
 40
11.26077452653481
 10
1359.548560937256
 20
1320.982364688838
 30
0.0
 41
1.0
 10
1359.555027278032
 20
1315.351600781669
 30
0.0
 41
0.999936053272323
 10
1359.434006665896
 20
1309.715667887367
 30
0.0
 41
1.0
  0
SPLINE
  5
5B
330
1F
100
AcDbEntity
  8
Predefinito
100
AcDbSpline
210
0.0
220
0.0
230
1.0
 70
    12
 71
     2
 72
     6
 73
     3
 74
     0
 42
0.0000000001
 43
0.0000000001
 40
0.0
 40
0.0
 40
0.0
 40
14.09077506208097
 40
14.09077506208097
 40
14.09077506208097
 10
1359.434006665896
 20
1309.715667887367
 30
0.0
 41
1.0
 10
1359.282565104962
 20
1302.66481687734
 30
0.0
 41
0.9998967763908737
 10
1358.928249383123
 20
1295.614359387262
 30
0.0
 41
1.0
  0
SPLINE
  5
5C
330
1F
100
AcDbEntity
  8
Predefinito
100
AcDbSpline
210
0.0
220
0.0
230
1.0
 70
    12
 71
     2
 72
     6
 73
     3
 74
     0
 42
0.0000000001
 43
0.0000000001
 40
0.0
 40
0.0
 40
0.0
 40
7.114170273243256
 40
7.114170273243256
 40
7.114170273243256
 10
1358.928249383123
 20
1295.614359387262
 30
0.0
 41
1.0
 10
1358.748804235952
 20
1292.048234436319
 30
0.0
 41
0.9999707615349239
 10
1358.515724766281
 20
1288.498724341182
 30
0.0
 41
1.0
  0
SPLINE
  5
5D
330
1F
100
AcDbEntity
  8
Predefinito
100
AcDbSpline
210
0.0
220
0.0
230
1.0
 70
    12
 71
     2
 72
     6
 73
     3
 74
     0
 42
0.0000000001
 43
0.0000000001
 40
0.0
 40
0.0
 40
0.0
 40
2.562674454024684
 40
2.562674454024684
 40
2.562674454024684
 10
1358.515724766355
 20
1128.797025903116
 30
0.0
 41
1.0
 10
1358.863671898487
 20
1127.563835685372
 30
0.0
 41
0.9999998946736885
 10
1359.234380469784
 20
1126.245298280487
 30
0.0
 41
1.0
  0
SPLINE
  5
5E
330
1F
100
AcDbEntity
  8
Predefinito
100
AcDbSpline
210
0.0
220
0.0
230
1.0
 70
    12
 71
     2
 72
     6
 73
     3
 74
     0
 42
0.0000000001
 43
0.0000000001
 40
0.0
 40
0.0
 40
0.0
 40
4.45917429858057
 40
4.45917429858057
 40
4.45917429858057
 10
1359.234380469784
 20
1126.245298280487
 30
0.0
 41
1.0
 10
1359.861113498746
 20
1124.013717683576
 30
0.0
 41
0.9999934738960949
 10
1360.471134605524
 20
1121.779644593558
 30
0.0
 41
1.0
  0
SPLINE
  5
5F
330
1F
100
AcDbEntity
  8
Predefinito
100
AcDbSpline
210
0.0
220
0.0
230
1.0
 70
    12
 71
     2
 72
     6
 73
     3
 74
     0
 42
0.0000000001
 43
0.0000000001
 40
0.0
 40
0.0
 40
0.0
 40
3.857992103442404
 40
3.857992103442404
 40
3.857992103442404
 10
1360.471134605524
 20
1121.779644593558
 30
0.0
 41
1.0
 10
1361.001230943497
 20
1119.835341020378
 30
0.0
 41
0.9999907045755074
 10
1361.513546925502
 20
1117.89014704297
 30
0.0
 41
1.0
  0
SPLINE
  5
60
330
1F
100
AcDbEntity
  8
Predefinito
100
AcDbSpline
210
0.0
220
0.0
230
1.0
 70
    12
 71
     2
 72
     6
 73
     3
 74
     0
 42
0.0000000001
 43
0.0000000001
 40
0.0
 40
0.0
 40
0.0
 40
3.903482063837318
 40
3.903482063837318
 40
3.903482063837318
 10
1361.513546925502
 20
1117.89014704297
 30
0.0
 41
1.0
 10
1362.030475481103
 20
1115.922626926679
 30
0.0
 41
0.9999754034509942
 10
1362.518243762711
 20
1113.953932259601
 30
0.0
 41
1.0
  0
SPLINE
  5
61
330
1F
100
AcDbEntity
  8
Predefinito
100
AcDbSpline
210
0.0
220
0.0
230
1.0
 70
    12
 71
     2
 72
     6
 73
     3
 74
     0
 42
0.0000000001
 43
0.0000000001
 40
0.0
 40
0.0
 40
0.0
 40
3.377197720411362
 40
3.377197720411362
 40
3.377197720411362
 10
1362.518243762711
 20
1113.953932259601
 30
0.0
 41
1.0
 10
1362.941609324075
 20
1112.240382630988
 30
0.0
 41
0.9999738852513337
 10
1363.338730826643
 20
1110.526825435004
 30
0.0
 41
1.0
  0
SPLINE
  5
62
330
1F
100
AcDbEntity
  8
Predefinito
100
AcDbSpline
210
0.0
220
0.0
230
1.0
 70
    12
 71
     2
 72
     6
 73
     3
 74
     0
 42
0.0000000001
 43
0.0000000001
 40
0.0
 40
0.0
 40
0.0
 40
3.434376357029425
 40
3.434376357029425
 40
3.434376357029425
 10
1363.338730826643
 20
1110.526825435004
 30
0.0
 41
1.0
 10
1363.740846718414
 20
1108.785048039161
 30
0.0
 41
0.9999477017081951
 10
1364.105511199594
 20
1107.043456053599
 30
0.0
 41
1.0
  0
SPLINE
  5
63
330
1F
100
AcDbEntity
  8
Predefinito
100
AcDbSpline
210
0.0
220
0.0
230
1.0
 70
    12
 71
     2
 72
     6
 73
     3
 74
     0
 42
0.0000000001
 43
0.0000000001
 40
0.0
 40
0.0
 40
0.0
 40
2.833202402726198
 40
2.833202402726198
 40
2.833202402726198
 10
1364.105511199594
 20
1107.043456053599
 30
0.0
 41
1.0
 10
1364.407383261788
 20
1105.595839008941
 30
0.0
 41
0.9999539590719759
 10
1364.680000432047
 20
1104.149920531687
 30
0.0
 41
1.0
  0
SPLINE
  5
64
330
1F
100
AcDbEntity
  8
Predefinito
100
AcDbSpline
210
0.0
220
0.0
230
1.0
 70
    12
 71
     2
 72
     6
 73
     3
 74
     0
 42
0.0000000001
 43
0.0000000001
 40
0.0
 40
0.0
 40
0.0
 40
2.890890441118052
 40
2.890890441118052
 40
2.890890441118052
 10
1364.680000432047
 20
1104.149920531687
 30
0.0
 41
1.0
 10
1364.956515100797
 20
1102.675349681744
 30
0.0
 41
0.999918434500832
 10
1365.193767460413
 20
1101.203250277143
 30
0.0
 41
1.0
  0
SPLINE
  5
65
330
1F
100
AcDbEntity
  8
Predefinito
100
AcDbSpline
210
0.0
220
0.0
230
1.0
 70
    12
 71
     2
 72
     6
 73
     3
 74
     0
 42
0.0000000001
 43
0.0000000001
 40
0.0
 40
0.0
 40
0.0
 40
2.547494692102587
 40
2.547494692102587
 40
2.547494692102587
 10
1365.193767460413
 20
1101.203250277143
 30
0.0
 41
1.0
 10
1365.402544888848
 20
1099.90048723424
 30
0.0
 41
0.9999208841983538
 10
1365.577320614387
 20
1098.601242134482
 30
0.0
 41
1.0
  0
SPLINE
  5
66
330
1F
100
AcDbEntity
  8
Predefinito
100
AcDbSpline
210
0.0
220
0.0
230
1.0
 70
    12
 71
     2
 72
     6
 73
     3
 74
     0
 42
0.0000000001
 43
0.0000000001
 40
0.0
 40
0.0
 40
0.0
 40
2.605986749339295
 40
2.605986749339295
 40
2.605986749339295
 10
1365.577320614387
 20
1098.601242134482
 30
0.0
 41
1.0
 10
1365.754754792441
 20
1097.272795123348
 30
0.0
 41
0.999864863127417
 10
1365.88737666412
 20
1095.949373153802
 30
0.0
 41
1.0
  0
SPLINE
  5
67
330
1F
100
AcDbEntity
  8
Predefinito
100
AcDbSpline
210
0.0
220
0.0
230
1.0
 70
    12
 71
     2
 72
     6
 73
     3
 74
     0
 42
0.0000000001
 43
0.0000000001
 40
0.0
 40
0.0
 40
0.0
 40
2.277100345668983
 40
2.277100345668983
 40
2.277100345668983
 10
1365.88737666412
 20
1095.949373153802
 30
0.0
 41
1.0
 10
1366.002781600947
 20
1094.789513635317
 30
0.0
 41
0.9998724190774424
 10
1366.080975112235
 20
1093.627799380698
 30
0.0
 41
1.0
  0
SPLINE
  5
68
330
1F
100
AcDbEntity
  8
Predefinito
100
AcDbSpline
210
0.0
220
0.0
230
1.0
 70
    12
 71
     2
 72
     6
 73
     3
 74
     0
 42
0.0000000001
 43
0.0000000001
 40
0.0
 40
0.0
 40
0.0
 40
2.332700279643514
 40
2.332700279643514
 40
2.332700279643514
 10
1366.080975112235
 20
1093.627799380698
 30
0.0
 41
1.0
 10
1366.160033130587
 20
1092.438214607699
 30
0.0
 41
0.9997904546239383
 10
1366.189829100943
 20
1091.265629831971
 30
0.0
 41
1.0
  0
SPLINE
  5
69
330
1F
100
AcDbEntity
  8
Predefinito
100
AcDbSpline
210
0.0
220
0.0
230
1.0
 70
    12
 71
     2
 72
     6
 73
     3
 74
     0
 42
0.0000000001
 43
0.0000000001
 40
0.0
 40
0.0
 40
0.0
 40
1.279237428041616
 40
1.279237428041616
 40
1.279237428041616
 10
1366.189829100943
 20
1091.265629831971
 30
0.0
 41
1.0
 10
1366.206109101466
 20
1090.619732378707
 30
0.0
 41
0.9999209611300713
 10
1366.206142913972
 20
1089.980070487982
 30
0.0
 41
1.0
  0
SPLINE
  5
6A
330
1F
100
AcDbEntity
  8
Predefinito
100
AcDbSpline
210
0.0
220
0.0
230
1.0
 70
    12
 71
     2
 72
     6
 73
     3
 74
     0
 42
0.0000000001
 43
0.0000000001
 40
0.0
 40
0.0
 40
0.0
 40
1.014368722872574
 40
1.014368722872574
 40
1.014368722872574
 10
1366.206142913972
 20
1089.980070487982
 30
0.0
 41
1.0
 10
1366.206190193235
 20
1089.472859806511
 30
0.0
 41
0.9999501673380372
 10
1366.196008507059
 20
1088.960625553724
 30
0.0
 41
1.0
  0
SPLINE
  5
6B
330
1F
100
AcDbEntity
  8
Predefinito
100
AcDbSpline
210
0.0
220
0.0
230
1.0
 70
    12
 71
     2
 72
     6
 73
     3
 74
     0
 42
0.0000000001
 43
0.0000000001
 40
0.0
 40
0.0
 40
0.0
 40
2.263400069347768
 40
2.263400069347768
 40
2.263400069347768
 10
1366.196008507059
 20
1088.960625553724
 30
0.0
 41
1.0
 10
1366.173299258971
 20
1087.823726116456
 30
0.0
 41
0.9996131645251467
 10
1366.084798001295
 20
1086.655900500508
 30
0.0
 41
1.0
  0
SPLINE
  5
6C
330
1F
100
AcDbEntity
  8
Predefinito
100
AcDbSpline
210
0.0
220
0.0
230
1.0
 70
    12
 71
     2
 72
     6
 73
     3
 74
     0
 42
0.0000000001
 43
0.0000000001
 40
0.0
 40
0.0
 40
0.0
 40
2.071857815537798
 40
2.071857815537798
 40
2.071857815537798
 10
1366.084798001295
 20
1086.655900500508
 30
0.0
 41
1.0
 10
1366.001581148971
 20
1085.583726953357
 30
0.0
 41
0.9995846464760649
 10
1365.856752572544
 20
1084.518912249971
 30
0.0
 41
1.0
  0
SPLINE
  5
6D
330
1F
100
AcDbEntity
  8
Predefinito
100
AcDbSpline
210
0.0
220
0.0
230
1.0
 70
    12
 71
     2
 72
     6
 73
     3
 74
     0
 42
0.0000000001
 43
0.0000000001
 40
0.0
 40
0.0
 40
0.0
 40
2.042859547373727
 40
2.042859547373727
 40
2.042859547373727
 10
1365.856752572544
 20
1084.518912249971
 30
0.0
 41
1.0
 10
1365.71188086724
 20
1083.468621045737
 30
0.0
 41
0.9994088434687732
 10
1365.489770413641
 20
1082.405830752519
 30
0.0
 41
1.0
  0
SPLINE
  5
6E
330
1F
100
AcDbEntity
  8
Predefinito
100
AcDbSpline
210
0.0
220
0.0
230
1.0
 70
    12
 71
     2
 72
     6
 73
     3
 74
     0
 42
0.0000000001
 43
0.0000000001
 40
0.0
 40
0.0
 40
0.0
 40
1.907019926229217
 40
1.907019926229217
 40
1.907019926229217
 10
1365.489770413641
 20
1082.405830752519
 30
0.0
 41
1.0
 10
1365.27753263383
 20
1081.410399345069
 30
0.0
 41
0.9994076675785066
 10
1364.988007755837
 20
1080.401241367905
 30
0.0
 41
1.0
  0
SPLINE
  5
6F
330
1F
100
AcDbEntity
  8
Predefinito
100
AcDbSpline
210
0.0
220
0.0
230
1.0
 70
    12
 71
     2
 72
     6
 73
     3
 74
     0
 42
0.0000000001
 43
0.0000000001
 40
0.0
 40
0.0
 40
0.0
 40
2.006561841353165
 40
2.006561841353165
 40
2.006561841353165
 10
1364.988007755837
 20
1080.401241367905
 30
0.0
 41
1.0
 10
1364.677875833123
 20
1079.346215080666
 30
0.0
 41
0.9994004509834021
 10
1364.328396518131
 20
1078.404693966876
 30
0.0
 41
1.0
  0
SPLINE
  5
70
330
1F
100
AcDbEntity
  8
Predefinito
100
AcDbSpline
210
0.0
220
0.0
230
1.0
 70
    12
 71
     2
 72
     6
 73
     3
 74
     0
 42
0.0000000001
 43
0.0000000001
 40
0.0
 40
0.0
 40
0.0
 40
1.999375476829628
 40
1.999375476829628
 40
1.999375476829628
 10
1364.328396518131
 20
1078.404693966876
 30
0.0
 41
1.0
 10
1363.980197105415
 20
1077.466527428265
 30
0.0
 41
0.9993939788914594
 10
1363.564508237707
 20
1076.548118667333
 30
0.0
 41
1.0
  0
SPLINE
  5
71
330
1F
100
AcDbEntity
  8
Predefinito
100
AcDbSpline
210
0.0
220
0.0
230
1.0
 70
    12
 71
     2
 72
     6
 73
     3
 74
     0
 42
0.0000000001
 43
0.0000000001
 40
0.0
 40
0.0
 40
0.0
 40
1.854589148512965
 40
1.854589148512965
 40
1.854589148512965
 10
1363.564508237707
 20
1076.548118667333
 30
0.0
 41
1.0
 10
1363.178154281348
 20
1075.696067996142
 30
0.0
 41
0.9996000584496558
 10
1362.741413876602
 20
1074.861836331175
 30
0.0
 41
1.0
  0
SPLINE
  5
72
330
1F
100
AcDbEntity
  8
Predefinito
100
AcDbSpline
210
0.0
220
0.0
230
1.0
 70
    12
 71
     2
 72
     6
 73
     3
 74
     0
 42
0.0000000001
 43
0.0000000001
 40
0.0
 40
0.0
 40
0.0
 40
1.842772221011762
 40
1.842772221011762
 40
1.842772221011762
 10
1362.741413876602
 20
1074.861836331175
 30
0.0
 41
1.0
 10
1362.306646111867
 20
1074.033266096503
 30
0.0
 41
0.9996328273593962
 10
1361.814036706574
 20
1073.206789704977
 30
0.0
 41
1.0
  0
SPLINE
  5
73
330
1F
100
AcDbEntity
  8
Predefinito
100
AcDbSpline
210
0.0
220
0.0
230
1.0
 70
    12
 71
     2
 72
     6
 73
     3
 74
     0
 42
0.0000000001
 43
0.0000000001
 40
0.0
 40
0.0
 40
0.0
 40
1.707604676494141
 40
1.707604676494141
 40
1.707604676494141
 10
1361.814036706574
 20
1073.206789704977
 30
0.0
 41
1.0
 10
1361.354083704587
 20
1072.439657322033
 30
0.0
 41
0.9997951097152523
 10
1360.85060653316
 20
1071.672470587839
 30
0.0
 41
1.0
  0
SPLINE
  5
74
330
1F
100
AcDbEntity
  8
Predefinito
100
AcDbSpline
210
0.0
220
0.0
230
1.0
 70
    12
 71
     2
 72
     6
 73
     3
 74
     0
 42
0.0000000001
 43
0.0000000001
 40
0.0
 40
0.0
 40
0.0
 40
1.80392933121885
 40
1.80392933121885
 40
1.80392933121885
 10
1360.85060653316
 20
1071.672470587839
 30
0.0
 41
1.0
 10
1360.318310919085
 20
1070.866597923565
 30
0.0
 41
0.9998116515054095
 10
1359.740424257357
 20
1070.061973853726
 30
0.0
 41
1.0
  0
LINE
  5
75
330
1F
100
AcDbEntity
  8
Predefinito
100
AcDbLine
 10
1359.740424257357
 20
1070.061973853726
 30
0.0
 11
1358.515724766358
 21
1068.418705447103
 31
0.0
  0
SPLINE
  5
76
330
1F
100
AcDbEntity
  8
Predefinito
100
AcDbSpline
210
0.0
220
0.0
230
1.0
 70
    12
 71
     2
 72
     6
 73
     3
 74
     0
 42
0.0000000001
 43
0.0000000001
 40
0.0
 40
0.0
 40
0.0
 40
6.976206535377878
 40
6.976206535377878
 40
6.976206535377878
 10
1344.505822764569
 20
1481.122724397584
 30
0.0
 41
1.0
 10
1344.472738052815
 20
1477.634538730484
 30
0.0
 41
0.9998971047374364
 10
1344.539737599525
 20
1474.146596255236
 30
0.0
 41
1.0
  0
SPLINE
  5
77
330
1F
100
AcDbEntity
  8
Predefinito
100
AcDbSpline
210
0.0
220
0.0
230
1.0
 70
    12
 71
     2
 72
     6
 73
     3
 74
     0
 42
0.0000000001
 43
0.0000000001
 40
0.0
 40
0.0
 40
0.0
 40
6.973741464947665
 40
6.973741464947665
 40
6.973741464947665
 10
1344.539737599525
 20
1474.146596255236
 30
0.0
 41
1.0
 10
1344.606656662044
 20
1470.659928526537
 30
0.0
 41
0.9999157872852917
 10
1344.764258814597
 20
1467.171393154217
 30
0.0
 41
1.0
  0
SPLINE
  5
78
330
1F
100
AcDbEntity
  8
Predefinito
100
AcDbSpline
210
0.0
220
0.0
230
1.0
 70
    12
 71
     2
 72
     6
 73
     3
 74
     0
 42
0.0000000001
 43
0.0000000001
 40
0.0
 40
0.0
 40
0.0
 40
6.436886556496
 40
6.436886556496
 40
6.436886556496
 10
1344.764258814597
 20
1467.171393154217
 30
0.0
 41
1.0
 10
1344.909828335848
 20
1463.951074356074
 30
0.0
 41
0.9999361981161362
 10
1345.128417391055
 20
1460.730336352067
 30
0.0
 41
1.0
  0
SPLINE
  5
79
330
1F
100
AcDbEntity
  8
Predefinito
100
AcDbSpline
210
0.0
220
0.0
230
1.0
 70
    12
 71
     2
 72
     6
 73
     3
 74
     0
 42
0.0000000001
 43
0.0000000001
 40
0.0
 40
0.0
 40
0.0
 40
6.415011170610399
 40
6.415011170610399
 40
6.415011170610399
 10
1345.128417391055
 20
1460.730336352067
 30
0.0
 41
1.0
 10
1345.346451452384
 20
1457.520559032863
 30
0.0
 41
0.9999525383973107
 10
1345.627300532046
 20
1454.312046792836
 30
0.0
 41
1.0
  0
SPLINE
  5
7A
330
1F
100
AcDbEntity
  8
Predefinito
100
AcDbSpline
210
0.0
220
0.0
230
1.0
 70
    12
 71
     2
 72
     6
 73
     3
 74
     0
 42
0.0000000001
 43
0.0000000001
 40
0.0
 40
0.0
 40
0.0
 40
6.408179710262503
 40
6.408179710262503
 40
6.408179710262503
 10
1345.627300532046
 20
1454.312046792836
 30
0.0
 41
1.0
 10
1345.908096763065
 20
1451.106974394695
 30
0.0
 41
0.9999597940468729
 10
1346.246384275333
 20
1447.906915475285
 30
0.0
 41
1.0
  0
SPLINE
  5
7B
330
1F
100
AcDbEntity
  8
Predefinito
100
AcDbSpline
210
0.0
220
0.0
230
1.0
 70
    12
 71
     2
 72
     6
 73
     3
 74
     0
 42
0.0000000001
 43
0.0000000001
 40
0.0
 40
0.0
 40
0.0
 40
6.358816194595727
 40
6.358816194595727
 40
6.358816194595727
 10
1346.246384275333
 20
1447.906915475285
 30
0.0
 41
1.0
 10
1346.582290322527
 20
1444.731455238287
 30
0.0
 41
0.9999740909471563
 10
1346.964210244246
 20
1441.558400338585
 30
0.0
 41
1.0
  0
SPLINE
  5
7C
330
1F
100
AcDbEntity
  8
Predefinito
100
AcDbSpline
210
0.0
220
0.0
230
1.0
 70
    12
 71
     2
 72
     6
 73
     3
 74
     0
 42
0.0000000001
 43
0.0000000001
 40
0.0
 40
0.0
 40
0.0
 40
6.35393325694682
 40
6.35393325694682
 40
6.35393325694682
 10
1346.964210244246
 20
1441.558400338585
 30
0.0
 41
1.0
 10
1347.346046663584
 20
1438.387806669568
 30
0.0
 41
0.9999797821442656
 10
1347.768391204079
 20
1435.220705654379
 30
0.0
 41
1.0
  0
SPLINE
  5
7D
330
1F
100
AcDbEntity
  8
Predefinito
100
AcDbSpline
210
0.0
220
0.0
230
1.0
 70
    12
 71
     2
 72
     6
 73
     3
 74
     0
 42
0.0000000001
 43
0.0000000001
 40
0.0
 40
0.0
 40
0.0
 40
6.332182795112585
 40
6.332182795112585
 40
6.332182795112585
 10
1347.768391204079
 20
1435.220705654379
 30
0.0
 41
1.0
 10
1348.189466928231
 20
1432.064428143116
 30
0.0
 41
0.9999896670294018
 10
1348.639455809102
 20
1428.910474152379
 30
0.0
 41
1.0
  0
SPLINE
  5
7E
330
1F
100
AcDbEntity
  8
Predefinito
100
AcDbSpline
210
0.0
220
0.0
230
1.0
 70
    12
 71
     2
 72
     6
 73
     3
 74
     0
 42
0.0000000001
 43
0.0000000001
 40
0.0
 40
0.0
 40
0.0
 40
6.348599130285129
 40
6.348599130285129
 40
6.348599130285129
 10
1348.639455809102
 20
1428.910474152379
 30
0.0
 41
1.0
 10
1349.090724267615
 20
1425.74841902515
 30
0.0
 41
0.9999932431969814
 10
1349.562290030336
 20
1422.609327717385
 30
0.0
 41
1.0
  0
SPLINE
  5
7F
330
1F
100
AcDbEntity
  8
Predefinito
100
AcDbSpline
210
0.0
220
0.0
230
1.0
 70
    12
 71
     2
 72
     6
 73
     3
 74
     0
 42
0.0000000001
 43
0.0000000001
 40
0.0
 40
0.0
 40
0.0
 40
6.380238537621415
 40
6.380238537621415
 40
6.380238537621415
 10
1349.562290030336
 20
1422.609327717385
 30
0.0
 41
1.0
 10
1350.036187907745
 20
1419.454600285274
 30
0.0
 41
0.9999982740375396
 10
1350.525000141356
 20
1416.280911753421
 30
0.0
 41
1.0
  0
SPLINE
  5
80
330
1F
100
AcDbEntity
  8
Predefinito
100
AcDbSpline
210
0.0
220
0.0
230
1.0
 70
    12
 71
     2
 72
     6
 73
     3
 74
     0
 42
0.0000000001
 43
0.0000000001
 40
0.0
 40
0.0
 40
0.0
 40
6.560480620671606
 40
6.560480620671606
 40
6.560480620671606
 10
1350.525000141356
 20
1416.280911753421
 30
0.0
 41
1.0
 10
1351.027565900076
 20
1413.018160523279
 30
0.0
 41
0.9999995384507995
 10
1351.533801171517
 20
1409.773042918724
 30
0.0
 41
1.0
  0
SPLINE
  5
81
330
1F
100
AcDbEntity
  8
Predefinito
100
AcDbSpline
210
0.0
220
0.0
230
1.0
 70
    12
 71
     2
 72
     6
 73
     3
 74
     0
 42
0.0000000001
 43
0.0000000001
 40
0.0
 40
0.0
 40
0.0
 40
6.609109737500209
 40
6.609109737500209
 40
6.609109737500209
 10
1351.533801171517
 20
1409.773042918724
 30
0.0
 41
1.0
 10
1352.043790017973
 20
1406.503902224197
 30
0.0
 41
0.9999995381922394
 10
1352.54751064176
 20
1403.2336813121
 30
0.0
 41
1.0
  0
SPLINE
  5
82
330
1F
100
AcDbEntity
  8
Predefinito
100
AcDbSpline
210
0.0
220
0.0
230
1.0
 70
    12
 71
     2
 72
     6
 73
     3
 74
     0
 42
0.0000000001
 43
0.0000000001
 40
0.0
 40
0.0
 40
0.0
 40
6.654868584383636
 40
6.654868584383636
 40
6.654868584383636
 10
1352.54751064176
 20
1403.2336813121
 30
0.0
 41
1.0
 10
1353.054697106993
 20
1399.940841898272
 30
0.0
 41
0.9999981588790914
 10
1353.556032543544
 20
1396.600824244812
 30
0.0
 41
1.0
  0
SPLINE
  5
83
330
1F
100
AcDbEntity
  8
Predefinito
100
AcDbSpline
210
0.0
220
0.0
230
1.0
 70
    12
 71
     2
 72
     6
 73
     3
 74
     0
 42
0.0000000001
 43
0.0000000001
 40
0.0
 40
0.0
 40
0.0
 40
6.580549068742224
 40
6.580549068742224
 40
6.580549068742224
 10
1353.556032543544
 20
1396.600824244812
 30
0.0
 41
1.0
 10
1354.051443682496
 20
1393.297482028794
 30
0.0
 41
0.9999930063325764
 10
1354.520520645476
 20
1390.001810798139
 30
0.0
 41
1.0
  0
SPLINE
  5
84
330
1F
100
AcDbEntity
  8
Predefinito
100
AcDbSpline
210
0.0
220
0.0
230
1.0
 70
    12
 71
     2
 72
     6
 73
     3
 74
     0
 42
0.0000000001
 43
0.0000000001
 40
0.0
 40
0.0
 40
0.0
 40
6.650555539428261
 40
6.650555539428261
 40
6.650555539428261
 10
1354.520520645476
 20
1390.001810798139
 30
0.0
 41
1.0
 10
1354.994134014485
 20
1386.67142030728
 30
0.0
 41
0.9999890839091368
 10
1355.43603583506
 20
1383.341001840823
 30
0.0
 41
1.0
  0
SPLINE
  5
85
330
1F
100
AcDbEntity
  8
Predefinito
100
AcDbSpline
210
0.0
220
0.0
230
1.0
 70
    12
 71
     2
 72
     6
 73
     3
 74
     0
 42
0.0000000001
 43
0.0000000001
 40
0.0
 40
0.0
 40
0.0
 40
6.694154135113688
 40
6.694154135113688
 40
6.694154135113688
 10
1355.43603583506
 20
1383.341001840823
 30
0.0
 41
1.0
 10
1355.880324136935
 20
1379.988887167605
 30
0.0
 41
0.9999791419202403
 10
1356.280703073189
 20
1376.636066001867
 30
0.0
 41
1.0
  0
SPLINE
  5
86
330
1F
100
AcDbEntity
  8
Predefinito
100
AcDbSpline
210
0.0
220
0.0
230
1.0
 70
    12
 71
     2
 72
     6
 73
     3
 74
     0
 42
0.0000000001
 43
0.0000000001
 40
0.0
 40
0.0
 40
0.0
 40
5.269752121016801
 40
5.269752121016801
 40
5.269752121016801
 10
1356.280703073189
 20
1376.636066001867
 30
0.0
 41
1.0
 10
1356.596285371065
 20
1373.99039786459
 30
0.0
 41
0.9999836737885229
 10
1356.881232694302
 20
1371.344780960668
 30
0.0
 41
1.0
  0
SPLINE
  5
87
330
1F
100
AcDbEntity
  8
Predefinito
100
AcDbSpline
210
0.0
220
0.0
230
1.0
 70
    12
 71
     2
 72
     6
 73
     3
 74
     0
 42
0.0000000001
 43
0.0000000001
 40
0.0
 40
0.0
 40
0.0
 40
4.226627968588178
 40
4.226627968588178
 40
4.226627968588178
 10
1356.881232694302
 20
1371.344780960668
 30
0.0
 41
1.0
 10
1357.110076783029
 20
1369.217712128059
 30
0.0
 41
0.9999882159225716
 10
1357.315724766352
 20
1367.114411132955
 30
0.0
 41
1.0
  0
SPLINE
  5
88
330
1F
100
AcDbEntity
  8
Predefinito
100
AcDbSpline
210
0.0
220
0.0
230
1.0
 70
    12
 71
     2
 72
     6
 73
     3
 74
     0
 42
0.0000000001
 43
0.0000000001
 40
0.0
 40
0.0
 40
0.0
 40
1.409368426290452
 40
1.409368426290452
 40
1.409368426290452
 10
1357.315724766357
 20
1115.359595314116
 30
0.0
 41
1.0
 10
1357.139915669537
 20
1116.041997863542
 30
0.0
 41
0.9999966203004229
 10
1356.954229521469
 20
1116.747523099653
 30
0.0
 41
1.0
  0
SPLINE
  5
89
330
1F
100
AcDbEntity
  8
Predefinito
100
AcDbSpline
210
0.0
220
0.0
230
1.0
 70
    12
 71
     2
 72
     6
 73
     3
 74
     0
 42
0.0000000001
 43
0.0000000001
 40
0.0
 40
0.0
 40
0.0
 40
3.939650465767016
 40
3.939650465767016
 40
3.939650465767016
 10
1356.954229521469
 20
1116.747523099653
 30
0.0
 41
1.0
 10
1356.446184910845
 20
1118.676443516791
 30
0.0
 41
0.9999900938031013
 10
1355.921155259084
 20
1120.600140755945
 30
0.0
 41
1.0
  0
SPLINE
  5
8A
330
1F
100
AcDbEntity
  8
Predefinito
100
AcDbSpline
210
0.0
220
0.0
230
1.0
 70
    12
 71
     2
 72
     6
 73
     3
 74
     0
 42
0.0000000001
 43
0.0000000001
 40
0.0
 40
0.0
 40
0.0
 40
4.551285546091036
 40
4.551285546091036
 40
4.551285546091036
 10
1355.921155259084
 20
1120.600140755945
 30
0.0
 41
1.0
 10
1355.315336863769
 20
1122.818788949904
 30
0.0
 41
0.9999930935771597
 10
1354.692968292127
 20
1125.033132357745
 30
0.0
 41
1.0
  0
SPLINE
  5
8B
330
1F
100
AcDbEntity
  8
Predefinito
100
AcDbSpline
210
0.0
220
0.0
230
1.0
 70
    12
 71
     2
 72
     6
 73
     3
 74
     0
 42
0.0000000001
 43
0.0000000001
 40
0.0
 40
0.0
 40
0.0
 40
4.465807388732684
 40
4.465807388732684
 40
4.465807388732684
 10
1354.692968292127
 20
1125.033132357745
 30
0.0
 41
1.0
 10
1354.081970022531
 20
1127.206266028305
 30
0.0
 41
0.9999996787686956
 10
1353.455467175415
 20
1129.420903205867
 30
0.0
 41
1.0
  0
SPLINE
  5
8C
330
1F
100
AcDbEntity
  8
Predefinito
100
AcDbSpline
210
0.0
220
0.0
230
1.0
 70
    12
 71
     2
 72
     6
 73
     3
 74
     0
 42
0.0000000001
 43
0.0000000001
 40
0.0
 40
0.0
 40
0.0
 40
4.524788783537924
 40
4.524788783537924
 40
4.524788783537924
 10
1353.455467175415
 20
1129.420903205867
 30
0.0
 41
1.0
 10
1352.820829082274
 20
1131.663886746158
 30
0.0
 41
0.9999998525674955
 10
1352.196211517137
 20
1133.880637355102
 30
0.0
 41
1.0
  0
SPLINE
  5
8D
330
1F
100
AcDbEntity
  8
Predefinito
100
AcDbSpline
210
0.0
220
0.0
230
1.0
 70
    12
 71
     2
 72
     6
 73
     3
 74
     0
 42
0.0000000001
 43
0.0000000001
 40
0.0
 40
0.0
 40
0.0
 40
4.546816466838831
 40
4.546816466838831
 40
4.546816466838831
 10
1352.196211517137
 20
1133.880637355102
 30
0.0
 41
1.0
 10
1351.56865388097
 20
1136.108011246964
 30
0.0
 41
0.9999941394676606
 10
1350.956059301048
 20
1138.340744127944
 30
0.0
 41
1.0
  0
SPLINE
  5
8E
330
1F
100
AcDbEntity
  8
Predefinito
100
AcDbSpline
210
0.0
220
0.0
230
1.0
 70
    12
 71
     2
 72
     6
 73
     3
 74
     0
 42
0.0000000001
 43
0.0000000001
 40
0.0
 40
0.0
 40
0.0
 40
3.929292663254009
 40
3.929292663254009
 40
3.929292663254009
 10
1350.956059301048
 20
1138.340744127944
 30
0.0
 41
1.0
 10
1350.425388309852
 20
1140.275784316096
 30
0.0
 41
0.9999912859404011
 10
1349.910737579041
 20
1142.215793635748
 30
0.0
 41
1.0
  0
SPLINE
  5
8F
330
1F
100
AcDbEntity
  8
Predefinito
100
AcDbSpline
210
0.0
220
0.0
230
1.0
 70
    12
 71
     2
 72
     6
 73
     3
 74
     0
 42
0.0000000001
 43
0.0000000001
 40
0.0
 40
0.0
 40
0.0
 40
3.965314677862971
 40
3.965314677862971
 40
3.965314677862971
 10
1349.910737579041
 20
1142.215793635748
 30
0.0
 41
1.0
 10
1349.391813331534
 20
1144.173324088255
 30
0.0
 41
0.9999761098721873
 10
1348.899933408154
 20
1146.138146527072
 30
0.0
 41
1.0
  0
SPLINE
  5
90
330
1F
100
AcDbEntity
  8
Predefinito
100
AcDbSpline
210
0.0
220
0.0
230
1.0
 70
    12
 71
     2
 72
     6
 73
     3
 74
     0
 42
0.0000000001
 43
0.0000000001
 40
0.0
 40
0.0
 40
0.0
 40
3.563039077844402
 40
3.563039077844402
 40
3.563039077844402
 10
1348.899933408154
 20
1146.138146527072
 30
0.0
 41
1.0
 10
1348.457387183146
 20
1147.907977198638
 30
0.0
 41
0.999971125394552
 10
1348.041827198513
 20
1149.684228233691
 30
0.0
 41
1.0
  0
SPLINE
  5
91
330
1F
100
AcDbEntity
  8
Predefinito
100
AcDbSpline
210
0.0
220
0.0
230
1.0
 70
    12
 71
     2
 72
     6
 73
     3
 74
     0
 42
0.0000000001
 43
0.0000000001
 40
0.0
 40
0.0
 40
0.0
 40
3.599018802419419
 40
3.599018802419419
 40
3.599018802419419
 10
1348.041827198513
 20
1149.684228233691
 30
0.0
 41
1.0
 10
1347.62277974298
 20
1151.478150708813
 30
0.0
 41
0.9999618188185715
 10
1347.232877123405
 20
1153.289767287698
 30
0.0
 41
1.0
  0
SPLINE
  5
92
330
1F
100
AcDbEntity
  8
Predefinito
100
AcDbSpline
210
0.0
220
0.0
230
1.0
 70
    12
 71
     2
 72
     6
 73
     3
 74
     0
 42
0.0000000001
 43
0.0000000001
 40
0.0
 40
0.0
 40
0.0
 40
6.443381448653029
 40
6.443381448653029
 40
6.443381448653029
 10
1347.232877123405
 20
1153.289767287698
 30
0.0
 41
1.0
 10
1346.545536669681
 20
1156.492340503539
 30
0.0
 41
0.9998759128123716
 10
1345.960562525946
 20
1159.70887129418
 30
0.0
 41
1.0
  0
SPLINE
  5
93
330
1F
100
AcDbEntity
  8
Predefinito
100
AcDbSpline
210
0.0
220
0.0
230
1.0
 70
    12
 71
     2
 72
     6
 73
     3
 74
     0
 42
0.0000000001
 43
0.0000000001
 40
0.0
 40
0.0
 40
0.0
 40
6.554718364022793
 40
6.554718364022793
 40
6.554718364022793
 10
1345.960562525946
 20
1159.70887129418
 30
0.0
 41
1.0
 10
1345.367149957517
 20
1162.980513954707
 30
0.0
 41
0.9998486165265313
 10
1344.889052638679
 20
1166.263251715929
 30
0.0
 41
1.0
  0
SPLINE
  5
94
330
1F
100
AcDbEntity
  8
Predefinito
100
AcDbSpline
210
0.0
220
0.0
230
1.0
 70
    12
 71
     2
 72
     6
 73
     3
 74
     0
 42
0.0000000001
 43
0.0000000001
 40
0.0
 40
0.0
 40
0.0
 40
6.646156557506237
 40
6.646156557506237
 40
6.646156557506237
 10
1344.889052638679
 20
1166.263251715929
 30
0.0
 41
1.0
 10
1344.405708634053
 20
1169.591452340174
 30
0.0
 41
0.9998391586551651
 10
1344.043010115287
 20
1172.92604241967
 30
0.0
 41
1.0
  0
SPLINE
  5
95
330
1F
100
AcDbEntity
  8
Predefinito
100
AcDbSpline
210
0.0
220
0.0
230
1.0
 70
    12
 71
     2
 72
     6
 73
     3
 74
     0
 42
0.0000000001
 43
0.0000000001
 40
0.0
 40
0.0
 40
0.0
 40
6.735751634220535
 40
6.735751634220535
 40
6.735751634220535
 10
1344.043010115287
 20
1172.92604241967
 30
0.0
 41
1.0
 10
1343.676584269323
 20
1176.305337609102
 30
0.0
 41
0.9998196243612145
 10
1343.439617764952
 20
1179.684044511605
 30
0.0
 41
1.0
  0
SPLINE
  5
96
330
1F
100
AcDbEntity
  8
Predefinito
100
AcDbSpline
210
0.0
220
0.0
230
1.0
 70
    12
 71
     2
 72
     6
 73
     3
 74
     0
 42
0.0000000001
 43
0.0000000001
 40
0.0
 40
0.0
 40
0.0
 40
7.036960478499035
 40
7.036960478499035
 40
7.036960478499035
 10
1343.439617764952
 20
1179.684044511605
 30
0.0
 41
1.0
 10
1343.19278780835
 20
1183.213091433284
 30
0.0
 41
0.9998029057846589
 10
1343.086563046735
 20
1186.738877510327
 30
0.0
 41
1.0
  0
SPLINE
  5
97
330
1F
100
AcDbEntity
  8
Predefinito
100
AcDbSpline
210
0.0
220
0.0
230
1.0
 70
    12
 71
     2
 72
     6
 73
     3
 74
     0
 42
0.0000000001
 43
0.0000000001
 40
0.0
 40
0.0
 40
0.0
 40
5.549164387506728
 40
5.549164387506728
 40
5.549164387506728
 10
1343.086563046735
 20
1186.738877510327
 30
0.0
 41
1.0
 10
1343.002923467422
 20
1189.520862748668
 30
0.0
 41
0.9998827953752896
 10
1343.004493205586
 20
1192.295741007312
 30
0.0
 41
1.0
  0
SPLINE
  5
98
330
1F
100
AcDbEntity
  8
Predefinito
100
AcDbSpline
210
0.0
220
0.0
230
1.0
 70
    12
 71
     2
 72
     6
 73
     3
 74
     0
 42
0.0000000001
 43
0.0000000001
 40
0.0
 40
0.0
 40
0.0
 40
1.523757163136774
 40
1.523757163136774
 40
1.523757163136774
 10
1343.004493205586
 20
1192.295741007312
 30
0.0
 41
1.0
 10
1343.004934735211
 20
1193.057703604367
 30
0.0
 41
0.9999912289936091
 10
1343.011778407893
 20
1193.821811301352
 30
0.0
 41
1.0
  0
SPLINE
  5
99
330
1F
100
AcDbEntity
  8
Predefinito
100
AcDbSpline
210
0.0
220
0.0
230
1.0
 70
    12
 71
     2
 72
     6
 73
     3
 74
     0
 42
0.0000000001
 43
0.0000000001
 40
0.0
 40
0.0
 40
0.0
 40
5.955441870104158
 40
5.955441870104158
 40
5.955441870104158
 10
1343.011778407893
 20
1193.821811301352
 30
0.0
 41
1.0
 10
1343.03855595231
 20
1196.801919055801
 30
0.0
 41
0.9998731667281845
 10
1343.160590871636
 20
1199.788407412226
 30
0.0
 41
1.0
  0
SPLINE
  5
9A
330
1F
100
AcDbEntity
  8
Predefinito
100
AcDbSpline
210
0.0
220
0.0
230
1.0
 70
    12
 71
     2
 72
     6
 73
     3
 74
     0
 42
0.0000000001
 43
0.0000000001
 40
0.0
 40
0.0
 40
0.0
 40
5.913841480691295
 40
5.913841480691295
 40
5.913841480691295
 10
1343.160590871636
 20
1199.788407412226
 30
0.0
 41
1.0
 10
1343.282071076605
 20
1202.754051671912
 30
0.0
 41
0.9998972046502521
 10
1343.489067429411
 20
1205.722583406083
 30
0.0
 41
1.0
  0
SPLINE
  5
9B
330
1F
100
AcDbEntity
  8
Predefinito
100
AcDbSpline
210
0.0
220
0.0
230
1.0
 70
    12
 71
     2
 72
     6
 73
     3
 74
     0
 42
0.0000000001
 43
0.0000000001
 40
0.0
 40
0.0
 40
0.0
 40
5.376063172337036
 40
5.376063172337036
 40
5.376063172337036
 10
1343.489067429411
 20
1205.722583406083
 30
0.0
 41
1.0
 10
1343.67780095797
 20
1208.422777530062
 30
0.0
 41
0.9999253112311692
 10
1343.933508651582
 20
1211.128426489212
 30
0.0
 41
1.0
  0
SPLINE
  5
9C
330
1F
100
AcDbEntity
  8
Predefinito
100
AcDbSpline
210
0.0
220
0.0
230
1.0
 70
    12
 71
     2
 72
     6
 73
     3
 74
     0
 42
0.0000000001
 43
0.0000000001
 40
0.0
 40
0.0
 40
0.0
 40
5.323941241701306
 40
5.323941241701306
 40
5.323941241701306
 10
1343.933508651582
 20
1211.128426489212
 30
0.0
 41
1.0
 10
1344.18737884529
 20
1213.808027788617
 30
0.0
 41
0.9999493471558506
 10
1344.495861690968
 20
1216.488221022802
 30
0.0
 41
1.0
  0
SPLINE
  5
9D
330
1F
100
AcDbEntity
  8
Predefinito
100
AcDbSpline
210
0.0
220
0.0
230
1.0
 70
    12
 71
     2
 72
     6
 73
     3
 74
     0
 42
0.0000000001
 43
0.0000000001
 40
0.0
 40
0.0
 40
0.0
 40
5.233009945253349
 40
5.233009945253349
 40
5.233009945253349
 10
1344.495861690968
 20
1216.488221022802
 30
0.0
 41
1.0
 10
1344.799797382663
 20
1219.123149213062
 30
0.0
 41
0.9999612910871268
 10
1345.150769115475
 20
1221.757634642512
 30
0.0
 41
1.0
  0
SPLINE
  5
9E
330
1F
100
AcDbEntity
  8
Predefinito
100
AcDbSpline
210
0.0
220
0.0
230
1.0
 70
    12
 71
     2
 72
     6
 73
     3
 74
     0
 42
0.0000000001
 43
0.0000000001
 40
0.0
 40
0.0
 40
0.0
 40
5.186069933152377
 40
5.186069933152377
 40
5.186069933152377
 10
1345.150769115475
 20
1221.757634642512
 30
0.0
 41
1.0
 10
1345.499219164758
 20
1224.368744241466
 30
0.0
 41
0.9999806328576548
 10
1345.880707064006
 20
1226.979116272242
 30
0.0
 41
1.0
  0
SPLINE
  5
9F
330
1F
100
AcDbEntity
  8
Predefinito
100
AcDbSpline
210
0.0
220
0.0
230
1.0
 70
    12
 71
     2
 72
     6
 73
     3
 74
     0
 42
0.0000000001
 43
0.0000000001
 40
0.0
 40
0.0
 40
0.0
 40
5.16480870023288
 40
5.16480870023288
 40
5.16480870023288
 10
1345.880707064006
 20
1226.979116272242
 30
0.0
 41
1.0
 10
1346.261142738679
 20
1229.578885480332
 30
0.0
 41
0.9999880312821164
 10
1346.667399154335
 20
1232.177323151645
 30
0.0
 41
1.0
  0
SPLINE
  5
A0
330
1F
100
AcDbEntity
  8
Predefinito
100
AcDbSpline
210
0.0
220
0.0
230
1.0
 70
    12
 71
     2
 72
     6
 73
     3
 74
     0
 42
0.0000000001
 43
0.0000000001
 40
0.0
 40
0.0
 40
0.0
 40
5.123965645894978
 40
5.123965645894978
 40
5.123965645894978
 10
1346.667399154335
 20
1232.177323151645
 30
0.0
 41
1.0
 10
1347.070760499566
 20
1234.755526940666
 30
0.0
 41
0.9999977049407511
 10
1347.48549671511
 20
1237.334018327445
 30
0.0
 41
1.0
  0
SPLINE
  5
A1
330
1F
100
AcDbEntity
  8
Predefinito
100
AcDbSpline
210
0.0
220
0.0
230
1.0
 70
    12
 71
     2
 72
     6
 73
     3
 74
     0
 42
0.0000000001
 43
0.0000000001
 40
0.0
 40
0.0
 40
0.0
 40
4.994185899246806
 40
4.994185899246806
 40
4.994185899246806
 10
1347.48549671511
 20
1237.334018327445
 30
0.0
 41
1.0
 10
1347.890025710472
 20
1239.848424123144
 30
0.0
 41
0.9999997029005103
 10
1348.29271987514
 20
1242.327048883312
 30
0.0
 41
1.0
  0
SPLINE
  5
A2
330
1F
100
AcDbEntity
  8
Predefinito
100
AcDbSpline
210
0.0
220
0.0
230
1.0
 70
    12
 71
     2
 72
     6
 73
     3
 74
     0
 42
0.0000000001
 43
0.0000000001
 40
0.0
 40
0.0
 40
0.0
 40
5.045008628994912
 40
5.045008628994912
 40
5.045008628994912
 10
1348.29271987514
 20
1242.327048883312
 30
0.0
 41
1.0
 10
1348.699441440796
 20
1244.830766167561
 30
0.0
 41
0.9999983614095346
 10
1349.097956292461
 20
1247.341366629987
 30
0.0
 41
1.0
  0
SPLINE
  5
A3
330
1F
100
AcDbEntity
  8
Predefinito
100
AcDbSpline
210
0.0
220
0.0
230
1.0
 70
    12
 71
     2
 72
     6
 73
     3
 74
     0
 42
0.0000000001
 43
0.0000000001
 40
0.0
 40
0.0
 40
0.0
 40
5.260908532667096
 40
5.260908532667096
 40
5.260908532667096
 10
1349.097956292461
 20
1247.341366629987
 30
0.0
 41
1.0
 10
1349.513280171437
 20
1249.958606793994
 30
0.0
 41
0.9999948256592681
 10
1349.912027436737
 20
1252.580254257217
 30
0.0
 41
1.0
  0
SPLINE
  5
A4
330
1F
100
AcDbEntity
  8
Predefinito
100
AcDbSpline
210
0.0
220
0.0
230
1.0
 70
    12
 71
     2
 72
     6
 73
     3
 74
     0
 42
0.0000000001
 43
0.0000000001
 40
0.0
 40
0.0
 40
0.0
 40
5.26105683800395
 40
5.26105683800395
 40
5.26105683800395
 10
1349.912027436737
 20
1252.580254257217
 30
0.0
 41
1.0
 10
1350.310558173767
 20
1255.202029968928
 30
0.0
 41
0.9999833708264705
 10
1350.678843570482
 20
1257.828384597775
 30
0.0
 41
1.0
  0
SPLINE
  5
A5
330
1F
100
AcDbEntity
  8
Predefinito
100
AcDbSpline
210
0.0
220
0.0
230
1.0
 70
    12
 71
     2
 72
     6
 73
     3
 74
     0
 42
0.0000000001
 43
0.0000000001
 40
0.0
 40
0.0
 40
0.0
 40
12.04329797702325
 40
12.04329797702325
 40
12.04329797702325
 10
1350.678843570482
 20
1257.828384597775
 30
0.0
 41
1.0
 10
1351.517162414285
 20
1263.813568302474
 30
0.0
 41
0.999883852563239
 10
1352.172401695305
 20
1269.819034746545
 30
0.0
 41
1.0
  0
SPLINE
  5
A6
330
1F
100
AcDbEntity
  8
Predefinito
100
AcDbSpline
210
0.0
220
0.0
230
1.0
 70
    12
 71
     2
 72
     6
 73
     3
 74
     0
 42
0.0000000001
 43
0.0000000001
 40
0.0
 40
0.0
 40
0.0
 40
12.14821897285779
 40
12.14821897285779
 40
12.14821897285779
 10
1352.172401695305
 20
1269.819034746545
 30
0.0
 41
1.0
 10
1352.832935610326
 20
1275.876625002423
 30
0.0
 41
0.9999021155418961
 10
1353.323439412455
 20
1281.94688160586
 30
0.0
 41
1.0
  0
SPLINE
  5
A7
330
1F
100
AcDbEntity
  8
Predefinito
100
AcDbSpline
210
0.0
220
0.0
230
1.0
 70
    12
 71
     2
 72
     6
 73
     3
 74
     0
 42
0.0000000001
 43
0.0000000001
 40
0.0
 40
0.0
 40
0.0
 40
13.90503320438854
 40
13.90503320438854
 40
13.90503320438854
 10
1353.323439412455
 20
1281.94688160586
 30
0.0
 41
1.0
 10
1353.884307958999
 20
1288.892859561274
 30
0.0
 41
0.9998850299785943
 10
1354.234047186523
 20
1295.847753023599
 30
0.0
 41
1.0
  0
SPLINE
  5
A8
330
1F
100
AcDbEntity
  8
Predefinito
100
AcDbSpline
210
0.0
220
0.0
230
1.0
 70
    12
 71
     2
 72
     6
 73
     3
 74
     0
 42
0.0000000001
 43
0.0000000001
 40
0.0
 40
0.0
 40
0.0
 40
13.97425740264804
 40
13.97425740264804
 40
13.97425740264804
 10
1354.234047186523
 20
1295.847753023599
 30
0.0
 41
1.0
 10
1354.58537199913
 20
1302.837171718075
 30
0.0
 41
0.9998965034300732
 10
1354.735339238729
 20
1309.828179377629
 30
0.0
 41
1.0
  0
SPLINE
  5
A9
330
1F
100
AcDbEntity
  8
Predefinito
100
AcDbSpline
210
0.0
220
0.0
230
1.0
 70
    12
 71
     2
 72
     6
 73
     3
 74
     0
 42
0.0000000001
 43
0.0000000001
 40
0.0
 40
0.0
 40
0.0
 40
11.14420738652468
 40
11.14420738652468
 40
11.14420738652468
 10
1354.735339238729
 20
1309.828179377629
 30
0.0
 41
1.0
 10
1354.854960983994
 20
1315.404242371956
 30
0.0
 41
0.9999361707764597
 10
1354.848564318739
 20
1320.97671980963
 30
0.0
 41
1.0
  0
SPLINE
  5
AA
330
1F
100
AcDbEntity
  8
Predefinito
100
AcDbSpline
210
0.0
220
0.0
230
1.0
 70
    12
 71
     2
 72
     6
 73
     3
 74
     0
 42
0.0000000001
 43
0.0000000001
 40
0.0
 40
0.0
 40
0.0
 40
4.038375985072443
 40
4.038375985072443
 40
4.038375985072443
 10
1354.848564318739
 20
1320.97671980963
 30
0.0
 41
1.0
 10
1354.846233137399
 20
1322.996057938385
 30
0.0
 41
0.9999916877981964
 10
1354.82742030826
 20
1325.016916506961
 30
0.0
 41
1.0
  0
SPLINE
  5
AB
330
1F
100
AcDbEntity
  8
Predefinito
100
AcDbSpline
210
0.0
220
0.0
230
1.0
 70
    12
 71
     2
 72
     6
 73
     3
 74
     0
 42
0.0000000001
 43
0.0000000001
 40
0.0
 40
0.0
 40
0.0
 40
15.16737567917125
 40
15.16737567917125
 40
15.16737567917125
 10
1354.82742030826
 20
1325.016916506961
 30
0.0
 41
1.0
 10
1354.756736018471
 20
1332.60262702883
 30
0.0
 41
0.9998803403920968
 10
1354.451125906056
 20
1340.189803693942
 30
0.0
 41
1.0
  0
SPLINE
  5
AC
330
1F
100
AcDbEntity
  8
Predefinito
100
AcDbSpline
210
0.0
220
0.0
230
1.0
 70
    12
 71
     2
 72
     6
 73
     3
 74
     0
 42
0.0000000001
 43
0.0000000001
 40
0.0
 40
0.0
 40
0.0
 40
12.7360229518841
 40
12.7360229518841
 40
12.7360229518841
 10
1354.451125906056
 20
1340.189803693942
 30
0.0
 41
1.0
 10
1354.194249636169
 20
1346.562051071953
 30
0.0
 41
0.99991164816728
 10
1353.767647781028
 20
1352.931514726327
 30
0.0
 41
1.0
  0
SPLINE
  5
AD
330
1F
100
AcDbEntity
  8
Predefinito
100
AcDbSpline
210
0.0
220
0.0
230
1.0
 70
    12
 71
     2
 72
     6
 73
     3
 74
     0
 42
0.0000000001
 43
0.0000000001
 40
0.0
 40
0.0
 40
0.0
 40
12.65444857310131
 40
12.65444857310131
 40
12.65444857310131
 10
1353.767647781028
 20
1352.931514726327
 30
0.0
 41
1.0
 10
1353.343456387521
 20
1359.260298455571
 30
0.0
 41
0.9999022790832881
 10
1352.74189342471
 20
1365.58109208547
 30
0.0
 41
1.0
  0
SPLINE
  5
AE
330
1F
100
AcDbEntity
  8
Predefinito
100
AcDbSpline
210
0.0
220
0.0
230
1.0
 70
    12
 71
     2
 72
     6
 73
     3
 74
     0
 42
0.0000000001
 43
0.0000000001
 40
0.0
 40
0.0
 40
0.0
 40
5.243159541124075
 40
5.243159541124075
 40
5.243159541124075
 10
1352.74189342471
 20
1365.58109208547
 30
0.0
 41
1.0
 10
1352.491099677698
 20
1368.212498391502
 30
0.0
 41
0.9999815417712185
 10
1352.208074719369
 20
1370.843187476051
 30
0.0
 41
1.0
  0
SPLINE
  5
AF
330
1F
100
AcDbEntity
  8
Predefinito
100
AcDbSpline
210
0.0
220
0.0
230
1.0
 70
    12
 71
     2
 72
     6
 73
     3
 74
     0
 42
0.0000000001
 43
0.0000000001
 40
0.0
 40
0.0
 40
0.0
 40
5.222066478435991
 40
5.222066478435991
 40
5.222066478435991
 10
1352.208074719369
 20
1370.843187476051
 30
0.0
 41
1.0
 10
1351.925872827164
 20
1373.463353919866
 30
0.0
 41
0.9999836266532856
 10
1351.613471086047
 20
1376.082032420195
 30
0.0
 41
1.0
  0
SPLINE
  5
B0
330
1F
100
AcDbEntity
  8
Predefinito
100
AcDbSpline
210
0.0
220
0.0
230
1.0
 70
    12
 71
     2
 72
     6
 73
     3
 74
     0
 42
0.0000000001
 43
0.0000000001
 40
0.0
 40
0.0
 40
0.0
 40
6.646366599884498
 40
6.646366599884498
 40
6.646366599884498
 10
1351.613471086047
 20
1376.082032420195
 30
0.0
 41
1.0
 10
1351.216326856971
 20
1379.40781915588
 30
0.0
 41
0.999979047921552
 10
1350.775981868361
 20
1382.72949887618
 30
0.0
 41
1.0
  0
SPLINE
  5
B1
330
1F
100
AcDbEntity
  8
Predefinito
100
AcDbSpline
210
0.0
220
0.0
230
1.0
 70
    12
 71
     2
 72
     6
 73
     3
 74
     0
 42
0.0000000001
 43
0.0000000001
 40
0.0
 40
0.0
 40
0.0
 40
6.628109605760429
 40
6.628109605760429
 40
6.628109605760429
 10
1350.775981868361
 20
1382.72949887618
 30
0.0
 41
1.0
 10
1350.336452767891
 20
1386.042056046372
 30
0.0
 41
0.9999890079332188
 10
1349.865868530615
 20
1389.350408568308
 30
0.0
 41
1.0
  0
SPLINE
  5
B2
330
1F
100
AcDbEntity
  8
Predefinito
100
AcDbSpline
210
0.0
220
0.0
230
1.0
 70
    12
 71
     2
 72
     6
 73
     3
 74
     0
 42
0.0000000001
 43
0.0000000001
 40
0.0
 40
0.0
 40
0.0
 40
6.587688091369992
 40
6.587688091369992
 40
6.587688091369992
 10
1349.865868530615
 20
1389.350408568308
 30
0.0
 41
1.0
 10
1349.397841339442
 20
1392.638701788431
 30
0.0
 41
0.9999929147266418
 10
1348.905033331572
 20
1395.923612545929
 30
0.0
 41
1.0
  0
SPLINE
  5
B3
330
1F
100
AcDbEntity
  8
Predefinito
100
AcDbSpline
210
0.0
220
0.0
230
1.0
 70
    12
 71
     2
 72
     6
 73
     3
 74
     0
 42
0.0000000001
 43
0.0000000001
 40
0.0
 40
0.0
 40
0.0
 40
6.595931400976013
 40
6.595931400976013
 40
6.595931400976013
 10
1348.905033331572
 20
1395.923612545929
 30
0.0
 41
1.0
 10
1348.411365896258
 20
1399.212550449821
 30
0.0
 41
0.9999981815702687
 10
1347.906163154095
 20
1402.493044698871
 30
0.0
 41
1.0
  0
SPLINE
  5
B4
330
1F
100
AcDbEntity
  8
Predefinito
100
AcDbSpline
210
0.0
220
0.0
230
1.0
 70
    12
 71
     2
 72
     6
 73
     3
 74
     0
 42
0.0000000001
 43
0.0000000001
 40
0.0
 40
0.0
 40
0.0
 40
6.557455061874691
 40
6.557455061874691
 40
6.557455061874691
 10
1347.906163154095
 20
1402.493044698871
 30
0.0
 41
1.0
 10
1347.403799913666
 20
1405.754508233692
 30
0.0
 41
0.9999995441467431
 10
1346.894540296333
 20
1409.019292225147
 30
0.0
 41
1.0
  0
SPLINE
  5
B5
330
1F
100
AcDbEntity
  8
Predefinito
100
AcDbSpline
210
0.0
220
0.0
230
1.0
 70
    12
 71
     2
 72
     6
 73
     3
 74
     0
 42
0.0000000001
 43
0.0000000001
 40
0.0
 40
0.0
 40
0.0
 40
6.578598415706735
 40
6.578598415706735
 40
6.578598415706735
 10
1346.894540296333
 20
1409.019292225147
 30
0.0
 41
1.0
 10
1346.383600930091
 20
1412.294513734665
 30
0.0
 41
0.999999537171435
 10
1345.879715714594
 20
1415.565836380078
 30
0.0
 41
1.0
  0
SPLINE
  5
B6
330
1F
100
AcDbEntity
  8
Predefinito
100
AcDbSpline
210
0.0
220
0.0
230
1.0
 70
    12
 71
     2
 72
     6
 73
     3
 74
     0
 42
0.0000000001
 43
0.0000000001
 40
0.0
 40
0.0
 40
0.0
 40
6.374956376598278
 40
6.374956376598278
 40
6.374956376598278
 10
1345.879715714594
 20
1415.565836380078
 30
0.0
 41
1.0
 10
1345.391364277933
 20
1418.736532547948
 30
0.0
 41
0.9999982862104816
 10
1344.916129007094
 20
1421.899879912191
 30
0.0
 41
1.0
  0
SPLINE
  5
B7
330
1F
100
AcDbEntity
  8
Predefinito
100
AcDbSpline
210
0.0
220
0.0
230
1.0
 70
    12
 71
     2
 72
     6
 73
     3
 74
     0
 42
0.0000000001
 43
0.0000000001
 40
0.0
 40
0.0
 40
0.0
 40
6.401980776412159
 40
6.401980776412159
 40
6.401980776412159
 10
1344.916129007094
 20
1421.899879912191
 30
0.0
 41
1.0
 10
1344.43890981751
 20
1425.076604044379
 30
0.0
 41
0.9999932033634786
 10
1343.985258760821
 20
1428.255844383422
 30
0.0
 41
1.0
  0
SPLINE
  5
B8
330
1F
100
AcDbEntity
  8
Predefinito
100
AcDbSpline
210
0.0
220
0.0
230
1.0
 70
    12
 71
     2
 72
     6
 73
     3
 74
     0
 42
0.0000000001
 43
0.0000000001
 40
0.0
 40
0.0
 40
0.0
 40
6.394685116401601
 40
6.394685116401601
 40
6.394685116401601
 10
1343.985258760821
 20
1428.255844383422
 30
0.0
 41
1.0
 10
1343.532179544521
 20
1431.431489262302
 30
0.0
 41
0.9999896088537549
 10
1343.108348378967
 20
1434.609068611402
 30
0.0
 41
1.0
  0
SPLINE
  5
B9
330
1F
100
AcDbEntity
  8
Predefinito
100
AcDbSpline
210
0.0
220
0.0
230
1.0
 70
    12
 71
     2
 72
     6
 73
     3
 74
     0
 42
0.0000000001
 43
0.0000000001
 40
0.0
 40
0.0
 40
0.0
 40
6.431810327795678
 40
6.431810327795678
 40
6.431810327795678
 10
1343.108348378967
 20
1434.609068611402
 30
0.0
 41
1.0
 10
1342.682149765068
 20
1437.80508080952
 30
0.0
 41
0.9999796705553703
 10
1342.296834962299
 20
1441.005506789989
 30
0.0
 41
1.0
  0
SPLINE
  5
BA
330
1F
100
AcDbEntity
  8
Predefinito
100
AcDbSpline
210
0.0
220
0.0
230
1.0
 70
    12
 71
     2
 72
     6
 73
     3
 74
     0
 42
0.0000000001
 43
0.0000000001
 40
0.0
 40
0.0
 40
0.0
 40
6.441543812219242
 40
6.441543812219242
 40
6.441543812219242
 10
1342.296834962299
 20
1441.005506789989
 30
0.0
 41
1.0
 10
1341.911043004684
 20
1444.210789571046
 30
0.0
 41
0.9999739852492805
 10
1341.571662499968
 20
1447.420054157377
 30
0.0
 41
1.0
  0
SPLINE
  5
BB
330
1F
100
AcDbEntity
  8
Predefinito
100
AcDbSpline
210
0.0
220
0.0
230
1.0
 70
    12
 71
     2
 72
     6
 73
     3
 74
     0
 42
0.0000000001
 43
0.0000000001
 40
0.0
 40
0.0
 40
0.0
 40
6.482010752189648
 40
6.482010752189648
 40
6.482010752189648
 10
1341.571662499968
 20
1447.420054157377
 30
0.0
 41
1.0
 10
1341.230282033595
 20
1450.649484370111
 30
0.0
 41
0.9999599573510957
 10
1340.94684975116
 20
1453.883416792429
 30
0.0
 41
1.0
  0
SPLINE
  5
BC
330
1F
100
AcDbEntity
  8
Predefinito
100
AcDbSpline
210
0.0
220
0.0
230
1.0
 70
    12
 71
     2
 72
     6
 73
     3
 74
     0
 42
0.0000000001
 43
0.0000000001
 40
0.0
 40
0.0
 40
0.0
 40
6.52583489573874
 40
6.52583489573874
 40
6.52583489573874
 10
1340.94684975116
 20
1453.883416792429
 30
0.0
 41
1.0
 10
1340.661598677081
 20
1457.139203285899
 30
0.0
 41
0.999952254103991
 10
1340.44013154577
 20
1460.398439857052
 30
0.0
 41
1.0
  0
SPLINE
  5
BD
330
1F
100
AcDbEntity
  8
Predefinito
100
AcDbSpline
210
0.0
220
0.0
230
1.0
 70
    12
 71
     2
 72
     6
 73
     3
 74
     0
 42
0.0000000001
 43
0.0000000001
 40
0.0
 40
0.0
 40
0.0
 40
6.558488269233724
 40
6.558488269233724
 40
6.558488269233724
 10
1340.44013154577
 20
1460.398439857052
 30
0.0
 41
1.0
 10
1340.217622846108
 20
1463.674006181425
 30
0.0
 41
0.9999359760486484
 10
1340.069374937496
 20
1466.952040643413
 30
0.0
 41
1.0
  0
SPLINE
  5
BE
330
1F
100
AcDbEntity
  8
Predefinito
100
AcDbSpline
210
0.0
220
0.0
230
1.0
 70
    12
 71
     2
 72
     6
 73
     3
 74
     0
 42
0.0000000001
 43
0.0000000001
 40
0.0
 40
0.0
 40
0.0
 40
7.106473104265585
 40
7.106473104265585
 40
7.106473104265585
 10
1340.069374937496
 20
1466.952040643413
 30
0.0
 41
1.0
 10
1339.908783504102
 20
1470.503849508925
 30
0.0
 41
0.9999155427055445
 10
1339.840596884544
 20
1474.056726035273
 30
0.0
 41
1.0
  0
SPLINE
  5
BF
330
1F
100
AcDbEntity
  8
Predefinito
100
AcDbSpline
210
0.0
220
0.0
230
1.0
 70
    12
 71
     2
 72
     6
 73
     3
 74
     0
 42
0.0000000001
 43
0.0000000001
 40
0.0
 40
0.0
 40
0.0
 40
7.106461002431076
 40
7.106461002431076
 40
7.106461002431076
 10
1339.840596884544
 20
1474.056726035273
 30
0.0
 41
1.0
 10
1339.772363746264
 20
1477.609638889115
 30
0.0
 41
0.9998972816531716
 10
1339.805992920247
 20
1481.162953603258
 30
0.0
 41
1.0
  0
SPLINE
  5
C0
330
1F
100
AcDbEntity
  8
Predefinito
100
AcDbSpline
210
0.0
220
0.0
230
1.0
 70
    12
 71
     2
 72
     6
 73
     3
 74
     0
 42
0.0000000001
 43
0.0000000001
 40
0.0
 40
0.0
 40
0.0
 40
0.1240383486792073
 40
0.1240383486792073
 40
0.1240383486792073
 10
1358.515724765535
 20
1076.924639523543
 30
0.0
 41
1.0
 10
1358.544787605671
 20
1076.979427657939
 30
0.0
 41
0.9999979796172789
 10
1358.636908487654
 20
1077.156317982389
 30
0.0
 41
1.0
  0
SPLINE
  5
C1
330
1F
100
AcDbEntity
  8
Predefinito
100
AcDbSpline
210
0.0
220
0.0
230
1.0
 70
    12
 71
     2
 72
     6
 73
     3
 74
     0
 42
0.0000000001
 43
0.0000000001
 40
0.0
 40
0.0
 40
0.0
 40
1.32500062163723
 40
1.32500062163723
 40
1.32500062163723
 10
1358.636908487654
 20
1077.156317982389
 30
0.0
 41
1.0
 10
1359.002043255186
 20
1077.868175921032
 30
0.0
 41
0.9997272550196807
 10
1359.281690161492
 20
1078.483975967505
 30
0.0
 41
1.0
  0
SPLINE
  5
C2
330
1F
100
AcDbEntity
  8
Predefinito
100
AcDbSpline
210
0.0
220
0.0
230
1.0
 70
    12
 71
     2
 72
     6
 73
     3
 74
     0
 42
0.0000000001
 43
0.0000000001
 40
0.0
 40
0.0
 40
0.0
 40
1.673142513047043
 40
1.673142513047043
 40
1.673142513047043
 10
1359.281690161492
 20
1078.483975967505
 30
0.0
 41
1.0
 10
1359.632314747263
 20
1079.258960628702
 30
0.0
 41
0.9993944165624603
 10
1359.926216381237
 20
1080.051178772439
 30
0.0
 41
1.0
  0
SPLINE
  5
C3
330
1F
100
AcDbEntity
  8
Predefinito
100
AcDbSpline
210
0.0
220
0.0
230
1.0
 70
    12
 71
     2
 72
     6
 73
     3
 74
     0
 42
0.0000000001
 43
0.0000000001
 40
0.0
 40
0.0
 40
0.0
 40
1.666179314638221
 40
1.666179314638221
 40
1.666179314638221
 10
1359.926216381237
 20
1080.051178772439
 30
0.0
 41
1.0
 10
1360.21836867933
 20
1080.840319492683
 30
0.0
 41
0.9994133459781935
 10
1360.459583941144
 20
1081.660481791123
 30
0.0
 41
1.0
  0
SPLINE
  5
C4
330
1F
100
AcDbEntity
  8
Predefinito
100
AcDbSpline
210
0.0
220
0.0
230
1.0
 70
    12
 71
     2
 72
     6
 73
     3
 74
     0
 42
0.0000000001
 43
0.0000000001
 40
0.0
 40
0.0
 40
0.0
 40
1.698300282410349
 40
1.698300282410349
 40
1.698300282410349
 10
1360.459583941144
 20
1081.660481791123
 30
0.0
 41
1.0
 10
1360.703663568174
 20
1082.496604839894
 30
0.0
 41
0.9993154772640924
 10
1360.886259717156
 20
1083.353439181892
 30
0.0
 41
1.0
  0
SPLINE
  5
C5
330
1F
100
AcDbEntity
  8
Predefinito
100
AcDbSpline
210
0.0
220
0.0
230
1.0
 70
    12
 71
     2
 72
     6
 73
     3
 74
     0
 42
0.0000000001
 43
0.0000000001
 40
0.0
 40
0.0
 40
0.0
 40
1.773131626219745
 40
1.773131626219745
 40
1.773131626219745
 10
1360.886259717156
 20
1083.353439181892
 30
0.0
 41
1.0
 10
1361.07483900227
 20
1084.247235347195
 30
0.0
 41
0.9993724722529993
 10
1361.199081208061
 20
1085.14827527057
 30
0.0
 41
1.0
  0
SPLINE
  5
C6
330
1F
100
AcDbEntity
  8
Predefinito
100
AcDbSpline
210
0.0
220
0.0
230
1.0
 70
    12
 71
     2
 72
     6
 73
     3
 74
     0
 42
0.0000000001
 43
0.0000000001
 40
0.0
 40
0.0
 40
0.0
 40
1.854616480654438
 40
1.854616480654438
 40
1.854616480654438
 10
1361.199081208061
 20
1085.14827527057
 30
0.0
 41
1.0
 10
1361.327684074961
 20
1086.089740702822
 30
0.0
 41
0.9995606735136087
 10
1361.399612026735
 20
1087.028822164147
 30
0.0
 41
1.0
  0
SPLINE
  5
C7
330
1F
100
AcDbEntity
  8
Predefinito
100
AcDbSpline
210
0.0
220
0.0
230
1.0
 70
    12
 71
     2
 72
     6
 73
     3
 74
     0
 42
0.0000000001
 43
0.0000000001
 40
0.0
 40
0.0
 40
0.0
 40
2.018587331612896
 40
2.018587331612896
 40
2.018587331612896
 10
1361.399612026735
 20
1087.028822164147
 30
0.0
 41
1.0
 10
1361.477114136235
 20
1088.049694402443
 30
0.0
 41
0.9996076081555978
 10
1361.497114038017
 20
1089.062945119
 30
0.0
 41
1.0
  0
SPLINE
  5
C8
330
1F
100
AcDbEntity
  8
Predefinito
100
AcDbSpline
210
0.0
220
0.0
230
1.0
 70
    12
 71
     2
 72
     6
 73
     3
 74
     0
 42
0.0000000001
 43
0.0000000001
 40
0.0
 40
0.0
 40
0.0
 40
0.9129519111166149
 40
0.9129519111166149
 40
0.9129519111166149
 10
1361.497114038017
 20
1089.062945119
 30
0.0
 41
1.0
 10
1361.506185605232
 20
1089.523236890547
 30
0.0
 41
0.9999510018005426
 10
1361.50614292575
 20
1089.979737211119
 30
0.0
 41
1.0
  0
SPLINE
  5
C9
330
1F
100
AcDbEntity
  8
Predefinito
100
AcDbSpline
210
0.0
220
0.0
230
1.0
 70
    12
 71
     2
 72
     6
 73
     3
 74
     0
 42
0.0000000001
 43
0.0000000001
 40
0.0
 40
0.0
 40
0.0
 40
1.151388011232675
 40
1.151388011232675
 40
1.151388011232675
 10
1361.50614292575
 20
1089.979737211119
 30
0.0
 41
1.0
 10
1361.506094082969
 20
1090.555470342827
 30
0.0
 41
0.9999226916313494
 10
1361.491606406271
 20
1091.135899274906
 30
0.0
 41
1.0
  0
SPLINE
  5
CA
330
1F
100
AcDbEntity
  8
Predefinito
100
AcDbSpline
210
0.0
220
0.0
230
1.0
 70
    12
 71
     2
 72
     6
 73
     3
 74
     0
 42
0.0000000001
 43
0.0000000001
 40
0.0
 40
0.0
 40
0.0
 40
2.158694859644701
 40
2.158694859644701
 40
2.158694859644701
 10
1361.491606406271
 20
1091.135899274906
 30
0.0
 41
1.0
 10
1361.4643282358
 20
1092.219943303767
 30
0.0
 41
0.9997864207523129
 10
1361.391759044419
 20
1093.309629094788
 30
0.0
 41
1.0
  0
SPLINE
  5
CB
330
1F
100
AcDbEntity
  8
Predefinito
100
AcDbSpline
210
0.0
220
0.0
230
1.0
 70
    12
 71
     2
 72
     6
 73
     3
 74
     0
 42
0.0000000001
 43
0.0000000001
 40
0.0
 40
0.0
 40
0.0
 40
2.156378874852237
 40
2.156378874852237
 40
2.156378874852237
 10
1361.391759044419
 20
1093.309629094788
 30
0.0
 41
1.0
 10
1361.318701812751
 20
1094.398061611179
 30
0.0
 41
0.9998695445271313
 10
1361.209992870066
 20
1095.488824698947
 30
0.0
 41
1.0
  0
SPLINE
  5
CC
330
1F
100
AcDbEntity
  8
Predefinito
100
AcDbSpline
210
0.0
220
0.0
230
1.0
 70
    12
 71
     2
 72
     6
 73
     3
 74
     0
 42
0.0000000001
 43
0.0000000001
 40
0.0
 40
0.0
 40
0.0
 40
2.47667723724148
 40
2.47667723724148
 40
2.47667723724148
 10
1361.209992870066
 20
1095.488824698947
 30
0.0
 41
1.0
 10
1361.084685716385
 20
1096.738895626129
 30
0.0
 41
0.9998626766343753
 10
1360.917430768773
 20
1097.988438192024
 30
0.0
 41
1.0
  0
SPLINE
  5
CD
330
1F
100
AcDbEntity
  8
Predefinito
100
AcDbSpline
210
0.0
220
0.0
230
1.0
 70
    12
 71
     2
 72
     6
 73
     3
 74
     0
 42
0.0000000001
 43
0.0000000001
 40
0.0
 40
0.0
 40
0.0
 40
2.466576831587683
 40
2.466576831587683
 40
2.466576831587683
 10
1360.917430768773
 20
1097.988438192024
 30
0.0
 41
1.0
 10
1360.750014504106
 20
1099.23281671478
 30
0.0
 41
0.999918666406346
 10
1360.550514989272
 20
1100.474913153645
 30
0.0
 41
1.0
  0
SPLINE
  5
CE
330
1F
100
AcDbEntity
  8
Predefinito
100
AcDbSpline
210
0.0
220
0.0
230
1.0
 70
    12
 71
     2
 72
     6
 73
     3
 74
     0
 42
0.0000000001
 43
0.0000000001
 40
0.0
 40
0.0
 40
0.0
 40
2.823176372626904
 40
2.823176372626904
 40
2.823176372626904
 10
1360.550514989272
 20
1100.474913153645
 30
0.0
 41
1.0
 10
1360.321956454876
 20
1101.892939796597
 30
0.0
 41
0.9999155149133062
 10
1360.056321416198
 20
1103.306023282918
 30
0.0
 41
1.0
  0
SPLINE
  5
CF
330
1F
100
AcDbEntity
  8
Predefinito
100
AcDbSpline
210
0.0
220
0.0
230
1.0
 70
    12
 71
     2
 72
     6
 73
     3
 74
     0
 42
0.0000000001
 43
0.0000000001
 40
0.0
 40
0.0
 40
0.0
 40
2.809791696935779
 40
2.809791696935779
 40
2.809791696935779
 10
1360.056321416198
 20
1103.306023282918
 30
0.0
 41
1.0
 10
1359.791163928269
 20
1104.712351940352
 30
0.0
 41
0.9999516545313786
 10
1359.498300273537
 20
1106.113622040133
 30
0.0
 41
1.0
  0
SPLINE
  5
D0
330
1F
100
AcDbEntity
  8
Predefinito
100
AcDbSpline
210
0.0
220
0.0
230
1.0
 70
    12
 71
     2
 72
     6
 73
     3
 74
     0
 42
0.0000000001
 43
0.0000000001
 40
0.0
 40
0.0
 40
0.0
 40
3.422122055535102
 40
3.422122055535102
 40
3.422122055535102
 10
1359.498300273537
 20
1106.113622040133
 30
0.0
 41
1.0
 10
1359.142139739094
 20
1107.81446110881
 30
0.0
 41
0.9999451712579994
 10
1358.750480367555
 20
1109.50724188588
 30
0.0
 41
1.0
  0
SPLINE
  5
D1
330
1F
100
AcDbEntity
  8
Predefinito
100
AcDbSpline
210
0.0
220
0.0
230
1.0
 70
    12
 71
     2
 72
     6
 73
     3
 74
     0
 42
0.0000000001
 43
0.0000000001
 40
0.0
 40
0.0
 40
0.0
 40
1.003880147008583
 40
1.003880147008583
 40
1.003880147008583
 10
1358.750480367555
 20
1109.50724188588
 30
0.0
 41
1.0
 10
1358.631193341942
 20
1110.021915600441
 30
0.0
 41
0.9999976194278622
 10
1358.515724766358
 20
1110.510394510056
 30
0.0
 41
1.0
  0
SPLINE
  5
D2
330
1F
100
AcDbEntity
  8
Predefinito
100
AcDbSpline
210
0.0
220
0.0
230
1.0
 70
    12
 71
     2
 72
     6
 73
     3
 74
     0
 42
0.0000000001
 43
0.0000000001
 40
0.0
 40
0.0
 40
0.0
 40
0.2876549183676703
 40
0.2876549183676703
 40
0.2876549183676703
 10
1340.761456226943
 20
1046.594003975271
 30
0.0
 41
1.0
 10
1340.780621164655
 20
1046.736549919649
 30
0.0
 41
0.9999890117136322
 10
1340.804559543099
 20
1046.90264847966
 30
0.0
 41
1.0
  0
SPLINE
  5
D3
330
1F
100
AcDbEntity
  8
Predefinito
100
AcDbSpline
210
0.0
220
0.0
230
1.0
 70
    12
 71
     2
 72
     6
 73
     3
 74
     0
 42
0.0000000001
 43
0.0000000001
 40
0.0
 40
0.0
 40
0.0
 40
2.042211845584955
 40
2.042211845584955
 40
2.042211845584955
 10
1340.804559543099
 20
1046.90264847966
 30
0.0
 41
1.0
 10
1340.954856495111
 20
1047.937275718388
 30
0.0
 41
0.9994205172212867
 10
1341.181435298528
 20
1048.987576561771
 30
0.0
 41
1.0
  0
SPLINE
  5
D4
330
1F
100
AcDbEntity
  8
Predefinito
100
AcDbSpline
210
0.0
220
0.0
230
1.0
 70
    12
 71
     2
 72
     6
 73
     3
 74
     0
 42
0.0000000001
 43
0.0000000001
 40
0.0
 40
0.0
 40
0.0
 40
1.961442445670995
 40
1.961442445670995
 40
1.961442445670995
 10
1341.181435298528
 20
1048.987576561771
 30
0.0
 41
1.0
 10
1341.402903824651
 20
1049.997616055612
 30
0.0
 41
0.9994625248065069
 10
1341.687243986934
 20
1050.980613799366
 30
0.0
 41
1.0
  0
SPLINE
  5
D5
330
1F
100
AcDbEntity
  8
Predefinito
100
AcDbSpline
210
0.0
220
0.0
230
1.0
 70
    12
 71
     2
 72
     6
 73
     3
 74
     0
 42
0.0000000001
 43
0.0000000001
 40
0.0
 40
0.0
 40
0.0
 40
2.098908809832149
 40
2.098908809832149
 40
2.098908809832149
 10
1341.687243986934
 20
1050.980613799366
 30
0.0
 41
1.0
 10
1341.993425106576
 20
1052.028952606721
 30
0.0
 41
0.9993446750560528
 10
1342.371145058835
 20
1053.042743330817
 30
0.0
 41
1.0
  0
SPLINE
  5
D6
330
1F
100
AcDbEntity
  8
Predefinito
100
AcDbSpline
210
0.0
220
0.0
230
1.0
 70
    12
 71
     2
 72
     6
 73
     3
 74
     0
 42
0.0000000001
 43
0.0000000001
 40
0.0
 40
0.0
 40
0.0
 40
2.012178349175765
 40
2.012178349175765
 40
2.012178349175765
 10
1342.371145058835
 20
1053.042743330817
 30
0.0
 41
1.0
 10
1342.735699733611
 20
1054.015032903024
 30
0.0
 41
0.9994931053265784
 10
1343.200431726671
 20
1055.047627122447
 30
0.0
 41
1.0
  0
SPLINE
  5
D7
330
1F
100
AcDbEntity
  8
Predefinito
100
AcDbSpline
210
0.0
220
0.0
230
1.0
 70
    12
 71
     2
 72
     6
 73
     3
 74
     0
 42
0.0000000001
 43
0.0000000001
 40
0.0
 40
0.0
 40
0.0
 40
1.6883891623885
 40
1.6883891623885
 40
1.6883891623885
 10
1343.200431726671
 20
1055.047627122447
 30
0.0
 41
1.0
 10
1343.604693877661
 20
1055.929723126653
 30
0.0
 41
0.9996447746004968
 10
1344.054156094522
 20
1056.784811044145
 30
0.0
 41
1.0
  0
SPLINE
  5
D8
330
1F
100
AcDbEntity
  8
Predefinito
100
AcDbSpline
210
0.0
220
0.0
230
1.0
 70
    12
 71
     2
 72
     6
 73
     3
 74
     0
 42
0.0000000001
 43
0.0000000001
 40
0.0
 40
0.0
 40
0.0
 40
1.637467470404765
 40
1.637467470404765
 40
1.637467470404765
 10
1344.054156094522
 20
1056.784811044145
 30
0.0
 41
1.0
 10
1344.4964816488
 20
1057.614793191371
 30
0.0
 41
0.999757249462657
 10
1344.963449399428
 20
1058.403854476308
 30
0.0
 41
1.0
  0
SPLINE
  5
D9
330
1F
100
AcDbEntity
  8
Predefinito
100
AcDbSpline
210
0.0
220
0.0
230
1.0
 70
    12
 71
     2
 72
     6
 73
     3
 74
     0
 42
0.0000000001
 43
0.0000000001
 40
0.0
 40
0.0
 40
0.0
 40
1.814344055770325
 40
1.814344055770325
 40
1.814344055770325
 10
1344.963449399428
 20
1058.403854476308
 30
0.0
 41
1.0
 10
1345.47914690038
 20
1059.266864505831
 30
0.0
 41
0.9997343030382363
 10
1346.023214563443
 20
1060.088178299997
 30
0.0
 41
1.0
  0
SPLINE
  5
DA
330
1F
100
AcDbEntity
  8
Predefinito
100
AcDbSpline
210
0.0
220
0.0
230
1.0
 70
    12
 71
     2
 72
     6
 73
     3
 74
     0
 42
0.0000000001
 43
0.0000000001
 40
0.0
 40
0.0
 40
0.0
 40
1.769529356854759
 40
1.769529356854759
 40
1.769529356854759
 10
1346.023214563443
 20
1060.088178299997
 30
0.0
 41
1.0
 10
1346.557130875079
 20
1060.889246141375
 30
0.0
 41
0.9998522205738487
 10
1347.108338207559
 20
1061.657351516643
 30
0.0
 41
1.0
  0
SPLINE
  5
DB
330
1F
100
AcDbEntity
  8
Predefinito
100
AcDbSpline
210
0.0
220
0.0
230
1.0
 70
    12
 71
     2
 72
     6
 73
     3
 74
     0
 42
0.0000000001
 43
0.0000000001
 40
0.0
 40
0.0
 40
0.0
 40
1.950764507512978
 40
1.950764507512978
 40
1.950764507512978
 10
1347.108338207559
 20
1061.657351516643
 30
0.0
 41
1.0
 10
1347.713949043849
 20
1062.497950788026
 30
0.0
 41
0.9998647223898615
 10
1348.336072773252
 20
1063.304048356488
 30
0.0
 41
1.0
  0
SPLINE
  5
DC
330
1F
100
AcDbEntity
  8
Predefinito
100
AcDbSpline
210
0.0
220
0.0
230
1.0
 70
    12
 71
     2
 72
     6
 73
     3
 74
     0
 42
0.0000000001
 43
0.0000000001
 40
0.0
 40
0.0
 40
0.0
 40
1.918121175855258
 40
1.918121175855258
 40
1.918121175855258
 10
1348.336072773252
 20
1063.304048356488
 30
0.0
 41
1.0
 10
1348.948908698654
 20
1064.096623124313
 30
0.0
 41
0.9999529093475248
 10
1349.660922438549
 20
1064.98105724187
 30
0.0
 41
1.0
  0
SPLINE
  5
DD
330
1F
100
AcDbEntity
  8
Predefinito
100
AcDbSpline
210
0.0
220
0.0
230
1.0
 70
    12
 71
     2
 72
     6
 73
     3
 74
     0
 42
0.0000000001
 43
0.0000000001
 40
0.0
 40
0.0
 40
0.0
 40
1.855586135904379
 40
1.855586135904379
 40
1.855586135904379
 10
1349.660922438549
 20
1064.98105724187
 30
0.0
 41
1.0
 10
1350.355031404299
 20
1065.839738856431
 30
0.0
 41
0.9999804704390659
 10
1351.008532875249
 20
1066.627547310287
 30
0.0
 41
1.0
  0
SPLINE
  5
DE
330
1F
100
AcDbEntity
  8
Predefinito
100
AcDbSpline
210
0.0
220
0.0
230
1.0
 70
    12
 71
     2
 72
     6
 73
     3
 74
     0
 42
0.0000000001
 43
0.0000000001
 40
0.0
 40
0.0
 40
0.0
 40
1.968623266833744
 40
1.968623266833744
 40
1.968623266833744
 10
1351.008532875249
 20
1066.627547310287
 30
0.0
 41
1.0
 10
1351.697977204765
 20
1067.458958056075
 30
0.0
 41
0.9999994962460776
 10
1352.358568127314
 20
1068.258872255963
 30
0.0
 41
1.0
  0
SPLINE
  5
DF
330
1F
100
AcDbEntity
  8
Predefinito
100
AcDbSpline
210
0.0
220
0.0
230
1.0
 70
    12
 71
     2
 72
     6
 73
     3
 74
     0
 42
0.0000000001
 43
0.0000000001
 40
0.0
 40
0.0
 40
0.0
 40
1.895951404084004
 40
1.895951404084004
 40
1.895951404084004
 10
1352.358568127314
 20
1068.258872255963
 30
0.0
 41
1.0
 10
1352.995639137978
 20
1069.031093053944
 30
0.0
 41
0.9999896907285576
 10
1353.629116570949
 20
1069.813415297855
 30
0.0
 41
1.0
  0
SPLINE
  5
E0
330
1F
100
AcDbEntity
  8
Predefinito
100
AcDbSpline
210
0.0
220
0.0
230
1.0
 70
    12
 71
     2
 72
     6
 73
     3
 74
     0
 42
0.0000000001
 43
0.0000000001
 40
0.0
 40
0.0
 40
0.0
 40
1.869893207790007
 40
1.869893207790007
 40
1.869893207790007
 10
1353.629116570949
 20
1069.813415297855
 30
0.0
 41
1.0
 10
1354.253247831928
 20
1070.586586782437
 30
0.0
 41
0.9999300771336236
 10
1354.86692612827
 20
1071.384930776378
 30
0.0
 41
1.0
  0
SPLINE
  5
E1
330
1F
100
AcDbEntity
  8
Predefinito
100
AcDbSpline
210
0.0
220
0.0
230
1.0
 70
    12
 71
     2
 72
     6
 73
     3
 74
     0
 42
0.0000000001
 43
0.0000000001
 40
0.0
 40
0.0
 40
0.0
 40
1.627010605960006
 40
1.627010605960006
 40
1.627010605960006
 10
1354.86692612827
 20
1071.384930776378
 30
0.0
 41
1.0
 10
1355.405018262439
 20
1072.088204041388
 30
0.0
 41
0.9999137807024626
 10
1355.932494440679
 20
1072.816927432667
 30
0.0
 41
1.0
  0
SPLINE
  5
E2
330
1F
100
AcDbEntity
  8
Predefinito
100
AcDbSpline
210
0.0
220
0.0
230
1.0
 70
    12
 71
     2
 72
     6
 73
     3
 74
     0
 42
0.0000000001
 43
0.0000000001
 40
0.0
 40
0.0
 40
0.0
 40
1.607668749636357
 40
1.607668749636357
 40
1.607668749636357
 10
1355.932494440679
 20
1072.816927432667
 30
0.0
 41
1.0
 10
1356.451416951363
 20
1073.539959307583
 30
0.0
 41
0.9998150989013417
 10
1356.952158444842
 20
1074.298443866017
 30
0.0
 41
1.0
  0
SPLINE
  5
E3
330
1F
100
AcDbEntity
  8
Predefinito
100
AcDbSpline
210
0.0
220
0.0
230
1.0
 70
    12
 71
     2
 72
     6
 73
     3
 74
     0
 42
0.0000000001
 43
0.0000000001
 40
0.0
 40
0.0
 40
0.0
 40
0.5666041769861296
 40
0.5666041769861296
 40
0.5666041769861296
 10
1356.952158444842
 20
1074.298443866017
 30
0.0
 41
1.0
 10
1357.164583861698
 20
1074.623416788718
 30
0.0
 41
0.9999702296384294
 10
1357.315724766303
 20
1074.863040840624
 30
0.0
 41
1.0
  0
SPLINE
  5
E4
330
1F
100
AcDbEntity
  8
Predefinito
100
AcDbSpline
210
0.0
220
0.0
230
1.0
 70
    12
 71
     2
 72
     6
 73
     3
 74
     0
 42
0.0000000001
 43
0.0000000001
 40
-0.1209039557366358
 40
-0.1209039557366358
 40
-0.1209039557366358
 40
0.0
 40
0.0
 40
0.0
 10
1357.315724766301
 20
1066.907643885371
 30
0.0
 41
1.0
 10
1357.282730201331
 20
1066.856925220252
 30
0.0
 41
0.9986507609662139
 10
1357.244680901746
 20
1066.809879748758
 30
0.0
 41
0.9999999988371155
  0
SPLINE
  5
E5
330
1F
100
AcDbEntity
  8
Predefinito
100
AcDbSpline
210
0.0
220
0.0
230
1.0
 70
    12
 71
     2
 72
     6
 73
     3
 74
     0
 42
0.0000000001
 43
0.0000000001
 40
0.0
 40
0.0
 40
0.0
 40
1.789162302680879
 40
1.789162302680879
 40
1.789162302680879
 10
1357.244680901746
 20
1066.809879748758
 30
0.0
 41
0.9999999999994764
 10
1356.681713803627
 20
1066.114643965739
 30
0.0
 41
0.9999912302619998
 10
1356.030749941759
 20
1065.324554698016
 30
0.0
 41
1.0
  0
SPLINE
  5
E6
330
1F
100
AcDbEntity
  8
Predefinito
100
AcDbSpline
210
0.0
220
0.0
230
1.0
 70
    12
 71
     2
 72
     6
 73
     3
 74
     0
 42
0.0000000001
 43
0.0000000001
 40
0.0
 40
0.0
 40
0.0
 40
1.908468346857993
 40
1.908468346857993
 40
1.908468346857993
 10
1356.030749941759
 20
1065.324554698016
 30
0.0
 41
1.0
 10
1355.340953798045
 20
1064.489174739481
 30
0.0
 41
0.9999995311278022
 10
1354.648291296954
 20
1063.653775864396
 30
0.0
 41
1.0
  0
SPLINE
  5
E7
330
1F
100
AcDbEntity
  8
Predefinito
100
AcDbSpline
210
0.0
220
0.0
230
1.0
 70
    12
 71
     2
 72
     6
 73
     3
 74
     0
 42
0.0000000001
 43
0.0000000001
 40
0.0
 40
0.0
 40
0.0
 40
1.789684916214898
 40
1.789684916214898
 40
1.789684916214898
 10
1354.648291296954
 20
1063.653775864396
 30
0.0
 41
1.0
 10
1353.993359058261
 20
1062.864230207695
 30
0.0
 41
0.9999806217387035
 10
1353.321154950243
 20
1062.032715349654
 30
0.0
 41
1.0
  0
SPLINE
  5
E8
330
1F
100
AcDbEntity
  8
Predefinito
100
AcDbSpline
210
0.0
220
0.0
230
1.0
 70
    12
 71
     2
 72
     6
 73
     3
 74
     0
 42
0.0000000001
 43
0.0000000001
 40
0.0
 40
0.0
 40
0.0
 40
1.588124747498672
 40
1.588124747498672
 40
1.588124747498672
 10
1353.321154950243
 20
1062.032715349654
 30
0.0
 41
1.0
 10
1352.713803971328
 20
1061.278358208745
 30
0.0
 41
0.9999642367904338
 10
1352.128388398781
 20
1060.524755453238
 30
0.0
 41
1.0
  0
SPLINE
  5
E9
330
1F
100
AcDbEntity
  8
Predefinito
100
AcDbSpline
210
0.0
220
0.0
230
1.0
 70
    12
 71
     2
 72
     6
 73
     3
 74
     0
 42
0.0000000001
 43
0.0000000001
 40
0.0
 40
0.0
 40
0.0
 40
1.632749429707332
 40
1.632749429707332
 40
1.632749429707332
 10
1352.128388398781
 20
1060.524755453238
 30
0.0
 41
1.0
 10
1351.531472206434
 20
1059.751784662636
 30
0.0
 41
0.9998875334046318
 10
1350.971735188913
 20
1058.979163387439
 30
0.0
 41
1.0
  0
SPLINE
  5
EA
330
1F
100
AcDbEntity
  8
Predefinito
100
AcDbSpline
210
0.0
220
0.0
230
1.0
 70
    12
 71
     2
 72
     6
 73
     3
 74
     0
 42
0.0000000001
 43
0.0000000001
 40
0.0
 40
0.0
 40
0.0
 40
1.520372388593649
 40
1.520372388593649
 40
1.520372388593649
 10
1350.971735188913
 20
1058.979163387439
 30
0.0
 41
1.0
 10
1350.447998643364
 20
1058.249847634252
 30
0.0
 41
0.9998673383384261
 10
1349.956720260397
 20
1057.515275248489
 30
0.0
 41
1.0
  0
SPLINE
  5
EB
330
1F
100
AcDbEntity
  8
Predefinito
100
AcDbSpline
210
0.0
220
0.0
230
1.0
 70
    12
 71
     2
 72
     6
 73
     3
 74
     0
 42
0.0000000001
 43
0.0000000001
 40
0.0
 40
0.0
 40
0.0
 40
1.582322297356627
 40
1.582322297356627
 40
1.582322297356627
 10
1349.956720260397
 20
1057.515275248489
 30
0.0
 41
1.0
 10
1349.451760966779
 20
1056.752516778506
 30
0.0
 41
0.999739686976737
 10
1349.001927210053
 20
1055.999577134486
 30
0.0
 41
1.0
  0
SPLINE
  5
EC
330
1F
100
AcDbEntity
  8
Predefinito
100
AcDbSpline
210
0.0
220
0.0
230
1.0
 70
    12
 71
     2
 72
     6
 73
     3
 74
     0
 42
0.0000000001
 43
0.0000000001
 40
0.0
 40
0.0
 40
0.0
 40
1.509477904238545
 40
1.509477904238545
 40
1.509477904238545
 10
1349.001927210053
 20
1055.999577134486
 30
0.0
 41
1.0
 10
1348.573844833799
 20
1055.276080895511
 30
0.0
 41
0.9997309230733731
 10
1348.192089013259
 20
1054.556043165177
 30
0.0
 41
1.0
  0
SPLINE
  5
ED
330
1F
100
AcDbEntity
  8
Predefinito
100
AcDbSpline
210
0.0
220
0.0
230
1.0
 70
    12
 71
     2
 72
     6
 73
     3
 74
     0
 42
0.0000000001
 43
0.0000000001
 40
0.0
 40
0.0
 40
0.0
 40
1.601896189602434
 40
1.601896189602434
 40
1.601896189602434
 10
1348.192089013259
 20
1054.556043165177
 30
0.0
 41
1.0
 10
1347.791314801161
 20
1053.793682157128
 30
0.0
 41
0.9995635632180725
 10
1347.447553827414
 20
1053.033556062846
 30
0.0
 41
1.0
  0
SPLINE
  5
EE
330
1F
100
AcDbEntity
  8
Predefinito
100
AcDbSpline
210
0.0
220
0.0
230
1.0
 70
    12
 71
     2
 72
     6
 73
     3
 74
     0
 42
0.0000000001
 43
0.0000000001
 40
0.0
 40
0.0
 40
0.0
 40
1.565925607719796
 40
1.565925607719796
 40
1.565925607719796
 10
1347.447553827414
 20
1053.033556062846
 30
0.0
 41
1.0
 10
1347.112863192809
 20
1052.289079587465
 30
0.0
 41
0.999571590164518
 10
1346.798547051837
 20
1051.462902722631
 30
0.0
 41
1.0
  0
SPLINE
  5
EF
330
1F
100
AcDbEntity
  8
Predefinito
100
AcDbSpline
210
0.0
220
0.0
230
1.0
 70
    12
 71
     2
 72
     6
 73
     3
 74
     0
 42
0.0000000001
 43
0.0000000001
 40
0.0
 40
0.0
 40
0.0
 40
1.692564687818661
 40
1.692564687818661
 40
1.692564687818661
 10
1346.798547051837
 20
1051.462902722631
 30
0.0
 41
1.0
 10
1346.46747661728
 20
1050.575245494227
 30
0.0
 41
0.999389237278896
 10
1346.206953594089
 20
1049.690744186546
 30
0.0
 41
1.0
  0
SPLINE
  5
F0
330
1F
100
AcDbEntity
  8
Predefinito
100
AcDbSpline
210
0.0
220
0.0
230
1.0
 70
    12
 71
     2
 72
     6
 73
     3
 74
     0
 42
0.0000000001
 43
0.0000000001
 40
0.0
 40
0.0
 40
0.0
 40
1.620561500651602
 40
1.620561500651602
 40
1.620561500651602
 10
1346.206953594089
 20
1049.690744186546
 30
0.0
 41
1.0
 10
1345.961121051774
 20
1048.83952782055
 30
0.0
 41
0.999482570258988
 10
1345.775878642916
 20
1047.996978586015
 30
0.0
 41
1.0
  0
SPLINE
  5
F1
330
1F
100
AcDbEntity
  8
Predefinito
100
AcDbSpline
210
0.0
220
0.0
230
1.0
 70
    12
 71
     2
 72
     6
 73
     3
 74
     0
 42
0.0000000001
 43
0.0000000001
 40
0.0
 40
0.0
 40
0.0
 40
1.375746353528281
 40
1.375746353528281
 40
1.375746353528281
 10
1345.775878642916
 20
1047.996978586015
 30
0.0
 41
1.0
 10
1345.619562174743
 20
1047.273514977978
 30
0.0
 41
0.999622610910065
 10
1345.511522770899
 20
1046.594003974825
 30
0.0
 41
1.0
  0
SPLINE
  5
F2
330
1F
100
AcDbEntity
  8
Predefinito
100
AcDbSpline
210
0.0
220
0.0
230
1.0
 70
    12
 71
     2
 72
     6
 73
     3
 74
     0
 42
0.0000000001
 43
0.0000000001
 40
0.0
 40
0.0
 40
0.0
 40
1.043916195338539
 40
1.043916195338539
 40
1.043916195338539
 10
362.637479788822
 20
1066.218031964004
 30
0.0
 41
1.0
 10
363.0495279383512
 20
1066.538434791688
 30
0.0
 41
0.999996163042743
 10
363.5029469088805
 20
1066.886976571267
 30
0.0
 41
1.0
  0
SPLINE
  5
F3
330
1F
100
AcDbEntity
  8
Predefinito
100
AcDbSpline
210
0.0
220
0.0
230
1.0
 70
    12
 71
     2
 72
     6
 73
     3
 74
     0
 42
0.0000000001
 43
0.0000000001
 40
0.0
 40
0.0
 40
0.0
 40
2.707408808293747
 40
2.707408808293747
 40
2.707408808293747
 10
363.5029469088805
 20
1066.886976571267
 30
0.0
 41
1.0
 10
364.6162216347751
 20
1067.741869158765
 30
0.0
 41
0.9999994245807811
 10
365.6969588847845
 20
1068.575452057301
 30
0.0
 41
1.0
  0
SPLINE
  5
F4
330
1F
100
AcDbEntity
  8
Predefinito
100
AcDbSpline
210
0.0
220
0.0
230
1.0
 70
    12
 71
     2
 72
     6
 73
     3
 74
     0
 42
0.0000000001
 43
0.0000000001
 40
0.0
 40
0.0
 40
0.0
 40
2.51036261694256
 40
2.51036261694256
 40
2.51036261694256
 10
365.6969588847845
 20
1068.575452057301
 30
0.0
 41
1.0
 10
366.6996718100253
 20
1069.348891133393
 30
0.0
 41
0.9999889071102526
 10
367.6933202776362
 20
1070.130378490971
 30
0.0
 41
1.0
  0
SPLINE
  5
F5
330
1F
100
AcDbEntity
  8
Predefinito
100
AcDbSpline
210
0.0
220
0.0
230
1.0
 70
    12
 71
     2
 72
     6
 73
     3
 74
     0
 42
0.0000000001
 43
0.0000000001
 40
0.0
 40
0.0
 40
0.0
 40
2.492019192224179
 40
2.492019192224179
 40
2.492019192224179
 10
367.6933202776362
 20
1070.130378490971
 30
0.0
 41
1.0
 10
368.6797272113365
 20
1070.906329003082
 30
0.0
 41
0.9999204010200693
 10
369.641662069308
 20
1071.703129562447
 30
0.0
 41
1.0
  0
SPLINE
  5
F6
330
1F
100
AcDbEntity
  8
Predefinito
100
AcDbSpline
210
0.0
220
0.0
230
1.0
 70
    12
 71
     2
 72
     6
 73
     3
 74
     0
 42
0.0000000001
 43
0.0000000001
 40
0.0
 40
0.0
 40
0.0
 40
2.199858326082641
 40
2.199858326082641
 40
2.199858326082641
 10
369.641662069308
 20
1071.703129562447
 30
0.0
 41
1.0
 10
370.4910495605653
 20
1072.406824899347
 30
0.0
 41
0.9998911128651689
 10
371.3197284966305
 20
1073.135656107039
 30
0.0
 41
1.0
  0
SPLINE
  5
F7
330
1F
100
AcDbEntity
  8
Predefinito
100
AcDbSpline
210
0.0
220
0.0
230
1.0
 70
    12
 71
     2
 72
     6
 73
     3
 74
     0
 42
0.0000000001
 43
0.0000000001
 40
0.0
 40
0.0
 40
0.0
 40
2.168838750512803
 40
2.168838750512803
 40
2.168838750512803
 10
371.3197284966305
 20
1073.135656107039
 30
0.0
 41
1.0
 10
372.136681705977
 20
1073.854495756684
 30
0.0
 41
0.9997424548800653
 10
372.9269011377193
 20
1074.616153913346
 30
0.0
 41
1.0
  0
SPLINE
  5
F8
330
1F
100
AcDbEntity
  8
Predefinito
100
AcDbSpline
210
0.0
220
0.0
230
1.0
 70
    12
 71
     2
 72
     6
 73
     3
 74
     0
 42
0.0000000001
 43
0.0000000001
 40
0.0
 40
0.0
 40
0.0
 40
1.921935821591625
 40
1.921935821591625
 40
1.921935821591625
 10
372.9269011377193
 20
1074.616153913346
 30
0.0
 41
1.0
 10
373.6277757319891
 20
1075.292610984369
 30
0.0
 41
0.9997155211184264
 10
374.3015931464596
 20
1076.00812213642
 30
0.0
 41
1.0
  0
SPLINE
  5
F9
330
1F
100
AcDbEntity
  8
Predefinito
100
AcDbSpline
210
0.0
220
0.0
230
1.0
 70
    12
 71
     2
 72
     6
 73
     3
 74
     0
 42
0.0000000001
 43
0.0000000001
 40
0.0
 40
0.0
 40
0.0
 40
1.723470714527024
 40
1.723470714527024
 40
1.723470714527024
 10
374.3015931464596
 20
1076.00812213642
 30
0.0
 41
1.0
 10
374.9064266648932
 20
1076.652380261834
 30
0.0
 41
0.9995651276401145
 10
375.5096062928372
 20
1077.376368456922
 30
0.0
 41
1.0
  0
SPLINE
  5
FA
330
1F
100
AcDbEntity
  8
Predefinito
100
AcDbSpline
210
0.0
220
0.0
230
1.0
 70
    12
 71
     2
 72
     6
 73
     3
 74
     0
 42
0.0000000001
 43
0.0000000001
 40
0.0
 40
0.0
 40
0.0
 40
1.701376220849834
 40
1.701376220849834
 40
1.701376220849834
 10
375.5096062928372
 20
1077.376368456922
 30
0.0
 41
1.0
 10
376.1021701538288
 20
1078.094884163886
 30
0.0
 41
0.9994549147081397
 10
376.6360297710121
 20
1078.837676427328
 30
0.0
 41
1.0
  0
SPLINE
  5
FB
330
1F
100
AcDbEntity
  8
Predefinito
100
AcDbSpline
210
0.0
220
0.0
230
1.0
 70
    12
 71
     2
 72
     6
 73
     3
 74
     0
 42
0.0000000001
 43
0.0000000001
 40
0.0
 40
0.0
 40
0.0
 40
1.718837110603336
 40
1.718837110603336
 40
1.718837110603336
 10
376.6360297710121
 20
1078.837676427328
 30
0.0
 41
1.0
 10
377.171615354619
 20
1079.590234795627
 30
0.0
 41
0.9990817417352712
 10
377.631300849455
 20
1080.370269535152
 30
0.0
 41
1.0
  0
SPLINE
  5
FC
330
1F
100
AcDbEntity
  8
Predefinito
100
AcDbSpline
210
0.0
220
0.0
230
1.0
 70
    12
 71
     2
 72
     6
 73
     3
 74
     0
 42
0.0000000001
 43
0.0000000001
 40
0.0
 40
0.0
 40
0.0
 40
1.691625676761784
 40
1.691625676761784
 40
1.691625676761784
 10
377.631300849455
 20
1080.370269535152
 30
0.0
 41
1.0
 10
378.0808661957557
 20
1081.140542850794
 30
0.0
 41
0.9989503758717623
 10
378.4515292920657
 20
1081.935107697816
 30
0.0
 41
1.0
  0
SPLINE
  5
FD
330
1F
100
AcDbEntity
  8
Predefinito
100
AcDbSpline
210
0.0
220
0.0
230
1.0
 70
    12
 71
     2
 72
     6
 73
     3
 74
     0
 42
0.0000000001
 43
0.0000000001
 40
0.0
 40
0.0
 40
0.0
 40
1.710941415703607
 40
1.710941415703607
 40
1.710941415703607
 10
378.4515292920657
 20
1081.935107697816
 30
0.0
 41
1.0
 10
378.8238298610977
 20
1082.73981692439
 30
0.0
 41
0.99855618300383
 10
379.1034699471768
 20
1083.567666247345
 30
0.0
 41
1.0
  0
SPLINE
  5
FE
330
1F
100
AcDbEntity
  8
Predefinito
100
AcDbSpline
210
0.0
220
0.0
230
1.0
 70
    12
 71
     2
 72
     6
 73
     3
 74
     0
 42
0.0000000001
 43
0.0000000001
 40
0.0
 40
0.0
 40
0.0
 40
1.765671412057538
 40
1.765671412057538
 40
1.765671412057538
 10
379.1034699471768
 20
1083.567666247345
 30
0.0
 41
1.0
 10
379.3902007095181
 20
1084.422056095642
 30
0.0
 41
0.9985149880128897
 10
379.5804236924934
 20
1085.294190796328
 30
0.0
 41
1.0
  0
SPLINE
  5
FF
330
1F
100
AcDbEntity
  8
Predefinito
100
AcDbSpline
210
0.0
220
0.0
230
1.0
 70
    12
 71
     2
 72
     6
 73
     3
 74
     0
 42
0.0000000001
 43
0.0000000001
 40
0.0
 40
0.0
 40
0.0
 40
1.831237450552984
 40
1.831237450552984
 40
1.831237450552984
 10
379.5804236924934
 20
1085.294190796328
 30
0.0
 41
1.0
 10
379.7767731156316
 20
1086.198328761551
 30
0.0
 41
0.9989095363861193
 10
379.8873576183806
 20
1087.112131427487
 30
0.0
 41
1.0
  0
SPLINE
  5
100
330
1F
100
AcDbEntity
  8
Predefinito
100
AcDbSpline
210
0.0
220
0.0
230
1.0
 70
    12
 71
     2
 72
     6
 73
     3
 74
     0
 42
0.0000000001
 43
0.0000000001
 40
0.0
 40
0.0
 40
0.0
 40
1.973993488244116
 40
1.973993488244116
 40
1.973993488244116
 10
379.8873576183806
 20
1087.112131427487
 30
0.0
 41
1.0
 10
380.0061110125842
 20
1088.096824613248
 30
0.0
 41
0.9990178484973352
 10
380.0371196825059
 20
1089.084974676159
 30
0.0
 41
1.0
  0
SPLINE
  5
101
330
1F
100
AcDbEntity
  8
Predefinito
100
AcDbSpline
210
0.0
220
0.0
230
1.0
 70
    12
 71
     2
 72
     6
 73
     3
 74
     0
 42
0.0000000001
 43
0.0000000001
 40
0.0
 40
0.0
 40
0.0
 40
0.8941536549469815
 40
0.8941536549469815
 40
0.8941536549469815
 10
380.0371196825059
 20
1089.084974676159
 30
0.0
 41
1.0
 10
380.051163253184
 20
1089.532860855858
 30
0.0
 41
0.9998772094488673
 10
380.051164399646
 20
1089.9799891214
 30
0.0
 41
1.0
  0
SPLINE
  5
102
330
1F
100
AcDbEntity
  8
Predefinito
100
AcDbSpline
210
0.0
220
0.0
230
1.0
 70
    12
 71
     2
 72
     6
 73
     3
 74
     0
 42
0.0000000001
 43
0.0000000001
 40
0.0
 40
0.0
 40
0.0
 40
1.126305285285857
 40
1.126305285285857
 40
1.126305285285857
 10
380.051164399646
 20
1089.9799891214
 30
0.0
 41
1.0
 10
380.0511700575628
 20
1090.543229144358
 30
0.0
 41
0.9998068083037015
 10
380.0289610934211
 20
1091.107990920602
 30
0.0
 41
1.0
  0
SPLINE
  5
103
330
1F
100
AcDbEntity
  8
Predefinito
100
AcDbSpline
210
0.0
220
0.0
230
1.0
 70
    12
 71
     2
 72
     6
 73
     3
 74
     0
 42
0.0000000001
 43
0.0000000001
 40
0.0
 40
0.0
 40
0.0
 40
2.129568624328704
 40
2.129568624328704
 40
2.129568624328704
 10
380.0289610934211
 20
1091.107990920602
 30
0.0
 41
1.0
 10
379.9868690012291
 20
1092.174297312402
 30
0.0
 41
0.9994657403113383
 10
379.8750328749446
 20
1093.237178216991
 30
0.0
 41
1.0
  0
SPLINE
  5
104
330
1F
100
AcDbEntity
  8
Predefinito
100
AcDbSpline
210
0.0
220
0.0
230
1.0
 70
    12
 71
     2
 72
     6
 73
     3
 74
     0
 42
0.0000000001
 43
0.0000000001
 40
0.0
 40
0.0
 40
0.0
 40
2.153738070600112
 40
2.153738070600112
 40
2.153738070600112
 10
379.8750328749446
 20
1093.237178216991
 30
0.0
 41
1.0
 10
379.761700276079
 20
1094.311905259034
 30
0.0
 41
0.9996763230340301
 10
379.5935030339532
 20
1095.381658237703
 30
0.0
 41
1.0
  0
SPLINE
  5
105
330
1F
100
AcDbEntity
  8
Predefinito
100
AcDbSpline
210
0.0
220
0.0
230
1.0
 70
    12
 71
     2
 72
     6
 73
     3
 74
     0
 42
0.0000000001
 43
0.0000000001
 40
0.0
 40
0.0
 40
0.0
 40
2.492536790799254
 40
2.492536790799254
 40
2.492536790799254
 10
379.5935030339532
 20
1095.381658237703
 30
0.0
 41
1.0
 10
379.3986003197542
 20
1096.618738747368
 30
0.0
 41
0.9996656061367243
 10
379.1394219250295
 20
1097.846819087281
 30
0.0
 41
1.0
  0
SPLINE
  5
106
330
1F
100
AcDbEntity
  8
Predefinito
100
AcDbSpline
210
0.0
220
0.0
230
1.0
 70
    12
 71
     2
 72
     6
 73
     3
 74
     0
 42
0.0000000001
 43
0.0000000001
 40
0.0
 40
0.0
 40
0.0
 40
2.506760597404456
 40
2.506760597404456
 40
2.506760597404456
 10
379.1394219250295
 20
1097.846819087281
 30
0.0
 41
1.0
 10
378.8783468543703
 20
1099.081649016131
 30
0.0
 41
0.9998063110834382
 10
378.5682377458435
 20
1100.307764585343
 30
0.0
 41
1.0
  0
SPLINE
  5
107
330
1F
100
AcDbEntity
  8
Predefinito
100
AcDbSpline
210
0.0
220
0.0
230
1.0
 70
    12
 71
     2
 72
     6
 73
     3
 74
     0
 42
0.0000000001
 43
0.0000000001
 40
0.0
 40
0.0
 40
0.0
 40
2.884783395409273
 40
2.884783395409273
 40
2.884783395409273
 10
378.5682377458435
 20
1100.307764585343
 30
0.0
 41
1.0
 10
378.211245662295
 20
1101.717012634656
 30
0.0
 41
0.9998043313211455
 10
377.797909520641
 20
1103.113997102371
 30
0.0
 41
1.0
  0
SPLINE
  5
108
330
1F
100
AcDbEntity
  8
Predefinito
100
AcDbSpline
210
0.0
220
0.0
230
1.0
 70
    12
 71
     2
 72
     6
 73
     3
 74
     0
 42
0.0000000001
 43
0.0000000001
 40
0.0
 40
0.0
 40
0.0
 40
2.891477755685652
 40
2.891477755685652
 40
2.891477755685652
 10
377.797909520641
 20
1103.113997102371
 30
0.0
 41
1.0
 10
377.3831442206072
 20
1104.513962591591
 30
0.0
 41
0.9998909600502666
 10
376.9263832351032
 20
1105.903590157487
 30
0.0
 41
1.0
  0
SPLINE
  5
109
330
1F
100
AcDbEntity
  8
Predefinito
100
AcDbSpline
210
0.0
220
0.0
230
1.0
 70
    12
 71
     2
 72
     6
 73
     3
 74
     0
 42
0.0000000001
 43
0.0000000001
 40
0.0
 40
0.0
 40
0.0
 40
3.535204368313155
 40
3.535204368313155
 40
3.535204368313155
 10
376.9263832351032
 20
1105.903590157487
 30
0.0
 41
1.0
 10
376.3685569261464
 20
1107.598840924526
 30
0.0
 41
0.9998798707959082
 10
375.7573782126806
 20
1109.278924137982
 30
0.0
 41
1.0
  0
SPLINE
  5
10A
330
1F
100
AcDbEntity
  8
Predefinito
100
AcDbSpline
210
0.0
220
0.0
230
1.0
 70
    12
 71
     2
 72
     6
 73
     3
 74
     0
 42
0.0000000001
 43
0.0000000001
 40
0.0
 40
0.0
 40
0.0
 40
3.538999221352555
 40
3.538999221352555
 40
3.538999221352555
 10
375.7573782126806
 20
1109.278924137982
 30
0.0
 41
1.0
 10
375.1450890196159
 20
1110.960546060602
 30
0.0
 41
0.9999407852684186
 10
374.4954630867371
 20
1112.630700958602
 30
0.0
 41
1.0
  0
SPLINE
  5
10B
330
1F
100
AcDbEntity
  8
Predefinito
100
AcDbSpline
210
0.0
220
0.0
230
1.0
 70
    12
 71
     2
 72
     6
 73
     3
 74
     0
 42
0.0000000001
 43
0.0000000001
 40
0.0
 40
0.0
 40
0.0
 40
4.11669207596518
 40
4.11669207596518
 40
4.11669207596518
 10
374.4954630867371
 20
1112.630700958602
 30
0.0
 41
1.0
 10
373.7406404351975
 20
1114.569870716736
 30
0.0
 41
0.9999454982049681
 10
372.9445339288893
 20
1116.495164401551
 30
0.0
 41
1.0
  0
SPLINE
  5
10C
330
1F
100
AcDbEntity
  8
Predefinito
100
AcDbSpline
210
0.0
220
0.0
230
1.0
 70
    12
 71
     2
 72
     6
 73
     3
 74
     0
 42
0.0000000001
 43
0.0000000001
 40
0.0
 40
0.0
 40
0.0
 40
4.121451170916012
 40
4.121451170916012
 40
4.121451170916012
 10
372.9445339288893
 20
1116.495164401551
 30
0.0
 41
1.0
 10
372.1471871365852
 20
1118.422469505665
 30
0.0
 41
0.9999796223963989
 10
371.3246532405192
 20
1120.340931680154
 30
0.0
 41
1.0
  0
SPLINE
  5
10D
330
1F
100
AcDbEntity
  8
Predefinito
100
AcDbSpline
210
0.0
220
0.0
230
1.0
 70
    12
 71
     2
 72
     6
 73
     3
 74
     0
 42
0.0000000001
 43
0.0000000001
 40
0.0
 40
0.0
 40
0.0
 40
4.774858351290981
 40
4.774858351290981
 40
4.774858351290981
 10
371.3246532405192
 20
1120.340931680154
 30
0.0
 41
1.0
 10
370.3730916373341
 20
1122.559533019797
 30
0.0
 41
0.9999859250020685
 10
369.3974869913299
 20
1124.769163230853
 30
0.0
 41
1.0
  0
SPLINE
  5
10E
330
1F
100
AcDbEntity
  8
Predefinito
100
AcDbSpline
210
0.0
220
0.0
230
1.0
 70
    12
 71
     2
 72
     6
 73
     3
 74
     0
 42
0.0000000001
 43
0.0000000001
 40
0.0
 40
0.0
 40
0.0
 40
4.786940014404053
 40
4.786940014404053
 40
4.786940014404053
 10
369.3974869913299
 20
1124.769163230853
 30
0.0
 41
1.0
 10
368.4193704941388
 20
1126.984264577313
 30
0.0
 41
0.9999992971238599
 10
367.4323097871185
 20
1129.205353295304
 30
0.0
 41
1.0
  0
SPLINE
  5
10F
330
1F
100
AcDbEntity
  8
Predefinito
100
AcDbSpline
210
0.0
220
0.0
230
1.0
 70
    12
 71
     2
 72
     6
 73
     3
 74
     0
 42
0.0000000001
 43
0.0000000001
 40
0.0
 40
0.0
 40
0.0
 40
4.776468384344579
 40
4.776468384344579
 40
4.776468384344579
 10
367.4323097871185
 20
1129.205353295304
 30
0.0
 41
1.0
 10
366.4474240799165
 20
1131.42167828271
 30
0.0
 41
0.9999997262672188
 10
365.4656541270228
 20
1133.639839219277
 30
0.0
 41
1.0
  0
SPLINE
  5
110
330
1F
100
AcDbEntity
  8
Predefinito
100
AcDbSpline
210
0.0
220
0.0
230
1.0
 70
    12
 71
     2
 72
     6
 73
     3
 74
     0
 42
0.0000000001
 43
0.0000000001
 40
0.0
 40
0.0
 40
0.0
 40
4.798995726593154
 40
4.798995726593154
 40
4.798995726593154
 10
365.4656541270228
 20
1133.639839219277
 30
0.0
 41
1.0
 10
364.4796459583443
 20
1135.868461895811
 30
0.0
 41
0.9999882996653415
 10
363.5155844260505
 20
1138.105748468558
 30
0.0
 41
1.0
  0
SPLINE
  5
111
330
1F
100
AcDbEntity
  8
Predefinito
100
AcDbSpline
210
0.0
220
0.0
230
1.0
 70
    12
 71
     2
 72
     6
 73
     3
 74
     0
 42
0.0000000001
 43
0.0000000001
 40
0.0
 40
0.0
 40
0.0
 40
2.199460174291269
 40
2.199460174291269
 40
2.199460174291269
 10
363.5155844260505
 20
1138.105748468558
 30
0.0
 41
1.0
 10
363.0660891958593
 20
1139.149445058718
 30
0.0
 41
0.9999950122192518
 10
362.6374797888378
 20
1140.162217631334
 30
0.0
 41
1.0
  0
SPLINE
  5
112
330
1F
100
AcDbEntity
  8
Predefinito
100
AcDbSpline
210
0.0
220
0.0
230
1.0
 70
    12
 71
     2
 72
     6
 73
     3
 74
     0
 42
0.0000000001
 43
0.0000000001
 40
0.0
 40
0.0
 40
0.0
 40
1.948998774029947
 40
1.948998774029947
 40
1.948998774029947
 10
362.6733069126576
 20
1152.952853472964
 30
0.0
 41
1.0
 10
362.9964464482891
 20
1152.033473310758
 30
0.0
 41
0.9999763181492477
 10
363.3461575038555
 20
1151.080657018237
 30
0.0
 41
1.0
  0
SPLINE
  5
113
330
1F
100
AcDbEntity
  8
Predefinito
100
AcDbSpline
210
0.0
220
0.0
230
1.0
 70
    12
 71
     2
 72
     6
 73
     3
 74
     0
 42
0.0000000001
 43
0.0000000001
 40
0.0
 40
0.0
 40
0.0
 40
3.621709764324145
 40
3.621709764324145
 40
3.621709764324145
 10
363.3461575038555
 20
1151.080657018237
 30
0.0
 41
1.0
 10
363.98491622206
 20
1149.342959265975
 30
0.0
 41
0.9999394810182093
 10
364.6626338611674
 20
1147.617548216433
 30
0.0
 41
1.0
  0
SPLINE
  5
114
330
1F
100
AcDbEntity
  8
Predefinito
100
AcDbSpline
210
0.0
220
0.0
230
1.0
 70
    12
 71
     2
 72
     6
 73
     3
 74
     0
 42
0.0000000001
 43
0.0000000001
 40
0.0
 40
0.0
 40
0.0
 40
4.064348215947418
 40
4.064348215947418
 40
4.064348215947418
 10
364.6626338611674
 20
1147.617548216433
 30
0.0
 41
1.0
 10
365.4221270656031
 20
1145.686485082132
 30
0.0
 41
0.9999509874363124
 10
366.2205179151501
 20
1143.768937864744
 30
0.0
 41
1.0
  0
SPLINE
  5
115
330
1F
100
AcDbEntity
  8
Predefinito
100
AcDbSpline
210
0.0
220
0.0
230
1.0
 70
    12
 71
     2
 72
     6
 73
     3
 74
     0
 42
0.0000000001
 43
0.0000000001
 40
0.0
 40
0.0
 40
0.0
 40
4.070198267798407
 40
4.070198267798407
 40
4.070198267798407
 10
366.2205179151501
 20
1143.768937864744
 30
0.0
 41
1.0
 10
367.0206822499311
 20
1141.84900692509
 30
0.0
 41
0.9999824701033365
 10
367.844022360087
 20
1139.937565844058
 30
0.0
 41
1.0
  0
SPLINE
  5
116
330
1F
100
AcDbEntity
  8
Predefinito
100
AcDbSpline
210
0.0
220
0.0
230
1.0
 70
    12
 71
     2
 72
     6
 73
     3
 74
     0
 42
0.0000000001
 43
0.0000000001
 40
0.0
 40
0.0
 40
0.0
 40
4.787268152893513
 40
4.787268152893513
 40
4.787268152893513
 10
367.844022360087
 20
1139.937565844058
 30
0.0
 41
1.0
 10
368.8096886708377
 20
1137.697054365957
 30
0.0
 41
0.9999881323970221
 10
369.7784849833844
 20
1135.508217127045
 30
0.0
 41
1.0
  0
SPLINE
  5
117
330
1F
100
AcDbEntity
  8
Predefinito
100
AcDbSpline
210
0.0
220
0.0
230
1.0
 70
    12
 71
     2
 72
     6
 73
     3
 74
     0
 42
0.0000000001
 43
0.0000000001
 40
0.0
 40
0.0
 40
0.0
 40
4.768795288610767
 40
4.768795288610767
 40
4.768795288610767
 10
369.7784849833844
 20
1135.508217127045
 30
0.0
 41
1.0
 10
370.7435333884031
 20
1133.327841981218
 30
0.0
 41
0.9999997263498521
 10
371.7356200826543
 20
1131.095310856358
 30
0.0
 41
1.0
  0
SPLINE
  5
118
330
1F
100
AcDbEntity
  8
Predefinito
100
AcDbSpline
210
0.0
220
0.0
230
1.0
 70
    12
 71
     2
 72
     6
 73
     3
 74
     0
 42
0.0000000001
 43
0.0000000001
 40
0.0
 40
0.0
 40
0.0
 40
4.808088716650783
 40
4.808088716650783
 40
4.808088716650783
 10
371.7356200826543
 20
1131.095310856358
 30
0.0
 41
1.0
 10
372.7356891345976
 20
1128.844826940335
 30
0.0
 41
0.999999294203525
 10
373.7075262857427
 20
1126.643793829409
 30
0.0
 41
1.0
  0
SPLINE
  5
119
330
1F
100
AcDbEntity
  8
Predefinito
100
AcDbSpline
210
0.0
220
0.0
230
1.0
 70
    12
 71
     2
 72
     6
 73
     3
 74
     0
 42
0.0000000001
 43
0.0000000001
 40
0.0
 40
0.0
 40
0.0
 40
4.86994667926629
 40
4.86994667926629
 40
4.86994667926629
 10
373.7075262857427
 20
1126.643793829409
 30
0.0
 41
1.0
 10
374.6918404493454
 20
1124.414435867308
 30
0.0
 41
0.9999856605627943
 10
375.653129559423
 20
1122.172544291328
 30
0.0
 41
1.0
  0
SPLINE
  5
11A
330
1F
100
AcDbEntity
  8
Predefinito
100
AcDbSpline
210
0.0
220
0.0
230
1.0
 70
    12
 71
     2
 72
     6
 73
     3
 74
     0
 42
0.0000000001
 43
0.0000000001
 40
0.0
 40
0.0
 40
0.0
 40
4.221767203368723
 40
4.221767203368723
 40
4.221767203368723
 10
375.653129559423
 20
1122.172544291328
 30
0.0
 41
1.0
 10
376.4866373435584
 20
1120.228481925111
 30
0.0
 41
0.9999792290159373
 10
377.2953696100661
 20
1118.272982312265
 30
0.0
 41
1.0
  0
SPLINE
  5
11B
330
1F
100
AcDbEntity
  8
Predefinito
100
AcDbSpline
210
0.0
220
0.0
230
1.0
 70
    12
 71
     2
 72
     6
 73
     3
 74
     0
 42
0.0000000001
 43
0.0000000001
 40
0.0
 40
0.0
 40
0.0
 40
4.248218119120293
 40
4.248218119120293
 40
4.248218119120293
 10
377.2953696100661
 20
1118.272982312265
 30
0.0
 41
1.0
 10
378.109056657755
 20
1116.305166763167
 30
0.0
 41
0.9999446361744703
 10
378.8815704614723
 20
1114.31958923405
 30
0.0
 41
1.0
  0
SPLINE
  5
11C
330
1F
100
AcDbEntity
  8
Predefinito
100
AcDbSpline
210
0.0
220
0.0
230
1.0
 70
    12
 71
     2
 72
     6
 73
     3
 74
     0
 42
0.0000000001
 43
0.0000000001
 40
0.0
 40
0.0
 40
0.0
 40
3.66812624326136
 40
3.66812624326136
 40
3.66812624326136
 10
378.8815704614723
 20
1114.31958923405
 30
0.0
 41
1.0
 10
379.5487629465402
 20
1112.604265212799
 30
0.0
 41
0.99993991508055
 10
380.1785000500132
 20
1110.873874017312
 30
0.0
 41
1.0
  0
SPLINE
  5
11D
330
1F
100
AcDbEntity
  8
Predefinito
100
AcDbSpline
210
0.0
220
0.0
230
1.0
 70
    12
 71
     2
 72
     6
 73
     3
 74
     0
 42
0.0000000001
 43
0.0000000001
 40
0.0
 40
0.0
 40
0.0
 40
3.69996596405111
 40
3.69996596405111
 40
3.69996596405111
 10
380.1785000500132
 20
1110.873874017312
 30
0.0
 41
1.0
 10
380.8135192184047
 20
1109.128382185897
 30
0.0
 41
0.9998782639746732
 10
381.3940446761494
 20
1107.363075031215
 30
0.0
 41
1.0
  0
SPLINE
  5
11E
330
1F
100
AcDbEntity
  8
Predefinito
100
AcDbSpline
210
0.0
220
0.0
230
1.0
 70
    12
 71
     2
 72
     6
 73
     3
 74
     0
 42
0.0000000001
 43
0.0000000001
 40
0.0
 40
0.0
 40
0.0
 40
3.043097682303993
 40
3.043097682303993
 40
3.043097682303993
 10
381.3940446761494
 20
1107.363075031215
 30
0.0
 41
1.0
 10
381.871748840562
 20
1105.909732911621
 30
0.0
 41
0.9998900365347343
 10
382.306272027657
 20
1104.44242171816
 30
0.0
 41
1.0
  0
SPLINE
  5
11F
330
1F
100
AcDbEntity
  8
Predefinito
100
AcDbSpline
210
0.0
220
0.0
230
1.0
 70
    12
 71
     2
 72
     6
 73
     3
 74
     0
 42
0.0000000001
 43
0.0000000001
 40
0.0
 40
0.0
 40
0.0
 40
3.077470713913514
 40
3.077470713913514
 40
3.077470713913514
 10
382.306272027657
 20
1104.44242171816
 30
0.0
 41
1.0
 10
382.7454234114953
 20
1102.958461895726
 30
0.0
 41
0.9998025378028259
 10
383.1252790582205
 20
1101.458150397515
 30
0.0
 41
1.0
  0
SPLINE
  5
120
330
1F
100
AcDbEntity
  8
Predefinito
100
AcDbSpline
210
0.0
220
0.0
230
1.0
 70
    12
 71
     2
 72
     6
 73
     3
 74
     0
 42
0.0000000001
 43
0.0000000001
 40
0.0
 40
0.0
 40
0.0
 40
2.694123559141592
 40
2.694123559141592
 40
2.694123559141592
 10
383.1252790582205
 20
1101.458150397515
 30
0.0
 41
1.0
 10
383.4578300560076
 20
1100.143611922761
 30
0.0
 41
0.9998049548223784
 10
383.738108515028
 20
1098.817428855225
 30
0.0
 41
1.0
  0
SPLINE
  5
121
330
1F
100
AcDbEntity
  8
Predefinito
100
AcDbSpline
210
0.0
220
0.0
230
1.0
 70
    12
 71
     2
 72
     6
 73
     3
 74
     0
 42
0.0000000001
 43
0.0000000001
 40
0.0
 40
0.0
 40
0.0
 40
2.734916625354512
 40
2.734916625354512
 40
2.734916625354512
 10
383.738108515028
 20
1098.817428855225
 30
0.0
 41
1.0
 10
384.0223307431199
 20
1097.471098459477
 30
0.0
 41
0.9996643613854609
 10
384.236229192952
 20
1096.113158829395
 30
0.0
 41
1.0
  0
SPLINE
  5
122
330
1F
100
AcDbEntity
  8
Predefinito
100
AcDbSpline
210
0.0
220
0.0
230
1.0
 70
    12
 71
     2
 72
     6
 73
     3
 74
     0
 42
0.0000000001
 43
0.0000000001
 40
0.0
 40
0.0
 40
0.0
 40
2.391296638215952
 40
2.391296638215952
 40
2.391296638215952
 10
384.236229192952
 20
1096.113158829395
 30
0.0
 41
1.0
 10
384.4231340250489
 20
1094.924943374324
 30
0.0
 41
0.9996752544270469
 10
384.5505974343985
 20
1093.715944699571
 30
0.0
 41
1.0
  0
SPLINE
  5
123
330
1F
100
AcDbEntity
  8
Predefinito
100
AcDbSpline
210
0.0
220
0.0
230
1.0
 70
    12
 71
     2
 72
     6
 73
     3
 74
     0
 42
0.0000000001
 43
0.0000000001
 40
0.0
 40
0.0
 40
0.0
 40
2.410344423656686
 40
2.410344423656686
 40
2.410344423656686
 10
384.5505974343985
 20
1093.715944699571
 30
0.0
 41
1.0
 10
384.6779297991362
 20
1092.497192759839
 30
0.0
 41
0.9994758335089157
 10
384.7255524900031
 20
1091.287038585966
 30
0.0
 41
1.0
  0
SPLINE
  5
124
330
1F
100
AcDbEntity
  8
Predefinito
100
AcDbSpline
210
0.0
220
0.0
230
1.0
 70
    12
 71
     2
 72
     6
 73
     3
 74
     0
 42
0.0000000001
 43
0.0000000001
 40
0.0
 40
0.0
 40
0.0
 40
1.302042866958628
 40
1.302042866958628
 40
1.302042866958628
 10
384.7255524900031
 20
1091.287038585966
 30
0.0
 41
1.0
 10
384.7512042383888
 20
1090.630938022794
 30
0.0
 41
0.9998085401599976
 10
384.7511643966475
 20
1089.979818602058
 30
0.0
 41
1.0
  0
SPLINE
  5
125
330
1F
100
AcDbEntity
  8
Predefinito
100
AcDbSpline
210
0.0
220
0.0
230
1.0
 70
    12
 71
     2
 72
     6
 73
     3
 74
     0
 42
0.0000000001
 43
0.0000000001
 40
0.0
 40
0.0
 40
0.0
 40
1.032470290028681
 40
1.032470290028681
 40
1.032470290028681
 10
384.7511643966475
 20
1089.979818602058
 30
0.0
 41
1.0
 10
384.7511622534458
 20
1089.463527024413
 30
0.0
 41
0.9998792672301315
 10
384.7349825914333
 20
1088.943173494729
 30
0.0
 41
1.0
  0
SPLINE
  5
126
330
1F
100
AcDbEntity
  8
Predefinito
100
AcDbSpline
210
0.0
220
0.0
230
1.0
 70
    12
 71
     2
 72
     6
 73
     3
 74
     0
 42
0.0000000001
 43
0.0000000001
 40
0.0
 40
0.0
 40
0.0
 40
2.393424226241734
 40
2.393424226241734
 40
2.393424226241734
 10
384.7349825914333
 20
1088.943173494729
 30
0.0
 41
1.0
 10
384.6974209967996
 20
1087.741933101605
 30
0.0
 41
0.9990143826206368
 10
384.5533147071371
 20
1086.547469797394
 30
0.0
 41
1.0
  0
SPLINE
  5
127
330
1F
100
AcDbEntity
  8
Predefinito
100
AcDbSpline
210
0.0
220
0.0
230
1.0
 70
    12
 71
     2
 72
     6
 73
     3
 74
     0
 42
0.0000000001
 43
0.0000000001
 40
0.0
 40
0.0
 40
0.0
 40
2.269774630897169
 40
2.269774630897169
 40
2.269774630897169
 10
384.5533147071371
 20
1086.547469797394
 30
0.0
 41
1.0
 10
384.4161711322672
 20
1085.414399556592
 30
0.0
 41
0.9989082136624816
 10
384.1732904999802
 20
1084.296398668017
 30
0.0
 41
1.0
  0
SPLINE
  5
128
330
1F
100
AcDbEntity
  8
Predefinito
100
AcDbSpline
210
0.0
220
0.0
230
1.0
 70
    12
 71
     2
 72
     6
 73
     3
 74
     0
 42
0.0000000001
 43
0.0000000001
 40
0.0
 40
0.0
 40
0.0
 40
2.283922976992791
 40
2.283922976992791
 40
2.283922976992791
 10
384.1732904999802
 20
1084.296398668017
 30
0.0
 41
1.0
 10
383.9281556543917
 20
1083.171329853025
 30
0.0
 41
0.9985069363930099
 10
383.5618231559838
 20
1082.079942605708
 30
0.0
 41
1.0
  0
SPLINE
  5
129
330
1F
100
AcDbEntity
  8
Predefinito
100
AcDbSpline
210
0.0
220
0.0
230
1.0
 70
    12
 71
     2
 72
     6
 73
     3
 74
     0
 42
0.0000000001
 43
0.0000000001
 40
0.0
 40
0.0
 40
0.0
 40
2.244884244652008
 40
2.244884244652008
 40
2.244884244652008
 10
383.5618231559838
 20
1082.079942605708
 30
0.0
 41
1.0
 10
383.2010693644514
 20
1081.007300645262
 30
0.0
 41
0.9985163811733485
 10
382.7279863103405
 20
1079.984948372646
 30
0.0
 41
1.0
  0
SPLINE
  5
12A
330
1F
100
AcDbEntity
  8
Predefinito
100
AcDbSpline
210
0.0
220
0.0
230
1.0
 70
    12
 71
     2
 72
     6
 73
     3
 74
     0
 42
0.0000000001
 43
0.0000000001
 40
0.0
 40
0.0
 40
0.0
 40
2.179997980176337
 40
2.179997980176337
 40
2.179997980176337
 10
382.7279863103405
 20
1079.984948372646
 30
0.0
 41
1.0
 10
382.2684540082387
 20
1078.992411557208
 30
0.0
 41
0.9988928902081932
 10
381.7160690989729
 20
1078.044703070051
 30
0.0
 41
1.0
  0
SPLINE
  5
12B
330
1F
100
AcDbEntity
  8
Predefinito
100
AcDbSpline
210
0.0
220
0.0
230
1.0
 70
    12
 71
     2
 72
     6
 73
     3
 74
     0
 42
0.0000000001
 43
0.0000000001
 40
0.0
 40
0.0
 40
0.0
 40
2.214784769775594
 40
2.214784769775594
 40
2.214784769775594
 10
381.7160690989729
 20
1078.044703070051
 30
0.0
 41
1.0
 10
381.1544741898978
 20
1077.082308624679
 30
0.0
 41
0.9990013411236192
 10
380.4582421342188
 20
1076.102702860566
 30
0.0
 41
1.0
  0
SPLINE
  5
12C
330
1F
100
AcDbEntity
  8
Predefinito
100
AcDbSpline
210
0.0
220
0.0
230
1.0
 70
    12
 71
     2
 72
     6
 73
     3
 74
     0
 42
0.0000000001
 43
0.0000000001
 40
0.0
 40
0.0
 40
0.0
 40
1.993567782767089
 40
1.993567782767089
 40
1.993567782767089
 10
380.4582421342188
 20
1076.102702860566
 30
0.0
 41
1.0
 10
379.8211403095568
 20
1075.217261421403
 30
0.0
 41
0.999464415665558
 10
379.1355998703806
 20
1074.385976251309
 30
0.0
 41
1.0
  0
SPLINE
  5
12D
330
1F
100
AcDbEntity
  8
Predefinito
100
AcDbSpline
210
0.0
220
0.0
230
1.0
 70
    12
 71
     2
 72
     6
 73
     3
 74
     0
 42
0.0000000001
 43
0.0000000001
 40
0.0
 40
0.0
 40
0.0
 40
2.075816896236588
 40
2.075816896236588
 40
2.075816896236588
 10
379.1355998703806
 20
1074.385976251309
 30
0.0
 41
1.0
 10
378.4201685349105
 20
1073.526091324312
 30
0.0
 41
0.9995315802314674
 10
377.6579672101908
 20
1072.716810290092
 30
0.0
 41
1.0
  0
SPLINE
  5
12E
330
1F
100
AcDbEntity
  8
Predefinito
100
AcDbSpline
210
0.0
220
0.0
230
1.0
 70
    12
 71
     2
 72
     6
 73
     3
 74
     0
 42
0.0000000001
 43
0.0000000001
 40
0.0
 40
0.0
 40
0.0
 40
2.028651244328477
 40
2.028651244328477
 40
2.028651244328477
 10
377.6579672101908
 20
1072.716810290092
 30
0.0
 41
1.0
 10
376.9095914015555
 20
1071.927119525232
 30
0.0
 41
0.9997452992366241
 10
376.1310753437252
 20
1071.176847864284
 30
0.0
 41
1.0
  0
SPLINE
  5
12F
330
1F
100
AcDbEntity
  8
Predefinito
100
AcDbSpline
210
0.0
220
0.0
230
1.0
 70
    12
 71
     2
 72
     6
 73
     3
 74
     0
 42
0.0000000001
 43
0.0000000001
 40
0.0
 40
0.0
 40
0.0
 40
2.256969656835982
 40
2.256969656835982
 40
2.256969656835982
 10
376.1310753437252
 20
1071.176847864284
 30
0.0
 41
1.0
 10
375.2683756526381
 20
1070.349418690989
 30
0.0
 41
0.999768497591205
 10
374.3764261894514
 20
1069.564923877046
 30
0.0
 41
1.0
  0
SPLINE
  5
130
330
1F
100
AcDbEntity
  8
Predefinito
100
AcDbSpline
210
0.0
220
0.0
230
1.0
 70
    12
 71
     2
 72
     6
 73
     3
 74
     0
 42
0.0000000001
 43
0.0000000001
 40
0.0
 40
0.0
 40
0.0
 40
2.220232523952597
 40
2.220232523952597
 40
2.220232523952597
 10
374.3764261894514
 20
1069.564923877046
 30
0.0
 41
1.0
 10
373.4972129507291
 20
1068.793917099844
 30
0.0
 41
0.9999018412195009
 10
372.6008454650138
 20
1068.051341918154
 30
0.0
 41
1.0
  0
SPLINE
  5
131
330
1F
100
AcDbEntity
  8
Predefinito
100
AcDbSpline
210
0.0
220
0.0
230
1.0
 70
    12
 71
     2
 72
     6
 73
     3
 74
     0
 42
0.0000000001
 43
0.0000000001
 40
0.0
 40
0.0
 40
0.0
 40
2.509381382148869
 40
2.509381382148869
 40
2.509381382148869
 10
372.6008454650138
 20
1068.051341918154
 30
0.0
 41
1.0
 10
371.5923077763415
 20
1067.217563857525
 30
0.0
 41
0.9999264236824181
 10
370.5676998166927
 20
1066.411580885588
 30
0.0
 41
1.0
  0
SPLINE
  5
132
330
1F
100
AcDbEntity
  8
Predefinito
100
AcDbSpline
210
0.0
220
0.0
230
1.0
 70
    12
 71
     2
 72
     6
 73
     3
 74
     0
 42
0.0000000001
 43
0.0000000001
 40
0.0
 40
0.0
 40
0.0
 40
2.47514195247376
 40
2.47514195247376
 40
2.47514195247376
 10
370.5676998166927
 20
1066.411580885588
 30
0.0
 41
1.0
 10
369.5562910551604
 20
1065.616594154835
 30
0.0
 41
0.999989585776322
 10
368.5389227438741
 20
1064.831853485159
 30
0.0
 41
1.0
  0
SPLINE
  5
133
330
1F
100
AcDbEntity
  8
Predefinito
100
AcDbSpline
210
0.0
220
0.0
230
1.0
 70
    12
 71
     2
 72
     6
 73
     3
 74
     0
 42
0.0000000001
 43
0.0000000001
 40
0.0
 40
0.0
 40
0.0
 40
2.644906465899886
 40
2.644906465899886
 40
2.644906465899886
 10
368.5389227438741
 20
1064.831853485159
 30
0.0
 41
1.0
 10
367.4542852439866
 20
1063.995358711839
 30
0.0
 41
0.9999994549007011
 10
366.3463682839594
 20
1063.14455866181
 30
0.0
 41
1.0
  0
SPLINE
  5
134
330
1F
100
AcDbEntity
  8
Predefinito
100
AcDbSpline
210
0.0
220
0.0
230
1.0
 70
    12
 71
     2
 72
     6
 73
     3
 74
     0
 42
0.0000000001
 43
0.0000000001
 40
0.0
 40
0.0
 40
0.0
 40
2.554481012161408
 40
2.554481012161408
 40
2.554481012161408
 10
366.3463682839594
 20
1063.14455866181
 30
0.0
 41
1.0
 10
365.2749264308572
 20
1062.320461724225
 30
0.0
 41
0.9999759005655643
 10
364.2433035929226
 20
1061.503892441907
 30
0.0
 41
1.0
  0
SPLINE
  5
135
330
1F
100
AcDbEntity
  8
Predefinito
100
AcDbSpline
210
0.0
220
0.0
230
1.0
 70
    12
 71
     2
 72
     6
 73
     3
 74
     0
 42
0.0000000001
 43
0.0000000001
 40
0.0
 40
0.0
 40
0.0
 40
2.024521101045146
 40
2.024521101045146
 40
2.024521101045146
 10
364.2433035929226
 20
1061.503892441907
 30
0.0
 41
1.0
 10
363.4198565965172
 20
1060.85126019612
 30
0.0
 41
0.999962909732708
 10
362.637479788822
 20
1060.208914005074
 30
0.0
 41
1.0
  0
SPLINE
  5
136
330
1F
100
AcDbEntity
  8
Predefinito
100
AcDbSpline
210
0.0
220
0.0
230
1.0
 70
    12
 71
     2
 72
     6
 73
     3
 74
     0
 42
0.0000000001
 43
0.0000000001
 40
0.0
 40
0.0
 40
0.0
 40
0.8873022571093079
 40
0.8873022571093079
 40
0.8873022571093079
 10
361.4733069126839
 20
1232.074337803652
 30
0.0
 41
1.0
 10
361.3666733649404
 20
1231.643692175168
 30
0.0
 41
0.9999998210214159
 10
361.2605551998622
 20
1231.212919258335
 30
0.0
 41
1.0
  0
SPLINE
  5
137
330
1F
100
AcDbEntity
  8
Predefinito
100
AcDbSpline
210
0.0
220
0.0
230
1.0
 70
    12
 71
     2
 72
     6
 73
     3
 74
     0
 42
0.0000000001
 43
0.0000000001
 40
0.0
 40
0.0
 40
0.0
 40
5.265764759677862
 40
5.265764759677862
 40
5.265764759677862
 10
361.2605551998622
 20
1231.212919258335
 30
0.0
 41
1.0
 10
360.6308161839652
 20
1228.656402696291
 30
0.0
 41
0.9999698657985371
 10
360.0356905998082
 20
1226.06798800361
 30
0.0
 41
1.0
  0
SPLINE
  5
138
330
1F
100
AcDbEntity
  8
Predefinito
100
AcDbSpline
210
0.0
220
0.0
230
1.0
 70
    12
 71
     2
 72
     6
 73
     3
 74
     0
 42
0.0000000001
 43
0.0000000001
 40
0.0
 40
0.0
 40
0.0
 40
5.222058184134483
 40
5.222058184134483
 40
5.222058184134483
 10
360.0356905998082
 20
1226.06798800361
 30
0.0
 41
1.0
 10
359.4459259237906
 20
1223.500733224942
 30
0.0
 41
0.9999522481215507
 10
358.9067782315872
 20
1220.923996704809
 30
0.0
 41
1.0
  0
SPLINE
  5
139
330
1F
100
AcDbEntity
  8
Predefinito
100
AcDbSpline
210
0.0
220
0.0
230
1.0
 70
    12
 71
     2
 72
     6
 73
     3
 74
     0
 42
0.0000000001
 43
0.0000000001
 40
0.0
 40
0.0
 40
0.0
 40
5.211499548014888
 40
5.211499548014888
 40
5.211499548014888
 10
358.9067782315872
 20
1220.923996704809
 30
0.0
 41
1.0
 10
358.3692942625306
 20
1218.352222941174
 30
0.0
 41
0.9999054767123599
 10
357.9057228818697
 20
1215.783234949376
 30
0.0
 41
1.0
  0
SPLINE
  5
13A
330
1F
100
AcDbEntity
  8
Predefinito
100
AcDbSpline
210
0.0
220
0.0
230
1.0
 70
    12
 71
     2
 72
     6
 73
     3
 74
     0
 42
0.0000000001
 43
0.0000000001
 40
0.0
 40
0.0
 40
0.0
 40
5.298756217363527
 40
5.298756217363527
 40
5.298756217363527
 10
357.9057228818697
 20
1215.783234949376
 30
0.0
 41
1.0
 10
357.4345177578741
 20
1213.171232223812
 30
0.0
 41
0.999874008726369
 10
357.0466424077131
 20
1210.546803545566
 30
0.0
 41
1.0
  0
SPLINE
  5
13B
330
1F
100
AcDbEntity
  8
Predefinito
100
AcDbSpline
210
0.0
220
0.0
230
1.0
 70
    12
 71
     2
 72
     6
 73
     3
 74
     0
 42
0.0000000001
 43
0.0000000001
 40
0.0
 40
0.0
 40
0.0
 40
5.26852751729245
 40
5.26852751729245
 40
5.26852751729245
 10
357.0466424077131
 20
1210.546803545566
 30
0.0
 41
1.0
 10
356.6610207265308
 20
1207.937218839259
 30
0.0
 41
0.9998161392874688
 10
356.374403364318
 20
1205.302441967135
 30
0.0
 41
1.0
  0
SPLINE
  5
13C
330
1F
100
AcDbEntity
  8
Predefinito
100
AcDbSpline
210
0.0
220
0.0
230
1.0
 70
    12
 71
     2
 72
     6
 73
     3
 74
     0
 42
0.0000000001
 43
0.0000000001
 40
0.0
 40
0.0
 40
0.0
 40
5.756620803107397
 40
5.756620803107397
 40
5.756620803107397
 10
356.374403364318
 20
1205.302441967135
 30
0.0
 41
1.0
 10
356.0620171360183
 20
1202.424817610559
 30
0.0
 41
0.9997465965256502
 10
355.8798899115869
 20
1199.54263744269
 30
0.0
 41
1.0
  0
SPLINE
  5
13D
330
1F
100
AcDbEntity
  8
Predefinito
100
AcDbSpline
210
0.0
220
0.0
230
1.0
 70
    12
 71
     2
 72
     6
 73
     3
 74
     0
 42
0.0000000001
 43
0.0000000001
 40
0.0
 40
0.0
 40
0.0
 40
5.766004604983529
 40
5.766004604983529
 40
5.766004604983529
 10
355.8798899115869
 20
1199.54263744269
 30
0.0
 41
1.0
 10
355.697918981112
 20
1196.655630161044
 30
0.0
 41
0.9996868003813713
 10
355.660724242191
 20
1193.770273182433
 30
0.0
 41
1.0
  0
SPLINE
  5
13E
330
1F
100
AcDbEntity
  8
Predefinito
100
AcDbSpline
210
0.0
220
0.0
230
1.0
 70
    12
 71
     2
 72
     6
 73
     3
 74
     0
 42
0.0000000001
 43
0.0000000001
 40
0.0
 40
0.0
 40
0.0
 40
1.473142281133706
 40
1.473142281133706
 40
1.473142281133706
 10
355.660724242191
 20
1193.770273182433
 30
0.0
 41
1.0
 10
355.651249728271
 20
1193.031759923115
 30
0.0
 41
0.9999783294108266
 10
355.6514990793926
 20
1192.295053012199
 30
0.0
 41
1.0
  0
SPLINE
  5
13F
330
1F
100
AcDbEntity
  8
Predefinito
100
AcDbSpline
210
0.0
220
0.0
230
1.0
 70
    12
 71
     2
 72
     6
 73
     3
 74
     0
 42
0.0000000001
 43
0.0000000001
 40
0.0
 40
0.0
 40
0.0
 40
5.365161683342938
 40
5.365161683342938
 40
5.365161683342938
 10
355.6514990793926
 20
1192.295053012199
 30
0.0
 41
1.0
 10
355.6524435095739
 20
1189.611829053179
 30
0.0
 41
0.9997103717522388
 10
355.7828166027871
 20
1186.925209901319
 30
0.0
 41
1.0
  0
SPLINE
  5
140
330
1F
100
AcDbEntity
  8
Predefinito
100
AcDbSpline
210
0.0
220
0.0
230
1.0
 70
    12
 71
     2
 72
     6
 73
     3
 74
     0
 42
0.0000000001
 43
0.0000000001
 40
0.0
 40
0.0
 40
0.0
 40
6.814812582459167
 40
6.814812582459167
 40
6.814812582459167
 10
355.7828166027871
 20
1186.925209901319
 30
0.0
 41
1.0
 10
355.9486671868648
 20
1183.514056614349
 30
0.0
 41
0.9995182665955705
 10
356.326828545006
 20
1180.110836273419
 30
0.0
 41
1.0
  0
SPLINE
  5
141
330
1F
100
AcDbEntity
  8
Predefinito
100
AcDbSpline
210
0.0
220
0.0
230
1.0
 70
    12
 71
     2
 72
     6
 73
     3
 74
     0
 42
0.0000000001
 43
0.0000000001
 40
0.0
 40
0.0
 40
0.0
 40
6.559572538555663
 40
6.559572538555663
 40
6.559572538555663
 10
356.326828545006
 20
1180.110836273419
 30
0.0
 41
1.0
 10
356.691728589743
 20
1176.834691573353
 30
0.0
 41
0.9995647539384869
 10
357.2472005568782
 20
1173.597477237006
 30
0.0
 41
1.0
  0
SPLINE
  5
142
330
1F
100
AcDbEntity
  8
Predefinito
100
AcDbSpline
210
0.0
220
0.0
230
1.0
 70
    12
 71
     2
 72
     6
 73
     3
 74
     0
 42
0.0000000001
 43
0.0000000001
 40
0.0
 40
0.0
 40
0.0
 40
6.526509756120487
 40
6.526509756120487
 40
6.526509756120487
 10
357.2472005568782
 20
1173.597477237006
 30
0.0
 41
1.0
 10
357.8000314739324
 20
1170.376712745323
 30
0.0
 41
0.9996214098627367
 10
358.5342634276034
 20
1167.169115171427
 30
0.0
 41
1.0
  0
SPLINE
  5
143
330
1F
100
AcDbEntity
  8
Predefinito
100
AcDbSpline
210
0.0
220
0.0
230
1.0
 70
    12
 71
     2
 72
     6
 73
     3
 74
     0
 42
0.0000000001
 43
0.0000000001
 40
0.0
 40
0.0
 40
0.0
 40
6.498717676150111
 40
6.498717676150111
 40
6.498717676150111
 10
358.5342634276034
 20
1167.169115171427
 30
0.0
 41
1.0
 10
359.2667837047564
 20
1163.97545660064
 30
0.0
 41
0.9996535351402182
 10
360.168010162773
 20
1160.819022093863
 30
0.0
 41
1.0
  0
SPLINE
  5
144
330
1F
100
AcDbEntity
  8
Predefinito
100
AcDbSpline
210
0.0
220
0.0
230
1.0
 70
    12
 71
     2
 72
     6
 73
     3
 74
     0
 42
0.0000000001
 43
0.0000000001
 40
0.0
 40
0.0
 40
0.0
 40
4.461760516171025
 40
4.461760516171025
 40
4.461760516171025
 10
360.168010162773
 20
1160.819022093863
 30
0.0
 41
1.0
 10
360.7906598746821
 20
1158.642807314004
 30
0.0
 41
0.9998697089470975
 10
361.4733069128306
 20
1156.518734698717
 30
0.0
 41
1.0
  0
SPLINE
  5
145
330
1F
100
AcDbEntity
  8
Predefinito
100
AcDbSpline
210
0.0
220
0.0
230
1.0
 70
    12
 71
     2
 72
     6
 73
     3
 74
     0
 42
0.0000000001
 43
0.0000000001
 40
0.0
 40
0.0
 40
0.0
 40
3.168510865869934
 40
3.168510865869934
 40
3.168510865869934
 10
361.4733069126536
 20
1142.949431927568
 30
0.0
 41
1.0
 10
360.8715017968296
 20
1144.414966291419
 30
0.0
 41
0.9999715854975513
 10
360.2801494008042
 20
1145.919210942595
 30
0.0
 41
1.0
  0
SPLINE
  5
146
330
1F
100
AcDbEntity
  8
Predefinito
100
AcDbSpline
210
0.0
220
0.0
230
1.0
 70
    12
 71
     2
 72
     6
 73
     3
 74
     0
 42
0.0000000001
 43
0.0000000001
 40
0.0
 40
0.0
 40
0.0
 40
3.744722661083294
 40
3.744722661083294
 40
3.744722661083294
 10
360.2801494008042
 20
1145.919210942595
 30
0.0
 41
1.0
 10
359.5840042244213
 20
1147.691877967223
 30
0.0
 41
0.9999388453430065
 10
358.9282957615897
 20
1149.476653983414
 30
0.0
 41
1.0
  0
SPLINE
  5
147
330
1F
100
AcDbEntity
  8
Predefinito
100
AcDbSpline
210
0.0
220
0.0
230
1.0
 70
    12
 71
     2
 72
     6
 73
     3
 74
     0
 42
0.0000000001
 43
0.0000000001
 40
0.0
 40
0.0
 40
0.0
 40
3.770758748711111
 40
3.770758748711111
 40
3.770758748711111
 10
358.9282957615897
 20
1149.476653983414
 30
0.0
 41
1.0
 10
358.2687547747651
 20
1151.273920114606
 30
0.0
 41
0.9999172519955319
 10
357.6567419906692
 20
1153.08441650276
 30
0.0
 41
1.0
  0
SPLINE
  5
148
330
1F
100
AcDbEntity
  8
Predefinito
100
AcDbSpline
210
0.0
220
0.0
230
1.0
 70
    12
 71
     2
 72
     6
 73
     3
 74
     0
 42
0.0000000001
 43
0.0000000001
 40
0.0
 40
0.0
 40
0.0
 40
6.708489311969337
 40
6.708489311969337
 40
6.708489311969337
 10
357.6567419906692
 20
1153.08441650276
 30
0.0
 41
1.0
 10
356.5754529194242
 20
1156.287342392373
 30
0.0
 41
0.9997231433944774
 10
355.6475143205369
 20
1159.532487440431
 30
0.0
 41
1.0
  0
SPLINE
  5
149
330
1F
100
AcDbEntity
  8
Predefinito
100
AcDbSpline
210
0.0
220
0.0
230
1.0
 70
    12
 71
     2
 72
     6
 73
     3
 74
     0
 42
0.0000000001
 43
0.0000000001
 40
0.0
 40
0.0
 40
0.0
 40
6.766636343877686
 40
6.766636343877686
 40
6.766636343877686
 10
355.6475143205369
 20
1159.532487440431
 30
0.0
 41
1.0
 10
354.7126058377532
 20
1162.80605233233
 30
0.0
 41
0.9996512774313865
 10
353.9529746738424
 20
1166.119442699171
 30
0.0
 41
1.0
  0
SPLINE
  5
14A
330
1F
100
AcDbEntity
  8
Predefinito
100
AcDbSpline
210
0.0
220
0.0
230
1.0
 70
    12
 71
     2
 72
     6
 73
     3
 74
     0
 42
0.0000000001
 43
0.0000000001
 40
0.0
 40
0.0
 40
0.0
 40
6.805010665028425
 40
6.805010665028425
 40
6.805010665028425
 10
353.9529746738424
 20
1166.119442699171
 30
0.0
 41
1.0
 10
353.1898614288382
 20
1169.451798543052
 30
0.0
 41
0.9996193455106049
 10
352.6124831538621
 20
1172.816710412724
 30
0.0
 41
1.0
  0
SPLINE
  5
14B
330
1F
100
AcDbEntity
  8
Predefinito
100
AcDbSpline
210
0.0
220
0.0
230
1.0
 70
    12
 71
     2
 72
     6
 73
     3
 74
     0
 42
0.0000000001
 43
0.0000000001
 40
0.0
 40
0.0
 40
0.0
 40
6.84809442598821
 40
6.84809442598821
 40
6.84809442598821
 10
352.6124831538621
 20
1172.816710412724
 30
0.0
 41
1.0
 10
352.032122833363
 20
1176.203101204535
 30
0.0
 41
0.9995639394192413
 10
351.6531367581672
 20
1179.613727937204
 30
0.0
 41
1.0
  0
SPLINE
  5
14C
330
1F
100
AcDbEntity
  8
Predefinito
100
AcDbSpline
210
0.0
220
0.0
230
1.0
 70
    12
 71
     2
 72
     6
 73
     3
 74
     0
 42
0.0000000001
 43
0.0000000001
 40
0.0
 40
0.0
 40
0.0
 40
7.107397708882761
 40
7.107397708882761
 40
7.107397708882761
 10
351.6531367581672
 20
1179.613727937204
 30
0.0
 41
1.0
 10
351.2602002453546
 20
1183.153401722687
 30
0.0
 41
0.9995179697894114
 10
351.0878839202887
 20
1186.706808721589
 30
0.0
 41
1.0
  0
SPLINE
  5
14D
330
1F
100
AcDbEntity
  8
Predefinito
100
AcDbSpline
210
0.0
220
0.0
230
1.0
 70
    12
 71
     2
 72
     6
 73
     3
 74
     0
 42
0.0000000001
 43
0.0000000001
 40
0.0
 40
0.0
 40
0.0
 40
5.586140954998655
 40
5.586140954998655
 40
5.586140954998655
 10
351.0878839202887
 20
1186.706808721589
 30
0.0
 41
1.0
 10
350.9525213003768
 20
1189.49988002567
 30
0.0
 41
0.9997112938377594
 10
350.9514992932208
 20
1192.293613314761
 30
0.0
 41
1.0
  0
SPLINE
  5
14E
330
1F
100
AcDbEntity
  8
Predefinito
100
AcDbSpline
210
0.0
220
0.0
230
1.0
 70
    12
 71
     2
 72
     6
 73
     3
 74
     0
 42
0.0000000001
 43
0.0000000001
 40
0.0
 40
0.0
 40
0.0
 40
1.533349184300257
 40
1.533349184300257
 40
1.533349184300257
 10
350.9514992932208
 20
1192.293613314761
 30
0.0
 41
1.0
 10
350.9512414306364
 20
1193.060424176746
 30
0.0
 41
0.9999783827198961
 10
350.9610761821644
 20
1193.827860120571
 30
0.0
 41
1.0
  0
SPLINE
  5
14F
330
1F
100
AcDbEntity
  8
Predefinito
100
AcDbSpline
210
0.0
220
0.0
230
1.0
 70
    12
 71
     2
 72
     6
 73
     3
 74
     0
 42
0.0000000001
 43
0.0000000001
 40
0.0
 40
0.0
 40
0.0
 40
5.998040966842844
 40
5.998040966842844
 40
5.998040966842844
 10
350.9610761821644
 20
1193.827860120571
 30
0.0
 41
1.0
 10
350.999623195238
 20
1196.828072408729
 30
0.0
 41
0.9996869395727749
 10
351.1883939576867
 20
1199.825545706578
 30
0.0
 41
1.0
  0
SPLINE
  5
150
330
1F
100
AcDbEntity
  8
Predefinito
100
AcDbSpline
210
0.0
220
0.0
230
1.0
 70
    12
 71
     2
 72
     6
 73
     3
 74
     0
 42
0.0000000001
 43
0.0000000001
 40
0.0
 40
0.0
 40
0.0
 40
5.974047490866255
 40
5.974047490866255
 40
5.974047490866255
 10
351.1883939576867
 20
1199.825545706578
 30
0.0
 41
1.0
 10
351.3765856567071
 20
1202.810914779689
 30
0.0
 41
0.9997458823911266
 10
351.6994549939484
 20
1205.787592206692
 30
0.0
 41
1.0
  0
SPLINE
  5
151
330
1F
100
AcDbEntity
  8
Predefinito
100
AcDbSpline
210
0.0
220
0.0
230
1.0
 70
    12
 71
     2
 72
     6
 73
     3
 74
     0
 42
0.0000000001
 43
0.0000000001
 40
0.0
 40
0.0
 40
0.0
 40
5.462673666710074
 40
5.462673666710074
 40
5.462673666710074
 10
351.6994549939484
 20
1205.787592206692
 30
0.0
 41
1.0
 10
351.9949964364401
 20
1208.509876195292
 30
0.0
 41
0.9998154192162513
 10
352.395294961223
 20
1211.221429882009
 30
0.0
 41
1.0
  0
SPLINE
  5
152
330
1F
100
AcDbEntity
  8
Predefinito
100
AcDbSpline
210
0.0
220
0.0
230
1.0
 70
    12
 71
     2
 72
     6
 73
     3
 74
     0
 42
0.0000000001
 43
0.0000000001
 40
0.0
 40
0.0
 40
0.0
 40
5.431391231207169
 40
5.431391231207169
 40
5.431391231207169
 10
352.395294961223
 20
1211.221429882009
 30
0.0
 41
1.0
 10
352.7936360144807
 20
1213.917351092302
 30
0.0
 41
0.9998748218925538
 10
353.2775070661204
 20
1216.601694373665
 30
0.0
 41
1.0
  0
SPLINE
  5
153
330
1F
100
AcDbEntity
  8
Predefinito
100
AcDbSpline
210
0.0
220
0.0
230
1.0
 70
    12
 71
     2
 72
     6
 73
     3
 74
     0
 42
0.0000000001
 43
0.0000000001
 40
0.0
 40
0.0
 40
0.0
 40
5.359844186722046
 40
5.359844186722046
 40
5.359844186722046
 10
353.2775070661204
 20
1216.601694373665
 30
0.0
 41
1.0
 10
353.755388179839
 20
1219.250709821804
 30
0.0
 41
0.9999048021938725
 10
354.3066646234656
 20
1221.887824689496
 30
0.0
 41
1.0
  0
SPLINE
  5
154
330
1F
100
AcDbEntity
  8
Predefinito
100
AcDbSpline
210
0.0
220
0.0
230
1.0
 70
    12
 71
     2
 72
     6
 73
     3
 74
     0
 42
0.0000000001
 43
0.0000000001
 40
0.0
 40
0.0
 40
0.0
 40
5.327676948082675
 40
5.327676948082675
 40
5.327676948082675
 10
354.3066646234656
 20
1221.887824689496
 30
0.0
 41
1.0
 10
354.8550476758797
 20
1224.509026452405
 30
0.0
 41
0.999951970951712
 10
355.4551209462783
 20
1227.120787316946
 30
0.0
 41
1.0
  0
SPLINE
  5
155
330
1F
100
AcDbEntity
  8
Predefinito
100
AcDbSpline
210
0.0
220
0.0
230
1.0
 70
    12
 71
     2
 72
     6
 73
     3
 74
     0
 42
0.0000000001
 43
0.0000000001
 40
0.0
 40
0.0
 40
0.0
 40
5.310638325128517
 40
5.310638325128517
 40
5.310638325128517
 10
355.4551209462783
 20
1227.120787316946
 30
0.0
 41
1.0
 10
356.0536217511335
 20
1229.724134798257
 30
0.0
 41
0.9999701845462163
 10
356.6927226130273
 20
1232.319813348793
 30
0.0
 41
1.0
  0
SPLINE
  5
156
330
1F
100
AcDbEntity
  8
Predefinito
100
AcDbSpline
210
0.0
220
0.0
230
1.0
 70
    12
 71
     2
 72
     6
 73
     3
 74
     0
 42
0.0000000001
 43
0.0000000001
 40
0.0
 40
0.0
 40
0.0
 40
5.278710684672974
 40
5.278710684672974
 40
5.278710684672974
 10
356.6927226130273
 20
1232.319813348793
 30
0.0
 41
1.0
 10
357.3283092903743
 20
1234.899873464622
 30
0.0
 41
0.999993776590368
 10
357.9846532110644
 20
1237.48549353473
 30
0.0
 41
1.0
  0
SPLINE
  5
157
330
1F
100
AcDbEntity
  8
Predefinito
100
AcDbSpline
210
0.0
220
0.0
230
1.0
 70
    12
 71
     2
 72
     6
 73
     3
 74
     0
 42
0.0000000001
 43
0.0000000001
 40
0.0
 40
0.0
 40
0.0
 40
5.126046655700957
 40
5.126046655700957
 40
5.126046655700957
 10
357.9846532110644
 20
1237.48549353473
 30
0.0
 41
1.0
 10
358.6223880699666
 20
1239.997074978477
 30
0.0
 41
0.9999989799853862
 10
359.2673587517993
 20
1242.507068106106
 30
0.0
 41
1.0
  0
SPLINE
  5
158
330
1F
100
AcDbEntity
  8
Predefinito
100
AcDbSpline
210
0.0
220
0.0
230
1.0
 70
    12
 71
     2
 72
     6
 73
     3
 74
     0
 42
0.0000000001
 43
0.0000000001
 40
0.0
 40
0.0
 40
0.0
 40
5.130767396265075
 40
5.130767396265075
 40
5.130767396265075
 10
359.2673587517993
 20
1242.507068106106
 30
0.0
 41
1.0
 10
359.9129494035482
 20
1245.019342505242
 30
0.0
 41
0.9999969825968861
 10
360.5417732419119
 20
1247.517217911881
 30
0.0
 41
1.0
  0
SPLINE
  5
159
330
1F
100
AcDbEntity
  8
Predefinito
100
AcDbSpline
210
0.0
220
0.0
230
1.0
 70
    12
 71
     2
 72
     6
 73
     3
 74
     0
 42
0.0000000001
 43
0.0000000001
 40
0.0
 40
0.0
 40
0.0
 40
3.856120048517092
 40
3.856120048517092
 40
3.856120048517092
 10
360.5417732419119
 20
1247.517217911881
 30
0.0
 41
1.0
 10
361.0149865601714
 20
1249.39706055951
 30
0.0
 41
0.9999945564464675
 10
361.4733069126155
 20
1251.269861908596
 30
0.0
 41
1.0
  0
SPLINE
  5
15A
330
1F
100
AcDbEntity
  8
Predefinito
100
AcDbSpline
210
0.0
220
0.0
230
1.0
 70
    12
 71
     2
 72
     6
 73
     3
 74
     0
 42
0.0000000001
 43
0.0000000001
 40
0.0
 40
0.0
 40
0.0
 40
1.708481978668751
 40
1.708481978668751
 40
1.708481978668751
 10
362.6733069126151
 20
1256.310602255671
 30
0.0
 41
1.0
 10
362.8645783592109
 20
1257.14315642247
 30
0.0
 41
0.9999963626215865
 10
363.0533369033702
 20
1257.985572081392
 30
0.0
 41
1.0
  0
SPLINE
  5
15B
330
1F
100
AcDbEntity
  8
Predefinito
100
AcDbSpline
210
0.0
220
0.0
230
1.0
 70
    12
 71
     2
 72
     6
 73
     3
 74
     0
 42
0.0000000001
 43
0.0000000001
 40
0.0
 40
0.0
 40
0.0
 40
12.18464397004421
 40
12.18464397004421
 40
12.18464397004421
 10
363.0533369033702
 20
1257.985572081392
 30
0.0
 41
1.0
 10
364.3870730258772
 20
1263.940476015968
 30
0.0
 41
0.9997406477678537
 10
365.4478155072101
 20
1269.947382745252
 30
0.0
 41
1.0
  0
SPLINE
  5
15C
330
1F
100
AcDbEntity
  8
Predefinito
100
AcDbSpline
210
0.0
220
0.0
230
1.0
 70
    12
 71
     2
 72
     6
 73
     3
 74
     0
 42
0.0000000001
 43
0.0000000001
 40
0.0
 40
0.0
 40
0.0
 40
12.23201392642762
 40
12.23201392642762
 40
12.23201392642762
 10
365.4478155072101
 20
1269.947382745252
 30
0.0
 41
1.0
 10
366.5124900037886
 20
1275.977538201821
 30
0.0
 41
0.9997678094931576
 10
367.3161013879375
 20
1282.046034276165
 30
0.0
 41
1.0
  0
SPLINE
  5
15D
330
1F
100
AcDbEntity
  8
Predefinito
100
AcDbSpline
210
0.0
220
0.0
230
1.0
 70
    12
 71
     2
 72
     6
 73
     3
 74
     0
 42
0.0000000001
 43
0.0000000001
 40
0.0
 40
0.0
 40
0.0
 40
13.94290010554363
 40
13.94290010554363
 40
13.94290010554363
 10
367.3161013879375
 20
1282.046034276165
 30
0.0
 41
1.0
 10
368.2319427501017
 20
1288.962950179913
 30
0.0
 41
0.99971726023246
 10
368.817928987724
 20
1295.915945513149
 30
0.0
 41
1.0
  0
SPLINE
  5
15E
330
1F
100
AcDbEntity
  8
Predefinito
100
AcDbSpline
210
0.0
220
0.0
230
1.0
 70
    12
 71
     2
 72
     6
 73
     3
 74
     0
 42
0.0000000001
 43
0.0000000001
 40
0.0
 40
0.0
 40
0.0
 40
13.9652662539907
 40
13.9652662539907
 40
13.9652662539907
 10
368.817928987724
 20
1295.915945513149
 30
0.0
 41
1.0
 10
369.4047698210972
 20
1302.880030920667
 30
0.0
 41
0.9997306825495178
 10
369.6676935807275
 20
1309.860085901991
 30
0.0
 41
1.0
  0
SPLINE
  5
15F
330
1F
100
AcDbEntity
  8
Predefinito
100
AcDbSpline
210
0.0
220
0.0
230
1.0
 70
    12
 71
     2
 72
     6
 73
     3
 74
     0
 42
0.0000000001
 43
0.0000000001
 40
0.0
 40
0.0
 40
0.0
 40
11.12219922096116
 40
11.12219922096116
 40
11.12219922096116
 10
369.6676935807275
 20
1309.860085901991
 30
0.0
 41
1.0
 10
369.8771623759512
 20
1315.418991885191
 30
0.0
 41
0.9998291336712419
 10
369.8810072908157
 20
1320.9809531334
 30
0.0
 41
1.0
  0
SPLINE
  5
160
330
1F
100
AcDbEntity
  8
Predefinito
100
AcDbSpline
210
0.0
220
0.0
230
1.0
 70
    12
 71
     2
 72
     6
 73
     3
 74
     0
 42
0.0000000001
 43
0.0000000001
 40
0.0
 40
0.0
 40
0.0
 40
4.029684650497289
 40
4.029684650497289
 40
4.029684650497289
 10
369.8810072908157
 20
1320.9809531334
 30
0.0
 41
1.0
 10
369.8823705634101
 20
1322.996054294785
 30
0.0
 41
0.9999777369404428
 10
369.8568385120261
 20
1325.011250160603
 30
0.0
 41
1.0
  0
SPLINE
  5
161
330
1F
100
AcDbEntity
  8
Predefinito
100
AcDbSpline
210
0.0
220
0.0
230
1.0
 70
    12
 71
     2
 72
     6
 73
     3
 74
     0
 42
0.0000000001
 43
0.0000000001
 40
0.0
 40
0.0
 40
0.0
 40
15.14025156938832
 40
15.14025156938832
 40
15.14025156938832
 10
369.8568385120261
 20
1325.011250160603
 30
0.0
 41
1.0
 10
369.7607653396651
 20
1332.582948050934
 30
0.0
 41
0.9996640077962685
 10
369.2722243587378
 20
1340.14265775994
 30
0.0
 41
1.0
  0
SPLINE
  5
162
330
1F
100
AcDbEntity
  8
Predefinito
100
AcDbSpline
210
0.0
220
0.0
230
1.0
 70
    12
 71
     2
 72
     6
 73
     3
 74
     0
 42
0.0000000001
 43
0.0000000001
 40
0.0
 40
0.0
 40
0.0
 40
12.75031915863822
 40
12.75031915863822
 40
12.75031915863822
 10
369.2722243587378
 20
1340.14265775994
 30
0.0
 41
1.0
 10
368.8606353959615
 20
1346.509255432795
 30
0.0
 41
0.9997479753007926
 10
368.1636594104077
 20
1352.851126911728
 30
0.0
 41
1.0
  0
SPLINE
  5
163
330
1F
100
AcDbEntity
  8
Predefinito
100
AcDbSpline
210
0.0
220
0.0
230
1.0
 70
    12
 71
     2
 72
     6
 73
     3
 74
     0
 42
0.0000000001
 43
0.0000000001
 40
0.0
 40
0.0
 40
0.0
 40
12.71674433690226
 40
12.71674433690226
 40
12.71674433690226
 10
368.1636594104077
 20
1352.851126911728
 30
0.0
 41
1.0
 10
367.4683772268097
 20
1359.176437192188
 30
0.0
 41
0.9997142303374605
 10
366.4712398334287
 20
1365.463307679218
 30
0.0
 41
1.0
  0
SPLINE
  5
164
330
1F
100
AcDbEntity
  8
Predefinito
100
AcDbSpline
210
0.0
220
0.0
230
1.0
 70
    12
 71
     2
 72
     6
 73
     3
 74
     0
 42
0.0000000001
 43
0.0000000001
 40
0.0
 40
0.0
 40
0.0
 40
5.307839895109658
 40
5.307839895109658
 40
5.307839895109658
 10
366.4712398334287
 20
1365.463307679218
 30
0.0
 41
1.0
 10
366.0543855214088
 20
1368.090328118808
 30
0.0
 41
0.9999455307915107
 10
365.5826064048532
 20
1370.709078025777
 30
0.0
 41
1.0
  0
SPLINE
  5
165
330
1F
100
AcDbEntity
  8
Predefinito
100
AcDbSpline
210
0.0
220
0.0
230
1.0
 70
    12
 71
     2
 72
     6
 73
     3
 74
     0
 42
0.0000000001
 43
0.0000000001
 40
0.0
 40
0.0
 40
0.0
 40
5.302456916356109
 40
5.302456916356109
 40
5.302456916356109
 10
365.5826064048532
 20
1370.709078025777
 30
0.0
 41
1.0
 10
365.1111544068723
 20
1373.32514007941
 30
0.0
 41
0.9999521360045849
 10
364.5884045463612
 20
1375.932470390152
 30
0.0
 41
1.0
  0
SPLINE
  5
166
330
1F
100
AcDbEntity
  8
Predefinito
100
AcDbSpline
210
0.0
220
0.0
230
1.0
 70
    12
 71
     2
 72
     6
 73
     3
 74
     0
 42
0.0000000001
 43
0.0000000001
 40
0.0
 40
0.0
 40
0.0
 40
6.760412722965659
 40
6.760412722965659
 40
6.760412722965659
 10
364.5884045463612
 20
1375.932470390152
 30
0.0
 41
1.0
 10
363.9221582538217
 20
1379.254566157267
 30
0.0
 41
0.9999405240247199
 10
363.1833459817864
 20
1382.562523910967
 30
0.0
 41
1.0
  0
SPLINE
  5
167
330
1F
100
AcDbEntity
  8
Predefinito
100
AcDbSpline
210
0.0
220
0.0
230
1.0
 70
    12
 71
     2
 72
     6
 73
     3
 74
     0
 42
0.0000000001
 43
0.0000000001
 40
0.0
 40
0.0
 40
0.0
 40
2.30334883218258
 40
2.30334883218258
 40
2.30334883218258
 10
363.1833459817864
 20
1382.562523910967
 30
0.0
 41
1.0
 10
362.9302632642014
 20
1383.695393800653
 30
0.0
 41
0.9999965966029187
 10
362.673306912473
 20
1384.818039520738
 30
0.0
 41
1.0
  0
SPLINE
  5
168
330
1F
100
AcDbEntity
  8
Predefinito
100
AcDbSpline
210
0.0
220
0.0
230
1.0
 70
    12
 71
     2
 72
     6
 73
     3
 74
     0
 42
0.0000000001
 43
0.0000000001
 40
0.0
 40
0.0
 40
0.0
 40
6.784656746128578
 40
6.784656746128578
 40
6.784656746128578
 10
362.9184425957693
 20
1403.459073764387
 30
0.0
 41
1.0
 10
363.7662672931875
 20
1400.174390968416
 30
0.0
 41
0.9999963505435397
 10
364.5976234944273
 20
1396.880055577024
 30
0.0
 41
1.0
  0
SPLINE
  5
169
330
1F
100
AcDbEntity
  8
Predefinito
100
AcDbSpline
210
0.0
220
0.0
230
1.0
 70
    12
 71
     2
 72
     6
 73
     3
 74
     0
 42
0.0000000001
 43
0.0000000001
 40
0.0
 40
0.0
 40
0.0
 40
6.806418898951085
 40
6.806418898951085
 40
6.806418898951085
 10
364.5976234944273
 20
1396.880055577024
 30
0.0
 41
1.0
 10
365.431571643336
 20
1393.575118337334
 30
0.0
 41
0.9999819430578177
 10
366.2256109829733
 20
1390.260928446658
 30
0.0
 41
1.0
  0
SPLINE
  5
16A
330
1F
100
AcDbEntity
  8
Predefinito
100
AcDbSpline
210
0.0
220
0.0
230
1.0
 70
    12
 71
     2
 72
     6
 73
     3
 74
     0
 42
0.0000000001
 43
0.0000000001
 40
0.0
 40
0.0
 40
0.0
 40
6.847988535554187
 40
6.847988535554187
 40
6.847988535554187
 10
366.2256109829733
 20
1390.260928446658
 30
0.0
 41
1.0
 10
367.0243928704751
 20
1386.926474670934
 30
0.0
 41
0.9999705076679362
 10
367.7715704617135
 20
1383.581459877025
 30
0.0
 41
1.0
  0
SPLINE
  5
16B
330
1F
100
AcDbEntity
  8
Predefinito
100
AcDbSpline
210
0.0
220
0.0
230
1.0
 70
    12
 71
     2
 72
     6
 73
     3
 74
     0
 42
0.0000000001
 43
0.0000000001
 40
0.0
 40
0.0
 40
0.0
 40
6.874033068842194
 40
6.874033068842194
 40
6.874033068842194
 10
367.7715704617135
 20
1383.581459877025
 30
0.0
 41
1.0
 10
368.5215089425655
 20
1380.22364755294
 30
0.0
 41
0.9999403591613837
 10
369.1977526388449
 20
1376.851133095485
 30
0.0
 41
1.0
  0
SPLINE
  5
16C
330
1F
100
AcDbEntity
  8
Predefinito
100
AcDbSpline
210
0.0
220
0.0
230
1.0
 70
    12
 71
     2
 72
     6
 73
     3
 74
     0
 42
0.0000000001
 43
0.0000000001
 40
0.0
 40
0.0
 40
0.0
 40
5.403883030352673
 40
5.403883030352673
 40
5.403883030352673
 10
369.1977526388449
 20
1376.851133095485
 30
0.0
 41
1.0
 10
369.7294025490258
 20
1374.19938330224
 30
0.0
 41
0.999951989134232
 10
370.2089495788075
 20
1371.537915404587
 30
0.0
 41
1.0
  0
SPLINE
  5
16D
330
1F
100
AcDbEntity
  8
Predefinito
100
AcDbSpline
210
0.0
220
0.0
230
1.0
 70
    12
 71
     2
 72
     6
 73
     3
 74
     0
 42
0.0000000001
 43
0.0000000001
 40
0.0
 40
0.0
 40
0.0
 40
5.41318043621121
 40
5.41318043621121
 40
5.41318043621121
 10
370.2089495788075
 20
1371.537915404587
 30
0.0
 41
1.0
 10
370.6892466546015
 20
1368.871846879445
 30
0.0
 41
0.9999454116388714
 10
371.1137420275376
 20
1366.196237827147
 30
0.0
 41
1.0
  0
SPLINE
  5
16E
330
1F
100
AcDbEntity
  8
Predefinito
100
AcDbSpline
210
0.0
220
0.0
230
1.0
 70
    12
 71
     2
 72
     6
 73
     3
 74
     0
 42
0.0000000001
 43
0.0000000001
 40
0.0
 40
0.0
 40
0.0
 40
12.94458329362457
 40
12.94458329362457
 40
12.94458329362457
 10
371.1137420275376
 20
1366.196237827147
 30
0.0
 41
1.0
 10
372.1281643997702
 20
1359.800273411025
 30
0.0
 41
0.9997141694391244
 10
372.8356838311602
 20
1353.363172161515
 30
0.0
 41
1.0
  0
SPLINE
  5
16F
330
1F
100
AcDbEntity
  8
Predefinito
100
AcDbSpline
210
0.0
220
0.0
230
1.0
 70
    12
 71
     2
 72
     6
 73
     3
 74
     0
 42
0.0000000001
 43
0.0000000001
 40
0.0
 40
0.0
 40
0.0
 40
12.9622114267676
 40
12.9622114267676
 40
12.9622114267676
 10
372.8356838311602
 20
1353.363172161515
 30
0.0
 41
1.0
 10
373.5440919705391
 20
1346.917446382717
 30
0.0
 41
0.9997478845174282
 10
373.9623636029103
 20
1340.446952300532
 30
0.0
 41
1.0
  0
SPLINE
  5
170
330
1F
100
AcDbEntity
  8
Predefinito
100
AcDbSpline
210
0.0
220
0.0
230
1.0
 70
    12
 71
     2
 72
     6
 73
     3
 74
     0
 42
0.0000000001
 43
0.0000000001
 40
0.0
 40
0.0
 40
0.0
 40
15.38793660336185
 40
15.38793660336185
 40
15.38793660336185
 10
373.9623636029103
 20
1340.446952300532
 30
0.0
 41
1.0
 10
374.4588794335175
 20
1332.765485034758
 30
0.0
 41
0.9996637415817631
 10
374.5564948043618
 20
1325.068154444664
 30
0.0
 41
1.0
  0
SPLINE
  5
171
330
1F
100
AcDbEntity
  8
Predefinito
100
AcDbSpline
210
0.0
220
0.0
230
1.0
 70
    12
 71
     2
 72
     6
 73
     3
 74
     0
 42
0.0000000001
 43
0.0000000001
 40
0.0
 40
0.0
 40
0.0
 40
4.087641473652633
 40
4.087641473652633
 40
4.087641473652633
 10
374.5564948043618
 20
1325.068154444664
 30
0.0
 41
1.0
 10
374.5823862155694
 20
1323.022211374633
 30
0.0
 41
0.9999777913409676
 10
374.5810064661693
 20
1320.978131397791
 30
0.0
 41
1.0
  0
SPLINE
  5
172
330
1F
100
AcDbEntity
  8
Predefinito
100
AcDbSpline
210
0.0
220
0.0
230
1.0
 70
    12
 71
     2
 72
     6
 73
     3
 74
     0
 42
0.0000000001
 43
0.0000000001
 40
0.0
 40
0.0
 40
0.0
 40
11.2863518698721
 40
11.2863518698721
 40
11.2863518698721
 10
374.5810064661693
 20
1320.978131397791
 30
0.0
 41
1.0
 10
374.577112631299
 20
1315.334085531151
 30
0.0
 41
0.9998294246779651
 10
374.3645918264234
 20
1309.689253414283
 30
0.0
 41
1.0
  0
SPLINE
  5
173
330
1F
100
AcDbEntity
  8
Predefinito
100
AcDbSpline
210
0.0
220
0.0
230
1.0
 70
    12
 71
     2
 72
     6
 73
     3
 74
     0
 42
0.0000000001
 43
0.0000000001
 40
0.0
 40
0.0
 40
0.0
 40
14.16722414454146
 40
14.16722414454146
 40
14.16722414454146
 10
374.3645918264234
 20
1309.689253414283
 30
0.0
 41
1.0
 10
374.097771556158
 20
1302.604381092539
 30
0.0
 41
0.9997312949291499
 10
373.5023219714822
 20
1295.533060871436
 30
0.0
 41
1.0
  0
SPLINE
  5
174
330
1F
100
AcDbEntity
  8
Predefinito
100
AcDbSpline
210
0.0
220
0.0
230
1.0
 70
    12
 71
     2
 72
     6
 73
     3
 74
     0
 42
0.0000000001
 43
0.0000000001
 40
0.0
 40
0.0
 40
0.0
 40
14.1718032087956
 40
14.1718032087956
 40
14.1718032087956
 10
373.5023219714822
 20
1295.533060871436
 30
0.0
 41
1.0
 10
372.9062957299457
 20
1288.459423569107
 30
0.0
 41
0.99971704228486
 10
371.9752493505778
 20
1281.42769648786
 30
0.0
 41
1.0
  0
SPLINE
  5
175
330
1F
100
AcDbEntity
  8
Predefinito
100
AcDbSpline
210
0.0
220
0.0
230
1.0
 70
    12
 71
     2
 72
     6
 73
     3
 74
     0
 42
0.0000000001
 43
0.0000000001
 40
0.0
 40
0.0
 40
0.0
 40
12.43200267259497
 40
12.43200267259497
 40
12.43200267259497
 10
371.9752493505778
 20
1281.42769648786
 30
0.0
 41
1.0
 10
371.1582746934556
 20
1275.258736342603
 30
0.0
 41
0.999767909635454
 10
370.075924502017
 20
1269.128475515155
 30
0.0
 41
1.0
  0
SPLINE
  5
176
330
1F
100
AcDbEntity
  8
Predefinito
100
AcDbSpline
210
0.0
220
0.0
230
1.0
 70
    12
 71
     2
 72
     6
 73
     3
 74
     0
 42
0.0000000001
 43
0.0000000001
 40
0.0
 40
0.0
 40
0.0
 40
12.39565404263223
 40
12.39565404263223
 40
12.39565404263223
 10
370.075924502017
 20
1269.128475515155
 30
0.0
 41
1.0
 10
368.996489980538
 20
1263.01604400829
 30
0.0
 41
0.9997407124888404
 10
367.6393648486251
 20
1256.956811253669
 30
0.0
 41
1.0
  0
SPLINE
  5
177
330
1F
100
AcDbEntity
  8
Predefinito
100
AcDbSpline
210
0.0
220
0.0
230
1.0
 70
    12
 71
     2
 72
     6
 73
     3
 74
     0
 42
0.0000000001
 43
0.0000000001
 40
0.0
 40
0.0
 40
0.0
 40
5.435339544633752
 40
5.435339544633752
 40
5.435339544633752
 10
367.6393648486251
 20
1256.956811253669
 30
0.0
 41
1.0
 10
367.0428472347538
 20
1254.294632663008
 30
0.0
 41
0.9999640302366015
 10
366.4008874043726
 20
1251.641427055816
 30
0.0
 41
1.0
  0
SPLINE
  5
178
330
1F
100
AcDbEntity
  8
Predefinito
100
AcDbSpline
210
0.0
220
0.0
230
1.0
 70
    12
 71
     2
 72
     6
 73
     3
 74
     0
 42
0.0000000001
 43
0.0000000001
 40
0.0
 40
0.0
 40
0.0
 40
5.407333701417776
 40
5.407333701417776
 40
5.407333701417776
 10
366.4008874043726
 20
1251.641427055816
 30
0.0
 41
1.0
 10
365.762138615061
 20
1249.001899027364
 30
0.0
 41
0.9999894735563312
 10
365.098512972075
 20
1246.365635781483
 30
0.0
 41
1.0
  0
SPLINE
  5
179
330
1F
100
AcDbEntity
  8
Predefinito
100
AcDbSpline
210
0.0
220
0.0
230
1.0
 70
    12
 71
     2
 72
     6
 73
     3
 74
     0
 42
0.0000000001
 43
0.0000000001
 40
0.0
 40
0.0
 40
0.0
 40
5.155386496225807
 40
5.155386496225807
 40
5.155386496225807
 10
365.098512972075
 20
1246.365635781483
 30
0.0
 41
1.0
 10
364.4655891943685
 20
1243.851561817051
 30
0.0
 41
0.999996980767119
 10
363.8150014691322
 20
1241.319941817322
 30
0.0
 41
1.0
  0
SPLINE
  5
17A
330
1F
100
AcDbEntity
  8
Predefinito
100
AcDbSpline
210
0.0
220
0.0
230
1.0
 70
    12
 71
     2
 72
     6
 73
     3
 74
     0
 42
0.0000000001
 43
0.0000000001
 40
0.0
 40
0.0
 40
0.0
 40
4.574233156256388
 40
4.574233156256388
 40
4.574233156256388
 10
363.8150014691322
 20
1241.319941817322
 30
0.0
 41
1.0
 10
363.2368202385557
 20
1239.069736814558
 30
0.0
 41
0.9999991835444313
 10
362.6733069011927
 20
1236.853126642478
 30
0.0
 41
1.0
  0
ARC
  5
17B
330
1F
100
AcDbEntity
  8
Predefinito
100
AcDbCircle
 10
479.9733830440431
 20
1473.808081341743
 30
0.0
 40
129.4793777175065
100
AcDbArc
 50
176.7515918851875
 51
179.8723751907962
  0
SPLINE
  5
17C
330
1F
100
AcDbEntity
  8
Predefinito
100
AcDbSpline
210
0.0
220
0.0
230
1.0
 70
    12
 71
     2
 72
     6
 73
     3
 74
     0
 42
0.0000000001
 43
0.0000000001
 40
0.0
 40
0.0
 40
0.0
 40
6.926796832309393
 40
6.926796832309393
 40
6.926796832309393
 10
350.4943265412093
 20
1474.096492937718
 30
0.0
 41
1.0
 10
350.4866223213796
 20
1470.629689011937
 30
0.0
 41
0.9997039150912695
 10
350.6476188649974
 20
1467.166016941845
 30
0.0
 41
1.0
  0
SPLINE
  5
17D
330
1F
100
AcDbEntity
  8
Predefinito
100
AcDbSpline
210
0.0
220
0.0
230
1.0
 70
    12
 71
     2
 72
     6
 73
     3
 74
     0
 42
0.0000000001
 43
0.0000000001
 40
0.0
 40
0.0
 40
0.0
 40
6.407724218678674
 40
6.407724218678674
 40
6.407724218678674
 10
350.6476188649974
 20
1467.166016941845
 30
0.0
 41
1.0
 10
350.7966593590675
 20
1463.961809306527
 30
0.0
 41
0.9997751278513163
 10
351.0816017567436
 20
1460.764900652604
 30
0.0
 41
1.0
  0
SPLINE
  5
17E
330
1F
100
AcDbEntity
  8
Predefinito
100
AcDbSpline
210
0.0
220
0.0
230
1.0
 70
    12
 71
     2
 72
     6
 73
     3
 74
     0
 42
0.0000000001
 43
0.0000000001
 40
0.0
 40
0.0
 40
0.0
 40
6.408693389115698
 40
6.408693389115698
 40
6.408693389115698
 10
351.0816017567436
 20
1460.764900652604
 30
0.0
 41
1.0
 10
351.3667232431914
 20
1457.567643458844
 30
0.0
 41
0.999832025009802
 10
351.7690682159439
 20
1454.381125984527
 30
0.0
 41
1.0
  0
SPLINE
  5
17F
330
1F
100
AcDbEntity
  8
Predefinito
100
AcDbSpline
210
0.0
220
0.0
230
1.0
 70
    12
 71
     2
 72
     6
 73
     3
 74
     0
 42
0.0000000001
 43
0.0000000001
 40
0.0
 40
0.0
 40
0.0
 40
6.393100483715231
 40
6.393100483715231
 40
6.393100483715231
 10
351.7690682159439
 20
1454.381125984527
 30
0.0
 41
1.0
 10
352.1706723450016
 20
1451.202433652194
 30
0.0
 41
0.9998596892745952
 10
352.6788449860106
 20
1448.037019561666
 30
0.0
 41
1.0
  0
SPLINE
  5
180
330
1F
100
AcDbEntity
  8
Predefinito
100
AcDbSpline
210
0.0
220
0.0
230
1.0
 70
    12
 71
     2
 72
     6
 73
     3
 74
     0
 42
0.0000000001
 43
0.0000000001
 40
0.0
 40
0.0
 40
0.0
 40
6.394107996623075
 40
6.394107996623075
 40
6.394107996623075
 10
352.6788449860106
 20
1448.037019561666
 30
0.0
 41
1.0
 10
353.1873766873916
 20
1444.871257751349
 30
0.0
 41
0.9999082628355935
 10
353.7818204165396
 20
1441.718600873439
 30
0.0
 41
1.0
  0
SPLINE
  5
181
330
1F
100
AcDbEntity
  8
Predefinito
100
AcDbSpline
210
0.0
220
0.0
230
1.0
 70
    12
 71
     2
 72
     6
 73
     3
 74
     0
 42
0.0000000001
 43
0.0000000001
 40
0.0
 40
0.0
 40
0.0
 40
6.415016612765149
 40
6.415016612765149
 40
6.415016612765149
 10
353.7818204165396
 20
1441.718600873439
 30
0.0
 41
1.0
 10
354.3784601343945
 20
1438.555762401412
 30
0.0
 41
0.9999282533863324
 10
355.0511233753219
 20
1435.406128639887
 30
0.0
 41
1.0
  0
SPLINE
  5
182
330
1F
100
AcDbEntity
  8
Predefinito
100
AcDbSpline
210
0.0
220
0.0
230
1.0
 70
    12
 71
     2
 72
     6
 73
     3
 74
     0
 42
0.0000000001
 43
0.0000000001
 40
0.0
 40
0.0
 40
0.0
 40
6.394688602885695
 40
6.394688602885695
 40
6.394688602885695
 10
355.0511233753219
 20
1435.406128639887
 30
0.0
 41
1.0
 10
355.7218584836486
 20
1432.266551373151
 30
0.0
 41
0.9999624575853071
 10
356.4466013007146
 20
1429.140361309426
 30
0.0
 41
1.0
  0
SPLINE
  5
183
330
1F
100
AcDbEntity
  8
Predefinito
100
AcDbSpline
210
0.0
220
0.0
230
1.0
 70
    12
 71
     2
 72
     6
 73
     3
 74
     0
 42
0.0000000001
 43
0.0000000001
 40
0.0
 40
0.0
 40
0.0
 40
6.483513255123787
 40
6.483513255123787
 40
6.483513255123787
 10
356.4466013007146
 20
1429.140361309426
 30
0.0
 41
1.0
 10
357.1815156485873
 20
1425.970964438624
 30
0.0
 41
0.9999743772773025
 10
357.9589305248422
 20
1422.823748020964
 30
0.0
 41
1.0
  0
SPLINE
  5
184
330
1F
100
AcDbEntity
  8
Predefinito
100
AcDbSpline
210
0.0
220
0.0
230
1.0
 70
    12
 71
     2
 72
     6
 73
     3
 74
     0
 42
0.0000000001
 43
0.0000000001
 40
0.0
 40
0.0
 40
0.0
 40
6.429233179389592
 40
6.429233179389592
 40
6.429233179389592
 10
357.9589305248422
 20
1422.823748020964
 30
0.0
 41
1.0
 10
358.729776829128
 20
1419.702905424603
 30
0.0
 41
0.9999925450889121
 10
359.5327281904989
 20
1416.556660478602
 30
0.0
 41
1.0
  0
SPLINE
  5
185
330
1F
100
AcDbEntity
  8
Predefinito
100
AcDbSpline
210
0.0
220
0.0
230
1.0
 70
    12
 71
     2
 72
     6
 73
     3
 74
     0
 42
0.0000000001
 43
0.0000000001
 40
0.0
 40
0.0
 40
0.0
 40
6.718887856800789
 40
6.718887856800789
 40
6.718887856800789
 10
359.5327281904989
 20
1416.556660478602
 30
0.0
 41
1.0
 10
360.3717277602704
 20
1413.270156114255
 30
0.0
 41
0.9999972408255358
 10
361.2206250733324
 20
1410.00889404556
 30
0.0
 41
1.0
  0
SPLINE
  5
186
330
1F
100
AcDbEntity
  8
Predefinito
100
AcDbSpline
210
0.0
220
0.0
230
1.0
 70
    12
 71
     2
 72
     6
 73
     3
 74
     0
 42
0.0000000001
 43
0.0000000001
 40
0.0
 40
0.0
 40
0.0
 40
0.9931324719478651
 40
0.9931324719478651
 40
0.9931324719478651
 10
361.2206250733324
 20
1410.00889404556
 30
0.0
 41
1.0
 10
361.3483592173093
 20
1409.518196490923
 30
0.0
 41
0.9999999885583202
 10
361.473306912615
 20
1409.037607161132
 30
0.0
 41
1.0
  0
SPLINE
  5
187
330
1F
100
AcDbEntity
  8
Predefinito
100
AcDbSpline
210
0.0
220
0.0
230
1.0
 70
    12
 71
     2
 72
     6
 73
     3
 74
     0
 42
0.0000000001
 43
0.0000000001
 40
0.0
 40
0.0
 40
0.0
 40
5.977141850631688
 40
5.977141850631688
 40
5.977141850631688
 10
361.4733069105257
 20
1389.921792689541
 30
0.0
 41
1.0
 10
360.7729810989493
 20
1392.827178814393
 30
0.0
 41
0.999985842492613
 10
360.0391767992065
 20
1395.735244291308
 30
0.0
 41
1.0
  0
SPLINE
  5
188
330
1F
100
AcDbEntity
  8
Predefinito
100
AcDbSpline
210
0.0
220
0.0
230
1.0
 70
    12
 71
     2
 72
     6
 73
     3
 74
     0
 42
0.0000000001
 43
0.0000000001
 40
0.0
 40
0.0
 40
0.0
 40
6.748521483140105
 40
6.748521483140105
 40
6.748521483140105
 10
360.0391767992065
 20
1395.735244291308
 30
0.0
 41
1.0
 10
359.210906940975
 20
1399.017231494517
 30
0.0
 41
0.9999963621117116
 10
358.364984841632
 20
1402.29454291613
 30
0.0
 41
1.0
  0
SPLINE
  5
189
330
1F
100
AcDbEntity
  8
Predefinito
100
AcDbSpline
210
0.0
220
0.0
230
1.0
 70
    12
 71
     2
 72
     6
 73
     3
 74
     0
 42
0.0000000001
 43
0.0000000001
 40
0.0
 40
0.0
 40
0.0
 40
6.718101665336667
 40
6.718101665336667
 40
6.718101665336667
 10
358.364984841632
 20
1402.29454291613
 30
0.0
 41
1.0
 10
357.5228348867502
 20
1405.557112336224
 30
0.0
 41
0.9999994765223202
 10
356.6693500313377
 20
1408.835855056256
 30
0.0
 41
1.0
  0
SPLINE
  5
18A
330
1F
100
AcDbEntity
  8
Predefinito
100
AcDbSpline
210
0.0
220
0.0
230
1.0
 70
    12
 71
     2
 72
     6
 73
     3
 74
     0
 42
0.0000000001
 43
0.0000000001
 40
0.0
 40
0.0
 40
0.0
 40
6.703921038510683
 40
6.703921038510683
 40
6.703921038510683
 10
356.6693500313377
 20
1408.835855056256
 30
0.0
 41
1.0
 10
355.8177523054186
 20
1412.107767502656
 30
0.0
 41
0.9999972710278563
 10
354.9815331850106
 20
1415.38330946979
 30
0.0
 41
1.0
  0
SPLINE
  5
18B
330
1F
100
AcDbEntity
  8
Predefinito
100
AcDbSpline
210
0.0
220
0.0
230
1.0
 70
    12
 71
     2
 72
     6
 73
     3
 74
     0
 42
0.0000000001
 43
0.0000000001
 40
0.0
 40
0.0
 40
0.0
 40
6.460855416834634
 40
6.460855416834634
 40
6.460855416834634
 10
354.9815331850106
 20
1415.38330946979
 30
0.0
 41
1.0
 10
354.1755605553644
 20
1418.541152677718
 30
0.0
 41
0.999992555663404
 10
353.3933755367331
 20
1421.707583550951
 30
0.0
 41
1.0
  0
SPLINE
  5
18C
330
1F
100
AcDbEntity
  8
Predefinito
100
AcDbSpline
210
0.0
220
0.0
230
1.0
 70
    12
 71
     2
 72
     6
 73
     3
 74
     0
 42
0.0000000001
 43
0.0000000001
 40
0.0
 40
0.0
 40
0.0
 40
6.485185957938632
 40
6.485185957938632
 40
6.485185957938632
 10
353.3933755367331
 20
1421.707583550951
 30
0.0
 41
1.0
 10
352.6085781843408
 20
1424.885939452004
 30
0.0
 41
0.9999748849079401
 10
351.8690327927415
 20
1428.074586821659
 30
0.0
 41
1.0
  0
SPLINE
  5
18D
330
1F
100
AcDbEntity
  8
Predefinito
100
AcDbSpline
210
0.0
220
0.0
230
1.0
 70
    12
 71
     2
 72
     6
 73
     3
 74
     0
 42
0.0000000001
 43
0.0000000001
 40
0.0
 40
0.0
 40
0.0
 40
6.464250124654586
 40
6.464250124654586
 40
6.464250124654586
 10
351.8690327927415
 20
1428.074586821659
 30
0.0
 41
1.0
 10
351.1322811742704
 20
1431.253163308447
 30
0.0
 41
0.9999626159347431
 10
350.4509316254384
 20
1434.442507033963
 30
0.0
 41
1.0
  0
SPLINE
  5
18E
330
1F
100
AcDbEntity
  8
Predefinito
100
AcDbSpline
210
0.0
220
0.0
230
1.0
 70
    12
 71
     2
 72
     6
 73
     3
 74
     0
 42
0.0000000001
 43
0.0000000001
 40
0.0
 40
0.0
 40
0.0
 40
6.492209424563109
 40
6.492209424563109
 40
6.492209424563109
 10
350.4509316254384
 20
1434.442507033963
 30
0.0
 41
1.0
 10
349.7672496628393
 20
1437.645722184842
 30
0.0
 41
0.9999290395102072
 10
349.1605347184763
 20
1440.861910159715
 30
0.0
 41
1.0
  0
SPLINE
  5
18F
330
1F
100
AcDbEntity
  8
Predefinito
100
AcDbSpline
210
0.0
220
0.0
230
1.0
 70
    12
 71
     2
 72
     6
 73
     3
 74
     0
 42
0.0000000001
 43
0.0000000001
 40
0.0
 40
0.0
 40
0.0
 40
6.509853480786804
 40
6.509853480786804
 40
6.509853480786804
 10
349.1605347184763
 20
1440.861910159715
 30
0.0
 41
1.0
 10
348.5528596234565
 20
1444.086940157355
 30
0.0
 41
0.9999085869087465
 10
348.034799524884
 20
1447.31361127493
 30
0.0
 41
1.0
  0
SPLINE
  5
190
330
1F
100
AcDbEntity
  8
Predefinito
100
AcDbSpline
210
0.0
220
0.0
230
1.0
 70
    12
 71
     2
 72
     6
 73
     3
 74
     0
 42
0.0000000001
 43
0.0000000001
 40
0.0
 40
0.0
 40
0.0
 40
6.539480510871581
 40
6.539480510871581
 40
6.539480510871581
 10
348.034799524884
 20
1447.31361127493
 30
0.0
 41
1.0
 10
347.5148525876571
 20
1450.555090473398
 30
0.0
 41
0.9998601714174015
 10
347.1039098344473
 20
1453.809637704057
 30
0.0
 41
1.0
  0
SPLINE
  5
191
330
1F
100
AcDbEntity
  8
Predefinito
100
AcDbSpline
210
0.0
220
0.0
230
1.0
 70
    12
 71
     2
 72
     6
 73
     3
 74
     0
 42
0.0000000001
 43
0.0000000001
 40
0.0
 40
0.0
 40
0.0
 40
6.571007466786257
 40
6.571007466786257
 40
6.571007466786257
 10
347.1039098344473
 20
1453.809637704057
 30
0.0
 41
1.0
 10
346.6913688526878
 20
1457.079934259183
 30
0.0
 41
0.9998325371294055
 10
346.3990047444997
 20
1460.360607202919
 30
0.0
 41
1.0
  0
SPLINE
  5
192
330
1F
100
AcDbEntity
  8
Predefinito
100
AcDbSpline
210
0.0
220
0.0
230
1.0
 70
    12
 71
     2
 72
     6
 73
     3
 74
     0
 42
0.0000000001
 43
0.0000000001
 40
0.0
 40
0.0
 40
0.0
 40
6.598256820887991
 40
6.598256820887991
 40
6.598256820887991
 10
346.3990047444997
 20
1460.360607202919
 30
0.0
 41
1.0
 10
346.1057500344488
 20
1463.655005815282
 30
0.0
 41
0.9997760161981494
 10
345.9523002075208
 20
1466.956130577922
 30
0.0
 41
1.0
  0
SPLINE
  5
193
330
1F
100
AcDbEntity
  8
Predefinito
100
AcDbSpline
210
0.0
220
0.0
230
1.0
 70
    12
 71
     2
 72
     6
 73
     3
 74
     0
 42
0.0000000001
 43
0.0000000001
 40
0.0
 40
0.0
 40
0.0
 40
7.148229712819454
 40
7.148229712819454
 40
7.148229712819454
 10
345.9523002075208
 20
1466.956130577922
 30
0.0
 41
1.0
 10
345.7863325375788
 20
1470.532168471644
 30
0.0
 41
0.9997045608280248
 10
345.7943429854625
 20
1474.109091739068
 30
0.0
 41
1.0
  0
SPLINE
  5
194
330
1F
100
AcDbEntity
  8
Predefinito
100
AcDbSpline
210
0.0
220
0.0
230
1.0
 70
    12
 71
     2
 72
     6
 73
     3
 74
     0
 42
0.0000000001
 43
0.0000000001
 40
0.0
 40
0.0
 40
0.0
 40
7.037492076732562
 40
7.037492076732562
 40
7.037492076732562
 10
345.7943429854625
 20
1474.109091739068
 30
0.0
 41
1.0
 10
345.8023204763913
 20
1477.630748434892
 30
0.0
 41
0.9996563258957328
 10
345.9947490274656
 20
1481.145036571366
 30
0.0
 41
1.0
  0
SPLINE
  5
195
330
1F
100
AcDbEntity
  8
Predefinito
100
AcDbSpline
210
0.0
220
0.0
230
1.0
 70
    12
 71
     2
 72
     6
 73
     3
 74
     0
 42
0.0000000001
 43
0.0000000001
 40
0.0
 40
0.0
 40
0.0
 40
1.146517134845368
 40
1.146517134845368
 40
1.146517134845368
 10
361.4733069126282
 20
1059.233932753098
 30
0.0
 41
1.0
 10
361.0380239286829
 20
1058.8608770892
 30
0.0
 41
0.9999625290168115
 10
360.5722571480416
 20
1058.44743542148
 30
0.0
 41
1.0
  0
SPLINE
  5
196
330
1F
100
AcDbEntity
  8
Predefinito
100
AcDbSpline
210
0.0
220
0.0
230
1.0
 70
    12
 71
     2
 72
     6
 73
     3
 74
     0
 42
0.0000000001
 43
0.0000000001
 40
0.0
 40
0.0
 40
0.0
 40
2.011623295644494
 40
2.011623295644494
 40
2.011623295644494
 10
360.5722571480416
 20
1058.44743542148
 30
0.0
 41
1.0
 10
359.7841696400306
 20
1057.745371128993
 30
0.0
 41
0.9998245348308628
 10
359.009131902919
 20
1057.000803122724
 30
0.0
 41
1.0
  0
SPLINE
  5
197
330
1F
100
AcDbEntity
  8
Predefinito
100
AcDbSpline
210
0.0
220
0.0
230
1.0
 70
    12
 71
     2
 72
     6
 73
     3
 74
     0
 42
0.0000000001
 43
0.0000000001
 40
0.0
 40
0.0
 40
0.0
 40
1.990014327230349
 40
1.990014327230349
 40
1.990014327230349
 10
359.009131902919
 20
1057.000803122724
 30
0.0
 41
1.0
 10
358.2442669129791
 20
1056.2610818466
 30
0.0
 41
0.9996467640886069
 10
357.519087453518
 20
1055.480604866679
 30
0.0
 41
1.0
  0
SPLINE
  5
198
330
1F
100
AcDbEntity
  8
Predefinito
100
AcDbSpline
210
0.0
220
0.0
230
1.0
 70
    12
 71
     2
 72
     6
 73
     3
 74
     0
 42
0.0000000001
 43
0.0000000001
 40
0.0
 40
0.0
 40
0.0
 40
1.762788747631802
 40
1.762788747631802
 40
1.762788747631802
 10
357.519087453518
 20
1055.480604866679
 30
0.0
 41
1.0
 10
356.8740621458767
 20
1054.78077498125
 30
0.0
 41
0.9996341039760914
 10
356.267715730491
 20
1054.046390949813
 30
0.0
 41
1.0
  0
SPLINE
  5
199
330
1F
100
AcDbEntity
  8
Predefinito
100
AcDbSpline
210
0.0
220
0.0
230
1.0
 70
    12
 71
     2
 72
     6
 73
     3
 74
     0
 42
0.0000000001
 43
0.0000000001
 40
0.0
 40
0.0
 40
0.0
 40
1.733362117824783
 40
1.733362117824783
 40
1.733362117824783
 10
356.267715730491
 20
1054.046390949813
 30
0.0
 41
1.0
 10
355.6745999590131
 20
1053.320008221065
 30
0.0
 41
0.9993969456939178
 10
355.1309795976509
 20
1052.550080274321
 30
0.0
 41
1.0
  0
SPLINE
  5
19A
330
1F
100
AcDbEntity
  8
Predefinito
100
AcDbSpline
210
0.0
220
0.0
230
1.0
 70
    12
 71
     2
 72
     6
 73
     3
 74
     0
 42
0.0000000001
 43
0.0000000001
 40
0.0
 40
0.0
 40
0.0
 40
1.764371735405232
 40
1.764371735405232
 40
1.764371735405232
 10
355.1309795976509
 20
1052.550080274321
 30
0.0
 41
1.0
 10
354.5833724993731
 20
1051.763888013661
 30
0.0
 41
0.99923664287263
 10
354.1273399498398
 20
1050.985441886856
 30
0.0
 41
1.0
  0
SPLINE
  5
19B
330
1F
100
AcDbEntity
  8
Predefinito
100
AcDbSpline
210
0.0
220
0.0
230
1.0
 70
    12
 71
     2
 72
     6
 73
     3
 74
     0
 42
0.0000000001
 43
0.0000000001
 40
0.0
 40
0.0
 40
0.0
 40
1.842089055248305
 40
1.842089055248305
 40
1.842089055248305
 10
354.1273399498398
 20
1050.985441886856
 30
0.0
 41
1.0
 10
353.6534247897447
 20
1050.172073418815
 30
0.0
 41
0.9987557721102553
 10
353.2560721173002
 20
1049.300372628639
 30
0.0
 41
1.0
  0
SPLINE
  5
19C
330
1F
100
AcDbEntity
  8
Predefinito
100
AcDbSpline
210
0.0
220
0.0
230
1.0
 70
    12
 71
     2
 72
     6
 73
     3
 74
     0
 42
0.0000000001
 43
0.0000000001
 40
0.0
 40
0.0
 40
0.0
 40
1.658822323998894
 40
1.658822323998894
 40
1.658822323998894
 10
353.2560721173002
 20
1049.300372628639
 30
0.0
 41
1.0
 10
352.8999024966207
 20
1048.510776639682
 30
0.0
 41
0.9988903133805385
 10
352.6191784420041
 20
1047.689415034799
 30
0.0
 41
1.0
  0
SPLINE
  5
19D
330
1F
100
AcDbEntity
  8
Predefinito
100
AcDbSpline
210
0.0
220
0.0
230
1.0
 70
    12
 71
     2
 72
     6
 73
     3
 74
     0
 42
0.0000000001
 43
0.0000000001
 40
0.0
 40
0.0
 40
0.0
 40
1.106212745360804
 40
1.106212745360804
 40
1.106212745360804
 10
352.6191784420041
 20
1047.689415034799
 30
0.0
 41
1.0
 10
352.4302707305963
 20
1047.12910102623
 30
0.0
 41
0.9994274674153079
 10
352.2894463122414
 20
1046.59400397527
 30
0.0
 41
1.0
  0
SPLINE
  5
19E
330
1F
100
AcDbEntity
  8
Predefinito
100
AcDbSpline
210
0.0
220
0.0
230
1.0
 70
    12
 71
     2
 72
     6
 73
     3
 74
     0
 42
0.0000000001
 43
0.0000000001
 40
0.0
 40
0.0
 40
0.0
 40
0.4485898733221358
 40
0.4485898733221358
 40
0.4485898733221358
 10
347.4658697108783
 20
1046.594003975219
 30
0.0
 41
1.0
 10
347.5103790655136
 20
1046.813846812709
 30
0.0
 41
0.9999442889711608
 10
347.5628338902068
 20
1047.047411132623
 30
0.0
 41
1.0
  0
SPLINE
  5
19F
330
1F
100
AcDbEntity
  8
Predefinito
100
AcDbSpline
210
0.0
220
0.0
230
1.0
 70
    12
 71
     2
 72
     6
 73
     3
 74
     0
 42
0.0000000001
 43
0.0000000001
 40
0.0
 40
0.0
 40
0.0
 40
2.186793554758304
 40
2.186793554758304
 40
2.186793554758304
 10
347.5628338902068
 20
1047.047411132623
 30
0.0
 41
1.0
 10
347.8073619120486
 20
1048.129573345883
 30
0.0
 41
0.9986713657300528
 10
348.1655444990718
 20
1049.191242287918
 30
0.0
 41
1.0
  0
SPLINE
  5
1A0
330
1F
100
AcDbEntity
  8
Predefinito
100
AcDbSpline
210
0.0
220
0.0
230
1.0
 70
    12
 71
     2
 72
     6
 73
     3
 74
     0
 42
0.0000000001
 43
0.0000000001
 40
0.0
 40
0.0
 40
0.0
 40
2.119083612046278
 40
2.119083612046278
 40
2.119083612046278
 10
348.1655444990718
 20
1049.191242287918
 30
0.0
 41
1.0
 10
348.5155774136111
 20
1050.219743358688
 30
0.0
 41
0.9988746218823439
 10
348.9720968918945
 20
1051.233614760964
 30
0.0
 41
1.0
  0
SPLINE
  5
1A1
330
1F
100
AcDbEntity
  8
Predefinito
100
AcDbSpline
210
0.0
220
0.0
230
1.0
 70
    12
 71
     2
 72
     6
 73
     3
 74
     0
 42
0.0000000001
 43
0.0000000001
 40
0.0
 40
0.0
 40
0.0
 40
2.248972059691295
 40
2.248972059691295
 40
2.248972059691295
 10
348.9720968918945
 20
1051.233614760964
 30
0.0
 41
1.0
 10
349.4601683947473
 20
1052.304584704886
 30
0.0
 41
0.9988248216919303
 10
350.0579526404878
 20
1053.336973416261
 30
0.0
 41
1.0
  0
SPLINE
  5
1A2
330
1F
100
AcDbEntity
  8
Predefinito
100
AcDbSpline
210
0.0
220
0.0
230
1.0
 70
    12
 71
     2
 72
     6
 73
     3
 74
     0
 42
0.0000000001
 43
0.0000000001
 40
0.0
 40
0.0
 40
0.0
 40
2.14309302750714
 40
2.14309302750714
 40
2.14309302750714
 10
350.0579526404878
 20
1053.336973416261
 30
0.0
 41
1.0
 10
350.6346171309513
 20
1054.320014867105
 30
0.0
 41
0.9992280882457699
 10
351.2951867304935
 20
1055.266156341615
 30
0.0
 41
1.0
  0
SPLINE
  5
1A3
330
1F
100
AcDbEntity
  8
Predefinito
100
AcDbSpline
210
0.0
220
0.0
230
1.0
 70
    12
 71
     2
 72
     6
 73
     3
 74
     0
 42
0.0000000001
 43
0.0000000001
 40
0.0
 40
0.0
 40
0.0
 40
2.025914158820408
 40
2.025914158820408
 40
2.025914158820408
 10
351.2951867304935
 20
1055.266156341615
 30
0.0
 41
1.0
 10
351.9272563655085
 20
1056.160525248395
 30
0.0
 41
0.9994169335649729
 10
352.6281717466809
 20
1057.020163279828
 30
0.0
 41
1.0
  0
SPLINE
  5
1A4
330
1F
100
AcDbEntity
  8
Predefinito
100
AcDbSpline
210
0.0
220
0.0
230
1.0
 70
    12
 71
     2
 72
     6
 73
     3
 74
     0
 42
0.0000000001
 43
0.0000000001
 40
0.0
 40
0.0
 40
0.0
 40
2.143368220432702
 40
2.143368220432702
 40
2.143368220432702
 10
352.6281717466809
 20
1057.020163279828
 30
0.0
 41
1.0
 10
353.3716297643716
 20
1057.920733264862
 30
0.0
 41
0.9995862593501953
 10
354.1080406182166
 20
1058.714519763085
 30
0.0
 41
1.0
  0
SPLINE
  5
1A5
330
1F
100
AcDbEntity
  8
Predefinito
100
AcDbSpline
210
0.0
220
0.0
230
1.0
 70
    12
 71
     2
 72
     6
 73
     3
 74
     0
 42
0.0000000001
 43
0.0000000001
 40
0.0
 40
0.0
 40
0.0
 40
2.334589800360106
 40
2.334589800360106
 40
2.334589800360106
 10
354.1080406182166
 20
1058.714519763085
 30
0.0
 41
1.0
 10
354.9099902928682
 20
1059.577927786312
 30
0.0
 41
0.9996159377442335
 10
355.767071883212
 20
1060.403772731202
 30
0.0
 41
1.0
  0
SPLINE
  5
1A6
330
1F
100
AcDbEntity
  8
Predefinito
100
AcDbSpline
210
0.0
220
0.0
230
1.0
 70
    12
 71
     2
 72
     6
 73
     3
 74
     0
 42
0.0000000001
 43
0.0000000001
 40
0.0
 40
0.0
 40
0.0
 40
2.259066117726102
 40
2.259066117726102
 40
2.259066117726102
 10
355.767071883212
 20
1060.403772731202
 30
0.0
 41
1.0
 10
356.597742426351
 20
1061.202376186776
 30
0.0
 41
0.999812911188302
 10
357.465577558845
 20
1061.974348699067
 30
0.0
 41
1.0
  0
SPLINE
  5
1A7
330
1F
100
AcDbEntity
  8
Predefinito
100
AcDbSpline
210
0.0
220
0.0
230
1.0
 70
    12
 71
     2
 72
     6
 73
     3
 74
     0
 42
0.0000000001
 43
0.0000000001
 40
0.0
 40
0.0
 40
0.0
 40
2.457990924406237
 40
2.457990924406237
 40
2.457990924406237
 10
357.465577558845
 20
1061.974348699067
 30
0.0
 41
1.0
 10
358.4086129876662
 20
1062.811406004196
 30
0.0
 41
0.9998485227684925
 10
359.3871044093037
 20
1063.62078341015
 30
0.0
 41
1.0
  0
SPLINE
  5
1A8
330
1F
100
AcDbEntity
  8
Predefinito
100
AcDbSpline
210
0.0
220
0.0
230
1.0
 70
    12
 71
     2
 72
     6
 73
     3
 74
     0
 42
0.0000000001
 43
0.0000000001
 40
0.0
 40
0.0
 40
0.0
 40
2.39980472881832
 40
2.39980472881832
 40
2.39980472881832
 10
359.3871044093037
 20
1063.62078341015
 30
0.0
 41
1.0
 10
360.3440181958844
 20
1064.410466261337
 30
0.0
 41
0.9999518833624775
 10
361.3204125662515
 20
1065.184479478379
 30
0.0
 41
1.0
  0
SPLINE
  5
1A9
330
1F
100
AcDbEntity
  8
Predefinito
100
AcDbSpline
210
0.0
220
0.0
230
1.0
 70
    12
 71
     2
 72
     6
 73
     3
 74
     0
 42
0.0000000001
 43
0.0000000001
 40
0.0
 40
0.0
 40
0.0
 40
0.149138082549202
 40
0.149138082549202
 40
0.149138082549202
 10
361.3204125662515
 20
1065.184479478379
 30
0.0
 41
1.0
 10
361.4149642233214
 20
1065.259339496812
 30
0.0
 41
0.9999999228473775
 10
361.4734707835521
 20
1065.305572871106
 30
0.0
 41
1.0
  0
POLYLINE
  5
1AA
330
1F
100
AcDbEntity
  8
Predefinito
100
AcDb2dPolyline
 66
     1
 10
0.0
 20
0.0
 30
0.0
  0
VERTEX
  5
1AB
330
1AA
100
AcDbEntity
  8
Predefinito
100
AcDbVertex
100
AcDb2dVertex
 10
362.6733069126153
 20
1150.369979646322
 30
0.0
  0
VERTEX
  5
1AC
330
1AA
100
AcDbEntity
  8
Predefinito
100
AcDbVertex
100
AcDb2dVertex
 10
362.6733069126156
 20
1046.59400397527
 30
0.0
  0
SEQEND
  5
1AD
330
1AA
100
AcDbEntity
  8
Predefinito
  0
SPLINE
  5
1AE
330
1F
100
AcDbEntity
  8
Predefinito
100
AcDbSpline
210
0.0
220
0.0
230
1.0
 70
    24
 71
     2
 72
     6
 73
     3
 74
     0
 42
0.0000000001
 43
0.0000000001
 40
0.0
 40
0.0
 40
0.0
 40
91.71475854238429
 40
91.71475854238429
 40
91.71475854238429
 10
362.6733069126153
 20
1242.084738188707
 30
0.0
 10
362.6733069126153
 20
1196.227358917514
 30
0.0
 10
362.6733069126153
 20
1150.369979646322
 30
0.0
  0
SPLINE
  5
1AF
330
1F
100
AcDbEntity
  8
Predefinito
100
AcDbSpline
210
0.0
220
0.0
230
1.0
 70
    12
 71
     2
 72
     6
 73
     3
 74
     0
 42
0.0000000001
 43
0.0000000001
 40
0.0
 40
0.0
 40
0.0
 40
0.7621591932837537
 40
0.7621591932837537
 40
0.7621591932837537
 10
608.8939322687233
 20
987.3499035051786
 30
0.0
 41
1.0
 10
609.1692722148985
 20
987.0593961375283
 30
0.0
 41
0.9296523060841027
 10
609.1708504982244
 20
986.6591410618074
 30
0.0
 41
1.0
  0
SPLINE
  5
1B0
330
1F
100
AcDbEntity
  8
Predefinito
100
AcDbSpline
210
0.0
220
0.0
230
1.0
 70
    12
 71
     2
 72
     6
 73
     3
 74
     0
 42
0.0000000001
 43
0.0000000001
 40
0.0
 40
0.0
 40
0.0
 40
0.7621591932840776
 40
0.7621591932840776
 40
0.7621591932840776
 10
0.0000000000000568
 20
986.6591410618073
 30
0.0
 41
1.0
 10
0.0015782833251587
 20
987.0593961375287
 30
0.0
 41
0.929652306083386
 10
0.2769182295010355
 20
987.3499035051786
 30
0.0
 41
1.0
  0
SPLINE
  5
1B1
330
1F
100
AcDbEntity
  8
Predefinito
100
AcDbSpline
210
0.0
220
0.0
230
1.0
 70
     8
 71
     3
 72
    11
 73
     7
 74
     0
 42
0.0000000001
 43
0.0000000001
 40
0.0
 40
0.0
 40
0.0
 40
0.0
 40
0.7913066939108796
 40
1.62001692065045
 40
3.381418595454784
 40
8.522314303822627
 40
8.522314303822627
 40
8.522314303822627
 40
8.522314303822627
 10
549.706206047818
 20
1046.59400397527
 30
0.0
 10
549.9700325078163
 20
1046.583000887855
 30
0.0
 10
550.5063011027123
 20
1046.510778231474
 30
0.0
 10
551.5968542924759
 20
1046.215158188154
 30
0.0
 10
553.8917674747087
 20
1044.986498137452
 30
0.0
 10
555.4691400923842
 20
1043.262228826065
 30
0.0
 10
556.6531968191766
 20
1042.034862084144
 30
0.0
  0
SPLINE
  5
1B2
330
1F
100
AcDbEntity
  8
Predefinito
100
AcDbSpline
210
0.0
220
0.0
230
1.0
 70
     8
 71
     3
 72
    11
 73
     7
 74
     0
 42
0.0000000001
 43
0.0000000001
 40
0.0
 40
0.0
 40
0.0
 40
0.0
 40
1.778262806164252
 40
3.013250115958399
 40
5.103757601052505
 40
8.522370803535448
 40
8.522370803535448
 40
8.522370803535448
 40
8.522370803535448
 10
52.51765353579761
 20
1042.034862031118
 30
0.0
 10
52.92796026431195
 20
1042.462842153917
 30
0.0
 10
53.61783954403199
 20
1043.192503639058
 30
0.0
 10
54.84346082736121
 20
1044.374145014443
 30
0.0
 10
56.57468656021759
 20
1045.811195039989
 30
0.0
 10
58.31440149494035
 20
1046.54590490336
 30
0.0
 10
59.46464445040636
 20
1046.59400397527
 30
0.0
  0
SPLINE
  5
1B3
330
1F
100
AcDbEntity
  8
Predefinito
100
AcDbSpline
210
0.0
220
0.0
230
1.0
 70
    24
 71
     2
 72
     6
 73
     3
 74
     0
 42
0.0000000001
 43
0.0000000001
 40
0.0
 40
0.0
 40
0.0
 40
75.59711417076828
 40
75.59711417076828
 40
75.59711417076828
 10
556.6704833232877
 20
1042.016765495519
 30
0.0
 10
582.7803101402202
 20
1014.68532094301
 30
0.0
 10
608.8901369571527
 20
987.353876390502
 30
0.0
  0
SPLINE
  5
1B4
330
1F
100
AcDbEntity
  8
Predefinito
100
AcDbSpline
210
0.0
220
0.0
230
1.0
 70
    24
 71
     2
 72
     6
 73
     3
 74
     0
 42
0.0000000001
 43
0.0000000001
 40
0.0
 40
0.0
 40
0.0
 40
75.59711417076814
 40
75.59711417076814
 40
75.59711417076814
 10
0.2807135410719145
 20
987.353876390502
 30
0.0
 10
26.39054035800427
 20
1014.68532094301
 30
0.0
 10
52.50036717493663
 20
1042.016765495519
 30
0.0
  0
SPLINE
  5
1B5
330
1F
100
AcDbEntity
  8
Predefinito
100
AcDbSpline
210
0.0
220
0.0
230
1.0
 70
    12
 71
     2
 72
     6
 73
     3
 74
     0
 42
0.0000000001
 43
0.0000000001
 40
0.0
 40
0.0
 40
0.0
 40
1.570487971804604
 40
1.570487971804604
 40
1.570487971804604
 10
609.1708504982244
 20
986.6591410618074
 30
0.0
 41
1.0
 10
609.1701324210411
 20
985.6598592550121
 30
0.0
 41
0.7076147616842144
 10
608.1708506143293
 20
985.6591410618072
 30
0.0
 41
1.0
  0
SPLINE
  5
1B6
330
1F
100
AcDbEntity
  8
Predefinito
100
AcDbSpline
210
0.0
220
0.0
230
1.0
 70
    12
 71
     2
 72
     6
 73
     3
 74
     0
 42
0.0000000001
 43
0.0000000001
 40
0.0
 40
0.0
 40
0.0
 40
1.570593062018051
 40
1.570593062018051
 40
1.570593062018051
 10
0.9999998838950432
 20
985.6591410618073
 30
0.0
 41
1.0
 10
0.0004732773071244
 20
985.6596144551646
 30
0.0
 41
0.7074415590038571
 10
0.0000000000001144
 20
986.6591410618073
 30
0.0
 41
1.0
  0
SPLINE
  5
1B7
330
1F
100
AcDbEntity
  8
Predefinito
100
AcDbSpline
210
0.0
220
0.0
230
1.0
 70
    12
 71
     2
 72
     6
 73
     3
 74
     0
 42
0.0000000001
 43
0.0000000001
 40
0.0
 40
0.0
 40
0.0
 40
0.9532740044958599
 40
0.9532740044958599
 40
0.9532740044958599
 10
362.6733069126153
 20
1404.408193311933
 30
0.0
 41
1.0
 10
362.7925687858113
 20
1403.946718024727
 30
0.0
 41
0.9999999894728949
 10
362.9116967332221
 20
1403.485208146992
 30
0.0
 41
1.0
  0
SPLINE
  5
1B8
330
1F
100
AcDbEntity
  8
Predefinito
100
AcDbSpline
210
0.0
220
0.0
230
1.0
 70
    12
 71
     2
 72
     6
 73
     3
 74
     0
 42
0.0000000001
 43
0.0000000001
 40
0.0
 40
0.0
 40
0.0
 40
0.0051046804002156
 40
0.0051046804002156
 40
0.0051046804002156
 10
356.3737227092694
 20
1205.296187247191
 30
0.0
 41
1.0
 10
356.3734470113272
 20
1205.29364984081
 30
0.0
 41
0.999999999825031
 10
356.3731714083178
 20
1205.291112424116
 30
0.0
 41
1.0
  0
SPLINE
  5
1B9
330
1F
100
AcDbEntity
  8
Predefinito
100
AcDbSpline
210
0.0
220
0.0
230
1.0
 70
    24
 71
     2
 72
     6
 73
     3
 74
     0
 42
0.0000000001
 43
0.0000000001
 40
0.0
 40
0.0
 40
0.0
 40
195.4907342134361
 40
195.4907342134361
 40
195.4907342134361
 10
217.7255208461273
 20
1242.084738188707
 30
0.0
 10
217.7255208461273
 20
1144.339371081988
 30
0.0
 10
217.7255208461273
 20
1046.59400397527
 30
0.0
  0
SPLINE
  5
1BA
330
1F
100
AcDbEntity
  8
Predefinito
100
AcDbSpline
210
0.0
220
0.0
230
1.0
 70
    24
 71
     2
 72
     6
 73
     3
 74
     0
 42
0.0000000001
 43
0.0000000001
 40
0.0
 40
0.0
 40
0.0
 40
195.4907342134366
 40
195.4907342134366
 40
195.4907342134366
 10
216.5255208461273
 20
1046.59400397527
 30
0.0
 10
216.5255208461273
 20
1144.339371081988
 30
0.0
 10
216.5255208461273
 20
1242.084738188707
 30
0.0
  0
SPLINE
  5
1BB
330
1F
100
AcDbEntity
  8
Predefinito
100
AcDbSpline
210
0.0
220
0.0
230
1.0
 70
    24
 71
     2
 72
     6
 73
     3
 74
     0
 42
0.0000000001
 43
0.0000000001
 40
0.0
 40
0.0
 40
0.0
 40
239.06029838266
 40
239.06029838266
 40
239.06029838266
 10
217.7255208461273
 20
1481.145036571367
 30
0.0
 10
217.7255208461273
 20
1361.614887380037
 30
0.0
 10
217.7255208461273
 20
1242.084738188707
 30
0.0
  0
SPLINE
  5
1BC
330
1F
100
AcDbEntity
  8
Predefinito
100
AcDbSpline
210
0.0
220
0.0
230
1.0
 70
    24
 71
     2
 72
     6
 73
     3
 74
     0
 42
0.0000000001
 43
0.0000000001
 40
0.0
 40
0.0
 40
0.0
 40
239.06029838266
 40
239.06029838266
 40
239.06029838266
 10
216.5255208461273
 20
1242.084738188707
 30
0.0
 10
216.5255208461273
 20
1361.614887380037
 30
0.0
 10
216.5255208461273
 20
1481.145036571367
 30
0.0
  0
SPLINE
  5
1BD
330
1F
100
AcDbEntity
  8
Predefinito
100
AcDbSpline
210
0.0
220
0.0
230
1.0
 70
    24
 71
     2
 72
     6
 73
     3
 74
     0
 42
0.0000000001
 43
0.0000000001
 40
0.0
 40
0.0
 40
0.0
 40
195.4907342134366
 40
195.4907342134366
 40
195.4907342134366
 10
361.4733069126153
 20
1046.59400397527
 30
0.0
 10
361.4733069126153
 20
1144.339371081988
 30
0.0
 10
361.4733069126153
 20
1242.084738188707
 30
0.0
  0
SPLINE
  5
1BE
330
1F
100
AcDbEntity
  8
Predefinito
100
AcDbSpline
210
0.0
220
0.0
230
1.0
 70
    24
 71
     2
 72
     6
 73
     3
 74
     0
 42
0.0000000001
 43
0.0000000001
 40
0.0
 40
0.0
 40
0.0
 40
239.06029838266
 40
239.06029838266
 40
239.06029838266
 10
362.6733069126153
 20
1481.145036571367
 30
0.0
 10
362.6733069126153
 20
1361.614887380037
 30
0.0
 10
362.6733069126153
 20
1242.084738188707
 30
0.0
  0
SPLINE
  5
1BF
330
1F
100
AcDbEntity
  8
Predefinito
100
AcDbSpline
210
0.0
220
0.0
230
1.0
 70
    24
 71
     2
 72
     6
 73
     3
 74
     0
 42
0.0000000001
 43
0.0000000001
 40
0.0
 40
0.0
 40
0.0
 40
239.06029838266
 40
239.06029838266
 40
239.06029838266
 10
361.4733069126153
 20
1242.084738188707
 30
0.0
 10
361.4733069126153
 20
1361.614887380037
 30
0.0
 10
361.4733069126153
 20
1481.145036571367
 30
0.0
  0
SPLINE
  5
1C0
330
1F
100
AcDbEntity
  8
Predefinito
100
AcDbSpline
210
0.0
220
0.0
230
1.0
 70
    24
 71
     2
 72
     6
 73
     3
 74
     0
 42
0.0000000001
 43
0.0000000001
 40
0.0
 40
0.0
 40
0.0
 40
195.4907342134366
 40
195.4907342134366
 40
195.4907342134366
 10
334.4400386100125
 20
1046.59400397527
 30
0.0
 10
334.4400386100125
 20
1144.339371081988
 30
0.0
 10
334.4400386100125
 20
1242.084738188707
 30
0.0
  0
SPLINE
  5
1C1
330
1F
100
AcDbEntity
  8
Predefinito
100
AcDbSpline
210
0.0
220
0.0
230
1.0
 70
    24
 71
     2
 72
     6
 73
     3
 74
     0
 42
0.0000000001
 43
0.0000000001
 40
0.0
 40
0.0
 40
0.0
 40
239.06029838266
 40
239.06029838266
 40
239.06029838266
 10
335.6400386100125
 20
1481.145036571367
 30
0.0
 10
335.6400386100125
 20
1361.614887380037
 30
0.0
 10
335.6400386100125
 20
1242.084738188707
 30
0.0
  0
SPLINE
  5
1C2
330
1F
100
AcDbEntity
  8
Predefinito
100
AcDbSpline
210
0.0
220
0.0
230
1.0
 70
    24
 71
     2
 72
     6
 73
     3
 74
     0
 42
0.0000000001
 43
0.0000000001
 40
0.0
 40
0.0
 40
0.0
 40
33.10504205825234
 40
33.10504205825234
 40
33.10504205825234
 10
406.8479776234875
 20
1524.245036571367
 30
0.0
 10
407.1368589480493
 20
1507.695036571367
 30
0.0
 10
407.4257402726112
 20
1491.145036571368
 30
0.0
  0
SPLINE
  5
1C3
330
1F
100
AcDbEntity
  8
Predefinito
100
AcDbSpline
210
0.0
220
0.0
230
1.0
 70
    24
 71
     2
 72
     6
 73
     3
 74
     0
 42
0.0000000001
 43
0.0000000001
 40
0.0
 40
0.0
 40
0.0
 40
33.10504205825166
 40
33.10504205825166
 40
33.10504205825166
 10
201.6701111816063
 20
1491.145036571368
 30
0.0
 10
201.9589925061682
 20
1507.695036571367
 30
0.0
 10
202.2478738307301
 20
1524.245036571367
 30
0.0
  0
SPLINE
  5
1C4
330
1F
100
AcDbEntity
  8
Predefinito
100
AcDbSpline
210
0.0
220
0.0
230
1.0
 70
    24
 71
     2
 72
     6
 73
     3
 74
     0
 42
0.0000000001
 43
0.0000000001
 40
0.0
 40
0.0
 40
0.0
 40
9.010197189103698
 40
9.010197189103698
 40
9.010197189103698
 10
429.72247601575
 20
1491.145015920131
 30
0.0
 10
429.6438136807203
 20
1486.640604129044
 30
0.0
 10
429.5651513456907
 20
1482.136192337957
 30
0.0
  0
SPLINE
  5
1C5
330
1F
100
AcDbEntity
  8
Predefinito
100
AcDbSpline
210
0.0
220
0.0
230
1.0
 70
    24
 71
     2
 72
     6
 73
     3
 74
     0
 42
0.0000000001
 43
0.0000000001
 40
0.0
 40
0.0
 40
0.0
 40
9.0101971891037
 40
9.0101971891037
 40
9.0101971891037
 10
179.5307001085268
 20
1482.136192337957
 30
0.0
 10
179.4520377734971
 20
1486.640604129044
 30
0.0
 10
179.3733754384674
 20
1491.145015920131
 30
0.0
  0
SPLINE
  5
1C6
330
1F
100
AcDbEntity
  8
Predefinito
100
AcDbSpline
210
0.0
220
0.0
230
1.0
 70
    12
 71
     2
 72
     6
 73
     3
 74
     0
 42
0.0000000001
 43
0.0000000001
 40
0.0
 40
0.0
 40
0.0
 40
1.561211185226622
 40
1.561211185226622
 40
1.561211185226622
 10
429.5651490941389
 20
1482.135940508262
 30
0.0
 41
1.0
 10
429.5550919383436
 20
1481.146127680406
 30
0.0
 41
0.7110774776956852
 10
428.5652286194702
 20
1481.145036571367
 30
0.0
 41
1.0
  0
SPLINE
  5
1C7
330
1F
100
AcDbEntity
  8
Predefinito
100
AcDbSpline
210
0.0
220
0.0
230
1.0
 70
    12
 71
     2
 72
     6
 73
     3
 74
     0
 42
0.0000000001
 43
0.0000000001
 40
0.0
 40
0.0
 40
0.0
 40
1.561353823850063
 40
1.561353823850063
 40
1.561353823850063
 10
180.5306228347474
 20
1481.145036571367
 30
0.0
 41
1.0
 10
179.5404296761249
 20
1481.145795136449
 30
0.0
 41
0.7108409435486364
 10
179.5307023560726
 20
1482.135940805555
 30
0.0
 41
1.0
  0
SPLINE
  5
1C8
330
1F
100
AcDbEntity
  8
Predefinito
100
AcDbSpline
210
0.0
220
0.0
230
1.0
 70
    28
 71
     2
 72
    10
 73
     7
 74
     0
 42
0.0000000001
 43
0.0000000001
 40
-5.006913291658734
 40
-5.006913291658734
 40
-5.006913291658734
 40
-4.71238898038469
 40
-4.71238898038469
 40
-3.141592653589793
 40
-3.141592653589793
 40
-1.86532063806894
 40
-1.86532063806894
 40
-1.86532063806894
 10
59.49987578312166
 20
1046.59400397527
 30
0.0
 41
0.910759097392776
 10
58.9168731229341
 20
1046.59400397527
 30
0.0
 41
0.9450825214724775
 10
67.81693251550064
 20
1046.59400397527
 30
0.0
 41
1.0
 10
131.2588589366057
 20
1046.59400397527
 30
0.0
 41
0.7071067811865476
 10
368.0273516702175
 20
1046.59400397527
 30
0.0
 41
1.0
 10
546.5377353979428
 20
1046.59400397527
 30
0.0
 41
0.7620242597140698
 10
549.6709747151026
 20
1046.59400397527
 30
0.0
 41
0.9107590973927763
  0
SPLINE
  5
1C9
330
1F
100
AcDbEntity
  8
Predefinito
100
AcDbSpline
210
0.0
220
0.0
230
1.0
 70
    28
 71
     2
 72
    10
 73
     7
 74
     0
 42
0.0000000001
 43
0.0000000001
 40
1.840776945462769
 40
1.840776945462769
 40
1.840776945462769
 40
3.141592653589793
 40
3.141592653589793
 40
4.71238898038469
 40
4.71238898038469
 40
4.982369599052563
 40
4.982369599052563
 40
4.982369599052563
 10
608.8859781898158
 20
987.3499035051786
 30
0.0
 41
0.9166226823397252
 10
610.586931299442
 20
987.3499035051785
 30
0.0
 41
0.7574478031701097
 10
383.3462624525017
 20
987.3499035051785
 30
0.0
 41
1.0
 10
89.40681636279069
 20
987.3499035051785
 30
0.0
 41
0.7071067811865476
 10
10.64597915940152
 20
987.3499035051786
 30
0.0
 41
1.0
 10
0.5664473708152412
 20
987.3499035051788
 30
0.0
 41
0.9496589780164377
 10
0.2848723084086368
 20
987.3499035051786
 30
0.0
 41
0.916622682339725
  0
SPLINE
  5
1CA
330
1F
100
AcDbEntity
  8
Predefinito
100
AcDbSpline
210
0.0
220
0.0
230
1.0
 70
    28
 71
     2
 72
    10
 73
     7
 74
     0
 42
0.0000000001
 43
0.0000000001
 40
-5.006913291658734
 40
-5.006913291658734
 40
-5.006913291658734
 40
-4.71238898038469
 40
-4.71238898038469
 40
-3.141592653589793
 40
-3.141592653589793
 40
-1.86532063806894
 40
-1.86532063806894
 40
-1.86532063806894
 10
0.0437782158748661
 20
986.6591410618073
 30
0.0
 41
0.910759097392776
 10
-0.6806569486835038
 20
986.6591410618072
 30
0.0
 41
0.9450825214724775
 10
10.37849668975639
 20
986.6591410618073
 30
0.0
 41
1.0
 10
89.21100560487645
 20
986.6591410618073
 30
0.0
 41
0.7071067811865476
 10
383.4179341642326
 20
986.6591410618073
 30
0.0
 41
1.0
 10
605.2337302869677
 20
986.6591410618074
 30
0.0
 41
0.7620242597140698
 10
609.1270722823494
 20
986.6591410618073
 30
0.0
 41
0.9107590973927763
  0
SPLINE
  5
1CB
330
1F
100
AcDbEntity
  8
Predefinito
100
AcDbSpline
210
0.0
220
0.0
230
1.0
 70
    28
 71
     2
 72
    10
 73
     7
 74
     0
 42
0.0000000001
 43
0.0000000001
 40
-5.006913291658734
 40
-5.006913291658734
 40
-5.006913291658734
 40
-4.71238898038469
 40
-4.71238898038469
 40
-3.141592653589793
 40
-3.141592653589793
 40
-1.86532063806894
 40
-1.86532063806894
 40
-1.86532063806894
 10
1.043634485373506
 20
985.6591410618073
 30
0.0
 41
0.910759097392776
 10
0.321577750984483
 20
985.6591410618072
 30
0.0
 41
0.9450825214724775
 10
11.34442251604543
 20
985.6591410618073
 30
0.0
 41
1.0
 10
89.91811238606299
 20
985.6591410618072
 30
0.0
 41
0.7071067811865476
 10
383.1591151191301
 20
985.6591410618073
 30
0.0
 41
1.0
 10
604.2466564478568
 20
985.6591410618073
 30
0.0
 41
0.7620242597140698
 10
608.1272160128508
 20
985.6591410618072
 30
0.0
 41
0.9107590973927763
  0
SPLINE
  5
1CC
330
1F
100
AcDbEntity
  8
Predefinito
100
AcDbSpline
210
0.0
220
0.0
230
1.0
 70
    12
 71
     2
 72
     6
 73
     3
 74
     0
 42
0.0000000001
 43
0.0000000001
 40
0.0
 40
0.0
 40
0.0
 40
0.0921889231932181
 40
0.0921889231932181
 40
0.0921889231932181
 10
346.4936693894501
 20
1460.406828400233
 30
0.0
 41
1.0
 10
346.4486964558491
 20
1460.39499074275
 30
0.0
 41
0.9868175662454766
 10
346.4098603266136
 20
1460.369408523195
 30
0.0
 41
1.0
  0
SPLINE
  5
1CD
330
1F
100
AcDbEntity
  8
Predefinito
100
AcDbSpline
210
0.0
220
0.0
230
1.0
 70
    12
 71
     2
 72
     6
 73
     3
 74
     0
 42
0.0000000001
 43
0.0000000001
 40
0.0
 40
0.0
 40
0.0
 40
0.0964888510993382
 40
0.0964888510993382
 40
0.0964888510993382
 10
347.197352338339
 20
1453.870310405661
 30
0.0
 41
1.0
 10
347.1514322567219
 20
1453.853730456661
 30
0.0
 41
0.9823608121678495
 10
347.1148149399629
 20
1453.821439270279
 30
0.0
 41
1.0
  0
SPLINE
  5
1CE
330
1F
100
AcDbEntity
  8
Predefinito
100
AcDbSpline
210
0.0
220
0.0
230
1.0
 70
    24
 71
     2
 72
     6
 73
     3
 74
     0
 42
0.0000000001
 43
0.0000000001
 40
0.0
 40
0.0
 40
0.0
 40
1.128345752412315
 40
1.128345752412315
 40
1.128345752412315
 10
217.6896937223336
 20
1242.084738188707
 30
0.0
 10
217.1255208461274
 20
1242.084738188707
 30
0.0
 10
216.5613479699213
 20
1242.084738188707
 30
0.0
  0
SPLINE
  5
1CF
330
1F
100
AcDbEntity
  8
Predefinito
100
AcDbSpline
210
0.0
220
0.0
230
1.0
 70
    24
 71
     2
 72
     6
 73
     3
 74
     0
 42
0.0000000001
 43
0.0000000001
 40
0.0
 40
0.0
 40
0.0
 40
195.4907342134363
 40
195.4907342134363
 40
195.4907342134363
 10
335.6042114862188
 20
1046.59400397527
 30
0.0
 10
335.6042114862188
 20
1144.339371081988
 30
0.0
 10
335.6042114862188
 20
1242.084738188707
 30
0.0
  0
SPLINE
  5
1D0
330
1F
100
AcDbEntity
  8
Predefinito
100
AcDbSpline
210
0.0
220
0.0
230
1.0
 70
    24
 71
     2
 72
     6
 73
     3
 74
     0
 42
0.0000000001
 43
0.0000000001
 40
0.0
 40
0.0
 40
0.0
 40
1.128345752412429
 40
1.128345752412429
 40
1.128345752412429
 10
335.6042114862188
 20
1242.084738188707
 30
0.0
 10
335.0400386100126
 20
1242.084738188707
 30
0.0
 10
334.4758657338064
 20
1242.084738188707
 30
0.0
  0
SPLINE
  5
1D1
330
1F
100
AcDbEntity
  8
Predefinito
100
AcDbSpline
210
0.0
220
0.0
230
1.0
 70
    28
 71
     2
 72
    10
 73
     7
 74
     0
 42
0.0000000001
 43
0.0000000001
 40
-4.196971435655114
 40
-4.196971435655114
 40
-4.196971435655114
 40
-3.141592653589793
 40
-3.141592653589793
 40
-1.570796326794897
 40
-1.570796326794897
 40
-1.055378782065321
 40
-1.055378782065321
 40
-1.055378782065321
 10
179.5584522226752
 20
1482.136192337957
 30
0.0
 41
0.8708581169001233
 10
178.000454007337
 20
1482.136192337957
 30
0.0
 41
0.8032123686097117
 10
242.0393129178173
 20
1482.136192337957
 30
0.0
 41
1.0
 10
350.3074062141599
 20
1482.136192337957
 30
0.0
 41
0.7071067811865476
 10
412.8160190234511
 20
1482.136192337957
 30
0.0
 41
1.0
 10
428.8612688039634
 20
1482.136192337957
 30
0.0
 41
0.9038944125768359
 10
429.5373992315425
 20
1482.136192337957
 30
0.0
 41
0.8708581169001233
  0
SPLINE
  5
1D2
330
1F
100
AcDbEntity
  8
Predefinito
100
AcDbSpline
210
0.0
220
0.0
230
1.0
 70
    28
 71
     2
 72
    10
 73
     7
 74
     0
 42
0.0000000001
 43
0.0000000001
 40
-4.196971435655114
 40
-4.196971435655114
 40
-4.196971435655114
 40
-3.141592653589793
 40
-3.141592653589793
 40
-1.570796326794897
 40
-1.570796326794897
 40
-1.055378782065321
 40
-1.055378782065321
 40
-1.055378782065321
 10
180.5581531351699
 20
1481.145036571367
 30
0.0
 41
0.8708581169001233
 10
179.0126162271232
 20
1481.145036571366
 30
0.0
 41
0.8032123686097117
 10
242.5392743586663
 20
1481.145036571367
 30
0.0
 41
1.0
 10
349.941409037633
 20
1481.145036571366
 30
0.0
 41
0.7071067811865476
 10
411.9500604060754
 20
1481.145036571367
 30
0.0
 41
1.0
 10
427.8669757725202
 20
1481.145036571367
 30
0.0
 41
0.9038944125768359
 10
428.5376983190477
 20
1481.145036571367
 30
0.0
 41
0.8708581169001233
  0
SPLINE
  5
1D3
330
1F
100
AcDbEntity
  8
Predefinito
100
AcDbSpline
210
0.0
220
0.0
230
1.0
 70
    28
 71
     2
 72
    10
 73
     7
 74
     0
 42
0.0000000001
 43
0.0000000001
 40
1.030835089459151
 40
1.030835089459151
 40
1.030835089459151
 40
1.570796326794897
 40
1.570796326794897
 40
3.141592653589793
 40
3.141592653589793
 40
4.172427743048944
 40
4.172427743048944
 40
4.172427743048944
 10
429.7212934717879
 20
1491.145036571366
 30
0.0
 41
0.8678548172931494
 10
429.8683760714777
 20
1491.145036571366
 30
0.0
 41
0.8993179560328758
 10
412.9522664966887
 20
1491.145036571367
 30
0.0
 41
1.0
 10
350.3649911720473
 20
1491.145036571366
 30
0.0
 41
0.7071067811865476
 10
241.9606504024673
 20
1491.145036571367
 30
0.0
 41
1.0
 10
179.6871683167198
 20
1491.145036571367
 30
0.0
 41
0.8077888251536718
 10
179.3745579824295
 20
1491.145036571366
 30
0.0
 41
0.8678548172931494
  0
SPLINE
  5
1D4
330
1F
100
AcDbEntity
  8
Predefinito
100
AcDbSpline
210
0.0
220
0.0
230
1.0
 70
    28
 71
     2
 72
    10
 73
     7
 74
     0
 42
0.0000000001
 43
0.0000000001
 40
1.006291396852981
 40
1.006291396852981
 40
1.006291396852981
 40
1.570796326794897
 40
1.570796326794897
 40
3.141592653589793
 40
3.141592653589793
 40
4.147884050442774
 40
4.147884050442774
 40
4.147884050442774
 10
406.8024057834187
 20
1524.245036571367
 30
0.0
 41
0.865137546220173
 10
407.6695435835954
 20
1524.245036571367
 30
0.0
 41
0.8947414994889156
 10
393.1423694778388
 20
1524.245036571367
 30
0.0
 41
1.0
 10
341.992343529649
 20
1524.245036571367
 30
0.0
 41
0.7071067811865476
 10
253.3978997789188
 20
1524.245036571367
 30
0.0
 41
1.0
 10
203.9959583916381
 20
1524.245036571367
 30
0.0
 41
0.812365281697632
 10
202.2934456707989
 20
1524.245036571367
 30
0.0
 41
0.865137546220173
  0
SPLINE
  5
1D5
330
1F
100
AcDbEntity
  8
Predefinito
100
AcDbSpline
210
0.0
220
0.0
230
1.0
 70
    12
 71
     2
 72
     6
 73
     3
 74
     0
 42
0.0000000001
 43
0.0000000001
 40
0.0
 40
0.0
 40
0.0
 40
0.7621591932838057
 40
0.7621591932838057
 40
0.7621591932838057
 10
985.6591410618076
 20
986.6591410618074
 30
0.0
 41
1.0
 10
985.6607193451337
 20
987.0593961375286
 30
0.0
 41
0.9296523060841764
 10
985.9360592913088
 20
987.3499035051786
 30
0.0
 41
1.0
  0
SPLINE
  5
1D6
330
1F
100
AcDbEntity
  8
Predefinito
100
AcDbSpline
210
0.0
220
0.0
230
1.0
 70
    12
 71
     2
 72
     6
 73
     3
 74
     0
 42
0.0000000001
 43
0.0000000001
 40
0.0
 40
0.0
 40
0.0
 40
0.7621591932836792
 40
0.7621591932836792
 40
0.7621591932836792
 10
1594.553073330531
 20
987.3499035051785
 30
0.0
 41
1.0
 10
1594.828413276705
 20
987.0593961375281
 30
0.0
 41
0.9296523060844517
 10
1594.829991560032
 20
986.6591410618073
 30
0.0
 41
1.0
  0
SPLINE
  5
1D7
330
1F
100
AcDbEntity
  8
Predefinito
100
AcDbSpline
210
0.0
220
0.0
230
1.0
 70
     8
 71
     3
 72
    11
 73
     7
 74
     0
 42
0.0000000001
 43
0.0000000001
 40
0.0
 40
0.0
 40
0.0
 40
0.0
 40
1.778262806164271
 40
3.013250115958376
 40
5.103757601052636
 40
8.522370803535416
 40
8.522370803535416
 40
8.522370803535416
 40
8.522370803535416
 10
1038.176794597605
 20
1042.034862031118
 30
0.0
 10
1038.58710132612
 20
1042.462842153916
 30
0.0
 10
1039.27698060584
 20
1043.192503639061
 30
0.0
 10
1040.502601889169
 20
1044.374145014445
 30
0.0
 10
1042.233827622024
 20
1045.811195039989
 30
0.0
 10
1043.973542556748
 20
1046.54590490336
 30
0.0
 10
1045.123785512214
 20
1046.59400397527
 30
0.0
  0
SPLINE
  5
1D8
330
1F
100
AcDbEntity
  8
Predefinito
100
AcDbSpline
210
0.0
220
0.0
230
1.0
 70
     8
 71
     3
 72
    11
 73
     7
 74
     0
 42
0.0000000001
 43
0.0000000001
 40
0.0
 40
0.0
 40
0.0
 40
0.0
 40
0.7913066939108739
 40
1.620016920650109
 40
3.381418595454934
 40
8.522314303822656
 40
8.522314303822656
 40
8.522314303822656
 40
8.522314303822656
 10
1535.365347109626
 20
1046.59400397527
 30
0.0
 10
1535.629173569623
 20
1046.583000887855
 30
0.0
 10
1536.165442164518
 20
1046.510778231474
 30
0.0
 10
1537.255995354283
 20
1046.215158188155
 30
0.0
 10
1539.550908536517
 20
1044.986498137451
 30
0.0
 10
1541.128281154192
 20
1043.262228826067
 30
0.0
 10
1542.312337880984
 20
1042.034862084143
 30
0.0
  0
SPLINE
  5
1D9
330
1F
100
AcDbEntity
  8
Predefinito
100
AcDbSpline
210
0.0
220
0.0
230
1.0
 70
    24
 71
     2
 72
     6
 73
     3
 74
     0
 42
0.0000000001
 43
0.0000000001
 40
0.0
 40
0.0
 40
0.0
 40
75.59711417076797
 40
75.59711417076797
 40
75.59711417076797
 10
985.9398546028797
 20
987.353876390502
 30
0.0
 10
1012.049681419812
 20
1014.68532094301
 30
0.0
 10
1038.159508236744
 20
1042.016765495519
 30
0.0
  0
SPLINE
  5
1DA
330
1F
100
AcDbEntity
  8
Predefinito
100
AcDbSpline
210
0.0
220
0.0
230
1.0
 70
    24
 71
     2
 72
     6
 73
     3
 74
     0
 42
0.0000000001
 43
0.0000000001
 40
0.0
 40
0.0
 40
0.0
 40
75.59711417076821
 40
75.59711417076821
 40
75.59711417076821
 10
1542.329624385095
 20
1042.016765495518
 30
0.0
 10
1568.439451202028
 20
1014.68532094301
 30
0.0
 10
1594.54927801896
 20
987.3538763905019
 30
0.0
  0
SPLINE
  5
1DB
330
1F
100
AcDbEntity
  8
Predefinito
100
AcDbSpline
210
0.0
220
0.0
230
1.0
 70
    12
 71
     2
 72
     6
 73
     3
 74
     0
 42
0.0000000001
 43
0.0000000001
 40
0.0
 40
0.0
 40
0.0
 40
1.570560250935228
 40
1.570560250935228
 40
1.570560250935228
 10
986.659108356582
 20
985.6591410623422
 30
0.0
 41
1.0
 10
985.6596148612822
 20
985.6596475504773
 30
0.0
 41
0.7074534557616081
 10
985.6591410618076
 20
986.6591410618074
 30
0.0
 41
1.0
  0
SPLINE
  5
1DC
330
1F
100
AcDbEntity
  8
Predefinito
100
AcDbSpline
210
0.0
220
0.0
230
1.0
 70
    12
 71
     2
 72
     6
 73
     3
 74
     0
 42
0.0000000001
 43
0.0000000001
 40
0.0
 40
0.0
 40
0.0
 40
1.570478375747711
 40
1.570478375747711
 40
1.570478375747711
 10
1594.829991560032
 20
986.6591410618073
 30
0.0
 41
1.0
 10
1594.829273454948
 20
985.6598688610386
 30
0.0
 41
0.7076181726788444
 10
1593.830001261193
 20
985.6591410618544
 30
0.0
 41
1.0
  0
SPLINE
  5
1DD
330
1F
100
AcDbEntity
  8
Predefinito
100
AcDbSpline
210
0.0
220
0.0
230
1.0
 70
    24
 71
     2
 72
     6
 73
     3
 74
     0
 42
0.0000000001
 43
0.0000000001
 40
0.0
 40
0.0
 40
0.0
 40
195.4907342134361
 40
195.4907342134361
 40
195.4907342134361
 10
1304.845358706804
 20
1046.59400397527
 30
0.0
 10
1304.845358706804
 20
1144.339371081988
 30
0.0
 10
1304.845358706804
 20
1242.084738188707
 30
0.0
  0
SPLINE
  5
1DE
330
1F
100
AcDbEntity
  8
Predefinito
100
AcDbSpline
210
0.0
220
0.0
230
1.0
 70
    24
 71
     2
 72
     6
 73
     3
 74
     0
 42
0.0000000001
 43
0.0000000001
 40
0.0
 40
0.0
 40
0.0
 40
195.4907342134359
 40
195.4907342134359
 40
195.4907342134359
 10
1306.045358706804
 20
1242.084738188707
 30
0.0
 10
1306.045358706804
 20
1144.339371081989
 30
0.0
 10
1306.045358706804
 20
1046.594003975271
 30
0.0
  0
SPLINE
  5
1DF
330
1F
100
AcDbEntity
  8
Predefinito
100
AcDbSpline
210
0.0
220
0.0
230
1.0
 70
    24
 71
     2
 72
     6
 73
     3
 74
     0
 42
0.0000000001
 43
0.0000000001
 40
0.0
 40
0.0
 40
0.0
 40
239.06029838266
 40
239.06029838266
 40
239.06029838266
 10
1306.045358706804
 20
1481.145036571367
 30
0.0
 10
1306.045358706804
 20
1361.614887380037
 30
0.0
 10
1306.045358706804
 20
1242.084738188707
 30
0.0
  0
SPLINE
  5
1E0
330
1F
100
AcDbEntity
  8
Predefinito
100
AcDbSpline
210
0.0
220
0.0
230
1.0
 70
    24
 71
     2
 72
     6
 73
     3
 74
     0
 42
0.0000000001
 43
0.0000000001
 40
0.0
 40
0.0
 40
0.0
 40
195.4907342134361
 40
195.4907342134361
 40
195.4907342134361
 10
1358.515724766358
 20
1242.084738188707
 30
0.0
 10
1358.515724766358
 20
1144.339371081988
 30
0.0
 10
1358.515724766358
 20
1046.59400397527
 30
0.0
  0
SPLINE
  5
1E1
330
1F
100
AcDbEntity
  8
Predefinito
100
AcDbSpline
210
0.0
220
0.0
230
1.0
 70
    24
 71
     2
 72
     6
 73
     3
 74
     0
 42
0.0000000001
 43
0.0000000001
 40
0.0
 40
0.0
 40
0.0
 40
239.06029838266
 40
239.06029838266
 40
239.06029838266
 10
1358.515724766358
 20
1481.145036571367
 30
0.0
 10
1358.515724766358
 20
1361.614887380037
 30
0.0
 10
1358.515724766358
 20
1242.084738188707
 30
0.0
  0
SPLINE
  5
1E2
330
1F
100
AcDbEntity
  8
Predefinito
100
AcDbSpline
210
0.0
220
0.0
230
1.0
 70
    24
 71
     2
 72
     6
 73
     3
 74
     0
 42
0.0000000001
 43
0.0000000001
 40
0.0
 40
0.0
 40
0.0
 40
195.4907342134359
 40
195.4907342134359
 40
195.4907342134359
 10
1206.752060410278
 20
1242.084738188707
 30
0.0
 10
1206.752060410278
 20
1144.339371081989
 30
0.0
 10
1206.752060410278
 20
1046.594003975271
 30
0.0
  0
SPLINE
  5
1E3
330
1F
100
AcDbEntity
  8
Predefinito
100
AcDbSpline
210
0.0
220
0.0
230
1.0
 70
    24
 71
     2
 72
     6
 73
     3
 74
     0
 42
0.0000000001
 43
0.0000000001
 40
0.0
 40
0.0
 40
0.0
 40
239.06029838266
 40
239.06029838266
 40
239.06029838266
 10
1206.752060410278
 20
1481.145036571367
 30
0.0
 10
1206.752060410278
 20
1361.614887380037
 30
0.0
 10
1206.752060410278
 20
1242.084738188707
 30
0.0
  0
SPLINE
  5
1E4
330
1F
100
AcDbEntity
  8
Predefinito
100
AcDbSpline
210
0.0
220
0.0
230
1.0
 70
    24
 71
     2
 72
     6
 73
     3
 74
     0
 42
0.0000000001
 43
0.0000000001
 40
0.0
 40
0.0
 40
0.0
 40
33.10504205825234
 40
33.10504205825234
 40
33.10504205825234
 10
1392.441325322816
 20
1524.245036571367
 30
0.0
 10
1392.730206647378
 20
1507.695036571367
 30
0.0
 10
1393.01908797194
 20
1491.145036571368
 30
0.0
  0
SPLINE
  5
1E5
330
1F
100
AcDbEntity
  8
Predefinito
100
AcDbSpline
210
0.0
220
0.0
230
1.0
 70
    24
 71
     2
 72
     6
 73
     3
 74
     0
 42
0.0000000001
 43
0.0000000001
 40
0.0
 40
0.0
 40
0.0
 40
33.10504205825166
 40
33.10504205825166
 40
33.10504205825166
 10
1187.263458880935
 20
1491.145036571368
 30
0.0
 10
1187.552340205497
 20
1507.695036571367
 30
0.0
 10
1187.841221530059
 20
1524.245036571367
 30
0.0
  0
SPLINE
  5
1E6
330
1F
100
AcDbEntity
  8
Predefinito
100
AcDbSpline
210
0.0
220
0.0
230
1.0
 70
    24
 71
     2
 72
     6
 73
     3
 74
     0
 42
0.0000000001
 43
0.0000000001
 40
0.0
 40
0.0
 40
0.0
 40
9.010197189103698
 40
9.010197189103698
 40
9.010197189103698
 10
1415.315823715079
 20
1491.145015920131
 30
0.0
 10
1415.237161380049
 20
1486.640604129044
 30
0.0
 10
1415.15849904502
 20
1482.136192337957
 30
0.0
  0
SPLINE
  5
1E7
330
1F
100
AcDbEntity
  8
Predefinito
100
AcDbSpline
210
0.0
220
0.0
230
1.0
 70
    24
 71
     2
 72
     6
 73
     3
 74
     0
 42
0.0000000001
 43
0.0000000001
 40
0.0
 40
0.0
 40
0.0
 40
9.010197189103698
 40
9.010197189103698
 40
9.010197189103698
 10
1165.124047807856
 20
1482.136192337957
 30
0.0
 10
1165.045385472826
 20
1486.640604129044
 30
0.0
 10
1164.966723137796
 20
1491.145015920131
 30
0.0
  0
SPLINE
  5
1E8
330
1F
100
AcDbEntity
  8
Predefinito
100
AcDbSpline
210
0.0
220
0.0
230
1.0
 70
    12
 71
     2
 72
     6
 73
     3
 74
     0
 42
0.0000000001
 43
0.0000000001
 40
0.0
 40
0.0
 40
0.0
 40
1.561211185226713
 40
1.561211185226713
 40
1.561211185226713
 10
1415.158496793468
 20
1482.135940508262
 30
0.0
 41
1.0
 10
1415.148439637673
 20
1481.146127680406
 30
0.0
 41
0.7110774776953084
 10
1414.158576318799
 20
1481.145036571367
 30
0.0
 41
1.0
  0
SPLINE
  5
1E9
330
1F
100
AcDbEntity
  8
Predefinito
100
AcDbSpline
210
0.0
220
0.0
230
1.0
 70
    12
 71
     2
 72
     6
 73
     3
 74
     0
 42
0.0000000001
 43
0.0000000001
 40
0.0
 40
0.0
 40
0.0
 40
1.561353825834034
 40
1.561353825834034
 40
1.561353825834034
 10
1166.123970534076
 20
1481.145036571367
 30
0.0
 41
1.0
 10
1165.13377737086
 20
1481.145795131813
 30
0.0
 41
0.7108409402530552
 10
1165.124050055402
 20
1482.135940805555
 30
0.0
 41
1.0
  0
SPLINE
  5
1EA
330
1F
100
AcDbEntity
  8
Predefinito
100
AcDbSpline
210
0.0
220
0.0
230
1.0
 70
    28
 71
     2
 72
     6
 73
     3
 74
     0
 42
0.0000000001
 43
0.0000000001
 40
-0.2945243112740431
 40
-0.2945243112740431
 40
-0.2945243112740431
 40
0.0
 40
0.0
 40
0.0
 10
1045.159016844929
 20
1046.59400397527
 30
0.0
 41
0.9107590973927762
 10
1044.576014184742
 20
1046.59400397527
 30
0.0
 41
0.9450825214724776
 10
1053.476073577308
 20
1046.59400397527
 30
0.0
 41
1.0
  0
SPLINE
  5
1EB
330
1F
100
AcDbEntity
  8
Predefinito
100
AcDbSpline
210
0.0
220
0.0
230
1.0
 70
    24
 71
     2
 72
     6
 73
     3
 74
     0
 42
0.0000000001
 43
0.0000000001
 40
0.0
 40
0.0
 40
0.0
 40
481.8540421996017
 40
481.8540421996017
 40
481.8540421996017
 10
1053.476073577308
 20
1046.59400397527
 30
0.0
 10
1294.403094677109
 20
1046.59400397527
 30
0.0
 10
1535.33011577691
 20
1046.59400397527
 30
0.0
  0
SPLINE
  5
1EC
330
1F
100
AcDbEntity
  8
Predefinito
100
AcDbSpline
210
0.0
220
0.0
230
1.0
 70
    28
 71
     2
 72
     8
 73
     5
 74
     0
 42
0.0000000001
 43
0.0000000001
 40
3.411573272257666
 40
3.411573272257666
 40
3.411573272257666
 40
4.71238898038469
 40
4.71238898038469
 40
6.283185307179586
 40
6.283185307179586
 40
6.283185307179586
 10
1594.545119251623
 20
987.3499035051785
 30
0.0
 41
0.9166226823397252
 10
1596.246072361249
 20
987.3499035051785
 30
0.0
 41
0.7574478031701097
 10
1369.005403514309
 20
987.3499035051786
 30
0.0
 41
1.0
 10
1075.065957424599
 20
987.3499035051786
 30
0.0
 41
0.7071067811865476
 10
996.3051202212091
 20
987.3499035051786
 30
0.0
 41
1.0
  0
SPLINE
  5
1ED
330
1F
100
AcDbEntity
  8
Predefinito
100
AcDbSpline
210
0.0
220
0.0
230
1.0
 70
    24
 71
     2
 72
     6
 73
     3
 74
     0
 42
0.0000000001
 43
0.0000000001
 40
0.0
 40
0.0
 40
0.0
 40
10.36110685099277
 40
10.36110685099277
 40
10.36110685099277
 10
996.3051202212091
 20
987.3499035051786
 30
0.0
 10
991.1245667957128
 20
987.3499035051786
 30
0.0
 10
985.9440133702163
 20
987.3499035051786
 30
0.0
  0
SPLINE
  5
1EE
330
1F
100
AcDbEntity
  8
Predefinito
100
AcDbSpline
210
0.0
220
0.0
230
1.0
 70
    28
 71
     2
 72
     6
 73
     3
 74
     0
 42
0.0000000001
 43
0.0000000001
 40
-0.2945243112740431
 40
-0.2945243112740431
 40
-0.2945243112740431
 40
0.0
 40
0.0
 40
0.0
 10
985.7029192776826
 20
986.6591410618074
 30
0.0
 41
0.9107590973927762
 10
984.9784841131242
 20
986.6591410618074
 30
0.0
 41
0.9450825214724776
 10
996.0376377515639
 20
986.6591410618074
 30
0.0
 41
1.0
  0
SPLINE
  5
1EF
330
1F
100
AcDbEntity
  8
Predefinito
100
AcDbSpline
210
0.0
220
0.0
230
1.0
 70
    24
 71
     2
 72
     6
 73
     3
 74
     0
 42
0.0000000001
 43
0.0000000001
 40
0.0
 40
0.0
 40
0.0
 40
598.7485755925929
 40
598.7485755925929
 40
598.7485755925929
 10
996.037637751564
 20
986.6591410618074
 30
0.0
 10
1295.41192554786
 20
986.6591410618073
 30
0.0
 10
1594.786213344157
 20
986.6591410618073
 30
0.0
  0
SPLINE
  5
1F0
330
1F
100
AcDbEntity
  8
Predefinito
100
AcDbSpline
210
0.0
220
0.0
230
1.0
 70
    28
 71
     2
 72
     6
 73
     3
 74
     0
 42
0.0000000001
 43
0.0000000001
 40
-0.2945243112740431
 40
-0.2945243112740431
 40
-0.2945243112740431
 40
0.0
 40
0.0
 40
0.0
 10
986.7027755471812
 20
985.6591410618073
 30
0.0
 41
0.9107590973927762
 10
985.9807188127921
 20
985.6591410618074
 30
0.0
 41
0.9450825214724776
 10
997.0035635778529
 20
985.6591410618073
 30
0.0
 41
1.0
  0
SPLINE
  5
1F1
330
1F
100
AcDbEntity
  8
Predefinito
100
AcDbSpline
210
0.0
220
0.0
230
1.0
 70
    24
 71
     2
 72
     6
 73
     3
 74
     0
 42
0.0000000001
 43
0.0000000001
 40
0.0
 40
0.0
 40
0.0
 40
596.7477625090478
 40
596.7477625090478
 40
596.7477625090478
 10
997.0385945656105
 20
985.6591410618073
 30
0.0
 10
1295.412475820134
 20
985.6591410618073
 30
0.0
 10
1593.786357074658
 20
985.6591410618072
 30
0.0
  0
SPLINE
  5
1F2
330
1F
100
AcDbEntity
  8
Predefinito
100
AcDbSpline
210
0.0
220
0.0
230
1.0
 70
    24
 71
     2
 72
     6
 73
     3
 74
     0
 42
0.0000000001
 43
0.0000000001
 40
0.0
 40
0.0
 40
0.0
 40
239.06029838266
 40
239.06029838266
 40
239.06029838266
 10
1304.845358706804
 20
1481.145036571367
 30
0.0
 10
1304.845358706804
 20
1361.614887380037
 30
0.0
 10
1304.845358706804
 20
1242.084738188707
 30
0.0
  0
SPLINE
  5
1F3
330
1F
100
AcDbEntity
  8
Predefinito
100
AcDbSpline
210
0.0
220
0.0
230
1.0
 70
    24
 71
     2
 72
     6
 73
     3
 74
     0
 42
0.0000000001
 43
0.0000000001
 40
0.0
 40
0.0
 40
0.0
 40
195.4907342134363
 40
195.4907342134363
 40
195.4907342134363
 10
1357.315724766358
 20
1046.59400397527
 30
0.0
 10
1357.315724766358
 20
1144.339371081988
 30
0.0
 10
1357.315724766358
 20
1242.084738188707
 30
0.0
  0
SPLINE
  5
1F4
330
1F
100
AcDbEntity
  8
Predefinito
100
AcDbSpline
210
0.0
220
0.0
230
1.0
 70
    24
 71
     2
 72
     6
 73
     3
 74
     0
 42
0.0000000001
 43
0.0000000001
 40
0.0
 40
0.0
 40
0.0
 40
239.06029838266
 40
239.06029838266
 40
239.06029838266
 10
1357.315724766358
 20
1481.145036571367
 30
0.0
 10
1357.315724766358
 20
1361.614887380037
 30
0.0
 10
1357.315724766358
 20
1242.084738188707
 30
0.0
  0
SPLINE
  5
1F5
330
1F
100
AcDbEntity
  8
Predefinito
100
AcDbSpline
210
0.0
220
0.0
230
1.0
 70
    24
 71
     2
 72
     6
 73
     3
 74
     0
 42
0.0000000001
 43
0.0000000001
 40
0.0
 40
0.0
 40
0.0
 40
195.4907342134363
 40
195.4907342134363
 40
195.4907342134363
 10
1205.552060410278
 20
1046.59400397527
 30
0.0
 10
1205.552060410278
 20
1144.339371081988
 30
0.0
 10
1205.552060410278
 20
1242.084738188707
 30
0.0
  0
SPLINE
  5
1F6
330
1F
100
AcDbEntity
  8
Predefinito
100
AcDbSpline
210
0.0
220
0.0
230
1.0
 70
    24
 71
     2
 72
     6
 73
     3
 74
     0
 42
0.0000000001
 43
0.0000000001
 40
0.0
 40
0.0
 40
0.0
 40
239.06029838266
 40
239.06029838266
 40
239.06029838266
 10
1205.552060410278
 20
1481.145036571367
 30
0.0
 10
1205.552060410278
 20
1361.614887380037
 30
0.0
 10
1205.552060410278
 20
1242.084738188707
 30
0.0
  0
SPLINE
  5
1F7
330
1F
100
AcDbEntity
  8
Predefinito
100
AcDbSpline
210
0.0
220
0.0
230
1.0
 70
    28
 71
     2
 72
    10
 73
     7
 74
     0
 42
0.0000000001
 43
0.0000000001
 40
-5.767767762450011
 40
-5.767767762450011
 40
-5.767767762450011
 40
-4.71238898038469
 40
-4.71238898038469
 40
-3.141592653589793
 40
-3.141592653589793
 40
-2.626175108860218
 40
-2.626175108860218
 40
-2.626175108860218
 10
1166.151500834499
 20
1481.145036571367
 30
0.0
 41
0.8708581169001233
 10
1164.605963926452
 20
1481.145036571366
 30
0.0
 41
0.8032123686097117
 10
1228.132622057995
 20
1481.145036571367
 30
0.0
 41
1.0
 10
1335.534756736962
 20
1481.145036571366
 30
0.0
 41
0.7071067811865476
 10
1397.543408105404
 20
1481.145036571367
 30
0.0
 41
1.0
 10
1413.460323471849
 20
1481.145036571367
 30
0.0
 41
0.9038944125768359
 10
1414.131046018377
 20
1481.145036571367
 30
0.0
 41
0.8708581169001233
  0
SPLINE
  5
1F8
330
1F
100
AcDbEntity
  8
Predefinito
100
AcDbSpline
210
0.0
220
0.0
230
1.0
 70
    28
 71
     2
 72
    10
 73
     7
 74
     0
 42
0.0000000001
 43
0.0000000001
 40
2.601631416254047
 40
2.601631416254047
 40
2.601631416254047
 40
3.141592653589793
 40
3.141592653589793
 40
4.71238898038469
 40
4.71238898038469
 40
5.743224069843841
 40
5.743224069843841
 40
5.743224069843841
 10
1415.314641171117
 20
1491.145036571366
 30
0.0
 41
0.8678548172931494
 10
1415.461723770806
 20
1491.145036571366
 30
0.0
 41
0.8993179560328758
 10
1398.545614196018
 20
1491.145036571367
 30
0.0
 41
1.0
 10
1335.958338871376
 20
1491.145036571366
 30
0.0
 41
0.7071067811865476
 10
1227.553998101796
 20
1491.145036571367
 30
0.0
 41
1.0
 10
1165.280516016049
 20
1491.145036571367
 30
0.0
 41
0.8077888251536718
 10
1164.967905681758
 20
1491.145036571366
 30
0.0
 41
0.8678548172931494
  0
SPLINE
  5
1F9
330
1F
100
AcDbEntity
  8
Predefinito
100
AcDbSpline
210
0.0
220
0.0
230
1.0
 70
    28
 71
     2
 72
    10
 73
     7
 74
     0
 42
0.0000000001
 43
0.0000000001
 40
2.577087723647877
 40
2.577087723647877
 40
2.577087723647877
 40
3.141592653589793
 40
3.141592653589793
 40
4.71238898038469
 40
4.71238898038469
 40
5.71868037723767
 40
5.71868037723767
 40
5.71868037723767
 10
1392.395753482748
 20
1524.245036571367
 30
0.0
 41
0.865137546220173
 10
1393.262891282925
 20
1524.245036571367
 30
0.0
 41
0.8947414994889156
 10
1378.735717177168
 20
1524.245036571367
 30
0.0
 41
1.0
 10
1327.585691228978
 20
1524.245036571367
 30
0.0
 41
0.7071067811865476
 10
1238.991247478248
 20
1524.245036571367
 30
0.0
 41
1.0
 10
1189.589306090967
 20
1524.245036571367
 30
0.0
 41
0.812365281697632
 10
1187.886793370128
 20
1524.245036571367
 30
0.0
 41
0.865137546220173
  0
SPLINE
  5
1FA
330
1F
100
AcDbEntity
  8
Predefinito
100
AcDbSpline
210
0.0
220
0.0
230
1.0
 70
    15
 71
     2
 72
    12
 73
     9
 74
     0
 42
0.0000000001
 43
0.0000000001
 40
0.0
 40
0.0
 40
0.0
 40
383.4706532788041
 40
383.4706532788041
 40
766.9413065576084
 40
766.9413065576084
 40
1150.411959836413
 40
1150.411959836413
 40
1533.882613115217
 40
1533.882613115217
 40
1533.882613115217
 10
1054.437923968101
 20
241.4012258634591
 30
0.0
 41
1.0
 10
991.253724582448
 20
477.2078682062779
 30
0.0
 41
0.7071067811865476
 10
1227.060366925267
 20
540.3920675919306
 30
0.0
 41
1.0
 10
1462.867009268085
 20
603.5762669775843
 30
0.0
 41
0.707106781186546
 10
1526.051208653738
 20
367.7696246347649
 30
0.0
 41
1.0
 10
1589.235408039392
 20
131.9629822919457
 30
0.0
 41
0.7071067811865465
 10
1353.428765696572
 20
68.7787829062932
 30
0.0
 41
1.0
 10
1117.622123353754
 20
5.594583520640667
 30
0.0
 41
0.7071067811865483
 10
1054.437923968101
 20
241.4012258634591
 30
0.0
 41
1.0
  0
SPLINE
  5
1FB
330
1F
100
AcDbEntity
  8
Predefinito
100
AcDbSpline
210
0.0
220
0.0
230
1.0
 70
    15
 71
     2
 72
    12
 73
     9
 74
     0
 42
0.0000000001
 43
0.0000000001
 40
0.0
 40
0.0
 40
0.0
 40
385.0348220997043
 40
385.0348220997043
 40
770.0696441994085
 40
770.0696441994085
 40
1155.104466299113
 40
1155.104466299113
 40
1540.139288398816
 40
1540.139288398816
 40
1540.139288398816
 10
1053.476073577308
 20
241.1434988280066
 30
0.0
 41
1.0
 10
1116.917999998413
 20
4.375006094395089
 30
0.0
 41
0.7071067811865479
 10
1353.686492732025
 20
67.81693251550021
 30
0.0
 41
1.0
 10
1590.454985465636
 20
131.2588589366057
 30
0.0
 41
0.7071067811865475
 10
1527.013059044531
 20
368.0273516702173
 30
0.0
 41
1.0
 10
1463.571132623426
 20
604.7958444038294
 30
0.0
 41
0.707106781186546
 10
1226.802639889814
 20
541.3539179827233
 30
0.0
 41
1.0
 10
990.0341471562036
 20
477.9119915616178
 30
0.0
 41
0.7071067811865491
 10
1053.476073577308
 20
241.1434988280067
 30
0.0
 41
1.0
  0
SPLINE
  5
1FC
330
1F
100
AcDbEntity
  8
Predefinito
100
AcDbSpline
210
0.0
220
0.0
230
1.0
 70
    15
 71
     2
 72
    12
 73
     9
 74
     0
 42
0.0000000001
 43
0.0000000001
 40
0.0
 40
0.0
 40
0.0
 40
395.9742832627931
 40
395.9742832627931
 40
791.9485665255861
 40
791.9485665255861
 40
1187.922849788379
 40
1187.922849788379
 40
1583.897133051172
 40
1583.897133051172
 40
1583.897133051172
 10
1046.749098295494
 20
239.3410112337403
 30
0.0
 41
1.0
 10
1111.993512310866
 20
-4.154456781685052
 30
0.0
 41
0.7071067811865483
 10
1355.488980326291
 20
61.08995723368611
 30
0.0
 41
1.0
 10
1598.984448341717
 20
126.3343712490578
 30
0.0
 41
0.7071067811865475
 10
1533.740034326345
 20
369.8298392644836
 30
0.0
 41
1.0
 10
1468.495620310974
 20
613.3253072799097
 30
0.0
 41
0.7071067811865466
 10
1225.000152295548
 20
548.0808932645377
 30
0.0
 41
1.0
 10
981.5046842801221
 20
482.8364792491662
 30
0.0
 41
0.7071067811865476
 10
1046.749098295494
 20
239.3410112337404
 30
0.0
 41
1.0
  0
SPLINE
  5
1FD
330
1F
100
AcDbEntity
  8
Predefinito
100
AcDbSpline
210
0.0
220
0.0
230
1.0
 70
    15
 71
     2
 72
    12
 73
     9
 74
     0
 42
0.0000000001
 43
0.0000000001
 40
0.0
 40
0.0
 40
0.0
 40
478.0066850388444
 40
478.0066850388444
 40
956.0133700776889
 40
956.0133700776889
 40
1434.020055116534
 40
1434.020055116534
 40
1912.026740155378
 40
1912.026740155378
 40
1912.026740155378
 10
996.3051202212089
 20
225.8245880457225
 30
0.0
 41
1.0
 10
917.5442830178191
 20
519.7640341354333
 30
0.0
 41
0.707106781186547
 10
1211.48372910753
 20
598.5248713388227
 30
0.0
 41
1.0
 10
1505.423175197241
 20
677.2857085422124
 30
0.0
 41
0.7071067811865476
 10
1584.184012400631
 20
383.3462624525015
 30
0.0
 41
1.0
 10
1662.94484960402
 20
89.40681636279038
 30
0.0
 41
0.7071067811865467
 10
1369.005403514309
 20
10.64597915940124
 30
0.0
 41
1.0
 10
1075.065957424598
 20
-68.1148580439881
 30
0.0
 41
0.7071067811865476
 10
996.3051202212089
 20
225.8245880457225
 30
0.0
 41
1.0
  0
SPLINE
  5
1FE
330
1F
100
AcDbEntity
  8
Predefinito
100
AcDbSpline
210
0.0
220
0.0
230
1.0
 70
    15
 71
     2
 72
    12
 73
     9
 74
     0
 42
0.0000000001
 43
0.0000000001
 40
0.0
 40
0.0
 40
0.0
 40
478.441667176567
 40
478.441667176567
 40
956.8833343531337
 40
956.8833343531337
 40
1435.325001529701
 40
1435.325001529701
 40
1913.766668706267
 40
1913.766668706267
 40
1913.766668706267
 10
996.0376377515638
 20
225.7529163339915
 30
0.0
 41
1.0
 10
1074.870146666684
 20
-68.4540122253645
 30
0.0
 41
0.7071067811865474
 10
1369.07707522604
 20
10.37849668975599
 30
0.0
 41
1.0
 10
1663.284003785396
 20
89.21100560487652
 30
0.0
 41
0.7071067811865474
 10
1584.451494870275
 20
383.4179341642324
 30
0.0
 41
1.0
 10
1505.618985955155
 20
677.6248627235883
 30
0.0
 41
0.707106781186547
 10
1211.412057395799
 20
598.7923538084679
 30
0.0
 41
1.0
 10
917.2051288364436
 20
519.9598448933473
 30
0.0
 41
0.7071067811865483
 10
996.0376377515636
 20
225.7529163339916
 30
0.0
 41
1.0
  0
SPLINE
  5
1FF
330
1F
100
AcDbEntity
  8
Predefinito
100
AcDbSpline
210
0.0
220
0.0
230
1.0
 70
    15
 71
     2
 72
    12
 73
     9
 74
     0
 42
0.0000000001
 43
0.0000000001
 40
0.0
 40
0.0
 40
0.0
 40
161.7920216598739
 40
161.7920216598739
 40
323.5840433197483
 40
323.5840433197483
 40
485.3760649796227
 40
485.3760649796227
 40
647.1680866394968
 40
647.1680866394968
 40
647.1680866394968
 10
1200.940656836641
 20
356.0479257271091
 30
0.0
 41
1.0
 10
1252.440656836641
 20
445.2485423169053
 30
0.0
 41
0.7071067811865497
 10
1341.641273426438
 20
393.7485423169051
 30
0.0
 41
1.0
 10
1430.841890016234
 20
342.2485423169047
 30
0.0
 41
0.7071067811865481
 10
1379.341890016234
 20
253.047925727108
 30
0.0
 41
1.0
 10
1327.841890016234
 20
163.8473091373108
 30
0.0
 41
0.7071067811865458
 10
1238.641273426437
 20
215.3473091373118
 30
0.0
 41
1.0
 10
1149.440656836641
 20
266.8473091373123
 30
0.0
 41
0.7071067811865492
 10
1200.940656836641
 20
356.047925727109
 30
0.0
 41
1.0
  0
SPLINE
  5
200
330
1F
100
AcDbEntity
  8
Predefinito
100
AcDbSpline
210
0.0
220
0.0
230
1.0
 70
    24
 71
     2
 72
     6
 73
     3
 74
     0
 42
0.0000000001
 43
0.0000000001
 40
0.0
 40
0.0
 40
0.0
 40
0.6999481036213304
 40
0.6999481036213304
 40
0.6999481036213304
 10
1201.546829675707
 20
355.6979516752985
 30
0.0
 10
1201.243743256174
 20
355.8729387012038
 30
0.0
 10
1200.940656836641
 20
356.0479257271091
 30
0.0
  0
SPLINE
  5
201
330
1F
100
AcDbEntity
  8
Predefinito
100
AcDbSpline
210
0.0
220
0.0
230
1.0
 70
    15
 71
     2
 72
    12
 73
     9
 74
     0
 42
0.0000000001
 43
0.0000000001
 40
0.0
 40
0.0
 40
0.0
 40
196.6237243680944
 40
196.6237243680944
 40
393.2474487361885
 40
393.2474487361885
 40
589.8711731042823
 40
589.8711731042823
 40
786.4948974723766
 40
786.4948974723766
 40
786.4948974723766
 10
1181.736932656858
 20
367.1352010517501
 30
0.0
 41
1.0
 10
1244.324207981499
 20
475.5395418213306
 30
0.0
 41
0.7071067811865452
 10
1352.728548751079
 20
412.9522664966887
 30
0.0
 41
1.0
 10
1461.13288952066
 20
350.364991172047
 30
0.0
 41
0.7071067811865447
 10
1398.545614196017
 20
241.9606504024671
 30
0.0
 41
1.0
 10
1335.958338871376
 20
133.5563096328871
 30
0.0
 41
0.7071067811865468
 10
1227.553998101796
 20
196.1435849575289
 30
0.0
 41
1.0
 10
1119.149657332215
 20
258.7308602821701
 30
0.0
 41
0.7071067811865457
 10
1181.736932656857
 20
367.1352010517501
 30
0.0
 41
1.0
  0
SPLINE
  5
202
330
1F
100
AcDbEntity
  8
Predefinito
100
AcDbSpline
210
0.0
220
0.0
230
1.0
 70
    15
 71
     2
 72
    12
 73
     9
 74
     0
 42
0.0000000001
 43
0.0000000001
 40
0.0
 40
0.0
 40
0.0
 40
192.6967335511067
 40
192.6967335511067
 40
385.3934671022135
 40
385.3934671022135
 40
578.0902006533202
 40
578.0902006533202
 40
770.7869342044269
 40
770.7869342044269
 40
770.7869342044269
 10
1183.901996166319
 20
365.8852010517501
 30
0.0
 41
1.0
 10
1245.23927149096
 20
472.1244783118687
 30
0.0
 41
0.7071067811865481
 10
1351.478548751079
 20
410.7872029872273
 30
0.0
 41
1.0
 10
1457.717826011198
 20
349.4499276625859
 30
0.0
 41
0.7071067811865455
 10
1396.380550686556
 20
243.2106504024671
 30
0.0
 41
1.0
 10
1335.043275361915
 20
136.9713731423481
 30
0.0
 41
0.7071067811865462
 10
1228.803998101796
 20
198.30864846699
 30
0.0
 41
1.0
 10
1122.564720841677
 20
259.6459237916313
 30
0.0
 41
0.7071067811865476
 10
1183.901996166319
 20
365.8852010517501
 30
0.0
 41
1.0
  0
SPLINE
  5
203
330
1F
100
AcDbEntity
  8
Predefinito
100
AcDbSpline
210
0.0
220
0.0
230
1.0
 70
    15
 71
     2
 72
    12
 73
     9
 74
     0
 42
0.0000000001
 43
0.0000000001
 40
0.0
 40
0.0
 40
0.0
 40
192.5183241911581
 40
192.5183241911581
 40
385.0366483823165
 40
385.0366483823165
 40
577.5549725734745
 40
577.5549725734745
 40
770.0732967646325
 40
770.0732967646325
 40
770.0732967646325
 10
1184.000358401672
 20
365.8284115886908
 30
0.0
 41
1.0
 10
1245.280844263254
 20
471.9693266134559
 30
0.0
 41
0.7071067811865486
 10
1351.42175928802
 20
410.688840751874
 30
0.0
 41
1.0
 10
1457.562674312786
 20
349.4083548902919
 30
0.0
 41
0.7071067811865451
 10
1396.282188451203
 20
243.2674398655263
 30
0.0
 41
1.0
 10
1335.00170258962
 20
137.126524840761
 30
0.0
 41
0.7071067811865469
 10
1228.860787564855
 20
198.4070107023433
 30
0.0
 41
1.0
 10
1122.71987254009
 20
259.6874965639254
 30
0.0
 41
0.7071067811865489
 10
1184.000358401672
 20
365.8284115886906
 30
0.0
 41
1.0
  0
SPLINE
  5
204
330
1F
100
AcDbEntity
  8
Predefinito
100
AcDbSpline
210
0.0
220
0.0
230
1.0
 70
    15
 71
     2
 72
    12
 73
     9
 74
     0
 42
0.0000000001
 43
0.0000000001
 40
0.0
 40
0.0
 40
0.0
 40
191.732996462368
 40
191.732996462368
 40
383.4659929247358
 40
383.4659929247358
 40
575.1989893871038
 40
575.1989893871038
 40
766.9319858494716
 40
766.9319858494716
 40
766.9319858494716
 10
1184.43333227093
 20
365.5784340087225
 30
0.0
 41
1.0
 10
1123.402823989316
 20
259.8704928532152
 30
0.0
 41
0.7071067811865482
 10
1229.110765144824
 20
198.8399845716011
 30
0.0
 41
1.0
 10
1334.818706300331
 20
137.8094762899873
 30
0.0
 41
0.7071067811865479
 10
1395.849214581945
 20
243.5174174454946
 30
0.0
 41
1.0
 10
1456.879722863559
 20
349.2253586010019
 30
0.0
 41
0.7071067811865482
 10
1351.171781708051
 20
410.255866882616
 30
0.0
 41
1.0
 10
1245.463840552544
 20
471.28637516423
 30
0.0
 41
0.7071067811865468
 10
1184.43333227093
 20
365.5784340087225
 30
0.0
 41
1.0
  0
SPLINE
  5
205
330
1F
100
AcDbEntity
  8
Predefinito
100
AcDbSpline
210
0.0
220
0.0
230
1.0
 70
    15
 71
     2
 72
    12
 73
     9
 74
     0
 42
0.0000000001
 43
0.0000000001
 40
0.0
 40
0.0
 40
0.0
 40
160.6925457497588
 40
160.6925457497588
 40
321.3850914995178
 40
321.3850914995178
 40
482.0776372492766
 40
482.0776372492766
 40
642.7701829990353
 40
642.7701829990353
 40
642.7701829990353
 10
1201.546829675707
 20
355.6979516752985
 30
0.0
 41
1.0
 10
1252.696855623898
 20
444.2923954260281
 30
0.0
 41
0.7071067811865491
 10
1341.291299374627
 20
393.1423694778385
 30
0.0
 41
1.0
 10
1429.885743125358
 20
341.9923435296487
 30
0.0
 41
0.7071067811865459
 10
1378.735717177167
 20
253.3978997789187
 30
0.0
 41
1.0
 10
1327.585691228977
 20
164.8034560281884
 30
0.0
 41
0.7071067811865462
 10
1238.991247478247
 20
215.9534819763786
 30
0.0
 41
1.0
 10
1150.396803727518
 20
267.1035079245685
 30
0.0
 41
0.7071067811865487
 10
1201.546829675707
 20
355.6979516752984
 30
0.0
 41
1.0
  0
ENDSEC
  0
SECTION
  2
OBJECTS
  0
DICTIONARY
  5
C
330
0
100
AcDbDictionary
281
     1
  3
ACAD_GROUP
350
D
  3
ACAD_LAYOUT
350
1A
  3
ACAD_MLEADERSTYLE
350
207
  3
ACAD_MLINESTYLE
350
17
  3
ACAD_PLOTSETTINGS
350
19
  3
ACAD_PLOTSTYLENAME
350
E
  3
ACAD_TABLESTYLE
350
206
  3
ACAD_VISUALSTYLE
350
2A
  0
DICTIONARY
  5
D
102
{ACAD_REACTORS
330
C
102
}
330
C
100
AcDbDictionary
281
     1
  0
DICTIONARY
  5
1A
102
{ACAD_REACTORS
330
C
102
}
330
C
100
AcDbDictionary
281
     1
  3
Layout1
350
1E
  3
Layout2
350
26
  3
Model
350
22
  0
DICTIONARY
  5
207
102
{ACAD_REACTORS
330
C
102
}
330
C
100
AcDbDictionary
281
     1
  0
DICTIONARY
  5
17
102
{ACAD_REACTORS
330
C
102
}
330
C
100
AcDbDictionary
281
     1
  3
Standard
350
18
  0
DICTIONARY
  5
19
102
{ACAD_REACTORS
330
C
102
}
330
C
100
AcDbDictionary
281
     1
  0
ACDBDICTIONARYWDFLT
  5
E
102
{ACAD_REACTORS
330
C
102
}
330
C
100
AcDbDictionary
281
     1
  3
Normal
350
F
100
AcDbDictionaryWithDefault
340
F
  0
DICTIONARY
  5
206
102
{ACAD_REACTORS
330
C
102
}
330
C
100
AcDbDictionary
281
     1
  0
DICTIONARY
  5
2A
102
{ACAD_REACTORS
330
C
102
}
330
C
100
AcDbDictionary
281
     1
  3
2dWireframe
350
2F
  3
3D Hidden
350
31
  3
3dWireframe
350
30
  3
Basic
350
32
  3
Brighten
350
36
  3
ColorChange
350
3A
  3
Conceptual
350
34
  3
Dim
350
35
  3
Facepattern
350
39
  3
Flat
350
2B
  3
FlatWithEdges
350
2C
  3
Gouraud
350
2D
  3
GouraudWithEdges
350
2E
  3
Linepattern
350
38
  3
Realistic
350
33
  3
Thicken
350
37
  0
LAYOUT
  5
1E
102
{ACAD_REACTORS
330
1A
102
}
330
1A
100
AcDbPlotSettings
  1

  2
none_device
  4

  6

 40
0.0
 41
0.0
 42
0.0
 43
0.0
 44
0.0
 45
0.0
 46
0.0
 47
0.0
 48
0.0
 49
0.0
140
0.0
141
0.0
142
1.0
143
1.0
 70
   688
 72
     0
 73
     0
 74
     5
  7

 75
    16
 76
     0
 77
     2
 78
   300
147
1.0
148
0.0
149
0.0
100
AcDbLayout
  1
Layout1
 70
     1
 71
     1
 10
0.0
 20
0.0
 11
12.0
 21
9.0
 12
0.0
 22
0.0
 32
0.0
 14
1.000000000000000E+20
 24
1.000000000000000E+20
 34
1.000000000000000E+20
 15
-1.000000000000000E+20
 25
-1.000000000000000E+20
 35
-1.000000000000000E+20
146
0.0
 13
0.0
 23
0.0
 33
0.0
 16
1.0
 26
0.0
 36
0.0
 17
0.0
 27
1.0
 37
0.0
 76
     0
330
1B
  0
LAYOUT
  5
26
102
{ACAD_REACTORS
330
1A
102
}
330
1A
100
AcDbPlotSettings
  1

  2
none_device
  4

  6

 40
0.0
 41
0.0
 42
0.0
 43
0.0
 44
0.0
 45
0.0
 46
0.0
 47
0.0
 48
0.0
 49
0.0
140
0.0
141
0.0
142
1.0
143
1.0
 70
   688
 72
     0
 73
     0
 74
     5
  7

 75
    16
 76
     0
 77
     2
 78
   300
147
1.0
148
0.0
149
0.0
100
AcDbLayout
  1
Layout2
 70
     1
 71
     2
 10
0.0
 20
0.0
 11
0.0
 21
0.0
 12
0.0
 22
0.0
 32
0.0
 14
0.0
 24
0.0
 34
0.0
 15
0.0
 25
0.0
 35
0.0
146
0.0
 13
0.0
 23
0.0
 33
0.0
 16
1.0
 26
0.0
 36
0.0
 17
0.0
 27
1.0
 37
0.0
 76
     0
330
23
  0
LAYOUT
  5
22
102
{ACAD_REACTORS
330
1A
102
}
330
1A
100
AcDbPlotSettings
  1

  2
none_device
  4

  6

 40
0.0
 41
0.0
 42
0.0
 43
0.0
 44
0.0
 45
0.0
 46
0.0
 47
0.0
 48
0.0
 49
0.0
140
0.0
141
0.0
142
1.0
143
1.0
 70
  1712
 72
     0
 73
     0
 74
     0
  7

 75
     0
 76
     0
 77
     2
 78
   300
147
1.0
148
0.0
149
0.0
100
AcDbLayout
  1
Model
 70
     1
 71
     0
 10
0.0
 20
0.0
 11
12.0
 21
9.0
 12
0.0
 22
0.0
 32
0.0
 14
0.0000000000000568
 24
0.0437782158745167
 34
0.0
 15
1594.829991560032
 25
1524.245036571367
 35
0.0
146
0.0
 13
0.0
 23
0.0
 33
0.0
 16
1.0
 26
0.0
 36
0.0
 17
0.0
 27
1.0
 37
0.0
 76
     0
330
1F
331
29
  0
MLINESTYLE
  5
18
102
{ACAD_REACTORS
330
17
102
}
330
17
100
AcDbMlineStyle
  2
Standard
 70
     0
  3

 62
   256
 51
90.0
 52
90.0
 71
     2
 49
0.5
 62
   256
  6
BYLAYER
 49
-0.5
 62
   256
  6
BYLAYER
  0
ACDBPLACEHOLDER
  5
F
102
{ACAD_REACTORS
330
E
102
}
330
E
  0
VISUALSTYLE
  5
2F
102
{ACAD_REACTORS
330
2A
102
}
330
2A
100
AcDbVisualStyle
  2
2dWireframe
 70
     4
 71
     0
 72
     2
 73
     0
 90
        0
 40
-0.6
 41
-30.0
 62
     5
 63
     7
421
 16777215
 74
     1
 91
        4
 64
     7
 65
   257
 75
     1
175
     1
 42
1.0
 92
        0
 66
   257
 43
1.0
 76
     1
 77
     6
 78
     2
 67
     7
 79
     5
170
     0
171
     0
290
     0
174
     0
 93
        1
 44
0.0
173
     0
291
     0
 45
0.0
1001
ACAD
1000
AcDbSavedByObjectVersion
1070
     0
  0
VISUALSTYLE
  5
31
102
{ACAD_REACTORS
330
2A
102
}
330
2A
100
AcDbVisualStyle
  2
3D Hidden
 70
     6
 71
     1
 72
     2
 73
     2
 90
        0
 40
-0.6
 41
-30.0
 62
     5
 63
     7
421
 16777215
 74
     2
 91
        2
 64
     7
 65
   257
 75
     2
175
     1
 42
40.0
 92
        0
 66
   257
 43
1.0
 76
     1
 77
     6
 78
     2
 67
     7
 79
     3
170
     0
171
     0
290
     0
174
     0
 93
        1
 44
0.0
173
     0
291
     0
 45
0.0
1001
ACAD
1000
AcDbSavedByObjectVersion
1070
     0
  0
VISUALSTYLE
  5
30
102
{ACAD_REACTORS
330
2A
102
}
330
2A
100
AcDbVisualStyle
  2
3dWireframe
 70
     5
 71
     0
 72
     2
 73
     0
 90
        0
 40
-0.6
 41
-30.0
 62
     5
 63
     7
421
 16777215
 74
     1
 91
        4
 64
     7
 65
   257
 75
     1
175
     1
 42
1.0
 92
        0
 66
   257
 43
1.0
 76
     1
 77
     6
 78
     2
 67
     7
 79
     5
170
     0
171
     0
290
     0
174
     0
 93
        1
 44
0.0
173
     0
291
     0
 45
0.0
1001
ACAD
1000
AcDbSavedByObjectVersion
1070
     0
  0
VISUALSTYLE
  5
32
102
{ACAD_REACTORS
330
2A
102
}
330
2A
100
AcDbVisualStyle
  2
Basic
 70
     7
 71
     1
 72
     0
 73
     1
 90
        0
 40
-0.6
 41
-30.0
 62
     5
 63
     7
421
 16777215
 74
     0
 91
        4
 64
     7
 65
   257
 75
     1
175
     1
 42
1.0
 92
        8
 66
     7
 43
1.0
 76
     1
 77
     6
 78
     2
 67
     7
 79
     5
170
     0
171
     0
290
     0
174
     0
 93
        1
 44
0.0
173
     0
291
     1
 45
0.0
1001
ACAD
1000
AcDbSavedByObjectVersion
1070
     0
  0
VISUALSTYLE
  5
36
102
{ACAD_REACTORS
330
2A
102
}
330
2A
100
AcDbVisualStyle
  2
Brighten
 70
    12
 71
     2
 72
     2
 73
     0
 90
        0
 40
-0.6
 41
-30.0
 62
     5
 63
     7
421
 16777215
 74
     1
 91
        4
 64
     7
 65
   257
 75
     1
175
     1
 42
1.0
 92
        8
 66
     7
 43
1.0
 76
     1
 77
     6
 78
     2
 67
     7
 79
     5
170
     0
171
     0
290
     0
174
     0
 93
        1
 44
50.0
173
     0
291
     1
 45
0.0
1001
ACAD
1000
AcDbSavedByObjectVersion
1070
     0
  0
VISUALSTYLE
  5
3A
102
{ACAD_REACTORS
330
2A
102
}
330
2A
100
AcDbVisualStyle
  2
ColorChange
 70
    16
 71
     2
 72
     2
 73
     3
 90
        0
 40
-0.6
 41
-30.0
 62
     5
 63
     8
421
  8421504
 74
     1
 91
        4
 64
     7
 65
   257
 75
     1
175
     1
 42
1.0
 92
        8
 66
     8
424
  8421504
 43
1.0
 76
     1
 77
     6
 78
     2
 67
     7
 79
     5
170
     0
171
     0
290
     0
174
     0
 93
        1
 44
0.0
173
     0
291
     1
 45
0.0
1001
ACAD
1000
AcDbSavedByObjectVersion
1070
     0
  0
VISUALSTYLE
  5
34
102
{ACAD_REACTORS
330
2A
102
}
330
2A
100
AcDbVisualStyle
  2
Conceptual
 70
     9
 71
     3
 72
     2
 73
     0
 90
        0
 40
-0.6
 41
-30.0
 62
     5
 63
     7
421
 16777215
 74
     2
 91
        2
 64
     7
 65
   257
 75
     1
175
     1
 42
40.0
 92
        8
 66
     7
 43
1.0
 76
     1
 77
     6
 78
     2
 67
     7
 79
     3
170
     0
171
     0
290
     0
174
     0
 93
        1
 44
0.0
173
     0
291
     0
 45
0.0
1001
ACAD
1000
AcDbSavedByObjectVersion
1070
     0
  0
VISUALSTYLE
  5
35
102
{ACAD_REACTORS
330
2A
102
}
330
2A
100
AcDbVisualStyle
  2
Dim
 70
    11
 71
     2
 72
     2
 73
     0
 90
        0
 40
-0.6
 41
-30.0
 62
     5
 63
     7
421
 16777215
 74
     1
 91
        4
 64
     7
 65
   257
 75
     1
175
     1
 42
1.0
 92
        8
 66
     7
 43
1.0
 76
     1
 77
     6
 78
     2
 67
     7
 79
     5
170
     0
171
     0
290
     0
174
     0
 93
        1
 44
-50.0
173
     0
291
     1
 45
0.0
1001
ACAD
1000
AcDbSavedByObjectVersion
1070
     0
  0
VISUALSTYLE
  5
39
102
{ACAD_REACTORS
330
2A
102
}
330
2A
100
AcDbVisualStyle
  2
Facepattern
 70
    15
 71
     2
 72
     2
 73
     0
 90
        0
 40
-0.6
 41
-30.0
 62
     5
 63
     7
421
 16777215
 74
     1
 91
        4
 64
     7
 65
   257
 75
     1
175
     1
 42
1.0
 92
        8
 66
     7
 43
1.0
 76
     1
 77
     6
 78
     2
 67
     7
 79
     5
170
     0
171
     0
290
     0
174
     0
 93
        1
 44
0.0
173
     0
291
     1
 45
0.0
1001
ACAD
1000
AcDbSavedByObjectVersion
1070
     0
  0
VISUALSTYLE
  5
2B
102
{ACAD_REACTORS
330
2A
102
}
330
2A
100
AcDbVisualStyle
  2
Flat
 70
     0
 71
     2
 72
     1
 73
     1
 90
        2
 40
-0.6
 41
30.0
 62
     5
 63
     7
421
 16777215
 74
     0
 91
        4
 64
     7
 65
   257
 75
     1
175
     1
 42
1.0
 92
        8
 66
     7
 43
1.0
 76
     1
 77
     6
 78
     2
 67
     7
 79
     5
170
     0
171
     0
290
     0
174
     0
 93
       13
 44
0.0
173
     0
291
     1
 45
0.0
1001
ACAD
1000
AcDbSavedByObjectVersion
1070
     0
  0
VISUALSTYLE
  5
2C
102
{ACAD_REACTORS
330
2A
102
}
330
2A
100
AcDbVisualStyle
  2
FlatWithEdges
 70
     1
 71
     2
 72
     1
 73
     1
 90
        2
 40
-0.6
 41
30.0
 62
     5
 63
     7
421
 16777215
 74
     1
 91
        4
 64
     7
 65
   257
 75
     1
175
     1
 42
1.0
 92
        0
 66
   257
 43
1.0
 76
     1
 77
     6
 78
     2
 67
     7
 79
     5
170
     0
171
     0
290
     0
174
     0
 93
       13
 44
0.0
173
     0
291
     1
 45
0.0
1001
ACAD
1000
AcDbSavedByObjectVersion
1070
     0
  0
VISUALSTYLE
  5
2D
102
{ACAD_REACTORS
330
2A
102
}
330
2A
100
AcDbVisualStyle
  2
Gouraud
 70
     2
 71
     2
 72
     2
 73
     1
 90
        2
 40
-0.6
 41
30.0
 62
     5
 63
     7
421
 16777215
 74
     0
 91
        4
 64
     7
 65
   257
 75
     1
175
     1
 42
1.0
 92
        0
 66
     7
 43
1.0
 76
     1
 77
     6
 78
     2
 67
     7
 79
     5
170
     0
171
     0
290
     0
174
     0
 93
       13
 44
0.0
173
     0
291
     1
 45
0.0
1001
ACAD
1000
AcDbSavedByObjectVersion
1070
     0
  0
VISUALSTYLE
  5
2E
102
{ACAD_REACTORS
330
2A
102
}
330
2A
100
AcDbVisualStyle
  2
GouraudWithEdges
 70
     3
 71
     2
 72
     2
 73
     1
 90
        2
 40
-0.6
 41
30.0
 62
     5
 63
     7
421
 16777215
 74
     1
 91
        4
 64
     7
 65
   257
 75
     1
175
     1
 42
1.0
 92
        0
 66
   257
 43
1.0
 76
     1
 77
     6
 78
     2
 67
     7
 79
     5
170
     0
171
     0
290
     0
174
     0
 93
       13
 44
0.0
173
     0
291
     1
 45
0.0
1001
ACAD
1000
AcDbSavedByObjectVersion
1070
     0
  0
VISUALSTYLE
  5
38
102
{ACAD_REACTORS
330
2A
102
}
330
2A
100
AcDbVisualStyle
  2
Linepattern
 70
    14
 71
     2
 72
     2
 73
     0
 90
        0
 40
-0.6
 41
-30.0
 62
     5
 63
     7
421
 16777215
 74
     1
 91
        4
 64
     7
 65
   257
 75
     7
175
     7
 42
1.0
 92
        8
 66
     7
 43
1.0
 76
     1
 77
     6
 78
     2
 67
     7
 79
     5
170
     0
171
     0
290
     0
174
     0
 93
        1
 44
0.0
173
     0
291
     1
 45
0.0
1001
ACAD
1000
AcDbSavedByObjectVersion
1070
     0
  0
VISUALSTYLE
  5
33
102
{ACAD_REACTORS
330
2A
102
}
330
2A
100
AcDbVisualStyle
  2
Realistic
 70
     8
 71
     2
 72
     2
 73
     0
 90
        0
 40
-0.6
 41
-30.0
 62
     5
 63
     7
421
 16777215
 74
     1
 91
        0
 64
     7
 65
   257
 75
     1
175
     1
 42
1.0
 92
        8
 66
     8
424
  7895160
 43
1.0
 76
     1
 77
     6
 78
     2
 67
     7
 79
     5
170
     0
171
     0
290
     0
174
     0
 93
       13
 44
0.0
173
     0
291
     0
 45
0.0
1001
ACAD
1000
AcDbSavedByObjectVersion
1070
     0
  0
VISUALSTYLE
  5
37
102
{ACAD_REACTORS
330
2A
102
}
330
2A
100
AcDbVisualStyle
  2
Thicken
 70
    13
 71
     2
 72
     2
 73
     0
 90
        0
 40
-0.6
 41
-30.0
 62
     5
 63
     7
421
 16777215
 74
     1
 91
        4
 64
     7
 65
   257
 75
     1
175
     1
 42
1.0
 92
       12
 66
     7
 43
1.0
 76
     1
 77
     6
 78
     2
 67
     7
 79
     5
170
     0
171
     0
290
     0
174
     0
 93
        1
 44
0.0
173
     0
291
     1
 45
0.0
1001
ACAD
1000
AcDbSavedByObjectVersion
1070
     0
  0
ENDSEC
  0
EOF
