  0
SECTION
  2
HEADER
  9
$ACADVER
  1
AC1021
  9
$ACADMAINTVER
 70
    25
  9
$DWGCODEPAGE
  3
ANSI_1252
  9
$LASTSAVEDBY
  1
noseda_d
  9
$INSBASE
 10
0.0
 20
0.0
 30
0.0
  9
$EXTMIN
 10
360.275
 20
-14.5504376258958
 30
0.0
  9
$EXTMAX
 10
684.140192
 20
763.30435095026
 30
0.0
  9
$LIMMIN
 10
0.0
 20
0.0
  9
$LIMMAX
 10
12.0
 20
9.0
  9
$ORTHOMODE
 70
     0
  9
$REGENMODE
 70
     1
  9
$FILLMODE
 70
     1
  9
$QTEXTMODE
 70
     0
  9
$MIRRTEXT
 70
     1
  9
$LTSCALE
 40
1.0
  9
$ATTMODE
 70
     1
  9
$TEXTSIZE
 40
0.2
  9
$TRACEWID
 40
0.05
  9
$TEXTSTYLE
  7
Standard
  9
$CLAYER
  8
1
  9
$CELTYPE
  6
ByLayer
  9
$CECOLOR
 62
   256
  9
$CELTSCALE
 40
1.0
  9
$DISPSILH
 70
     0
  9
$DIMSCALE
 40
1.0
  9
$DIMASZ
 40
0.18
  9
$DIMEXO
 40
0.0625
  9
$DIMDLI
 40
0.38
  9
$DIMRND
 40
0.0
  9
$DIMDLE
 40
0.0
  9
$DIMEXE
 40
0.18
  9
$DIMTP
 40
0.0
  9
$DIMTM
 40
0.0
  9
$DIMTXT
 40
0.18
  9
$DIMCEN
 40
0.09
  9
$DIMTSZ
 40
0.0
  9
$DIMTOL
 70
     0
  9
$DIMLIM
 70
     0
  9
$DIMTIH
 70
     1
  9
$DIMTOH
 70
     1
  9
$DIMSE1
 70
     0
  9
$DIMSE2
 70
     0
  9
$DIMTAD
 70
     0
  9
$DIMZIN
 70
     0
  9
$DIMBLK
  1

  9
$DIMASO
 70
     1
  9
$DIMSHO
 70
     1
  9
$DIMPOST
  1

  9
$DIMAPOST
  1

  9
$DIMALT
 70
     0
  9
$DIMALTD
 70
     2
  9
$DIMALTF
 40
25.4
  9
$DIMLFAC
 40
1.0
  9
$DIMTOFL
 70
     0
  9
$DIMTVP
 40
0.0
  9
$DIMTIX
 70
     0
  9
$DIMSOXD
 70
     0
  9
$DIMSAH
 70
     0
  9
$DIMBLK1
  1

  9
$DIMBLK2
  1

  9
$DIMSTYLE
  2
STANDARD_ACAD
  9
$DIMCLRD
 70
     0
  9
$DIMCLRE
 70
     0
  9
$DIMCLRT
 70
     0
  9
$DIMTFAC
 40
1.0
  9
$DIMGAP
 40
0.09
  9
$DIMJUST
 70
     0
  9
$DIMSD1
 70
     0
  9
$DIMSD2
 70
     0
  9
$DIMTOLJ
 70
     1
  9
$DIMTZIN
 70
     0
  9
$DIMALTZ
 70
     0
  9
$DIMALTTZ
 70
     0
  9
$DIMUPT
 70
     0
  9
$DIMDEC
 70
     4
  9
$DIMTDEC
 70
     4
  9
$DIMALTU
 70
     2
  9
$DIMALTTD
 70
     2
  9
$DIMTXSTY
  7
Standard
  9
$DIMAUNIT
 70
     0
  9
$DIMADEC
 70
     0
  9
$DIMALTRND
 40
0.0
  9
$DIMAZIN
 70
     0
  9
$DIMDSEP
 70
    46
  9
$DIMATFIT
 70
     3
  9
$DIMFRAC
 70
     0
  9
$DIMLDRBLK
  1

  9
$DIMLUNIT
 70
     2
  9
$DIMLWD
 70
    -2
  9
$DIMLWE
 70
    -2
  9
$DIMTMOVE
 70
     2
  9
$DIMFXL
 40
1.0
  9
$DIMFXLON
 70
     0
  9
$DIMJOGANG
 40
0.7853981633974483
  9
$DIMTFILL
 70
     0
  9
$DIMTFILLCLR
 70
     0
  9
$DIMARCSYM
 70
     0
  9
$DIMLTYPE
  6

  9
$DIMLTEX1
  6

  9
$DIMLTEX2
  6

  9
$LUNITS
 70
     2
  9
$LUPREC
 70
     3
  9
$SKETCHINC
 40
0.1
  9
$FILLETRAD
 40
0.0
  9
$AUNITS
 70
     0
  9
$AUPREC
 70
     0
  9
$MENU
  1
.
  9
$ELEVATION
 40
0.0
  9
$PELEVATION
 40
0.0
  9
$THICKNESS
 40
0.0
  9
$LIMCHECK
 70
     0
  9
$CHAMFERA
 40
0.0
  9
$CHAMFERB
 40
0.0
  9
$CHAMFERC
 40
0.0
  9
$CHAMFERD
 40
0.0
  9
$SKPOLY
 70
     0
  9
$TDCREATE
 40
2460494.743483368
  9
$TDUCREATE
 40
2460494.701816702
  9
$TDUPDATE
 40
2460494.743496331
  9
$TDUUPDATE
 40
2460494.701829665
  9
$TDINDWG
 40
0.0000000116
  9
$TDUSRTIMER
 40
0.0000000116
  9
$USRTIMER
 70
     1
  9
$ANGBASE
 50
0.0
  9
$ANGDIR
 70
     0
  9
$PDMODE
 70
     0
  9
$PDSIZE
 40
0.0
  9
$PLINEWID
 40
0.0
  9
$SPLFRAME
 70
     0
  9
$SPLINETYPE
 70
     6
  9
$SPLINESEGS
 70
     8
  9
$HANDSEED
  5
21F
  9
$SURFTAB1
 70
     6
  9
$SURFTAB2
 70
     6
  9
$SURFTYPE
 70
     6
  9
$SURFU
 70
     6
  9
$SURFV
 70
     6
  9
$UCSBASE
  2

  9
$UCSNAME
  2

  9
$UCSORG
 10
0.0
 20
0.0
 30
0.0
  9
$UCSXDIR
 10
1.0
 20
0.0
 30
0.0
  9
$UCSYDIR
 10
0.0
 20
1.0
 30
0.0
  9
$UCSORTHOREF
  2

  9
$UCSORTHOVIEW
 70
     0
  9
$UCSORGTOP
 10
0.0
 20
0.0
 30
0.0
  9
$UCSORGBOTTOM
 10
0.0
 20
0.0
 30
0.0
  9
$UCSORGLEFT
 10
0.0
 20
0.0
 30
0.0
  9
$UCSORGRIGHT
 10
0.0
 20
0.0
 30
0.0
  9
$UCSORGFRONT
 10
0.0
 20
0.0
 30
0.0
  9
$UCSORGBACK
 10
0.0
 20
0.0
 30
0.0
  9
$PUCSBASE
  2

  9
$PUCSNAME
  2

  9
$PUCSORG
 10
0.0
 20
0.0
 30
0.0
  9
$PUCSXDIR
 10
1.0
 20
0.0
 30
0.0
  9
$PUCSYDIR
 10
0.0
 20
1.0
 30
0.0
  9
$PUCSORTHOREF
  2

  9
$PUCSORTHOVIEW
 70
     0
  9
$PUCSORGTOP
 10
0.0
 20
0.0
 30
0.0
  9
$PUCSORGBOTTOM
 10
0.0
 20
0.0
 30
0.0
  9
$PUCSORGLEFT
 10
0.0
 20
0.0
 30
0.0
  9
$PUCSORGRIGHT
 10
0.0
 20
0.0
 30
0.0
  9
$PUCSORGFRONT
 10
0.0
 20
0.0
 30
0.0
  9
$PUCSORGBACK
 10
0.0
 20
0.0
 30
0.0
  9
$USERI1
 70
     0
  9
$USERI2
 70
     0
  9
$USERI3
 70
     0
  9
$USERI4
 70
     0
  9
$USERI5
 70
     0
  9
$USERR1
 40
0.0
  9
$USERR2
 40
0.0
  9
$USERR3
 40
0.0
  9
$USERR4
 40
0.0
  9
$USERR5
 40
0.0
  9
$WORLDVIEW
 70
     1
  9
$SHADEDGE
 70
     3
  9
$SHADEDIF
 70
    70
  9
$TILEMODE
 70
     1
  9
$MAXACTVP
 70
    64
  9
$PINSBASE
 10
0.0
 20
0.0
 30
0.0
  9
$PLIMCHECK
 70
     0
  9
$PEXTMIN
 10
1.000000000000000E+20
 20
1.000000000000000E+20
 30
1.000000000000000E+20
  9
$PEXTMAX
 10
-1.000000000000000E+20
 20
-1.000000000000000E+20
 30
-1.000000000000000E+20
  9
$PLIMMIN
 10
0.0
 20
0.0
  9
$PLIMMAX
 10
12.0
 20
9.0
  9
$UNITMODE
 70
     0
  9
$VISRETAIN
 70
     1
  9
$PLINEGEN
 70
     0
  9
$PSLTSCALE
 70
     1
  9
$TREEDEPTH
 70
  3020
  9
$CMLSTYLE
  2
Standard
  9
$CMLJUST
 70
     0
  9
$CMLSCALE
 40
1.0
  9
$PROXYGRAPHICS
 70
     1
  9
$MEASUREMENT
 70
     1
  9
$CELWEIGHT
370
    -1
  9
$ENDCAPS
280
     0
  9
$JOINSTYLE
280
     0
  9
$LWDISPLAY
290
     0
  9
$INSUNITS
 70
     4
  9
$HYPERLINKBASE
  1

  9
$STYLESHEET
  1

  9
$XEDIT
290
     1
  9
$CEPSNTYPE
380
     0
  9
$PSTYLEMODE
290
     1
  9
$FINGERPRINTGUID
  2
{ada97c35-6bb5-104c-85d0-977ad1a5d326}
  9
$VERSIONGUID
  2
{FAEB1C32-E019-11D5-929B-00C0DF256EC4}
  9
$EXTNAMES
290
     1
  9
$PSVPSCALE
 40
0.0
  9
$OLESTARTUP
290
     0
  9
$SORTENTS
280
   127
  9
$INDEXCTL
280
     0
  9
$HIDETEXT
280
     1
  9
$XCLIPFRAME
290
     0
  9
$HALOGAP
280
     0
  9
$OBSCOLOR
 70
   257
  9
$OBSLTYPE
280
     0
  9
$INTERSECTIONDISPLAY
280
     0
  9
$INTERSECTIONCOLOR
 70
   257
  9
$DIMASSOC
280
     2
  9
$PROJECTNAME
  1

  9
$CAMERADISPLAY
290
     0
  9
$LENSLENGTH
 40
50.0
  9
$CAMERAHEIGHT
 40
0.0
  9
$STEPSPERSEC
 40
2.0
  9
$STEPSIZE
 40
6.0
  9
$3DDWFPREC
 40
2.0
  9
$PSOLWIDTH
 40
0.25
  9
$PSOLHEIGHT
 40
4.0
  9
$LOFTANG1
 40
1.570796326794897
  9
$LOFTANG2
 40
1.570796326794897
  9
$LOFTMAG1
 40
0.0
  9
$LOFTMAG2
 40
0.0
  9
$LOFTPARAM
 70
     7
  9
$LOFTNORMALS
280
     1
  9
$LATITUDE
 40
37.795
  9
$LONGITUDE
 40
-122.394
  9
$NORTHDIRECTION
 40
0.0
  9
$TIMEZONE
 70
 -8000
  9
$LIGHTGLYPHDISPLAY
280
     1
  9
$TILEMODELIGHTSYNCH
280
     1
  9
$CMATERIAL
347
44
  9
$SOLIDHIST
280
     0
  9
$SHOWHIST
280
     1
  9
$DWFFRAME
280
     2
  9
$DGNFRAME
280
     2
  9
$REALWORLDSCALE
290
     1
  9
$INTERFERECOLOR
 62
   256
  9
$CSHADOW
280
     0
  9
$SHADOWPLANELOCATION
 40
0.0
  0
ENDSEC
  0
SECTION
  2
CLASSES
  0
CLASS
  1
ACDBDICTIONARYWDFLT
  2
AcDbDictionaryWithDefault
  3
ObjectDBX Classes
 90
        0
 91
        3
280
     0
281
     0
  0
CLASS
  1
VISUALSTYLE
  2
AcDbVisualStyle
  3
ObjectDBX Classes
 90
     4095
 91
        3
280
     0
281
     0
  0
CLASS
  1
MATERIAL
  2
AcDbMaterial
  3
ObjectDBX Classes
 90
     1153
 91
        3
280
     0
281
     0
  0
CLASS
  1
SCALE
  2
AcDbScale
  3
ObjectDBX Classes
 90
     1153
 91
        3
280
     0
281
     0
  0
CLASS
  1
TABLESTYLE
  2
AcDbTableStyle
  3
ObjectDBX Classes
 90
     4095
 91
        3
280
     0
281
     0
  0
CLASS
  1
MLEADERSTYLE
  2
AcDbMLeaderStyle
  3
ACDB_MLEADERSTYLE_CLASS
 90
     4095
 91
        3
280
     0
281
     0
  0
CLASS
  1
SUN
  2
AcDbSun
  3
SCENEOE
 90
     1153
 91
        3
280
     0
281
     0
  0
CLASS
  1
DICTIONARYVAR
  2
AcDbDictionaryVar
  3
ObjectDBX Classes
 90
        0
 91
        3
280
     0
281
     0
  0
CLASS
  1
CELLSTYLEMAP
  2
AcDbCellStyleMap
  3
ObjectDBX Classes
 90
     1152
 91
        3
280
     0
281
     0
  0
ENDSEC
  0
SECTION
  2
TABLES
  0
TABLE
  2
VPORT
  5
8
330
0
100
AcDbSymbolTable
 70
     1
  0
VPORT
  5
29
330
8
100
AcDbSymbolTableRecord
100
AcDbViewportTableRecord
  2
*Active
 70
     0
 10
0.0
 20
0.0
 11
1.0
 21
1.0
 12
10.42990654205607
 22
4.5
 13
0.0
 23
0.0
 14
0.5
 24
0.5
 15
0.5
 25
0.5
 16
0.0
 26
0.0
 36
1.0
 17
0.0
 27
0.0
 37
0.0
 40
9.0
 41
1.972972972850329
 42
50.0
 43
0.0
 44
0.0
 50
0.0
 51
0.0
 71
     0
 72
   100
 73
     1
 74
     3
 75
     0
 76
     0
 77
     0
 78
     0
281
     0
 65
     1
110
0.0
120
0.0
130
0.0
111
1.0
121
0.0
131
0.0
112
0.0
122
1.0
132
0.0
 79
     0
146
0.0
348
2F
 60
     3
 61
     5
292
     1
282
     1
141
0.0
142
0.0
 63
   250
361
5D
  0
ENDTAB
  0
TABLE
  2
LTYPE
  5
5
330
0
100
AcDbSymbolTable
 70
     1
  0
LTYPE
  5
14
330
5
100
AcDbSymbolTableRecord
100
AcDbLinetypeTableRecord
  2
ByBlock
 70
     0
  3

 72
    65
 73
     0
 40
0.0
  0
LTYPE
  5
15
330
5
100
AcDbSymbolTableRecord
100
AcDbLinetypeTableRecord
  2
ByLayer
 70
     0
  3

 72
    65
 73
     0
 40
0.0
  0
LTYPE
  5
16
330
5
100
AcDbSymbolTableRecord
100
AcDbLinetypeTableRecord
  2
Continuous
 70
     0
  3
Solid line
 72
    65
 73
     0
 40
0.0
  0
ENDTAB
  0
TABLE
  2
LAYER
  5
2
330
0
100
AcDbSymbolTable
 70
     2
  0
LAYER
  5
10
330
2
100
AcDbSymbolTableRecord
100
AcDbLayerTableRecord
  2
0
 70
     0
 62
     7
  6
Continuous
370
    -3
390
F
347
46
  0
LAYER
  5
5F
330
2
100
AcDbSymbolTableRecord
100
AcDbLayerTableRecord
  2
1
 70
     0
 62
     7
420
 16777215
  6
Continuous
370
    -3
390
F
347
46
  0
ENDTAB
  0
TABLE
  2
STYLE
  5
3
330
0
100
AcDbSymbolTable
 70
     1
  0
STYLE
  5
11
330
3
100
AcDbSymbolTableRecord
100
AcDbTextStyleTableRecord
  2
Standard
 70
     0
 40
0.0
 41
1.0
 50
0.0
 71
     0
 42
0.2
  3
txt
  4

  0
ENDTAB
  0
TABLE
  2
VIEW
  5
6
330
0
100
AcDbSymbolTable
 70
     0
  0
ENDTAB
  0
TABLE
  2
UCS
  5
7
330
0
100
AcDbSymbolTable
 70
     0
  0
ENDTAB
  0
TABLE
  2
APPID
  5
9
330
0
100
AcDbSymbolTable
 70
     3
  0
APPID
  5
12
330
9
100
AcDbSymbolTableRecord
100
AcDbRegAppTableRecord
  2
ACAD
 70
     0
  0
APPID
  5
5E
330
9
100
AcDbSymbolTableRecord
100
AcDbRegAppTableRecord
  2
Rhino
 70
     0
  0
APPID
  5
217
330
9
100
AcDbSymbolTableRecord
100
AcDbRegAppTableRecord
  2
ACAD_MLEADERVER
 70
     0
  0
ENDTAB
  0
TABLE
  2
DIMSTYLE
  5
A
330
0
100
AcDbSymbolTable
 70
     1
100
AcDbDimStyleTable
  0
DIMSTYLE
105
27
330
A
100
AcDbSymbolTableRecord
100
AcDbDimStyleTableRecord
  2
STANDARD_ACAD
 70
     0
178
     0
340
11
  0
ENDTAB
  0
TABLE
  2
BLOCK_RECORD
  5
1
330
0
100
AcDbSymbolTable
 70
     1
  0
BLOCK_RECORD
  5
1F
330
1
100
AcDbSymbolTableRecord
100
AcDbBlockTableRecord
  2
*Model_Space
340
22
 70
     0
280
     1
281
     0
  0
BLOCK_RECORD
  5
1B
330
1
100
AcDbSymbolTableRecord
100
AcDbBlockTableRecord
  2
*Paper_Space
340
1E
 70
     0
280
     1
281
     0
  0
BLOCK_RECORD
  5
23
330
1
100
AcDbSymbolTableRecord
100
AcDbBlockTableRecord
  2
*Paper_Space0
340
26
 70
     0
280
     1
281
     0
  0
ENDTAB
  0
ENDSEC
  0
SECTION
  2
BLOCKS
  0
BLOCK
  5
20
330
1F
100
AcDbEntity
  8
0
100
AcDbBlockBegin
  2
*Model_Space
 70
     0
 10
0.0
 20
0.0
 30
0.0
  3
*Model_Space
  1

  0
ENDBLK
  5
21
330
1F
100
AcDbEntity
  8
0
100
AcDbBlockEnd
  0
BLOCK
  5
1C
330
1B
100
AcDbEntity
 67
     1
  8
0
100
AcDbBlockBegin
  2
*Paper_Space
 70
     0
 10
0.0
 20
0.0
 30
0.0
  3
*Paper_Space
  1

  0
ENDBLK
  5
1D
330
1B
100
AcDbEntity
 67
     1
  8
0
100
AcDbBlockEnd
  0
BLOCK
  5
24
330
23
100
AcDbEntity
  8
0
100
AcDbBlockBegin
  2
*Paper_Space0
 70
     0
 10
0.0
 20
0.0
 30
0.0
  3
*Paper_Space0
  1

  0
ENDBLK
  5
25
330
23
100
AcDbEntity
  8
0
100
AcDbBlockEnd
  0
ENDSEC
  0
SECTION
  2
ENTITIES
  0
ARC
  5
60
330
1F
100
AcDbEntity
  8
1
  6
Continuous
 62
   155
420
  5010073
370
    35
100
AcDbCircle
 10
405.2785514609687
 20
30.4495623741042
 30
0.0
 40
41.75355193956315
100
AcDbArc
 50
280.13007
 51
2.869930000000008
  0
LINE
  5
61
330
1F
100
AcDbEntity
  8
1
  6
Continuous
 62
   155
420
  5010073
370
    35
100
AcDbLine
 10
403.775
 20
149.477949
 30
0.0
 11
403.775
 21
149.455189
 31
0.0
  0
LINE
  5
62
330
1F
100
AcDbEntity
  8
1
  6
Continuous
 62
   155
420
  5010073
370
    35
100
AcDbLine
 10
427.832236
 20
604.998444
 30
0.0
 11
427.832236
 21
605.498413
 31
0.0
  0
LINE
  5
63
330
1F
100
AcDbEntity
  8
1
  6
Continuous
 62
   155
420
  5010073
370
    18
100
AcDbLine
 10
425.353181
 20
604.998444
 30
0.0
 11
425.353181
 21
605.498413
 31
0.0
  0
LINE
  5
64
330
1F
100
AcDbEntity
  8
1
  6
Continuous
 62
   155
420
  5010073
370
    35
100
AcDbLine
 10
361.088964
 20
154.998429
 30
0.0
 11
361.075
 21
154.198429
 31
0.0
  0
LINE
  5
65
330
1F
100
AcDbEntity
  8
1
  6
Continuous
 62
   155
420
  5010073
370
    35
100
AcDbLine
 10
449.475
 20
154.198429
 30
0.0
 11
449.461036
 21
154.998429
 31
0.0
  0
LINE
  5
66
330
1F
100
AcDbEntity
  8
1
  6
Continuous
 62
   155
420
  5010073
370
    35
100
AcDbLine
 10
360.348311
 20
154.198429
 30
0.0
 11
450.201689
 21
154.198429
 31
0.0
  0
LINE
  5
67
330
1F
100
AcDbEntity
  8
1
  6
Continuous
 62
   155
420
  5010073
370
    35
100
AcDbLine
 10
360.348311
 20
154.198429
 30
0.0
 11
360.278552
 21
150.201919
 31
0.0
  0
LINE
  5
68
330
1F
100
AcDbEntity
  8
1
  6
Continuous
 62
   155
420
  5010073
370
    35
100
AcDbLine
 10
450.271448
 20
150.201919
 30
0.0
 11
450.201689
 21
154.198429
 31
0.0
  0
LINE
  5
69
330
1F
100
AcDbEntity
  8
1
  6
Continuous
 62
   155
420
  5010073
370
    18
100
AcDbLine
 10
450.271448
 20
150.201919
 30
0.0
 11
360.278552
 21
150.201919
 31
0.0
  0
LINE
  5
6A
330
1F
100
AcDbEntity
  8
1
  6
Continuous
 62
   155
420
  5010073
370
    35
100
AcDbLine
 10
450.071478
 20
149.998429
 30
0.0
 11
360.478521
 21
149.998429
 31
0.0
  0
LINE
  5
6B
330
1F
100
AcDbEntity
  8
1
  6
Continuous
 62
   155
420
  5010073
370
    35
100
AcDbLine
 10
439.416016
 20
149.298429
 30
0.0
 11
439.416016
 21
149.477949
 31
0.0
  0
LINE
  5
6C
330
1F
100
AcDbEntity
  8
1
  6
Continuous
 62
   155
420
  5010073
370
    35
100
AcDbLine
 10
440.416016
 20
149.477949
 30
0.0
 11
440.416016
 21
149.298429
 31
0.0
  0
LINE
  5
6D
330
1F
100
AcDbEntity
  8
1
  6
Continuous
 62
   155
420
  5010073
370
    35
100
AcDbLine
 10
441.416016
 20
149.455189
 30
0.0
 11
441.416016
 21
149.477949
 31
0.0
  0
LINE
  5
6E
330
1F
100
AcDbEntity
  8
1
  6
Continuous
 62
   155
420
  5010073
370
    35
100
AcDbLine
 10
438.416016
 20
149.477949
 30
0.0
 11
438.416016
 21
149.455189
 31
0.0
  0
LINE
  5
6F
330
1F
100
AcDbEntity
  8
1
  6
Continuous
 62
   155
420
  5010073
370
    35
100
AcDbLine
 10
371.420757
 20
605.414071
 30
0.0
 11
377.64664
 21
605.414071
 31
0.0
  0
LINE
  5
70
330
1F
100
AcDbEntity
  8
1
  6
Continuous
 62
   155
420
  5010073
370
    18
100
AcDbLine
 10
371.420757
 20
605.498432
 30
0.0
 11
371.420757
 21
605.414071
 31
0.0
  0
LINE
  5
71
330
1F
100
AcDbEntity
  8
1
  6
Continuous
 62
   155
420
  5010073
370
    35
100
AcDbLine
 10
450.275
 20
154.998429
 30
0.0
 11
360.275
 21
154.998429
 31
0.0
  0
LINE
  5
72
330
1F
100
AcDbEntity
  8
1
  6
Continuous
 62
   155
420
  5010073
370
    35
100
AcDbLine
 10
360.275
 20
514.998429
 30
0.0
 11
360.275
 21
154.998429
 31
0.0
  0
LINE
  5
73
330
1F
100
AcDbEntity
  8
1
  6
Continuous
 62
   155
420
  5010073
370
    35
100
AcDbLine
 10
450.275
 20
154.998429
 30
0.0
 11
450.275
 21
514.998429
 31
0.0
  0
LINE
  5
74
330
1F
100
AcDbEntity
  8
1
  6
Continuous
 62
   155
420
  5010073
370
    35
100
AcDbLine
 10
365.269934
 20
605.998429
 30
0.0
 11
445.280066
 21
605.998429
 31
0.0
  0
LINE
  5
75
330
1F
100
AcDbEntity
  8
1
  6
Continuous
 62
   155
420
  5010073
370
    35
100
AcDbLine
 10
365.269934
 20
605.498429
 30
0.0
 11
435.467207
 21
605.498429
 31
0.0
  0
LINE
  5
76
330
1F
100
AcDbEntity
  8
1
  6
Continuous
 62
   155
420
  5010073
370
    35
100
AcDbLine
 10
435.467207
 20
605.498429
 30
0.0
 11
445.280066
 21
605.498429
 31
0.0
  0
LINE
  5
77
330
1F
100
AcDbEntity
  8
1
  6
Continuous
 62
   155
420
  5010073
370
    35
100
AcDbLine
 10
365.269934
 20
605.998429
 30
0.0
 11
365.269934
 21
605.498429
 31
0.0
  0
LINE
  5
78
330
1F
100
AcDbEntity
  8
1
  6
Continuous
 62
   155
420
  5010073
370
    35
100
AcDbLine
 10
445.280066
 20
605.498429
 30
0.0
 11
445.280066
 21
605.998429
 31
0.0
  0
LINE
  5
79
330
1F
100
AcDbEntity
  8
1
  6
Continuous
 62
   155
420
  5010073
370
    35
100
AcDbLine
 10
370.133984
 20
149.298429
 30
0.0
 11
370.133984
 21
149.477949
 31
0.0
  0
LINE
  5
7A
330
1F
100
AcDbEntity
  8
1
  6
Continuous
 62
   155
420
  5010073
370
    35
100
AcDbLine
 10
371.133984
 20
149.477949
 30
0.0
 11
371.133984
 21
149.298429
 31
0.0
  0
LINE
  5
7B
330
1F
100
AcDbEntity
  8
1
  6
Continuous
 62
   155
420
  5010073
370
    35
100
AcDbLine
 10
372.133984
 20
149.455189
 30
0.0
 11
372.133984
 21
149.477949
 31
0.0
  0
LINE
  5
7C
330
1F
100
AcDbEntity
  8
1
  6
Continuous
 62
   155
420
  5010073
370
    35
100
AcDbLine
 10
369.133984
 20
149.477949
 30
0.0
 11
369.133984
 21
149.455189
 31
0.0
  0
LINE
  5
7D
330
1F
100
AcDbEntity
  8
1
  6
Continuous
 62
   155
420
  5010073
370
    35
100
AcDbLine
 10
382.848109
 20
610.098429
 30
0.0
 11
377.348109
 21
610.098429
 31
0.0
  0
LINE
  5
7E
330
1F
100
AcDbEntity
  8
1
  6
Continuous
 62
   155
420
  5010073
370
    35
100
AcDbLine
 10
377.348109
 20
610.098429
 30
0.0
 11
377.348109
 21
609.998429
 31
0.0
  0
LINE
  5
7F
330
1F
100
AcDbEntity
  8
1
  6
Continuous
 62
   155
420
  5010073
370
    35
100
AcDbLine
 10
382.848109
 20
609.998429
 30
0.0
 11
382.848109
 21
610.098429
 31
0.0
  0
LINE
  5
80
330
1F
100
AcDbEntity
  8
1
  6
Continuous
 62
   155
420
  5010073
370
    35
100
AcDbLine
 10
377.646746
 20
605.498366
 30
0.0
 11
377.646746
 21
604.998398
 31
0.0
  0
LINE
  5
81
330
1F
100
AcDbEntity
  8
1
  6
Continuous
 62
   155
420
  5010073
370
    35
100
AcDbLine
 10
382.546746
 20
604.998398
 30
0.0
 11
382.546746
 21
605.498366
 31
0.0
  0
LINE
  5
82
330
1F
100
AcDbEntity
  8
1
  6
Continuous
 62
   155
420
  5010073
370
    35
100
AcDbLine
 10
388.195215
 20
604.998429
 30
0.0
 11
388.195215
 21
605.498398
 31
0.0
  0
LINE
  5
83
330
1F
100
AcDbEntity
  8
1
  6
Continuous
 62
   155
420
  5010073
370
    18
100
AcDbLine
 10
387.992803
 20
604.998429
 30
0.0
 11
387.992803
 21
605.498398
 31
0.0
  0
LINE
  5
84
330
1F
100
AcDbEntity
  8
1
  6
Continuous
 62
   155
420
  5010073
370
    18
100
AcDbLine
 10
383.564988
 20
604.998429
 30
0.0
 11
383.564988
 21
605.414054
 31
0.0
  0
LINE
  5
85
330
1F
100
AcDbEntity
  8
1
  6
Continuous
 62
   155
420
  5010073
370
    18
100
AcDbLine
 10
386.239318
 20
605.498398
 30
0.0
 11
386.239318
 21
604.998429
 31
0.0
  0
LINE
  5
86
330
1F
100
AcDbEntity
  8
1
  6
Continuous
 62
   155
420
  5010073
370
    35
100
AcDbLine
 10
404.775
 20
149.298429
 30
0.0
 11
404.775
 21
149.477949
 31
0.0
  0
LINE
  5
87
330
1F
100
AcDbEntity
  8
1
  6
Continuous
 62
   155
420
  5010073
370
    35
100
AcDbLine
 10
405.775
 20
149.477949
 30
0.0
 11
405.775
 21
149.298429
 31
0.0
  0
LINE
  5
88
330
1F
100
AcDbEntity
  8
1
  6
Continuous
 62
   155
420
  5010073
370
    35
100
AcDbLine
 10
406.775
 20
149.455189
 30
0.0
 11
406.775
 21
149.477949
 31
0.0
  0
LINE
  5
89
330
1F
100
AcDbEntity
  8
1
  6
Continuous
 62
   155
420
  5010073
370
    35
100
AcDbLine
 10
436.467603
 20
605.498366
 30
0.0
 11
436.467603
 21
604.998398
 31
0.0
  0
LINE
  5
8A
330
1F
100
AcDbEntity
  8
1
  6
Continuous
 62
   155
420
  5010073
370
    35
100
AcDbLine
 10
441.367603
 20
604.998398
 30
0.0
 11
441.367603
 21
605.498366
 31
0.0
  0
LINE
  5
8B
330
1F
100
AcDbEntity
  8
1
  6
Continuous
 62
   155
420
  5010073
370
    35
100
AcDbLine
 10
445.275
 20
609.998429
 30
0.0
 11
435.463383
 21
609.998429
 31
0.0
  0
LINE
  5
8C
330
1F
100
AcDbEntity
  8
1
  6
Continuous
 62
   155
420
  5010073
370
    35
100
AcDbLine
 10
435.463383
 20
609.998429
 30
0.0
 11
365.275
 21
609.998429
 31
0.0
  0
LINE
  5
8D
330
1F
100
AcDbEntity
  8
1
  6
Continuous
 62
   155
420
  5010073
370
    35
100
AcDbLine
 10
365.275
 20
609.998429
 30
0.0
 11
365.275
 21
605.998429
 31
0.0
  0
LINE
  5
8E
330
1F
100
AcDbEntity
  8
1
  6
Continuous
 62
   155
420
  5010073
370
    35
100
AcDbLine
 10
445.275
 20
605.998429
 30
0.0
 11
445.275
 21
609.998429
 31
0.0
  0
LINE
  5
8F
330
1F
100
AcDbEntity
  8
1
  6
Continuous
 62
   155
420
  5010073
370
    35
100
AcDbLine
 10
441.671842
 20
610.098429
 30
0.0
 11
436.171842
 21
610.098429
 31
0.0
  0
LINE
  5
90
330
1F
100
AcDbEntity
  8
1
  6
Continuous
 62
   155
420
  5010073
370
    35
100
AcDbLine
 10
436.171842
 20
610.098429
 30
0.0
 11
436.171842
 21
609.998429
 31
0.0
  0
LINE
  5
91
330
1F
100
AcDbEntity
  8
1
  6
Continuous
 62
   155
420
  5010073
370
    35
100
AcDbLine
 10
441.671842
 20
609.998429
 30
0.0
 11
441.671842
 21
610.098429
 31
0.0
  0
LINE
  5
92
330
1F
100
AcDbEntity
  8
1
  6
Continuous
 62
   155
420
  5010073
370
    35
100
AcDbLine
 10
450.275
 20
154.998429
 30
0.0
 11
360.275
 21
154.998429
 31
0.0
  0
LINE
  5
93
330
1F
100
AcDbEntity
  8
1
  6
Continuous
 62
   155
420
  5010073
370
    35
100
AcDbLine
 10
450.275
 20
604.998429
 30
0.0
 11
360.275
 21
604.998429
 31
0.0
  0
LINE
  5
94
330
1F
100
AcDbEntity
  8
1
  6
Continuous
 62
   155
420
  5010073
370
    35
100
AcDbLine
 10
360.275
 20
604.998429
 30
0.0
 11
360.275
 21
154.998429
 31
0.0
  0
LINE
  5
95
330
1F
100
AcDbEntity
  8
1
  6
Continuous
 62
   155
420
  5010073
370
    35
100
AcDbLine
 10
450.275
 20
154.998429
 30
0.0
 11
450.275
 21
604.998429
 31
0.0
  0
LINE
  5
96
330
1F
100
AcDbEntity
  8
1
  6
Continuous
 62
   155
420
  5010073
370
    35
100
AcDbLine
 10
399.584914
 20
610.098429
 30
0.0
 11
394.084914
 21
610.098429
 31
0.0
  0
LINE
  5
97
330
1F
100
AcDbEntity
  8
1
  6
Continuous
 62
   155
420
  5010073
370
    35
100
AcDbLine
 10
394.084914
 20
610.098429
 30
0.0
 11
394.084914
 21
609.998429
 31
0.0
  0
LINE
  5
98
330
1F
100
AcDbEntity
  8
1
  6
Continuous
 62
   155
420
  5010073
370
    35
100
AcDbLine
 10
399.584914
 20
609.998429
 30
0.0
 11
399.584914
 21
610.098429
 31
0.0
  0
LINE
  5
99
330
1F
100
AcDbEntity
  8
1
  6
Continuous
 62
   155
420
  5010073
370
    35
100
AcDbLine
 10
371.420757
 20
605.414071
 30
0.0
 11
371.170757
 21
605.414071
 31
0.0
  0
LINE
  5
9A
330
1F
100
AcDbEntity
  8
1
  6
Continuous
 62
   155
420
  5010073
370
    35
100
AcDbLine
 10
371.170757
 20
605.498432
 30
0.0
 11
371.170757
 21
605.414071
 31
0.0
  0
LINE
  5
9B
330
1F
100
AcDbEntity
  8
1
  6
Continuous
 62
   155
420
  5010073
370
    35
100
AcDbLine
 10
377.646421
 20
605.114071
 30
0.0
 11
373.767871
 21
605.114071
 31
0.0
  0
LINE
  5
9C
330
1F
100
AcDbEntity
  8
1
  6
Continuous
 62
   155
420
  5010073
370
    35
100
AcDbLine
 10
373.767871
 20
605.414071
 30
0.0
 11
373.767871
 21
605.114071
 31
0.0
  0
LINE
  5
9D
330
1F
100
AcDbEntity
  8
1
  6
Continuous
 62
   155
420
  5010073
370
    35
100
AcDbLine
 10
382.546717
 20
605.414071
 30
0.0
 11
384.647998
 21
605.414071
 31
0.0
  0
LINE
  5
9E
330
1F
100
AcDbEntity
  8
1
  6
Continuous
 62
   155
420
  5010073
370
    35
100
AcDbLine
 10
384.647998
 20
605.414071
 30
0.0
 11
384.647998
 21
605.498432
 31
0.0
  0
LINE
  5
9F
330
1F
100
AcDbEntity
  8
1
  6
Continuous
 62
   155
420
  5010073
370
    35
100
AcDbLine
 10
679.145258
 20
598.139679
 30
0.0
 11
679.145258
 21
598.639679
 31
0.0
  0
LINE
  5
A0
330
1F
100
AcDbEntity
  8
1
  6
Continuous
 62
   155
420
  5010073
370
    35
100
AcDbLine
 10
617.577151
 20
602.739679
 30
0.0
 11
612.077151
 21
602.739679
 31
0.0
  0
LINE
  5
A1
330
1F
100
AcDbEntity
  8
1
  6
Continuous
 62
   155
420
  5010073
370
    35
100
AcDbLine
 10
612.077151
 20
602.739679
 30
0.0
 11
612.077151
 21
602.639679
 31
0.0
  0
LINE
  5
A2
330
1F
100
AcDbEntity
  8
1
  6
Continuous
 62
   155
420
  5010073
370
    35
100
AcDbLine
 10
617.577151
 20
602.639679
 30
0.0
 11
617.577151
 21
602.739679
 31
0.0
  0
LINE
  5
A3
330
1F
100
AcDbEntity
  8
1
  6
Continuous
 62
   155
420
  5010073
370
    35
100
AcDbLine
 10
612.375834
 20
598.139616
 30
0.0
 11
612.375834
 21
597.639648
 31
0.0
  0
LINE
  5
A4
330
1F
100
AcDbEntity
  8
1
  6
Continuous
 62
   155
420
  5010073
370
    35
100
AcDbLine
 10
617.275834
 20
597.639648
 30
0.0
 11
617.275834
 21
598.139616
 31
0.0
  0
LINE
  5
A5
330
1F
100
AcDbEntity
  8
1
  6
Continuous
 62
   155
420
  5010073
370
    35
100
AcDbLine
 10
647.946173
 20
597.755321
 30
0.0
 11
647.946173
 21
597.639681
 31
0.0
  0
LINE
  5
A6
330
1F
100
AcDbEntity
  8
1
  6
Continuous
 62
   155
420
  5010073
370
    35
100
AcDbLine
 10
648.009989
 20
597.755321
 30
0.0
 11
648.009989
 21
597.639681
 31
0.0
  0
LINE
  5
A7
330
1F
100
AcDbEntity
  8
1
  6
Continuous
 62
   155
420
  5010073
370
    35
100
AcDbLine
 10
648.689033
 20
597.755321
 30
0.0
 11
648.689033
 21
597.639681
 31
0.0
  0
LINE
  5
A8
330
1F
100
AcDbEntity
  8
1
  6
Continuous
 62
   155
420
  5010073
370
    35
100
AcDbLine
 10
648.754577
 20
597.755321
 30
0.0
 11
648.754577
 21
597.639681
 31
0.0
  0
LINE
  5
A9
330
1F
100
AcDbEntity
  8
1
  6
Continuous
 62
   155
420
  5010073
370
    35
100
AcDbLine
 10
649.007989
 20
597.755321
 30
0.0
 11
649.007989
 21
597.639681
 31
0.0
  0
LINE
  5
AA
330
1F
100
AcDbEntity
  8
1
  6
Continuous
 62
   155
420
  5010073
370
    35
100
AcDbLine
 10
649.069213
 20
597.755321
 30
0.0
 11
649.069213
 21
597.639681
 31
0.0
  0
LINE
  5
AB
330
1F
100
AcDbEntity
  8
1
  6
Continuous
 62
   155
420
  5010073
370
    35
100
AcDbLine
 10
649.34906
 20
597.755321
 30
0.0
 11
649.34906
 21
597.639681
 31
0.0
  0
LINE
  5
AC
330
1F
100
AcDbEntity
  8
1
  6
Continuous
 62
   155
420
  5010073
370
    35
100
AcDbLine
 10
649.98393
 20
597.755321
 30
0.0
 11
649.98393
 21
597.639681
 31
0.0
  0
LINE
  5
AD
330
1F
100
AcDbEntity
  8
1
  6
Continuous
 62
   155
420
  5010073
370
    35
100
AcDbLine
 10
650.022194
 20
597.755321
 30
0.0
 11
650.022194
 21
597.639681
 31
0.0
  0
LINE
  5
AE
330
1F
100
AcDbEntity
  8
1
  6
Continuous
 62
   155
420
  5010073
370
    35
100
AcDbLine
 10
650.174718
 20
597.755321
 30
0.0
 11
650.174718
 21
597.639681
 31
0.0
  0
LINE
  5
AF
330
1F
100
AcDbEntity
  8
1
  6
Continuous
 62
   155
420
  5010073
370
    35
100
AcDbLine
 10
654.105018
 20
597.755321
 30
0.0
 11
654.105018
 21
597.639681
 31
0.0
  0
LINE
  5
B0
330
1F
100
AcDbEntity
  8
1
  6
Continuous
 62
   155
420
  5010073
370
    35
100
AcDbLine
 10
653.732808
 20
597.755321
 30
0.0
 11
653.732808
 21
597.639681
 31
0.0
  0
LINE
  5
B1
330
1F
100
AcDbEntity
  8
1
  6
Continuous
 62
   155
420
  5010073
370
    35
100
AcDbLine
 10
653.496183
 20
597.755321
 30
0.0
 11
653.496183
 21
597.639681
 31
0.0
  0
LINE
  5
B2
330
1F
100
AcDbEntity
  8
1
  6
Continuous
 62
   155
420
  5010073
370
    35
100
AcDbLine
 10
650.766789
 20
597.755317
 30
0.0
 11
650.766789
 21
597.639681
 31
0.0
  0
LINE
  5
B3
330
1F
100
AcDbEntity
  8
1
  6
Continuous
 62
   155
420
  5010073
370
    35
100
AcDbLine
 10
648.30703
 20
598.055321
 30
0.0
 11
658.169886
 21
598.055321
 31
0.0
  0
LINE
  5
B4
330
1F
100
AcDbEntity
  8
1
  6
Continuous
 62
   155
420
  5010073
370
    35
100
AcDbLine
 10
648.30703
 20
597.755321
 30
0.0
 11
658.169886
 21
597.755321
 31
0.0
  0
LINE
  5
B5
330
1F
100
AcDbEntity
  8
1
  6
Continuous
 62
   155
420
  5010073
370
    35
100
AcDbLine
 10
658.169886
 20
597.755321
 30
0.0
 11
658.169886
 21
598.055321
 31
0.0
  0
LINE
  5
B6
330
1F
100
AcDbEntity
  8
1
  6
Continuous
 62
   155
420
  5010073
370
    35
100
AcDbLine
 10
647.21107
 20
598.055321
 30
0.0
 11
648.30703
 21
598.055321
 31
0.0
  0
LINE
  5
B7
330
1F
100
AcDbEntity
  8
1
  6
Continuous
 62
   155
420
  5010073
370
    35
100
AcDbLine
 10
647.21107
 20
597.755321
 30
0.0
 11
648.30703
 21
597.755321
 31
0.0
  0
LINE
  5
B8
330
1F
100
AcDbEntity
  8
1
  6
Continuous
 62
   155
420
  5010073
370
    35
100
AcDbLine
 10
648.30703
 20
597.755321
 30
0.0
 11
648.30703
 21
598.055321
 31
0.0
  0
LINE
  5
B9
330
1F
100
AcDbEntity
  8
1
  6
Continuous
 62
   155
420
  5010073
370
    35
100
AcDbLine
 10
677.640192
 20
142.096439
 30
0.0
 11
677.640192
 21
142.119199
 31
0.0
  0
LINE
  5
BA
330
1F
100
AcDbEntity
  8
1
  6
Continuous
 62
   155
420
  5010073
370
    35
100
AcDbLine
 10
678.640192
 20
141.939679
 30
0.0
 11
678.640192
 21
142.119199
 31
0.0
  0
LINE
  5
BB
330
1F
100
AcDbEntity
  8
1
  6
Continuous
 62
   155
420
  5010073
370
    35
100
AcDbLine
 10
679.640192
 20
142.119199
 30
0.0
 11
679.640192
 21
141.939679
 31
0.0
  0
LINE
  5
BC
330
1F
100
AcDbEntity
  8
1
  6
Continuous
 62
   155
420
  5010073
370
    35
100
AcDbLine
 10
680.640192
 20
142.096439
 30
0.0
 11
680.640192
 21
142.119199
 31
0.0
  0
LINE
  5
BD
330
1F
100
AcDbEntity
  8
1
  6
Continuous
 62
   155
420
  5010073
370
    35
100
AcDbLine
 10
627.041188
 20
598.139616
 30
0.0
 11
627.041188
 21
597.639648
 31
0.0
  0
LINE
  5
BE
330
1F
100
AcDbEntity
  8
1
  6
Continuous
 62
   155
420
  5010073
370
    35
100
AcDbLine
 10
631.941188
 20
597.639648
 30
0.0
 11
631.941188
 21
598.139616
 31
0.0
  0
LINE
  5
BF
330
1F
100
AcDbEntity
  8
1
  6
Continuous
 62
   155
420
  5010073
370
    35
100
AcDbLine
 10
679.140192
 20
602.639679
 30
0.0
 11
612.897831
 21
602.639679
 31
0.0
  0
LINE
  5
C0
330
1F
100
AcDbEntity
  8
1
  6
Continuous
 62
   155
420
  5010073
370
    35
100
AcDbLine
 10
612.897831
 20
602.639679
 30
0.0
 11
599.140192
 21
602.639679
 31
0.0
  0
LINE
  5
C1
330
1F
100
AcDbEntity
  8
1
  6
Continuous
 62
   155
420
  5010073
370
    35
100
AcDbLine
 10
599.140192
 20
602.639679
 30
0.0
 11
599.140192
 21
598.639679
 31
0.0
  0
LINE
  5
C2
330
1F
100
AcDbEntity
  8
1
  6
Continuous
 62
   155
420
  5010073
370
    35
100
AcDbLine
 10
679.140192
 20
598.639679
 30
0.0
 11
679.140192
 21
602.639679
 31
0.0
  0
LINE
  5
C3
330
1F
100
AcDbEntity
  8
1
  6
Continuous
 62
   155
420
  5010073
370
    35
100
AcDbLine
 10
632.252207
 20
602.739679
 30
0.0
 11
626.752207
 21
602.739679
 31
0.0
  0
LINE
  5
C4
330
1F
100
AcDbEntity
  8
1
  6
Continuous
 62
   155
420
  5010073
370
    35
100
AcDbLine
 10
626.752207
 20
602.739679
 30
0.0
 11
626.752207
 21
602.639679
 31
0.0
  0
LINE
  5
C5
330
1F
100
AcDbEntity
  8
1
  6
Continuous
 62
   155
420
  5010073
370
    35
100
AcDbLine
 10
632.252207
 20
602.639679
 30
0.0
 11
632.252207
 21
602.739679
 31
0.0
  0
LINE
  5
C6
330
1F
100
AcDbEntity
  8
1
  6
Continuous
 62
   155
420
  5010073
370
    35
100
AcDbLine
 10
670.648883
 20
598.139616
 30
0.0
 11
670.648883
 21
597.639648
 31
0.0
  0
LINE
  5
C7
330
1F
100
AcDbEntity
  8
1
  6
Continuous
 62
   155
420
  5010073
370
    35
100
AcDbLine
 10
675.548883
 20
597.639648
 30
0.0
 11
675.548883
 21
598.139616
 31
0.0
  0
LINE
  5
C8
330
1F
100
AcDbEntity
  8
1
  6
Continuous
 62
   155
420
  5010073
370
    35
100
AcDbLine
 10
684.140192
 20
147.639679
 30
0.0
 11
639.140192
 21
147.639679
 31
0.0
  0
LINE
  5
C9
330
1F
100
AcDbEntity
  8
1
  6
Continuous
 62
   155
420
  5010073
370
    35
100
AcDbLine
 10
639.140192
 20
147.639679
 30
0.0
 11
594.140192
 21
147.639679
 31
0.0
  0
LINE
  5
CA
330
1F
100
AcDbEntity
  8
1
  6
Continuous
 62
   155
420
  5010073
370
    35
100
AcDbLine
 10
684.140192
 20
597.639679
 30
0.0
 11
639.140192
 21
597.639679
 31
0.0
  0
LINE
  5
CB
330
1F
100
AcDbEntity
  8
1
  6
Continuous
 62
   155
420
  5010073
370
    35
100
AcDbLine
 10
639.140192
 20
597.639679
 30
0.0
 11
594.140192
 21
597.639679
 31
0.0
  0
LINE
  5
CC
330
1F
100
AcDbEntity
  8
1
  6
Continuous
 62
   155
420
  5010073
370
    35
100
AcDbLine
 10
594.140192
 20
597.639679
 30
0.0
 11
594.140192
 21
147.639679
 31
0.0
  0
LINE
  5
CD
330
1F
100
AcDbEntity
  8
1
  6
Continuous
 62
   155
420
  5010073
370
    35
100
AcDbLine
 10
684.140192
 20
147.639679
 30
0.0
 11
684.140192
 21
597.639679
 31
0.0
  0
LINE
  5
CE
330
1F
100
AcDbEntity
  8
1
  6
Continuous
 62
   155
420
  5010073
370
    35
100
AcDbLine
 10
675.857424
 20
602.739679
 30
0.0
 11
670.357424
 21
602.739679
 31
0.0
  0
LINE
  5
CF
330
1F
100
AcDbEntity
  8
1
  6
Continuous
 62
   155
420
  5010073
370
    35
100
AcDbLine
 10
670.357424
 20
602.739679
 30
0.0
 11
670.357424
 21
602.639679
 31
0.0
  0
LINE
  5
D0
330
1F
100
AcDbEntity
  8
1
  6
Continuous
 62
   155
420
  5010073
370
    35
100
AcDbLine
 10
675.857424
 20
602.639679
 30
0.0
 11
675.857424
 21
602.739679
 31
0.0
  0
LINE
  5
D1
330
1F
100
AcDbEntity
  8
1
  6
Continuous
 62
   155
420
  5010073
370
    35
100
AcDbLine
 10
622.432291
 20
598.055321
 30
0.0
 11
622.182291
 21
598.055321
 31
0.0
  0
LINE
  5
D2
330
1F
100
AcDbEntity
  8
1
  6
Continuous
 62
   155
420
  5010073
370
    35
100
AcDbLine
 10
622.182291
 20
598.139682
 30
0.0
 11
622.182291
 21
598.055321
 31
0.0
  0
LINE
  5
D3
330
1F
100
AcDbEntity
  8
1
  6
Continuous
 62
   155
420
  5010073
370
    35
100
AcDbLine
 10
622.432291
 20
598.055321
 30
0.0
 11
623.05769
 21
598.055321
 31
0.0
  0
LINE
  5
D4
330
1F
100
AcDbEntity
  8
1
  6
Continuous
 62
   155
420
  5010073
370
    18
100
AcDbLine
 10
622.432291
 20
598.139682
 30
0.0
 11
622.432291
 21
598.055321
 31
0.0
  0
LINE
  5
D5
330
1F
100
AcDbEntity
  8
1
  6
Continuous
 62
   155
420
  5010073
370
    35
100
AcDbLine
 10
684.140192
 20
147.639679
 30
0.0
 11
639.140192
 21
147.639679
 31
0.0
  0
LINE
  5
D6
330
1F
100
AcDbEntity
  8
1
  6
Continuous
 62
   155
420
  5010073
370
    35
100
AcDbLine
 10
639.140192
 20
147.639679
 30
0.0
 11
594.140192
 21
147.639679
 31
0.0
  0
LINE
  5
D7
330
1F
100
AcDbEntity
  8
1
  6
Continuous
 62
   155
420
  5010073
370
    35
100
AcDbLine
 10
594.140192
 20
507.639679
 30
0.0
 11
594.140192
 21
147.639679
 31
0.0
  0
LINE
  5
D8
330
1F
100
AcDbEntity
  8
1
  6
Continuous
 62
   155
420
  5010073
370
    35
100
AcDbLine
 10
684.140192
 20
147.639679
 30
0.0
 11
684.140192
 21
507.639679
 31
0.0
  0
LINE
  5
D9
330
1F
100
AcDbEntity
  8
1
  6
Continuous
 62
   155
420
  5010073
370
    35
100
AcDbLine
 10
599.135126
 20
598.639679
 30
0.0
 11
679.145258
 21
598.639679
 31
0.0
  0
LINE
  5
DA
330
1F
100
AcDbEntity
  8
1
  6
Continuous
 62
   155
420
  5010073
370
    35
100
AcDbLine
 10
599.135126
 20
598.139679
 30
0.0
 11
612.894507
 21
598.139679
 31
0.0
  0
LINE
  5
DB
330
1F
100
AcDbEntity
  8
1
  6
Continuous
 62
   155
420
  5010073
370
    35
100
AcDbLine
 10
612.894507
 20
598.139679
 30
0.0
 11
679.145258
 21
598.139679
 31
0.0
  0
LINE
  5
DC
330
1F
100
AcDbEntity
  8
1
  6
Continuous
 62
   155
420
  5010073
370
    35
100
AcDbLine
 10
599.135126
 20
598.639679
 30
0.0
 11
599.135126
 21
598.139679
 31
0.0
  0
LINE
  5
DD
330
1F
100
AcDbEntity
  8
1
  6
Continuous
 62
   155
420
  5010073
370
    35
100
AcDbLine
 10
647.211096
 20
597.639694
 30
0.0
 11
647.211096
 21
598.139663
 31
0.0
  0
LINE
  5
DE
330
1F
100
AcDbEntity
  8
1
  6
Continuous
 62
   155
420
  5010073
370
    18
100
AcDbLine
 10
644.732041
 20
597.639694
 30
0.0
 11
644.732041
 21
598.139663
 31
0.0
  0
LINE
  5
DF
330
1F
100
AcDbEntity
  8
1
  6
Continuous
 62
   155
420
  5010073
370
    18
100
AcDbLine
 10
632.421944
 20
598.139663
 30
0.0
 11
632.421944
 21
597.639694
 31
0.0
  0
LINE
  5
E0
330
1F
100
AcDbEntity
  8
1
  6
Continuous
 62
   155
420
  5010073
370
    35
100
AcDbLine
 10
594.954156
 20
147.639679
 30
0.0
 11
594.940192
 21
146.839679
 31
0.0
  0
LINE
  5
E1
330
1F
100
AcDbEntity
  8
1
  6
Continuous
 62
   155
420
  5010073
370
    35
100
AcDbLine
 10
683.340192
 20
146.839679
 30
0.0
 11
683.326228
 21
147.639679
 31
0.0
  0
LINE
  5
E2
330
1F
100
AcDbEntity
  8
1
  6
Continuous
 62
   155
420
  5010073
370
    35
100
AcDbLine
 10
684.066881
 20
146.839679
 30
0.0
 11
594.213503
 21
146.839679
 31
0.0
  0
LINE
  5
E3
330
1F
100
AcDbEntity
  8
1
  6
Continuous
 62
   155
420
  5010073
370
    35
100
AcDbLine
 10
594.213503
 20
146.839679
 30
0.0
 11
594.143744
 21
142.843169
 31
0.0
  0
LINE
  5
E4
330
1F
100
AcDbEntity
  8
1
  6
Continuous
 62
   155
420
  5010073
370
    35
100
AcDbLine
 10
684.13664
 20
142.843169
 30
0.0
 11
684.066881
 21
146.839679
 31
0.0
  0
LINE
  5
E5
330
1F
100
AcDbEntity
  8
1
  6
Continuous
 62
   155
420
  5010073
370
    18
100
AcDbLine
 10
684.13664
 20
142.843169
 30
0.0
 11
639.140192
 21
142.843169
 31
0.0
  0
LINE
  5
E6
330
1F
100
AcDbEntity
  8
1
  6
Continuous
 62
   155
420
  5010073
370
    18
100
AcDbLine
 10
639.140192
 20
142.843169
 30
0.0
 11
594.143744
 21
142.843169
 31
0.0
  0
LINE
  5
E7
330
1F
100
AcDbEntity
  8
1
  6
Continuous
 62
   155
420
  5010073
370
    35
100
AcDbLine
 10
594.343713
 20
142.639679
 30
0.0
 11
639.140192
 21
142.639679
 31
0.0
  0
LINE
  5
E8
330
1F
100
AcDbEntity
  8
1
  6
Continuous
 62
   155
420
  5010073
370
    35
100
AcDbLine
 10
639.140192
 20
142.639679
 30
0.0
 11
683.936671
 21
142.639679
 31
0.0
  0
LINE
  5
E9
330
1F
100
AcDbEntity
  8
1
  6
Continuous
 62
   155
420
  5010073
370
    35
100
AcDbLine
 10
617.640192
 20
142.096439
 30
0.0
 11
617.640192
 21
142.119199
 31
0.0
  0
LINE
  5
EA
330
1F
100
AcDbEntity
  8
1
  6
Continuous
 62
   155
420
  5010073
370
    35
100
AcDbLine
 10
618.640192
 20
141.939679
 30
0.0
 11
618.640192
 21
142.119199
 31
0.0
  0
LINE
  5
EB
330
1F
100
AcDbEntity
  8
1
  6
Continuous
 62
   155
420
  5010073
370
    35
100
AcDbLine
 10
619.640192
 20
142.119199
 30
0.0
 11
619.640192
 21
141.939679
 31
0.0
  0
LINE
  5
EC
330
1F
100
AcDbEntity
  8
1
  6
Continuous
 62
   155
420
  5010073
370
    35
100
AcDbLine
 10
620.640192
 20
142.096439
 30
0.0
 11
620.640192
 21
142.119199
 31
0.0
  0
ARC
  5
ED
330
1F
100
AcDbEntity
  8
1
  6
Continuous
 62
   155
420
  5010073
370
    35
100
AcDbCircle
 10
405.275
 20
154.958598
 30
0.0
 40
5.682210605135203
100
AcDbArc
 50
254.6935420000001
 51
264.951791
  0
ARC
  5
EE
330
1F
100
AcDbEntity
  8
1
  6
Continuous
 62
   155
420
  5010073
370
    35
100
AcDbCircle
 10
405.275
 20
154.958598
 30
0.0
 40
5.704166666666653
100
AcDbArc
 50
240.4088640000002
 51
254.7538930000005
  0
ARC
  5
EF
330
1F
100
AcDbEntity
  8
1
  6
Continuous
 62
   155
420
  5010073
370
    35
100
AcDbCircle
 10
405.275
 20
154.958598
 30
0.0
 40
5.704166666666653
100
AcDbArc
 50
285.2461070000001
 51
299.5911359999998
  0
ARC
  5
F0
330
1F
100
AcDbEntity
  8
1
  6
Continuous
 62
   155
420
  5010073
370
    35
100
AcDbCircle
 10
360.478521
 20
150.198429
 30
0.0
 40
0.2
100
AcDbArc
 50
178.9999999999998
 51
270.0
  0
ARC
  5
F1
330
1F
100
AcDbEntity
  8
1
  6
Continuous
 62
   155
420
  5010073
370
    35
100
AcDbCircle
 10
450.071478
 20
150.198429
 30
0.0
 40
0.2
100
AcDbArc
 50
270.0
 51
1.000000000000247
  0
ARC
  5
F2
330
1F
100
AcDbEntity
  8
1
  6
Continuous
 62
   155
420
  5010073
370
    35
100
AcDbCircle
 10
439.916016
 20
154.958598
 30
0.0
 40
5.503409612332246
100
AcDbArc
 50
264.7873320000001
 51
275.2126679999993
  0
ARC
  5
F3
330
1F
100
AcDbEntity
  8
1
  6
Continuous
 62
   155
420
  5010073
370
    35
100
AcDbCircle
 10
439.916016
 20
154.958598
 30
0.0
 40
5.682210605135203
100
AcDbArc
 50
275.0482090000001
 51
285.3064580000005
  0
ARC
  5
F4
330
1F
100
AcDbEntity
  8
1
  6
Continuous
 62
   155
420
  5010073
370
    35
100
AcDbCircle
 10
439.916016
 20
154.958598
 30
0.0
 40
5.682210605135203
100
AcDbArc
 50
254.6935420000001
 51
264.951791
  0
ARC
  5
F5
330
1F
100
AcDbEntity
  8
1
  6
Continuous
 62
   155
420
  5010073
370
    35
100
AcDbCircle
 10
439.916016
 20
154.958598
 30
0.0
 40
5.704166666666653
100
AcDbArc
 50
240.4088640000002
 51
254.7538930000005
  0
ARC
  5
F6
330
1F
100
AcDbEntity
  8
1
  6
Continuous
 62
   155
420
  5010073
370
    35
100
AcDbCircle
 10
439.916016
 20
154.958598
 30
0.0
 40
5.704166666666653
100
AcDbArc
 50
285.2461070000001
 51
299.5911359999998
  0
ARC
  5
F7
330
1F
100
AcDbEntity
  8
1
  6
Continuous
 62
   155
420
  5010073
370
    35
100
AcDbCircle
 10
370.633984
 20
154.958598
 30
0.0
 40
5.503409612332246
100
AcDbArc
 50
264.7873320000001
 51
275.2126679999993
  0
ARC
  5
F8
330
1F
100
AcDbEntity
  8
1
  6
Continuous
 62
   155
420
  5010073
370
    35
100
AcDbCircle
 10
370.633984
 20
154.958598
 30
0.0
 40
5.682210605135203
100
AcDbArc
 50
275.0482090000001
 51
285.3064580000005
  0
ARC
  5
F9
330
1F
100
AcDbEntity
  8
1
  6
Continuous
 62
   155
420
  5010073
370
    35
100
AcDbCircle
 10
370.633984
 20
154.958598
 30
0.0
 40
5.682210605135203
100
AcDbArc
 50
254.6935420000001
 51
264.951791
  0
ARC
  5
FA
330
1F
100
AcDbEntity
  8
1
  6
Continuous
 62
   155
420
  5010073
370
    35
100
AcDbCircle
 10
370.633984
 20
154.958598
 30
0.0
 40
5.704166666666653
100
AcDbArc
 50
240.4088640000002
 51
254.7538930000005
  0
ARC
  5
FB
330
1F
100
AcDbEntity
  8
1
  6
Continuous
 62
   155
420
  5010073
370
    35
100
AcDbCircle
 10
370.633984
 20
154.958598
 30
0.0
 40
5.704166666666653
100
AcDbArc
 50
285.2461070000001
 51
299.5911359999998
  0
ARC
  5
FC
330
1F
100
AcDbEntity
  8
1
  6
Continuous
 62
   155
420
  5010073
370
    35
100
AcDbCircle
 10
405.275
 20
154.958598
 30
0.0
 40
5.503409612332246
100
AcDbArc
 50
264.7873320000001
 51
275.2126679999993
  0
ARC
  5
FD
330
1F
100
AcDbEntity
  8
1
  6
Continuous
 62
   155
420
  5010073
370
    35
100
AcDbCircle
 10
405.275
 20
154.958598
 30
0.0
 40
5.682210605135203
100
AcDbArc
 50
275.0482090000001
 51
285.3064580000005
  0
ARC
  5
FE
330
1F
100
AcDbEntity
  8
1
  6
Continuous
 62
   155
420
  5010073
370
    35
100
AcDbCircle
 10
679.140192
 20
147.599848
 30
0.0
 40
5.682210605135202
100
AcDbArc
 50
254.6935419999995
 51
264.9517909999999
  0
ARC
  5
FF
330
1F
100
AcDbEntity
  8
1
  6
Continuous
 62
   155
420
  5010073
370
    35
100
AcDbCircle
 10
679.140192
 20
147.599848
 30
0.0
 40
5.503409612332245
100
AcDbArc
 50
264.7873320000001
 51
275.2126679999999
  0
ARC
  5
100
330
1F
100
AcDbEntity
  8
1
  6
Continuous
 62
   155
420
  5010073
370
    35
100
AcDbCircle
 10
679.140192
 20
147.599848
 30
0.0
 40
5.682210605135202
100
AcDbArc
 50
275.0482090000001
 51
285.3064579999993
  0
ARC
  5
101
330
1F
100
AcDbEntity
  8
1
  6
Continuous
 62
   155
420
  5010073
370
    35
100
AcDbCircle
 10
679.140192
 20
147.599848
 30
0.0
 40
5.704166666666653
100
AcDbArc
 50
285.2461069999995
 51
299.5911359999998
  0
ARC
  5
102
330
1F
100
AcDbEntity
  8
1
  6
Continuous
 62
   155
420
  5010073
370
    35
100
AcDbCircle
 10
679.140192
 20
147.599848
 30
0.0
 40
5.704166666666653
100
AcDbArc
 50
239.3634490000005
 51
254.7538930000005
  0
ARC
  5
103
330
1F
100
AcDbEntity
  8
1
  6
Continuous
 62
   155
420
  5010073
370
    35
100
AcDbCircle
 10
594.343713
 20
142.839679
 30
0.0
 40
0.2
100
AcDbArc
 50
178.9999999999998
 51
270.0
  0
ARC
  5
104
330
1F
100
AcDbEntity
  8
1
  6
Continuous
 62
   155
420
  5010073
370
    35
100
AcDbCircle
 10
683.936671
 20
142.839679
 30
0.0
 40
0.2
100
AcDbArc
 50
270.0
 51
1.000000000000247
  0
ARC
  5
105
330
1F
100
AcDbEntity
  8
1
  6
Continuous
 62
   155
420
  5010073
370
    35
100
AcDbCircle
 10
619.140192
 20
147.599848
 30
0.0
 40
5.682210605135202
100
AcDbArc
 50
254.6935419999995
 51
264.9517909999999
  0
ARC
  5
106
330
1F
100
AcDbEntity
  8
1
  6
Continuous
 62
   155
420
  5010073
370
    35
100
AcDbCircle
 10
619.140192
 20
147.599848
 30
0.0
 40
5.503409612332245
100
AcDbArc
 50
264.7873320000001
 51
275.2126679999999
  0
ARC
  5
107
330
1F
100
AcDbEntity
  8
1
  6
Continuous
 62
   155
420
  5010073
370
    35
100
AcDbCircle
 10
619.140192
 20
147.599848
 30
0.0
 40
5.682210605135202
100
AcDbArc
 50
275.0482090000001
 51
285.3064579999993
  0
ARC
  5
108
330
1F
100
AcDbEntity
  8
1
  6
Continuous
 62
   155
420
  5010073
370
    35
100
AcDbCircle
 10
619.140192
 20
147.599848
 30
0.0
 40
5.704166666666653
100
AcDbArc
 50
285.2461069999995
 51
299.5911359999998
  0
ARC
  5
109
330
1F
100
AcDbEntity
  8
1
  6
Continuous
 62
   155
420
  5010073
370
    35
100
AcDbCircle
 10
619.140192
 20
147.599848
 30
0.0
 40
5.704166666666653
100
AcDbArc
 50
240.4088640000002
 51
254.7538930000005
  0
SPLINE
  5
10A
330
1F
100
AcDbEntity
  8
1
  6
Continuous
 62
   155
420
  5010073
370
    35
100
AcDbSpline
210
0.0
220
0.0
230
1.0
 70
    12
 71
     2
 72
     6
 73
     3
 74
     0
 42
0.0000000001
 43
0.0000000001
 40
3.867565922633046
 40
3.867565922633046
 40
3.867565922633046
 40
4.17660382442692
 40
4.17660382442692
 40
4.17660382442692
 10
388.8316537570477
 20
605.4984238826287
 30
0.0
 41
0.8543917618785679
 10
388.5898945466265
 20
605.2819215336947
 30
0.0
 41
0.8500318298038512
 10
388.4287166221632
 20
604.9984573400445
 30
0.0
 41
0.868345631944013
  0
SPLINE
  5
10B
330
1F
100
AcDbEntity
  8
1
  6
Continuous
 62
   155
420
  5010073
370
    35
100
AcDbSpline
210
0.0
220
0.0
230
1.0
 70
    12
 71
     2
 72
     6
 73
     3
 74
     0
 42
0.0000000001
 43
0.0000000001
 40
0.7259732690430939
 40
0.7259732690430939
 40
0.7259732690430939
 40
1.035011170837115
 40
1.035011170837115
 40
1.035011170837115
 10
392.0441447570479
 20
605.498423882629
 30
0.0
 41
0.8543917618785724
 10
391.8023855466265
 20
605.2819215336949
 30
0.0
 41
0.8500318298038418
 10
391.641207622163
 20
604.9984573400445
 30
0.0
 41
0.8683456319440115
  0
SPLINE
  5
10C
330
1F
100
AcDbEntity
  8
1
  6
Continuous
 62
   155
420
  5010073
370
    35
100
AcDbSpline
210
0.0
220
0.0
230
1.0
 70
    12
 71
     2
 72
     6
 73
     3
 74
     0
 42
0.0000000001
 43
0.0000000001
 40
5.308944487333269
 40
5.308944487333269
 40
5.308944487333269
 40
5.36304362031652
 40
5.36304362031652
 40
5.36304362031652
 10
376.9587578137209
 20
605.1140473594483
 30
0.0
 41
0.8620198096464864
 10
376.9940093348606
 20
605.0550706362545
 30
0.0
 41
0.8595943728364737
 10
377.0322054383826
 20
604.9984090647787
 30
0.0
 41
0.8578637685976331
  0
SPLINE
  5
10D
330
1F
100
AcDbEntity
  8
1
  6
Continuous
 62
   155
420
  5010073
370
    35
100
AcDbSpline
210
0.0
220
0.0
230
1.0
 70
    12
 71
     2
 72
     6
 73
     3
 74
     0
 42
0.0000000001
 43
0.0000000001
 40
3.867565922633047
 40
3.867565922633047
 40
3.867565922633047
 40
4.176603824475449
 40
4.176603824475449
 40
4.176603824475449
 10
623.07329428057
 20
598.1396738826287
 30
0.0
 41
0.8543917618785677
 10
623.0306656632379
 20
597.9231715336605
 30
0.0
 41
0.8500318298031664
 10
623.002245682664
 20
597.6397073399576
 30
0.0
 41
0.8683456319497647
  0
SPLINE
  5
10E
330
1F
100
AcDbEntity
  8
1
  6
Continuous
 62
   155
420
  5010073
370
    35
100
AcDbSpline
210
0.0
220
0.0
230
1.0
 70
    11
 71
     3
 72
   133
 73
   129
 74
     0
 42
0.0000000001
 43
0.0000000001
 40
0.0
 40
0.0
 40
0.0
 40
0.0
 40
0.0312499999999968
 40
0.0312499999999968
 40
0.0468749999999951
 40
0.0468749999999951
 40
0.0546874999999943
 40
0.0546874999999943
 40
0.0624999999999934
 40
0.0624999999999934
 40
0.0937499999999898
 40
0.0937499999999898
 40
0.1015624999999891
 40
0.1015624999999891
 40
0.1093749999999885
 40
0.1093749999999885
 40
0.124999999999987
 40
0.124999999999987
 40
0.1562499999999845
 40
0.1562499999999845
 40
0.1640624999999839
 40
0.1640624999999839
 40
0.1718749999999832
 40
0.1718749999999832
 40
0.1874999999999823
 40
0.2031249999999814
 40
0.2031249999999814
 40
0.2109374999999819
 40
0.2109374999999819
 40
0.2187499999999824
 40
0.2187499999999824
 40
0.2499999999999872
 40
0.2499999999999872
 40
0.26562499999999
 40
0.26562499999999
 40
0.2734374999999916
 40
0.2734374999999916
 40
0.2812499999999933
 40
0.2812499999999933
 40
0.3124999999999958
 40
0.3124999999999958
 40
0.3203124999999971
 40
0.3203124999999971
 40
0.3281249999999983
 40
0.3281249999999983
 40
0.3437500000000001
 40
0.3437500000000001
 40
0.3750000000000038
 40
0.3750000000000038
 40
0.3828125000000044
 40
0.3828125000000044
 40
0.3906250000000052
 40
0.4062500000000058
 40
0.4218750000000066
 40
0.4218750000000066
 40
0.429687500000007
 40
0.429687500000007
 40
0.4375000000000074
 40
0.4375000000000074
 40
0.468750000000008
 40
0.468750000000008
 40
0.4765625000000079
 40
0.4765625000000079
 40
0.4843750000000078
 40
0.4843750000000078
 40
0.5000000000000073
 40
0.5000000000000073
 40
0.5312500000000066
 40
0.5312500000000066
 40
0.5390625000000064
 40
0.5390625000000064
 40
0.5468750000000062
 40
0.5468750000000062
 40
0.5625000000000061
 40
0.5781250000000059
 40
0.5781250000000059
 40
0.5859375000000056
 40
0.5859375000000056
 40
0.5937500000000052
 40
0.5937500000000052
 40
0.6250000000000031
 40
0.6250000000000031
 40
0.640625000000002
 40
0.640625000000002
 40
0.648437500000001
 40
0.648437500000001
 40
0.6562499999999999
 40
0.6562499999999999
 40
0.6874999999999976
 40
0.6874999999999976
 40
0.6953124999999978
 40
0.6953124999999978
 40
0.703124999999998
 40
0.703124999999998
 40
0.7187500000000002
 40
0.7187500000000002
 40
0.7500000000000028
 40
0.7500000000000028
 40
0.757812500000003
 40
0.757812500000003
 40
0.7656250000000031
 40
0.7656250000000031
 40
0.7812500000000049
 40
0.7968750000000066
 40
0.7968750000000066
 40
0.8046875000000074
 40
0.8046875000000074
 40
0.8125000000000083
 40
0.8125000000000083
 40
0.8437500000000083
 40
0.8437500000000083
 40
0.8593750000000079
 40
0.8593750000000079
 40
0.8750000000000074
 40
0.8750000000000074
 40
0.9062500000000063
 40
0.9062500000000063
 40
0.9140625000000053
 40
0.9140625000000053
 40
0.9218750000000043
 40
0.9375000000000032
 40
0.9531250000000022
 40
0.9531250000000022
 40
0.9609375000000019
 40
0.9609375000000019
 40
0.9687500000000017
 40
0.9687500000000017
 40
1.0
 40
1.0
 40
1.0
 40
1.0
 10
375.4617559394536
 20
512.8347090751909
 30
0.0
 10
375.4451038846159
 20
512.7313605970488
 30
0.0
 10
375.4363390220923
 20
512.6275575614577
 30
0.0
 10
375.4345169961258
 20
512.4711989460346
 30
0.0
 10
375.4358116710614
 20
512.4189695876853
 30
0.0
 10
375.4406728190569
 20
512.340457055299
 30
0.0
 10
375.4427853670784
 20
512.314211767162
 30
0.0
 10
375.4479867183243
 20
512.2618713672921
 30
0.0
 10
375.4510620257608
 20
512.2358931139079
 30
0.0
 10
375.4687651736573
 20
512.1069420583683
 30
0.0
 10
375.4903047610661
 20
512.0067631405879
 30
0.0
 10
375.5264130379848
 20
511.8852329121504
 30
0.0
 10
375.5340981184625
 20
511.86111319958
 30
0.0
 10
375.5504115205751
 20
511.8132523795797
 30
0.0
 10
375.5590646653019
 20
511.7894486929603
 30
0.0
 10
375.5862791744127
 20
511.7191152421919
 30
0.0
 10
375.6060315356708
 20
511.6737806302039
 30
0.0
 10
375.6699884989409
 20
511.5422940749045
 30
0.0
 10
375.7188475458584
 20
511.4606166066777
 30
0.0
 10
375.7879697785196
 20
511.366173337831
 30
0.0
 10
375.802241119165
 20
511.3476226891096
 30
0.0
 10
375.8313432395275
 20
511.3116435566054
 30
0.0
 10
375.8461838398748
 20
511.2941957149668
 30
0.0
 10
375.8915615549332
 20
511.2434474853159
 30
0.0
 10
375.9543436503331
 20
511.1800297445548
 30
0.0
 10
376.0216475951446
 20
511.1249779639367
 30
0.0
 10
376.0738563790956
 20
511.0868696632032
 30
0.0
 10
376.0915482790006
 20
511.0746979256706
 30
0.0
 10
376.1275222530749
 20
511.051435623909
 30
0.0
 10
376.1458421053718
 20
511.0403268173681
 30
0.0
 10
376.2379618377679
 20
510.9880885951086
 30
0.0
 10
376.313933331308
 20
510.95633190872
 30
0.0
 10
376.4312736008436
 20
510.9233523900662
 30
0.0
 10
376.4709545068729
 20
510.9148193793876
 30
0.0
 10
376.5313574161125
 20
510.9058232400357
 30
0.0
 10
376.5516484919899
 20
510.9034633181915
 30
0.0
 10
376.5920741229646
 20
510.9000680022373
 30
0.0
 10
376.6122650322134
 20
510.8990227902719
 30
0.0
 10
376.7131122827458
 20
510.8970050175893
 30
0.0
 10
376.7934518563667
 20
510.905565807
 30
0.0
 10
376.8934371739051
 20
510.9290599318294
 30
0.0
 10
376.9134119575555
 20
510.9344041548184
 30
0.0
 10
376.9533152107216
 20
510.9464090737389
 30
0.0
 10
376.9732037809002
 20
510.9530617701622
 30
0.0
 10
377.0321496794589
 20
510.9747705665244
 30
0.0
 10
377.070693311651
 20
510.9916322152197
 30
0.0
 10
377.1841021494971
 20
511.0492133603309
 30
0.0
 10
377.256768468051
 20
511.0968606571884
 30
0.0
 10
377.3437127796042
 20
511.168450136168
 30
0.0
 10
377.3608129388682
 20
511.1833013845895
 30
0.0
 10
377.3942885399262
 20
511.2139164505809
 30
0.0
 10
377.4434872599037
 20
511.2612751266276
 30
0.0
 10
377.5204929058925
 20
511.3472509183517
 30
0.0
 10
377.5767810494226
 20
511.42348803103
 30
0.0
 10
377.6169483898844
 20
511.4835218503333
 30
0.0
 10
377.6300007276674
 20
511.5040187385378
 30
0.0
 10
377.6553825197148
 20
511.5459513978212
 30
0.0
 10
377.6676161196549
 20
511.5672279238588
 30
0.0
 10
377.7265406612056
 20
511.6751290101926
 30
0.0
 10
377.7665641960928
 20
511.7662656759243
 30
0.0
 10
377.8077314432682
 20
511.8861373320255
 30
0.0
 10
377.8155178717656
 20
511.9104118879722
 30
0.0
 10
377.830181535003
 20
511.9595706547133
 30
0.0
 10
377.8370711829647
 20
511.9845043580711
 30
0.0
 10
377.8562577504687
 20
512.0599008149214
 30
0.0
 10
377.8669835975938
 20
512.1105579455714
 30
0.0
 10
377.8931551242183
 20
512.2636694444634
 30
0.0
 10
377.9026499168918
 20
512.3672531926118
 30
0.0
 10
377.904349451161
 20
512.4986593558544
 30
0.0
 10
377.9041738816249
 20
512.5251099664034
 30
0.0
 10
377.9027854333444
 20
512.5778193434282
 30
0.0
 10
377.9015767777278
 20
512.6040506050497
 30
0.0
 10
377.8964375489567
 20
512.6823812296016
 30
0.0
 10
377.8855569001143
 20
512.7858553622979
 30
0.0
 10
377.8667618673601
 20
512.8874282421741
 30
0.0
 10
377.8496674072894
 20
512.9628863537732
 30
0.0
 10
377.8434686948977
 20
512.9879185869324
 30
0.0
 10
377.8300542593659
 20
513.0377380019604
 30
0.0
 10
377.8228165565772
 20
513.0625904100099
 30
0.0
 10
377.7844070469589
 20
513.1850592723317
 30
0.0
 10
377.746563616809
 20
513.2778050301764
 30
0.0
 10
377.6795213410339
 20
513.409313221081
 30
0.0
 10
377.655448762273
 20
513.4518716867751
 30
0.0
 10
377.6166895861346
 20
513.5137378430647
 30
0.0
 10
377.6033010640173
 20
513.5340639146202
 30
0.0
 10
377.5759233271067
 20
513.5736190104751
 30
0.0
 10
377.561904641902
 20
513.5928988143365
 30
0.0
 10
377.4901958787844
 20
513.6868522372004
 30
0.0
 10
377.4277059348036
 20
513.7542588207385
 30
0.0
 10
377.3432534762974
 20
513.8287949919535
 30
0.0
 10
377.3260431017969
 20
513.8432117556347
 30
0.0
 10
377.2909723143694
 20
513.8710456077972
 30
0.0
 10
377.2731085653579
 20
513.8844596191556
 30
0.0
 10
377.2191412749502
 20
513.9227531741572
 30
0.0
 10
377.1824671065461
 20
513.945850013469
 30
0.0
 10
377.0704292293475
 20
514.0080285116139
 30
0.0
 10
376.9930706460407
 20
514.0400672054213
 30
0.0
 10
376.8929676612952
 20
514.0679209581735
 30
0.0
 10
376.8728224017386
 20
514.0728594703713
 30
0.0
 10
376.8326247027015
 20
514.0814044622045
 30
0.0
 10
376.8125231298459
 20
514.0850250954727
 30
0.0
 10
376.7522112399599
 20
514.0939616120099
 30
0.0
 10
376.671776496882
 20
514.1007515490479
 30
0.0
 10
376.5913087072175
 20
514.0973864083601
 30
0.0
 10
376.530944393945
 20
514.090979560365
 30
0.0
 10
376.5108206813991
 20
514.0881956241471
 30
0.0
 10
376.4705681494602
 20
514.0813038243998
 30
0.0
 10
376.4505547063582
 20
514.0772139599433
 30
0.0
 10
376.3514333677363
 20
514.0536819471783
 30
0.0
 10
376.2747331642376
 20
514.025011675875
 30
0.0
 10
376.1634653248104
 20
513.9674624175482
 30
0.0
 10
376.1269847094631
 20
513.9458207389989
 30
0.0
 10
376.0554312582993
 20
513.8975473351
 30
0.0
 10
376.0209064305605
 20
513.8712896960224
 30
0.0
 10
375.9209365485984
 20
513.7863717228311
 30
0.0
 10
375.8590631386616
 20
513.7216239552786
 30
0.0
 10
375.7877086886673
 20
513.6303383231916
 30
0.0
 10
375.7737105296086
 20
513.6115170706944
 30
0.0
 10
375.7464671227161
 20
513.5730035977465
 30
0.0
 10
375.7068675144165
 20
513.5141232399993
 30
0.0
 10
375.6470257340171
 20
513.4105728763196
 30
0.0
 10
375.6055695650291
 20
513.3220581935828
 30
0.0
 10
375.5768981128455
 20
513.2535212542058
 30
0.0
 10
375.5677451331293
 20
513.2303164855579
 30
0.0
 10
375.5502589571129
 20
513.1831768983011
 30
0.0
 10
375.5419084064509
 20
513.1591868426889
 30
0.0
 10
375.5024956735102
 20
513.038141739821
 30
0.0
 10
375.4784079942912
 20
512.9380575533328
 30
0.0
 10
375.4617559394536
 20
512.8347090751909
 30
0.0
  0
ARC
  5
10F
330
1F
100
AcDbEntity
  8
1
  6
Continuous
 62
   155
420
  5010073
370
    35
100
AcDbCircle
 10
405.285965
 20
758.30434895026
 30
0.0
 40
4.1
100
AcDbArc
 50
180.0
 51
182.9249999999996
  0
CIRCLE
  5
110
330
1F
100
AcDbEntity
  8
1
  6
Continuous
 62
   155
420
  5010073
370
    35
100
AcDbCircle
 10
405.275
 20
718.30435095026
 30
0.0
 40
39.99999999999999
  0
CIRCLE
  5
111
330
1F
100
AcDbEntity
  8
1
  6
Continuous
 62
   155
420
  5010073
370
    35
100
AcDbCircle
 10
405.275
 20
718.30435095026
 30
0.0
 40
40.00506607841502
  0
CIRCLE
  5
112
330
1F
100
AcDbEntity
  8
1
  6
Continuous
 62
   155
420
  5010073
370
    35
100
AcDbCircle
 10
405.275
 20
718.30435095026
 30
0.0
 40
43.8
  0
CIRCLE
  5
113
330
1F
100
AcDbEntity
  8
1
  6
Continuous
 62
   155
420
  5010073
370
    35
100
AcDbCircle
 10
405.275
 20
718.30435095026
 30
0.0
 40
45.0
  0
LINE
  5
114
330
1F
100
AcDbEntity
  8
1
  6
Continuous
 62
   155
420
  5010073
370
    35
100
AcDbLine
 10
406.3859649999999
 20
758.29398895026
 30
0.0
 11
406.3859649999999
 21
758.44184895026
 31
0.0
  0
LINE
  5
115
330
1F
100
AcDbEntity
  8
1
  6
Continuous
 62
   155
420
  5010073
370
    35
100
AcDbLine
 10
369.636575
 20
692.95416595026
 30
0.0
 11
369.632173
 21
692.95065295026
 31
0.0
  0
LINE
  5
116
330
1F
100
AcDbEntity
  8
1
  6
Continuous
 62
   155
420
  5010073
370
    18
100
AcDbLine
 10
369.63217
 20
692.95017895026
 30
0.0
 11
369.636575
 21
692.95418995026
 31
0.0
  0
LINE
  5
117
330
1F
100
AcDbEntity
  8
1
  6
Continuous
 62
   155
420
  5010073
370
    35
100
AcDbLine
 10
404.185965
 20
758.44184895026
 30
0.0
 11
404.185965
 21
758.29459495026
 31
0.0
  0
LINE
  5
118
330
1F
100
AcDbEntity
  8
1
  6
Continuous
 62
   155
420
  5010073
370
    35
100
AcDbLine
 10
405.7785514609687
 20
-11.0504376258958
 30
0.0
 11
404.7785514609687
 21
-11.0504376258958
 31
0.0
  0
LINE
  5
119
330
1F
100
AcDbEntity
  8
1
  6
Continuous
 62
   155
420
  5010073
370
    35
100
AcDbLine
 10
404.7785514609687
 20
-11.0504376258958
 30
0.0
 11
404.7785514609687
 21
-10.0504376258958
 31
0.0
  0
LINE
  5
11A
330
1F
100
AcDbEntity
  8
1
  6
Continuous
 62
   155
420
  5010073
370
    35
100
AcDbLine
 10
404.7785514609687
 20
-10.0504376258958
 30
0.0
 11
403.7785514609687
 21
-10.0504376258958
 31
0.0
  0
LINE
  5
11B
330
1F
100
AcDbEntity
  8
1
  6
Continuous
 62
   155
420
  5010073
370
    35
100
AcDbLine
 10
403.7785514609687
 20
-10.0504376258958
 30
0.0
 11
403.7785514609687
 21
-9.050437625895796
 31
0.0
  0
LINE
  5
11C
330
1F
100
AcDbEntity
  8
1
  6
Continuous
 62
   155
420
  5010073
370
    35
100
AcDbLine
 10
403.7785514609687
 20
-9.050437625895796
 30
0.0
 11
404.7785514609687
 21
-9.050437625895796
 31
0.0
  0
LINE
  5
11D
330
1F
100
AcDbEntity
  8
1
  6
Continuous
 62
   155
420
  5010073
370
    18
100
AcDbLine
 10
382.5168774609688
 20
65.6916413741042
 30
0.0
 11
382.6253864609687
 21
65.5236363741042
 31
0.0
  0
LINE
  5
11E
330
1F
100
AcDbEntity
  8
1
  6
Continuous
 62
   155
420
  5010073
370
    18
100
AcDbLine
 10
437.3494354609687
 20
57.49686037410422
 30
0.0
 11
437.1965474609688
 21
57.36792137410421
 31
0.0
  0
LINE
  5
11F
330
1F
100
AcDbEntity
  8
1
  6
Continuous
 62
   155
420
  5010073
370
    18
100
AcDbLine
 10
368.3431154609688
 20
20.26372537410421
 30
0.0
 11
365.8704644609687
 21
18.83613937410419
 31
0.0
  0
LINE
  5
120
330
1F
100
AcDbEntity
  8
1
  6
Continuous
 62
   155
420
  5010073
370
    35
100
AcDbLine
 10
365.7704794609688
 20
19.0093183741042
 30
0.0
 11
368.2431304609687
 21
20.43690337410422
 31
0.0
  0
LINE
  5
121
330
1F
100
AcDbEntity
  8
1
  6
Continuous
 62
   155
420
  5010073
370
    18
100
AcDbLine
 10
445.4677224609687
 20
33.96857337410418
 30
0.0
 11
445.4663834609687
 21
34.1685383741042
 31
0.0
  0
LINE
  5
122
330
1F
100
AcDbEntity
  8
1
  6
Continuous
 62
   155
420
  5010073
370
    18
100
AcDbLine
 10
445.4516354609688
 20
33.96778637410418
 30
0.0
 11
445.4342044609688
 21
34.16702537410421
 31
0.0
  0
LINE
  5
123
330
1F
100
AcDbEntity
  8
1
  6
Continuous
 62
   155
420
  5010073
370
    18
100
AcDbLine
 10
445.3420234609687
 20
34.15896137410417
 30
0.0
 11
445.4342044609688
 21
34.16702537410421
 31
0.0
  0
LINE
  5
124
330
1F
100
AcDbEntity
  8
1
  6
Continuous
 62
   155
420
  5010073
370
    18
100
AcDbLine
 10
445.3594514609687
 20
33.95975237410417
 30
0.0
 11
445.3420234609687
 21
34.15896137410417
 31
0.0
  0
LINE
  5
125
330
1F
100
AcDbEntity
  8
1
  6
Continuous
 62
   155
420
  5010073
370
    35
100
AcDbLine
 10
445.3594544609687
 20
33.95972237410419
 30
0.0
 11
445.4516354609688
 21
33.96778637410418
 31
0.0
  0
LINE
  5
126
330
1F
100
AcDbEntity
  8
1
  6
Continuous
 62
   155
420
  5010073
370
    18
100
AcDbLine
 10
365.0387184609688
 20
19.30887537410419
 30
0.0
 11
364.8459984609688
 21
19.25551937410418
 31
0.0
  0
LINE
  5
127
330
1F
100
AcDbEntity
  8
1
  6
Continuous
 62
   155
420
  5010073
370
    18
100
AcDbLine
 10
365.7704794609688
 20
19.0093183741042
 30
0.0
 11
365.8704644609687
 21
18.83613937410419
 31
0.0
  0
LINE
  5
128
330
1F
100
AcDbEntity
  8
1
  6
Continuous
 62
   155
420
  5010073
370
    18
100
AcDbLine
 10
373.6774434609687
 20
6.31476237410422
 30
0.0
 11
373.6195934609688
 21
6.123343374104167
 31
0.0
  0
LINE
  5
129
330
1F
100
AcDbEntity
  8
1
  6
Continuous
 62
   155
420
  5010073
370
    18
100
AcDbLine
 10
374.0613484609687
 20
6.354370374104207
 30
0.0
 11
374.1570604609688
 21
6.178794374104172
 31
0.0
  0
LINE
  5
12A
330
1F
100
AcDbEntity
  8
1
  6
Continuous
 62
   155
420
  5010073
370
    18
100
AcDbLine
 10
374.9227314609687
 20
6.596186374104178
 30
0.0
 11
374.1570604609688
 21
6.178794374104172
 31
0.0
  0
LINE
  5
12B
330
1F
100
AcDbEntity
  8
1
  6
Continuous
 62
   155
420
  5010073
370
    18
100
AcDbLine
 10
374.8270184609687
 20
6.771762374104213
 30
0.0
 11
374.9227314609687
 21
6.596186374104178
 31
0.0
  0
LINE
  5
12C
330
1F
100
AcDbEntity
  8
1
  6
Continuous
 62
   155
420
  5010073
370
    35
100
AcDbLine
 10
374.0613484609687
 20
6.354370374104207
 30
0.0
 11
374.8270184609687
 21
6.771762374104213
 31
0.0
  0
LINE
  5
12D
330
1F
100
AcDbEntity
  8
1
  6
Continuous
 62
   155
420
  5010073
370
    18
100
AcDbLine
 10
412.6223024609687
 20
-10.65306362589578
 30
0.0
 11
412.6574794609687
 21
-10.8499456258958
 31
0.0
  0
LINE
  5
12E
330
1F
100
AcDbEntity
  8
1
  6
Continuous
 62
   155
420
  5010073
370
    18
100
AcDbLine
 10
410.6765444609687
 20
-9.4215186258958
 30
0.0
 11
410.8745984609687
 21
-9.393683625895818
 31
0.0
  0
LINE
  5
12F
330
1F
100
AcDbEntity
  8
1
  6
Continuous
 62
   155
420
  5010073
370
    18
100
AcDbLine
 10
410.6915464609688
 20
-9.528260625895797
 30
0.0
 11
410.6765444609687
 21
-9.4215186258958
 31
0.0
  0
LINE
  5
130
330
1F
100
AcDbEntity
  8
1
  6
Continuous
 62
   155
420
  5010073
370
    35
100
AcDbLine
 10
410.8885594609687
 20
-9.493022625895804
 30
0.0
 11
410.8745984609687
 21
-9.393683625895818
 31
0.0
  0
LINE
  5
131
330
1F
100
AcDbEntity
  8
1
  6
Continuous
 62
   155
420
  5010073
370
    18
100
AcDbLine
 10
437.0973514609688
 20
55.32225437410418
 30
0.0
 11
437.2370014609687
 21
55.17912637410419
 31
0.0
  0
LINE
  5
132
330
1F
100
AcDbEntity
  8
1
  6
Continuous
 62
   155
420
  5010073
370
    18
100
AcDbLine
 10
369.4833154609687
 20
42.58524837410417
 30
0.0
 11
369.2939054609687
 21
42.64946437410421
 31
0.0
  0
LINE
  5
133
330
1F
100
AcDbEntity
  8
1
  6
Continuous
 62
   155
420
  5010073
370
    18
100
AcDbLine
 10
381.9467584609687
 20
63.44230837410421
 30
0.0
 11
382.1221794609687
 21
63.53836737410418
 31
0.0
  0
LINE
  5
134
330
1F
100
AcDbEntity
  8
1
  6
Continuous
 62
   155
420
  5010073
370
    18
100
AcDbLine
 10
385.2965634609687
 20
62.76751737410419
 30
0.0
 11
385.4017264609687
 21
62.59743337410421
 31
0.0
  0
LINE
  5
135
330
1F
100
AcDbEntity
  8
1
  6
Continuous
 62
   155
420
  5010073
370
    18
100
AcDbLine
 10
388.2010174609687
 20
-6.148861625895819
 30
0.0
 11
388.3718924609688
 21
-6.252736625895835
 31
0.0
  0
LINE
  5
136
330
1F
100
AcDbEntity
  8
1
  6
Continuous
 62
   155
420
  5010073
370
    18
100
AcDbLine
 10
387.3760914609687
 20
-2.838208625895817
 30
0.0
 11
387.2813604609687
 21
-3.014350625895787
 31
0.0
  0
LINE
  5
137
330
1F
100
AcDbEntity
  8
1
  6
Continuous
 62
   155
420
  5010073
370
    18
100
AcDbLine
 10
367.8828954609687
 20
45.76161037410421
 30
0.0
 11
367.8287604609687
 21
45.56907637410418
 31
0.0
  0
LINE
  5
138
330
1F
100
AcDbEntity
  8
1
  6
Continuous
 62
   155
420
  5010073
370
    18
100
AcDbLine
 10
433.8362764609687
 20
55.51320937410421
 30
0.0
 11
433.6859814609687
 21
55.38130337410419
 31
0.0
  0
LINE
  5
139
330
1F
100
AcDbEntity
  8
1
  6
Continuous
 62
   155
420
  5010073
370
    35
100
AcDbLine
 10
439.4195674609687
 20
50.9495623741042
 30
0.0
 11
439.4195674609687
 21
51.9495623741042
 31
0.0
  0
LINE
  5
13A
330
1F
100
AcDbEntity
  8
1
  6
Continuous
 62
   155
420
  5010073
370
    35
100
AcDbLine
 10
439.4195674609687
 20
51.9495623741042
 30
0.0
 11
440.4195674609687
 21
51.9495623741042
 31
0.0
  0
LINE
  5
13B
330
1F
100
AcDbEntity
  8
1
  6
Continuous
 62
   155
420
  5010073
370
    35
100
AcDbLine
 10
440.4195674609687
 20
51.9495623741042
 30
0.0
 11
440.4195674609687
 21
50.9495623741042
 31
0.0
  0
LINE
  5
13C
330
1F
100
AcDbEntity
  8
1
  6
Continuous
 62
   155
420
  5010073
370
    35
100
AcDbLine
 10
440.4195674609687
 20
50.9495623741042
 30
0.0
 11
441.4195674609687
 21
50.9495623741042
 31
0.0
  0
LINE
  5
13D
330
1F
100
AcDbEntity
  8
1
  6
Continuous
 62
   155
420
  5010073
370
    35
100
AcDbLine
 10
441.4195674609687
 20
50.9495623741042
 30
0.0
 11
441.4195674609687
 21
49.9495623741042
 31
0.0
  0
LINE
  5
13E
330
1F
100
AcDbEntity
  8
1
  6
Continuous
 62
   155
420
  5010073
370
    35
100
AcDbLine
 10
441.4195674609687
 20
49.9495623741042
 30
0.0
 11
440.4195674609687
 21
49.9495623741042
 31
0.0
  0
LINE
  5
13F
330
1F
100
AcDbEntity
  8
1
  6
Continuous
 62
   155
420
  5010073
370
    35
100
AcDbLine
 10
440.4195674609687
 20
49.9495623741042
 30
0.0
 11
440.4195674609687
 21
48.9495623741042
 31
0.0
  0
LINE
  5
140
330
1F
100
AcDbEntity
  8
1
  6
Continuous
 62
   155
420
  5010073
370
    35
100
AcDbLine
 10
440.4195674609687
 20
48.9495623741042
 30
0.0
 11
439.4195674609687
 21
48.9495623741042
 31
0.0
  0
LINE
  5
141
330
1F
100
AcDbEntity
  8
1
  6
Continuous
 62
   155
420
  5010073
370
    35
100
AcDbLine
 10
439.4195674609687
 20
48.9495623741042
 30
0.0
 11
439.4195674609687
 21
49.9495623741042
 31
0.0
  0
LINE
  5
142
330
1F
100
AcDbEntity
  8
1
  6
Continuous
 62
   155
420
  5010073
370
    35
100
AcDbLine
 10
439.4195674609687
 20
49.9495623741042
 30
0.0
 11
438.4195674609687
 21
49.9495623741042
 31
0.0
  0
LINE
  5
143
330
1F
100
AcDbEntity
  8
1
  6
Continuous
 62
   155
420
  5010073
370
    35
100
AcDbLine
 10
438.4195674609687
 20
49.9495623741042
 30
0.0
 11
438.4195674609687
 21
50.9495623741042
 31
0.0
  0
LINE
  5
144
330
1F
100
AcDbEntity
  8
1
  6
Continuous
 62
   155
420
  5010073
370
    35
100
AcDbLine
 10
438.4195674609687
 20
50.9495623741042
 30
0.0
 11
439.4195674609687
 21
50.9495623741042
 31
0.0
  0
LINE
  5
145
330
1F
100
AcDbEntity
  8
1
  6
Continuous
 62
   155
420
  5010073
370
    35
100
AcDbLine
 10
370.1375354609687
 20
50.9495623741042
 30
0.0
 11
370.1375354609687
 21
51.9495623741042
 31
0.0
  0
LINE
  5
146
330
1F
100
AcDbEntity
  8
1
  6
Continuous
 62
   155
420
  5010073
370
    35
100
AcDbLine
 10
370.1375354609687
 20
51.9495623741042
 30
0.0
 11
371.1375354609687
 21
51.9495623741042
 31
0.0
  0
LINE
  5
147
330
1F
100
AcDbEntity
  8
1
  6
Continuous
 62
   155
420
  5010073
370
    35
100
AcDbLine
 10
371.1375354609687
 20
51.9495623741042
 30
0.0
 11
371.1375354609687
 21
50.9495623741042
 31
0.0
  0
LINE
  5
148
330
1F
100
AcDbEntity
  8
1
  6
Continuous
 62
   155
420
  5010073
370
    35
100
AcDbLine
 10
371.1375354609687
 20
50.9495623741042
 30
0.0
 11
372.1375354609687
 21
50.9495623741042
 31
0.0
  0
LINE
  5
149
330
1F
100
AcDbEntity
  8
1
  6
Continuous
 62
   155
420
  5010073
370
    35
100
AcDbLine
 10
372.1375354609687
 20
50.9495623741042
 30
0.0
 11
372.1375354609687
 21
49.9495623741042
 31
0.0
  0
LINE
  5
14A
330
1F
100
AcDbEntity
  8
1
  6
Continuous
 62
   155
420
  5010073
370
    35
100
AcDbLine
 10
372.1375354609687
 20
49.9495623741042
 30
0.0
 11
371.1375354609687
 21
49.9495623741042
 31
0.0
  0
LINE
  5
14B
330
1F
100
AcDbEntity
  8
1
  6
Continuous
 62
   155
420
  5010073
370
    35
100
AcDbLine
 10
371.1375354609687
 20
49.9495623741042
 30
0.0
 11
371.1375354609687
 21
48.9495623741042
 31
0.0
  0
LINE
  5
14C
330
1F
100
AcDbEntity
  8
1
  6
Continuous
 62
   155
420
  5010073
370
    35
100
AcDbLine
 10
371.1375354609687
 20
48.9495623741042
 30
0.0
 11
370.1375354609687
 21
48.9495623741042
 31
0.0
  0
LINE
  5
14D
330
1F
100
AcDbEntity
  8
1
  6
Continuous
 62
   155
420
  5010073
370
    35
100
AcDbLine
 10
370.1375354609687
 20
48.9495623741042
 30
0.0
 11
370.1375354609687
 21
49.9495623741042
 31
0.0
  0
LINE
  5
14E
330
1F
100
AcDbEntity
  8
1
  6
Continuous
 62
   155
420
  5010073
370
    35
100
AcDbLine
 10
370.1375354609687
 20
49.9495623741042
 30
0.0
 11
369.1375354609687
 21
49.9495623741042
 31
0.0
  0
LINE
  5
14F
330
1F
100
AcDbEntity
  8
1
  6
Continuous
 62
   155
420
  5010073
370
    35
100
AcDbLine
 10
369.1375354609687
 20
49.9495623741042
 30
0.0
 11
369.1375354609687
 21
50.9495623741042
 31
0.0
  0
LINE
  5
150
330
1F
100
AcDbEntity
  8
1
  6
Continuous
 62
   155
420
  5010073
370
    35
100
AcDbLine
 10
369.1375354609687
 20
50.9495623741042
 30
0.0
 11
370.1375354609687
 21
50.9495623741042
 31
0.0
  0
LINE
  5
151
330
1F
100
AcDbEntity
  8
1
  6
Continuous
 62
   155
420
  5010073
370
    18
100
AcDbLine
 10
377.6544024609688
 20
49.2236523741042
 30
0.0
 11
377.7695374609688
 21
49.14540337410418
 31
0.0
  0
LINE
  5
152
330
1F
100
AcDbEntity
  8
1
  6
Continuous
 62
   155
420
  5010073
370
    18
100
AcDbLine
 10
432.9027004609687
 20
11.6754723741042
 30
0.0
 11
432.7875654609687
 21
11.75372137410417
 31
0.0
  0
LINE
  5
153
330
1F
100
AcDbEntity
  8
1
  6
Continuous
 62
   155
420
  5010073
370
    18
100
AcDbLine
 10
433.0800384609687
 20
48.96003037410421
 30
0.0
 11
432.9641634609687
 21
48.88288037410419
 31
0.0
  0
LINE
  5
154
330
1F
100
AcDbEntity
  8
1
  6
Continuous
 62
   155
420
  5010073
370
    18
100
AcDbLine
 10
377.4770644609687
 20
11.9390943741042
 30
0.0
 11
377.5929394609688
 21
12.01624437410422
 31
0.0
  0
LINE
  5
155
330
1F
100
AcDbEntity
  8
1
  6
Continuous
 62
   155
420
  5010073
370
    18
100
AcDbLine
 10
403.1487594609687
 20
63.78159037410418
 30
0.0
 11
403.1576364609688
 21
63.64266437410421
 31
0.0
  0
LINE
  5
156
330
1F
100
AcDbEntity
  8
1
  6
Continuous
 62
   155
420
  5010073
370
    18
100
AcDbLine
 10
407.3506184609687
 20
-2.886103625895799
 30
0.0
 11
407.3419824609687
 21
-2.747162625895811
 31
0.0
  0
LINE
  5
157
330
1F
100
AcDbEntity
  8
1
  6
Continuous
 62
   155
420
  5010073
370
    18
100
AcDbLine
 10
402.8317874609687
 20
-2.860697625895824
 30
0.0
 11
402.8419854609688
 21
-2.721863625895793
 31
0.0
  0
LINE
  5
158
330
1F
100
AcDbEntity
  8
1
  6
Continuous
 62
   155
420
  5010073
370
    18
100
AcDbLine
 10
435.3494644609688
 20
44.98573237410417
 30
0.0
 11
435.2241314609687
 21
44.92514737410417
 31
0.0
  0
LINE
  5
159
330
1F
100
AcDbEntity
  8
1
  6
Continuous
 62
   155
420
  5010073
370
    18
100
AcDbLine
 10
375.2076384609687
 20
15.91339237410418
 30
0.0
 11
375.3329714609687
 21
15.97397737410418
 31
0.0
  0
LINE
  5
15A
330
1F
100
AcDbEntity
  8
1
  6
Continuous
 62
   155
420
  5010073
370
    18
100
AcDbLine
 10
407.7253154609688
 20
63.75982237410417
 30
0.0
 11
407.7151174609687
 21
63.6209883741042
 31
0.0
  0
LINE
  5
15B
330
1F
100
AcDbEntity
  8
1
  6
Continuous
 62
   155
420
  5010073
370
    18
100
AcDbLine
 10
375.3472724609687
 20
45.27112237410418
 30
0.0
 11
375.4720234609687
 21
45.20934737410417
 31
0.0
  0
LINE
  5
15C
330
1F
100
AcDbEntity
  8
1
  6
Continuous
 62
   155
420
  5010073
370
    18
100
AcDbLine
 10
435.2098304609688
 20
15.62800237410417
 30
0.0
 11
435.0850794609687
 21
15.68977737410418
 31
0.0
  0
LINE
  5
15D
330
1F
100
AcDbEntity
  8
1
  6
Continuous
 62
   155
420
  5010073
370
    35
100
AcDbLine
 10
404.7785514609687
 20
-9.050437625895796
 30
0.0
 11
404.7785514609687
 21
-8.050437625895796
 31
0.0
  0
LINE
  5
15E
330
1F
100
AcDbEntity
  8
1
  6
Continuous
 62
   155
420
  5010073
370
    35
100
AcDbLine
 10
404.7785514609687
 20
-8.050437625895796
 30
0.0
 11
405.7785514609687
 21
-8.050437625895796
 31
0.0
  0
LINE
  5
15F
330
1F
100
AcDbEntity
  8
1
  6
Continuous
 62
   155
420
  5010073
370
    35
100
AcDbLine
 10
405.7785514609687
 20
-8.050437625895796
 30
0.0
 11
405.7785514609687
 21
-9.050437625895796
 31
0.0
  0
LINE
  5
160
330
1F
100
AcDbEntity
  8
1
  6
Continuous
 62
   155
420
  5010073
370
    35
100
AcDbLine
 10
405.7785514609687
 20
-9.050437625895796
 30
0.0
 11
406.7785514609687
 21
-9.050437625895796
 31
0.0
  0
LINE
  5
161
330
1F
100
AcDbEntity
  8
1
  6
Continuous
 62
   155
420
  5010073
370
    35
100
AcDbLine
 10
406.7785514609687
 20
-9.050437625895796
 30
0.0
 11
406.7785514609687
 21
-10.0504376258958
 31
0.0
  0
LINE
  5
162
330
1F
100
AcDbEntity
  8
1
  6
Continuous
 62
   155
420
  5010073
370
    35
100
AcDbLine
 10
406.7785514609687
 20
-10.0504376258958
 30
0.0
 11
405.7785514609687
 21
-10.0504376258958
 31
0.0
  0
LINE
  5
163
330
1F
100
AcDbEntity
  8
1
  6
Continuous
 62
   155
420
  5010073
370
    35
100
AcDbLine
 10
405.7785514609687
 20
-10.0504376258958
 30
0.0
 11
405.7785514609687
 21
-11.0504376258958
 31
0.0
  0
LINE
  5
164
330
1F
100
AcDbEntity
  8
1
  6
Continuous
 62
   155
420
  5010073
370
    18
100
AcDbLine
 10
365.8194614609687
 20
44.70011337410418
 30
0.0
 11
366.0075704609687
 21
44.6321783741042
 31
0.0
  0
LINE
  5
165
330
1F
100
AcDbEntity
  8
1
  6
Continuous
 62
   155
420
  5010073
370
    18
100
AcDbLine
 10
378.8293574609687
 20
3.449304374104173
 30
0.0
 11
378.6894014609687
 21
3.306433374104216
 31
0.0
  0
LINE
  5
166
330
1F
100
AcDbEntity
  8
1
  6
Continuous
 62
   155
420
  5010073
370
    18
100
AcDbLine
 10
386.2300814609687
 20
-6.705718625895798
 30
0.0
 11
386.1388524609687
 21
-6.883665625895816
 31
0.0
  0
LINE
  5
167
330
1F
100
AcDbEntity
  8
1
  6
Continuous
 62
   155
420
  5010073
370
    18
100
AcDbLine
 10
368.2431304609687
 20
20.43690337410422
 30
0.0
 11
368.3431154609688
 21
20.26372537410421
 31
0.0
  0
LINE
  5
168
330
1F
100
AcDbEntity
  8
1
  6
Continuous
 62
   155
420
  5010073
370
    18
100
AcDbLine
 10
375.6169734609687
 20
1.954690374104217
 30
0.0
 11
375.5169884609687
 21
2.127869374104165
 31
0.0
  0
LINE
  5
169
330
1F
100
AcDbEntity
  8
1
  6
Continuous
 62
   155
420
  5010073
370
    18
100
AcDbLine
 10
375.5105164609687
 20
1.171188374104219
 30
0.0
 11
375.3679494609687
 21
1.03096537410417
 31
0.0
  0
LINE
  5
16A
330
1F
100
AcDbEntity
  8
1
  6
Continuous
 62
   155
420
  5010073
370
    18
100
AcDbLine
 10
443.2577154609687
 20
31.59549337410417
 30
0.0
 11
443.0578374609687
 21
31.58946237410422
 31
0.0
  0
LINE
  5
16B
330
1F
100
AcDbEntity
  8
1
  6
Continuous
 62
   155
420
  5010073
370
    18
100
AcDbLine
 10
412.7054434609687
 20
-6.813976625895833
 30
0.0
 11
412.6663564609687
 21
-6.617864625895805
 31
0.0
  0
LINE
  5
16C
330
1F
100
AcDbEntity
  8
1
  6
Continuous
 62
   155
420
  5010073
370
    18
100
AcDbLine
 10
368.4773664609687
 20
20.9942553741042
 30
0.0
 11
368.6710454609687
 21
21.04401737410419
 31
0.0
  0
LINE
  5
16D
330
1F
100
AcDbEntity
  8
1
  6
Continuous
 62
   155
420
  5010073
370
    18
100
AcDbLine
 10
375.1457204609687
 20
7.633202374104172
 30
0.0
 11
374.9862724609687
 21
7.512470374104197
 31
0.0
  0
LINE
  5
16E
330
1F
100
AcDbEntity
  8
1
  6
Continuous
 62
   155
420
  5010073
370
    18
100
AcDbLine
 10
377.9896394609688
 20
3.555455374104184
 30
0.0
 11
378.0896394609687
 21
3.382250374104188
 31
0.0
  0
LINE
  5
16F
330
1F
100
AcDbEntity
  8
1
  6
Continuous
 62
   155
420
  5010073
370
    18
100
AcDbLine
 10
375.5169884609687
 20
2.127869374104165
 30
0.0
 11
377.9896394609688
 21
3.555455374104184
 31
0.0
  0
LINE
  5
170
330
1F
100
AcDbEntity
  8
1
  6
Continuous
 62
   155
420
  5010073
370
    35
100
AcDbLine
 10
378.0896244609687
 20
3.38227637410418
 30
0.0
 11
375.6169734609687
 21
1.954690374104217
 31
0.0
  0
LINE
  5
171
330
1F
100
AcDbEntity
  8
1
  6
Continuous
 62
   155
420
  5010073
370
    18
100
AcDbLine
 10
370.4525884609687
 20
15.76194537410422
 30
0.0
 11
370.2683074609687
 21
15.68422537410422
 31
0.0
  0
LINE
  5
172
330
1F
100
AcDbEntity
  8
1
  6
Continuous
 62
   155
420
  5010073
370
    18
100
AcDbLine
 10
368.5766474609687
 20
15.14959937410421
 30
0.0
 11
368.3819494609687
 21
15.19520937410417
 31
0.0
  0
LINE
  5
173
330
1F
100
AcDbEntity
  8
1
  6
Continuous
 62
   155
420
  5010073
370
    18
100
AcDbLine
 10
368.6987034609688
 20
15.6329453741042
 30
0.0
 11
368.8029174609687
 21
15.4622413741042
 31
0.0
  0
LINE
  5
174
330
1F
100
AcDbEntity
  8
1
  6
Continuous
 62
   155
420
  5010073
370
    35
100
AcDbLine
 10
369.5472084609687
 20
15.91666137410417
 30
0.0
 11
368.8029014609688
 21
15.46226737410419
 31
0.0
  0
LINE
  5
175
330
1F
100
AcDbEntity
  8
1
  6
Continuous
 62
   155
420
  5010073
370
    18
100
AcDbLine
 10
369.4430114609687
 20
16.08733937410418
 30
0.0
 11
369.5472244609687
 21
15.91663537410417
 31
0.0
  0
LINE
  5
176
330
1F
100
AcDbEntity
  8
1
  6
Continuous
 62
   155
420
  5010073
370
    18
100
AcDbLine
 10
368.6987034609688
 20
15.6329453741042
 30
0.0
 11
369.4430114609687
 21
16.08733937410418
 31
0.0
  0
LINE
  5
177
330
1F
100
AcDbEntity
  8
1
  6
Continuous
 62
   155
420
  5010073
370
    18
100
AcDbLine
 10
446.9797044609687
 20
32.54011037410422
 30
0.0
 11
447.1794534609687
 21
32.55012437410417
 31
0.0
  0
ARC
  5
178
330
1F
100
AcDbEntity
  8
1
  6
Continuous
 62
   155
420
  5010073
370
    35
100
AcDbCircle
 10
405.2785514609687
 20
30.4495623741042
 30
0.0
 40
41.75352147859443
100
AcDbArc
 50
160.142942
 51
180.0
  0
ARC
  5
179
330
1F
100
AcDbEntity
  8
1
  6
Continuous
 62
   155
420
  5010073
370
    35
100
AcDbCircle
 10
405.2785514609687
 20
30.4495623741042
 30
0.0
 40
41.75352147859443
100
AcDbArc
 50
180.0
 51
195.4751319999999
  0
CIRCLE
  5
17A
330
1F
100
AcDbEntity
  8
1
  6
Continuous
 62
   155
420
  5010073
370
    35
100
AcDbCircle
 10
405.2785514609687
 20
30.4495623741042
 30
0.0
 40
35.5
  0
CIRCLE
  5
17B
330
1F
100
AcDbEntity
  8
1
  6
Continuous
 62
   155
420
  5010073
370
    35
100
AcDbCircle
 10
405.2785514609687
 20
-9.550437625895796
 30
0.0
 40
3.4
  0
CIRCLE
  5
17C
330
1F
100
AcDbEntity
  8
1
  6
Continuous
 62
   155
420
  5010073
370
    18
100
AcDbCircle
 10
405.2785514609687
 20
-9.550437625895796
 30
0.0
 40
3.6
  0
CIRCLE
  5
17D
330
1F
100
AcDbEntity
  8
1
  6
Continuous
 62
   155
420
  5010073
370
    18
100
AcDbCircle
 10
405.2785514609687
 20
30.4495623741042
 30
0.0
 40
35.7
  0
ARC
  5
17E
330
1F
100
AcDbEntity
  8
1
  6
Continuous
 62
   155
420
  5010073
370
    18
100
AcDbCircle
 10
405.2785514609687
 20
30.4495623741042
 30
0.0
 40
41.95352147859443
100
AcDbArc
 50
160.142942
 51
195.4751319999999
  0
ARC
  5
17F
330
1F
100
AcDbEntity
  8
1
  6
Continuous
 62
   155
420
  5010073
370
    35
100
AcDbCircle
 10
405.2785514609687
 20
30.4495623741042
 30
0.0
 40
41.75355193956315
100
AcDbArc
 50
40.14294199999996
 51
122.857058
  0
ARC
  5
180
330
1F
100
AcDbEntity
  8
1
  6
Continuous
 62
   155
420
  5010073
370
    18
100
AcDbCircle
 10
405.2785514609687
 20
30.4495623741042
 30
0.0
 40
41.95352147859443
100
AcDbArc
 50
40.14294199999996
 51
122.8570580000001
  0
CIRCLE
  5
181
330
1F
100
AcDbEntity
  8
1
  6
Continuous
 62
   155
420
  5010073
370
    18
100
AcDbCircle
 10
405.2785514609687
 20
30.4495623741042
 30
0.0
 40
44.79647852140558
  0
CIRCLE
  5
182
330
1F
100
AcDbEntity
  8
1
  6
Continuous
 62
   155
420
  5010073
370
    35
100
AcDbCircle
 10
405.2785514609687
 20
30.4495623741042
 30
0.0
 40
44.99647852140557
  0
CIRCLE
  5
183
330
1F
100
AcDbEntity
  8
1
  6
Continuous
 62
   155
420
  5010073
370
    18
100
AcDbCircle
 10
439.9195674609687
 20
50.4495623741042
 30
0.0
 40
3.599999999999999
  0
CIRCLE
  5
184
330
1F
100
AcDbEntity
  8
1
  6
Continuous
 62
   155
420
  5010073
370
    35
100
AcDbCircle
 10
439.9195674609687
 20
50.4495623741042
 30
0.0
 40
3.399999999999999
  0
ARC
  5
185
330
1F
100
AcDbEntity
  8
1
  6
Continuous
 62
   155
420
  5010073
370
    35
100
AcDbCircle
 10
395.2803544609687
 20
70.9936263741042
 30
0.0
 40
1.0
100
AcDbArc
 50
0.0
 51
12.87453899999957
  0
ARC
  5
186
330
1F
100
AcDbEntity
  8
1
  6
Continuous
 62
   155
420
  5010073
370
    35
100
AcDbCircle
 10
419.2803544609687
 20
63.95043237410417
 30
0.0
 40
1.8
100
AcDbArc
 50
46.44562499999926
 51
88.19999999999958
  0
ARC
  5
187
330
1F
100
AcDbEntity
  8
1
  6
Continuous
 62
   155
420
  5010073
370
    18
100
AcDbCircle
 10
405.2785514609687
 20
30.4495623741042
 30
0.0
 40
37.79647852140558
100
AcDbArc
 50
41.27175999999997
 51
121.72824
  0
ARC
  5
188
330
1F
100
AcDbEntity
  8
1
  6
Continuous
 62
   155
420
  5010073
370
    35
100
AcDbCircle
 10
405.2785514609687
 20
30.4495623741042
 30
0.0
 40
37.99644806043686
100
AcDbArc
 50
41.27175999999999
 51
121.72824
  0
ARC
  5
189
330
1F
100
AcDbEntity
  8
1
  6
Continuous
 62
   155
420
  5010073
370
    18
100
AcDbCircle
 10
435.4886474609688
 20
56.9710183741042
 30
0.0
 40
2.503521478594431
100
AcDbArc
 50
309.1466019999996
 51
314.295406
  0
ARC
  5
18A
330
1F
100
AcDbEntity
  8
1
  6
Continuous
 62
   155
420
  5010073
370
    35
100
AcDbCircle
 10
435.4886474609688
 20
56.9710183741042
 30
0.0
 40
2.303551939563154
100
AcDbArc
 50
309.2461529999998
 51
314.295406
  0
ARC
  5
18B
330
1F
100
AcDbEntity
  8
1
  6
Continuous
 62
   155
420
  5010073
370
    35
100
AcDbCircle
 10
367.1123504609687
 20
43.38907837410417
 30
0.0
 40
2.303551939563147
100
AcDbArc
 50
341.2717599999996
 51
66.7538469999993
  0
ARC
  5
18C
330
1F
100
AcDbEntity
  8
1
  6
Continuous
 62
   155
420
  5010073
370
    18
100
AcDbCircle
 10
367.1123504609687
 20
43.38907837410417
 30
0.0
 40
2.503521478594426
100
AcDbArc
 50
341.2717600000001
 51
66.85339800000025
  0
ARC
  5
18D
330
1F
100
AcDbEntity
  8
1
  6
Continuous
 62
   155
420
  5010073
370
    35
100
AcDbCircle
 10
384.1426154609687
 20
64.64473437410422
 30
0.0
 40
2.303551939563142
100
AcDbArc
 50
208.7045940000009
 51
213.7538469999999
  0
ARC
  5
18E
330
1F
100
AcDbEntity
  8
1
  6
Continuous
 62
   155
420
  5010073
370
    18
100
AcDbCircle
 10
384.1426154609687
 20
64.64473437410422
 30
0.0
 40
2.503521478594421
100
AcDbArc
 50
208.7045940000011
 51
213.8533980000001
  0
ARC
  5
18F
330
1F
100
AcDbEntity
  8
1
  6
Continuous
 62
   155
420
  5010073
370
    35
100
AcDbCircle
 10
384.0851464609688
 20
64.7268083741042
 30
0.0
 40
2.30355193956315
100
AcDbArc
 50
216.2461529999995
 51
301.7282400000006
  0
ARC
  5
190
330
1F
100
AcDbEntity
  8
1
  6
Continuous
 62
   155
420
  5010073
370
    18
100
AcDbCircle
 10
384.0851464609688
 20
64.7268083741042
 30
0.0
 40
2.503521478594428
100
AcDbArc
 50
216.1466019999993
 51
301.7282399999988
  0
ARC
  5
191
330
1F
100
AcDbEntity
  8
1
  6
Continuous
 62
   155
420
  5010073
370
    18
100
AcDbCircle
 10
386.2326314609687
 20
-4.952280625895781
 30
0.0
 40
2.503521478594421
100
AcDbArc
 50
328.7045940000001
 51
333.8533980000003
  0
ARC
  5
192
330
1F
100
AcDbEntity
  8
1
  6
Continuous
 62
   155
420
  5010073
370
    35
100
AcDbCircle
 10
386.2326314609687
 20
-4.952280625895781
 30
0.0
 40
2.303551939563142
100
AcDbArc
 50
328.7045940000002
 51
333.7538470000005
  0
ARC
  5
193
330
1F
100
AcDbEntity
  8
1
  6
Continuous
 62
   155
420
  5010073
370
    35
100
AcDbCircle
 10
386.1902874609688
 20
-5.043087625895822
 30
0.0
 40
2.30355193956315
100
AcDbArc
 50
336.2461530000005
 51
61.72824000000068
  0
ARC
  5
194
330
1F
100
AcDbEntity
  8
1
  6
Continuous
 62
   155
420
  5010073
370
    18
100
AcDbCircle
 10
386.1902874609688
 20
-5.043087625895822
 30
0.0
 40
2.503521478594428
100
AcDbArc
 50
336.1466019999997
 51
61.72824000000109
  0
ARC
  5
195
330
1F
100
AcDbEntity
  8
1
  6
Continuous
 62
   155
420
  5010073
370
    35
100
AcDbCircle
 10
367.2052484609687
 20
43.35154537410418
 30
0.0
 40
2.303551939563153
100
AcDbArc
 50
69.2461530000007
 51
74.2954060000011
  0
ARC
  5
196
330
1F
100
AcDbEntity
  8
1
  6
Continuous
 62
   155
420
  5010073
370
    18
100
AcDbCircle
 10
367.2052484609687
 20
43.35154537410418
 30
0.0
 40
2.503521478594431
100
AcDbArc
 50
69.14660199999989
 51
74.29540599999976
  0
ARC
  5
197
330
1F
100
AcDbEntity
  8
1
  6
Continuous
 62
   155
420
  5010073
370
    18
100
AcDbCircle
 10
435.5676014609687
 20
57.03270437410421
 30
0.0
 40
2.503521478594426
100
AcDbArc
 50
221.2717599999997
 51
306.8533979999995
  0
ARC
  5
198
330
1F
100
AcDbEntity
  8
1
  6
Continuous
 62
   155
420
  5010073
370
    35
100
AcDbCircle
 10
435.5676014609687
 20
57.03270437410421
 30
0.0
 40
2.303551939563147
100
AcDbArc
 50
221.271760000001
 51
306.7538470000003
  0
CIRCLE
  5
199
330
1F
100
AcDbEntity
  8
1
  6
Continuous
 62
   155
420
  5010073
370
    35
100
AcDbCircle
 10
405.2785514609687
 20
30.4495623741042
 30
0.0
 40
45.0
  0
CIRCLE
  5
19A
330
1F
100
AcDbEntity
  8
1
  6
Continuous
 62
   155
420
  5010073
370
    35
100
AcDbCircle
 10
405.2785514609687
 20
30.4495623741042
 30
0.0
 40
14.2897090912
  0
CIRCLE
  5
19B
330
1F
100
AcDbEntity
  8
1
  6
Continuous
 62
   155
420
  5010073
370
    35
100
AcDbCircle
 10
405.2785514609687
 20
30.4495623741042
 30
0.0
 40
19.9231815338
  0
CIRCLE
  5
19C
330
1F
100
AcDbEntity
  8
1
  6
Continuous
 62
   155
420
  5010073
370
    35
100
AcDbCircle
 10
405.2785514609687
 20
30.4495623741042
 30
0.0
 40
27.4409370422
  0
CIRCLE
  5
19D
330
1F
100
AcDbEntity
  8
1
  6
Continuous
 62
   155
420
  5010073
370
    35
100
AcDbCircle
 10
405.2785514609687
 20
30.4495623741042
 30
0.0
 40
33.0552635193
  0
ARC
  5
19E
330
1F
100
AcDbEntity
  8
1
  6
Continuous
 62
   155
420
  5010073
370
    18
100
AcDbCircle
 10
405.2785514609687
 20
30.4495623741042
 30
0.0
 40
33.2607927086305
100
AcDbArc
 50
85.79895399999992
 51
93.656016
  0
ARC
  5
19F
330
1F
100
AcDbEntity
  8
1
  6
Continuous
 62
   155
420
  5010073
370
    18
100
AcDbCircle
 10
405.2785514609687
 20
30.4495623741042
 30
0.0
 40
33.2607927086305
100
AcDbArc
 50
145.798954
 51
153.656016
  0
ARC
  5
1A0
330
1F
100
AcDbEntity
  8
1
  6
Continuous
 62
   155
420
  5010073
370
    18
100
AcDbCircle
 10
405.2785514609687
 20
30.4495623741042
 30
0.0
 40
33.2607927086305
100
AcDbArc
 50
205.798954
 51
213.656016
  0
ARC
  5
1A1
330
1F
100
AcDbEntity
  8
1
  6
Continuous
 62
   155
420
  5010073
370
    18
100
AcDbCircle
 10
405.2785514609687
 20
30.4495623741042
 30
0.0
 40
33.26079270863593
100
AcDbArc
 50
265.798954
 51
273.556796
  0
ARC
  5
1A2
330
1F
100
AcDbEntity
  8
1
  6
Continuous
 62
   155
420
  5010073
370
    18
100
AcDbCircle
 10
405.2785514609687
 20
30.4495623741042
 30
0.0
 40
33.2607927086305
100
AcDbArc
 50
325.798954
 51
333.656016
  0
ARC
  5
1A3
330
1F
100
AcDbEntity
  8
1
  6
Continuous
 62
   155
420
  5010073
370
    18
100
AcDbCircle
 10
405.2785514609687
 20
30.4495623741042
 30
0.0
 40
33.2607927086305
100
AcDbArc
 50
25.79895400000004
 51
33.65601600000005
  0
CIRCLE
  5
1A4
330
1F
100
AcDbEntity
  8
1
  6
Continuous
 62
   155
420
  5010073
370
    35
100
AcDbCircle
 10
405.2785514609687
 20
30.4495623741042
 30
0.0
 40
33.4
  0
ARC
  5
1A5
330
1F
100
AcDbEntity
  8
1
  6
Continuous
 62
   155
420
  5010073
370
    18
100
AcDbCircle
 10
405.2785514609687
 20
30.4495623741042
 30
0.0
 40
41.95352147859443
100
AcDbArc
 50
280.13007
 51
2.869929999999983
  0
ARC
  5
1A6
330
1F
100
AcDbEntity
  8
1
  6
Continuous
 62
   155
420
  5010073
370
    35
100
AcDbCircle
 10
405.2785514609687
 20
30.4495623741042
 30
0.0
 40
37.99644806043686
100
AcDbArc
 50
225.590698
 51
241.72824
  0
ARC
  5
1A7
330
1F
100
AcDbEntity
  8
1
  6
Continuous
 62
   155
420
  5010073
370
    18
100
AcDbCircle
 10
405.2785514609687
 20
30.4495623741042
 30
0.0
 40
37.79647852140558
100
AcDbArc
 50
225.5906979999999
 51
241.7282399999999
  0
ARC
  5
1A8
330
1F
100
AcDbEntity
  8
1
  6
Continuous
 62
   155
420
  5010073
370
    18
100
AcDbCircle
 10
405.2785514609687
 20
30.4495623741042
 30
0.0
 40
41.95352147859443
100
AcDbArc
 50
224.524868
 51
242.857058
  0
ARC
  5
1A9
330
1F
100
AcDbEntity
  8
1
  6
Continuous
 62
   155
420
  5010073
370
    35
100
AcDbCircle
 10
405.2785514609687
 20
30.4495623741042
 30
0.0
 40
41.75355193956315
100
AcDbArc
 50
224.524868
 51
242.8570580000001
  0
ARC
  5
1AA
330
1F
100
AcDbEntity
  8
1
  6
Continuous
 62
   155
420
  5010073
370
    18
100
AcDbCircle
 10
405.2785514609687
 20
30.4495623741042
 30
0.0
 40
37.79647852140558
100
AcDbArc
 50
281.2717599999999
 51
1.728239999999924
  0
ARC
  5
1AB
330
1F
100
AcDbEntity
  8
1
  6
Continuous
 62
   155
420
  5010073
370
    35
100
AcDbCircle
 10
405.2785514609687
 20
30.4495623741042
 30
0.0
 40
37.99647852140557
100
AcDbArc
 50
0.0
 51
1.728239999999997
  0
ARC
  5
1AC
330
1F
100
AcDbEntity
  8
1
  6
Continuous
 62
   155
420
  5010073
370
    35
100
AcDbCircle
 10
405.2785514609687
 20
30.4495623741042
 30
0.0
 40
37.99647852140557
100
AcDbArc
 50
281.2717599999999
 51
359.9999999999999
  0
ARC
  5
1AD
330
1F
100
AcDbEntity
  8
1
  6
Continuous
 62
   155
420
  5010073
370
    18
100
AcDbCircle
 10
413.1557024609688
 20
-9.073095625895832
 30
0.0
 40
2.503521478594426
100
AcDbArc
 50
101.2717600000002
 51
188.0000000000001
  0
ARC
  5
1AE
330
1F
100
AcDbEntity
  8
1
  6
Continuous
 62
   155
420
  5010073
370
    35
100
AcDbCircle
 10
413.1557024609688
 20
-9.073095625895832
 30
0.0
 40
2.303521478594426
100
AcDbArc
 50
101.2717600000001
 51
180.0
  0
ARC
  5
1AF
330
1F
100
AcDbEntity
  8
1
  6
Continuous
 62
   155
420
  5010073
370
    35
100
AcDbCircle
 10
413.1557024609688
 20
-9.073095625895832
 30
0.0
 40
2.303521478594426
100
AcDbArc
 50
180.0
 51
188.0000000000002
  0
ARC
  5
1B0
330
1F
100
AcDbEntity
  8
1
  6
Continuous
 62
   155
420
  5010073
370
    18
100
AcDbCircle
 10
405.2785514609687
 20
30.4495623741042
 30
0.0
 40
37.79647852140558
100
AcDbArc
 50
161.27176
 51
194.409302
  0
ARC
  5
1B1
330
1F
100
AcDbEntity
  8
1
  6
Continuous
 62
   155
420
  5010073
370
    35
100
AcDbCircle
 10
405.2785514609687
 20
30.4495623741042
 30
0.0
 40
37.99644806043686
100
AcDbArc
 50
161.27176
 51
194.409302
  0
CIRCLE
  5
1B2
330
1F
100
AcDbEntity
  8
1
  6
Continuous
 62
   155
420
  5010073
370
    35
100
AcDbCircle
 10
405.2785514609687
 20
30.4495623741042
 30
0.0
 40
45.0
  0
ARC
  5
1B3
330
1F
100
AcDbEntity
  8
1
  6
Continuous
 62
   155
420
  5010073
370
    35
100
AcDbCircle
 10
405.2785514609687
 20
30.4495623741042
 30
0.0
 40
37.99644806043686
100
AcDbArc
 50
202.86726
 51
217.13274
  0
ARC
  5
1B4
330
1F
100
AcDbEntity
  8
1
  6
Continuous
 62
   155
420
  5010073
370
    18
100
AcDbCircle
 10
405.2785514609687
 20
30.4495623741042
 30
0.0
 40
37.79647852140558
100
AcDbArc
 50
202.86726
 51
217.13274
  0
ARC
  5
1B5
330
1F
100
AcDbEntity
  8
1
  6
Continuous
 62
   155
420
  5010073
370
    18
100
AcDbCircle
 10
375.8336874609687
 20
13.4495623741042
 30
0.0
 40
7.653475780181242
100
AcDbArc
 50
166.815612
 51
253.184388
  0
ARC
  5
1B6
330
1F
100
AcDbEntity
  8
1
  6
Continuous
 62
   155
420
  5010073
370
    35
100
AcDbCircle
 10
375.8336874609687
 20
13.4495623741042
 30
0.0
 40
7.453475780181241
100
AcDbArc
 50
166.815612
 51
180.0000000000001
  0
ARC
  5
1B7
330
1F
100
AcDbEntity
  8
1
  6
Continuous
 62
   155
420
  5010073
370
    35
100
AcDbCircle
 10
375.8336874609687
 20
13.4495623741042
 30
0.0
 40
7.453475780181241
100
AcDbArc
 50
180.0
 51
253.184388
  0
CIRCLE
  5
1B8
330
1F
100
AcDbEntity
  8
1
  6
Continuous
 62
   155
420
  5010073
370
    18
100
AcDbCircle
 10
370.6375354609687
 20
50.4495623741042
 30
0.0
 40
3.599999999999999
  0
CIRCLE
  5
1B9
330
1F
100
AcDbEntity
  8
1
  6
Continuous
 62
   155
420
  5010073
370
    35
100
AcDbCircle
 10
370.6375354609687
 20
50.4495623741042
 30
0.0
 40
3.399999999999999
  0
ARC
  5
1BA
330
1F
100
AcDbEntity
  8
1
  6
Continuous
 62
   155
420
  5010073
370
    18
100
AcDbCircle
 10
445.5602194609687
 20
31.66496637410418
 30
0.0
 40
2.503521478594428
100
AcDbArc
 50
94.99999999999983
 51
181.7282399999999
  0
ARC
  5
1BB
330
1F
100
AcDbEntity
  8
1
  6
Continuous
 62
   155
420
  5010073
370
    35
100
AcDbCircle
 10
445.5602194609687
 20
31.66496637410418
 30
0.0
 40
2.30355193956315
100
AcDbArc
 50
94.99999999999989
 51
181.7282399999999
  0
ARC
  5
1BC
330
1F
100
AcDbEntity
  8
1
  6
Continuous
 62
   155
420
  5010073
370
    35
100
AcDbCircle
 10
445.5602194609687
 20
31.66496637410418
 30
0.0
 40
2.303521478594428
100
AcDbArc
 50
180.0
 51
181.72824
  0
SPLINE
  5
1BD
330
1F
100
AcDbEntity
  8
1
  6
Continuous
 62
   155
420
  5010073
370
    35
100
AcDbSpline
210
0.0
220
0.0
230
1.0
 70
     8
 71
     3
 72
     8
 73
     4
 74
     0
 42
0.0000000001
 43
0.0000000001
 40
0.0
 40
0.0
 40
0.0
 40
0.0
 40
1.0
 40
1.0
 40
1.0
 40
1.0
 10
445.4516330059012
 20
33.96781713064868
 30
0.0
 10
445.4569860524997
 20
33.9682855277542
 30
0.0
 10
445.4623492658684
 20
33.96853768188188
 30
0.0
 10
445.4677226460072
 20
33.96857359303218
 30
0.0
  0
SPLINE
  5
1BE
330
1F
100
AcDbEntity
  8
1
  6
Continuous
 62
   155
420
  5010073
370
    35
100
AcDbSpline
210
0.0
220
0.0
230
1.0
 70
     8
 71
     3
 72
    42
 73
    38
 74
     0
 42
0.0000000001
 43
0.0000000001
 40
0.0
 40
0.0
 40
0.0
 40
0.0
 40
0.0039062499999983
 40
0.0039062499999983
 40
0.0078124999999966
 40
0.0156249999999965
 40
0.0312499999999962
 40
0.0624999999999957
 40
0.0624999999999957
 40
0.1249999999999971
 40
0.1874999999999986
 40
0.1874999999999986
 40
0.25
 40
0.25
 40
0.3750000000000028
 40
0.3750000000000028
 40
0.4375000000000042
 40
0.4375000000000042
 40
0.4687500000000027
 40
0.4687500000000027
 40
0.5000000000000011
 40
0.5000000000000011
 40
0.6249999999999958
 40
0.6249999999999958
 40
0.6874999999999953
 40
0.6874999999999953
 40
0.7187499999999918
 40
0.7187499999999918
 40
0.7499999999999883
 40
0.7499999999999883
 40
0.8749999999999933
 40
0.8749999999999933
 40
0.9062499999999937
 40
0.9062499999999937
 40
0.9374999999999941
 40
0.9374999999999941
 40
1.0
 40
1.0
 40
1.0
 40
1.0
 10
437.0973514987012
 20
55.32225400445648
 30
0.0
 10
437.0994340349317
 20
55.32428602547398
 30
0.0
 10
437.1015830397081
 20
55.326395491949
 30
0.0
 10
437.1057925509255
 20
55.33055365399227
 30
0.0
 10
437.1120840563627
 20
55.33680679211537
 30
0.0
 10
437.1266057168637
 20
55.35150814688697
 30
0.0
 10
437.1550211221721
 20
55.38134935149108
 30
0.0
 10
437.1783206398425
 20
55.40766534778791
 30
0.0
 10
437.2235518855107
 20
55.46125251481439
 30
0.0
 10
437.2802204546329
 20
55.53524383898028
 30
0.0
 10
437.3298499458321
 20
55.61415079264762
 30
0.0
 10
437.3759613274358
 20
55.69551456289108
 30
0.0
 10
437.3972720875279
 20
55.73745499733988
 30
0.0
 10
437.4556627220317
 20
55.86690203484218
 30
0.0
 10
437.4861284796172
 20
55.95544701235841
 30
0.0
 10
437.5194095329762
 20
56.0915620349908
 30
0.0
 10
437.5284159827015
 20
56.13748798567698
 30
0.0
 10
437.5386666780873
 20
56.20724235126781
 30
0.0
 10
437.5415392582637
 20
56.23063835313067
 30
0.0
 10
437.5461592712504
 20
56.27772914582798
 30
0.0
 10
437.5478953987736
 20
56.30133569796388
 30
0.0
 10
437.553652150354
 20
56.41889351741671
 30
0.0
 10
437.5492066409521
 20
56.5121963202711
 30
0.0
 10
437.529658587009
 20
56.65109256309867
 30
0.0
 10
437.5209788572485
 20
56.69721358081571
 30
0.0
 10
437.5046466531769
 20
56.76612300566197
 30
0.0
 10
437.4986406817981
 20
56.78906618915229
 30
0.0
 10
437.4856455876401
 20
56.83438861606081
 30
0.0
 10
437.478643862817
 20
56.85682674300628
 30
0.0
 10
437.4411554812074
 20
56.96792014476861
 30
0.0
 10
437.403306136787
 20
57.0533176076386
 30
0.0
 10
437.3460419086313
 20
57.15566067360848
 30
0.0
 10
437.3340866452808
 20
57.1759069790626
 30
0.0
 10
437.3091483153872
 20
57.21594481181282
 30
0.0
 10
437.2961426319563
 20
57.23576697870678
 30
0.0
 10
437.2558028925042
 20
57.29415710905161
 30
0.0
 10
437.2271055385444
 20
57.33173554170097
 30
0.0
 10
437.1965711894698
 20
57.36794114056127
 30
0.0
  0
SPLINE
  5
1BF
330
1F
100
AcDbEntity
  8
1
  6
Continuous
 62
   155
420
  5010073
370
    18
100
AcDbSpline
210
0.0
220
0.0
230
1.0
 70
     8
 71
     3
 72
    36
 73
    32
 74
     0
 42
0.0000000001
 43
0.0000000001
 40
0.0
 40
0.0
 40
0.0
 40
0.0
 40
0.0625000000000077
 40
0.0625000000000077
 40
0.0937500000000093
 40
0.0937500000000093
 40
0.1250000000000108
 40
0.1250000000000108
 40
0.2500000000000214
 40
0.2500000000000214
 40
0.2812500000000231
 40
0.2812500000000231
 40
0.3125000000000248
 40
0.3125000000000248
 40
0.3750000000000282
 40
0.3750000000000282
 40
0.500000000000031
 40
0.500000000000031
 40
0.5312500000000283
 40
0.5312500000000283
 40
0.5625000000000255
 40
0.5625000000000255
 40
0.6250000000000203
 40
0.6250000000000203
 40
0.7500000000000098
 40
0.7500000000000098
 40
0.8125000000000061
 40
0.8125000000000061
 40
0.8750000000000026
 40
0.8750000000000026
 40
1.0
 40
1.0
 40
1.0
 40
1.0
 10
437.3494355945406
 20
57.49686084503938
 30
0.0
 10
437.3840320899217
 20
57.45583862345288
 30
0.0
 10
437.4165533171951
 20
57.41326543229249
 30
0.0
 10
437.4622723697524
 20
57.34711664417958
 30
0.0
 10
437.4770135900809
 20
57.32466026019947
 30
0.0
 10
437.5052810643955
 20
57.27930080759998
 30
0.0
 10
437.5188326840064
 20
57.25636346048762
 30
0.0
 10
437.5837432936468
 20
57.14041654597347
 30
0.0
 10
437.6266451781216
 20
57.04366421833421
 30
0.0
 10
437.6691202595462
 20
56.91778827995077
 30
0.0
 10
437.6770523296217
 20
56.89236395589117
 30
0.0
 10
437.6917719189872
 20
56.84100877759531
 30
0.0
 10
437.6985736574767
 20
56.81501127358447
 30
0.0
 10
437.7170652383551
 20
56.73693160667577
 30
0.0
 10
437.7268869271945
 20
56.68467310463197
 30
0.0
 10
437.7489935619302
 20
56.52729451197408
 30
0.0
 10
437.7539956061919
 20
56.42157752517662
 30
0.0
 10
437.7474696036899
 20
56.28838397938827
 30
0.0
 10
437.745505359935
 20
56.26163906311271
 30
0.0
 10
437.7402805148213
 20
56.20828288248308
 30
0.0
 10
437.737032793617
 20
56.18177337474012
 30
0.0
 10
437.7254425862408
 20
56.10273498223827
 30
0.0
 10
437.7152581208583
 20
56.05069488427901
 30
0.0
 10
437.677604117279
 20
55.89645880448998
 30
0.0
 10
437.6431122106226
 20
55.79612627529028
 30
0.0
 10
437.5769485031381
 20
55.64945551808788
 30
0.0
 10
437.5527957058632
 20
55.60193996610562
 30
0.0
 10
437.5005276774984
 20
55.50976742805616
 30
0.0
 10
437.4723965676658
 20
55.46507660172321
 30
0.0
 10
437.3820186839617
 20
55.33518574638831
 30
0.0
 10
437.3138598625368
 20
55.25411667803948
 30
0.0
 10
437.2370018166117
 20
55.17912607130617
 30
0.0
  0
SPLINE
  5
1C0
330
1F
100
AcDbEntity
  8
1
  6
Continuous
 62
   155
420
  5010073
370
    18
100
AcDbSpline
210
0.0
220
0.0
230
1.0
 70
     8
 71
     3
 72
     8
 73
     4
 74
     0
 42
0.0000000001
 43
0.0000000001
 40
0.0
 40
0.0
 40
0.0
 40
0.0
 40
1.0
 40
1.0
 40
1.0
 40
1.0
 10
445.4663837924094
 20
34.1685386500379
 30
0.0
 10
445.4556370383328
 20
34.16846669581471
 30
0.0
 10
445.4449106115965
 20
34.16796238753918
 30
0.0
 10
445.4342045122005
 20
34.16702572521152
 30
0.0
  0
SPLINE
  5
1C1
330
1F
100
AcDbEntity
  8
1
  6
Continuous
 62
   155
420
  5010073
370
    35
100
AcDbSpline
210
0.0
220
0.0
230
1.0
 70
     8
 71
     3
 72
    41
 73
    37
 74
     0
 42
0.0000000001
 43
0.0000000001
 40
0.0
 40
0.0
 40
0.0
 40
0.0
 40
0.0039062500000014
 40
0.0039062500000014
 40
0.0078125000000029
 40
0.015625000000007
 40
0.0312500000000114
 40
0.0625000000000186
 40
0.1250000000000236
 40
0.1875000000000287
 40
0.1875000000000287
 40
0.2500000000000337
 40
0.2500000000000337
 40
0.3750000000000364
 40
0.3750000000000364
 40
0.4375000000000335
 40
0.4375000000000335
 40
0.4687500000000329
 40
0.4687500000000329
 40
0.5000000000000322
 40
0.5000000000000322
 40
0.6250000000000205
 40
0.6250000000000205
 40
0.6875000000000148
 40
0.6875000000000148
 40
0.7187500000000119
 40
0.7187500000000119
 40
0.750000000000009
 40
0.750000000000009
 40
0.8749999999999981
 40
0.8749999999999981
 40
0.906249999999999
 40
0.906249999999999
 40
0.9375
 40
0.9375
 40
1.0
 40
1.0
 40
1.0
 40
1.0
 10
382.6253695969914
 20
65.52366186338227
 30
0.0
 10
382.6229254626311
 20
65.52208320677559
 30
0.0
 10
382.6204007788234
 20
65.5204418028463
 30
0.0
 10
382.6154502362848
 20
65.51720104146298
 30
0.0
 10
382.6080435702214
 20
65.5123198176847
 30
0.0
 10
382.590894702096
 20
65.5007904383763
 30
0.0
 10
382.5571251995212
 20
65.47717768072388
 30
0.0
 10
382.491661716731
 20
65.4277754064623
 30
0.0
 10
382.4038857060805
 20
65.3511773431367
 30
0.0
 10
382.339587091264
 20
65.28368783522481
 30
0.0
 10
382.2782484828118
 20
65.213093942364
 30
0.0
 10
382.2490417203455
 20
65.17622136428488
 30
0.0
 10
382.166117836519
 20
65.06093244786607
 30
0.0
 10
382.1186827120921
 20
64.98019436140609
 30
0.0
 10
382.0590459652532
 20
64.85339518588907
 30
0.0
 10
382.0411027191958
 20
64.81017204019358
 30
0.0
 10
382.0172099295444
 20
64.74384358210798
 30
0.0
 10
382.0097504160809
 20
64.72148461068971
 30
0.0
 10
381.9958746854769
 20
64.67625099213816
 30
0.0
 10
381.989485672712
 20
64.65345566432731
 30
0.0
 10
381.9605035393188
 20
64.53937361896979
 30
0.0
 10
381.9463380965293
 20
64.44704349067197
 30
0.0
 10
381.9379253161865
 20
64.30703357939811
 30
0.0
 10
381.9372773164165
 20
64.26010914614008
 30
0.0
 10
381.9396064478781
 20
64.18933292586561
 30
0.0
 10
381.9409390296855
 20
64.16565287616831
 30
0.0
 10
381.9446803036649
 20
64.11864973298302
 30
0.0
 10
381.9470895743817
 20
64.09526704860158
 30
0.0
 10
381.9617850658457
 20
63.9789383442841
 30
0.0
 10
381.9819368975161
 20
63.88772842162521
 30
0.0
 10
382.0177576540282
 20
63.7760624848261
 30
0.0
 10
382.025458469759
 20
63.75384775001388
 30
0.0
 10
382.0419579211166
 20
63.70966059114582
 30
0.0
 10
382.0507728830445
 20
63.68765298182009
 30
0.0
 10
382.0787300040986
 20
63.62241938372742
 30
0.0
 10
382.0994046863724
 20
63.57989491428341
 30
0.0
 10
382.1221528238462
 20
63.53835249578069
 30
0.0
  0
SPLINE
  5
1C2
330
1F
100
AcDbEntity
  8
1
  6
Continuous
 62
   155
420
  5010073
370
    18
100
AcDbSpline
210
0.0
220
0.0
230
1.0
 70
     8
 71
     3
 72
    36
 73
    32
 74
     0
 42
0.0000000001
 43
0.0000000001
 40
0.0
 40
0.0
 40
0.0
 40
0.0
 40
0.0625000000000075
 40
0.0625000000000075
 40
0.0937500000000142
 40
0.0937500000000142
 40
0.1250000000000209
 40
0.1250000000000209
 40
0.2500000000000218
 40
0.2500000000000218
 40
0.281250000000022
 40
0.281250000000022
 40
0.3125000000000223
 40
0.3125000000000223
 40
0.3750000000000309
 40
0.3750000000000309
 40
0.5000000000000483
 40
0.5000000000000483
 40
0.5312500000000487
 40
0.5312500000000487
 40
0.5625000000000492
 40
0.5625000000000492
 40
0.6250000000000437
 40
0.6250000000000437
 40
0.750000000000031
 40
0.750000000000031
 40
0.8125000000000225
 40
0.8125000000000225
 40
0.8750000000000141
 40
0.8750000000000141
 40
1.0
 40
1.0
 40
1.0
 40
1.0
 10
381.9467580100965
 20
63.44230836087357
 30
0.0
 10
381.9209835873944
 20
63.48937735084181
 30
0.0
 10
381.89755145965
 20
63.53755578242837
 30
0.0
 10
381.8658604276885
 20
63.6114609335701
 30
0.0
 10
381.8558668241748
 20
63.63639457348157
 30
0.0
 10
381.8371597979967
 20
63.68645760258281
 30
0.0
 10
381.8284280370526
 20
63.71162639558727
 30
0.0
 10
381.7878107176995
 20
63.83814189895961
 30
0.0
 10
381.7649584552363
 20
63.94148309686071
 30
0.0
 10
381.7483068381607
 20
64.07329005694046
 30
0.0
 10
381.7455778958533
 20
64.09978422963027
 30
0.0
 10
381.7413427472751
 20
64.1530425464351
 30
0.0
 10
381.7398359257844
 20
64.17987413333171
 30
0.0
 10
381.7372089213142
 20
64.26006639337649
 30
0.0
 10
381.7379547878667
 20
64.31323274625808
 30
0.0
 10
381.7475250761951
 20
64.47186512680267
 30
0.0
 10
381.7636069209296
 20
64.57647337230381
 30
0.0
 10
381.796443794124
 20
64.7057285326961
 30
0.0
 10
381.8036788275442
 20
64.73155490708248
 30
0.0
 10
381.8193898197181
 20
64.7828093813059
 30
0.0
 10
381.8278344434834
 20
64.80814556180931
 30
0.0
 10
381.8548812119947
 20
64.88330785203621
 30
0.0
 10
381.8751915623042
 20
64.93229002837157
 30
0.0
 10
381.9427080307013
 20
65.0759830533535
 30
0.0
 10
381.9964270453115
 20
65.16747622671218
 30
0.0
 10
382.0903856509811
 20
65.29810560000541
 30
0.0
 10
382.1234834601589
 20
65.33987869681127
 30
0.0
 10
382.1929999050363
 20
65.41984564210068
 30
0.0
 10
382.229438320368
 20
65.45806601914657
 30
0.0
 10
382.343788341552
 20
65.56744395332836
 30
0.0
 10
382.4266737545287
 20
65.63338228980987
 30
0.0
 10
382.5168771060418
 20
65.6916416120068
 30
0.0
  0
SPLINE
  5
1C3
330
1F
100
AcDbEntity
  8
1
  6
Continuous
 62
   155
420
  5010073
370
    35
100
AcDbSpline
210
0.0
220
0.0
230
1.0
 70
     8
 71
     3
 72
    15
 73
    11
 74
     0
 42
0.0000000001
 43
0.0000000001
 40
0.0
 40
0.0
 40
0.0
 40
0.0
 40
0.2499999999999975
 40
0.499999999999995
 40
0.499999999999995
 40
0.7499999999999925
 40
0.7499999999999925
 40
0.8749999999999962
 40
0.8749999999999962
 40
1.0
 40
1.0
 40
1.0
 40
1.0
 10
368.8029011596757
 20
15.46226766300092
 30
0.0
 10
368.7744143879818
 20
15.44487870295879
 30
0.0
 10
368.7220219232282
 20
15.40514575072351
 30
0.0
 10
368.6782650786389
 20
15.35607225252258
 30
0.0
 10
368.6390873443773
 20
15.30204585115078
 30
0.0
 10
368.6224967898551
 20
15.27352845341861
 30
0.0
 10
368.6019543381049
 20
15.22863336540328
 30
0.0
 10
368.5958344115711
 20
15.2133099649196
 30
0.0
 10
368.5850838744747
 20
15.18192957525858
 30
0.0
 10
368.580453088668
 20
15.16584740604631
 30
0.0
 10
368.5766477667182
 20
15.14959969561912
 30
0.0
  0
SPLINE
  5
1C4
330
1F
100
AcDbEntity
  8
1
  6
Continuous
 62
   155
420
  5010073
370
    18
100
AcDbSpline
210
0.0
220
0.0
230
1.0
 70
     8
 71
     3
 72
    15
 73
    11
 74
     0
 42
0.0000000001
 43
0.0000000001
 40
0.0
 40
0.0
 40
0.0
 40
0.0
 40
0.1250000000000032
 40
0.1250000000000032
 40
0.2500000000000064
 40
0.2500000000000064
 40
0.5000000000000043
 40
0.5000000000000043
 40
0.7500000000000022
 40
1.0
 40
1.0
 40
1.0
 40
1.0
 10
368.3819492071473
 20
15.19520986379851
 30
0.0
 10
368.3872777766338
 20
15.21795621280447
 30
0.0
 10
368.3937618636161
 20
15.2404707349979
 30
0.0
 10
368.408814291267
 20
15.28440232359
 30
0.0
 10
368.4173828807892
 20
15.305854634501
 30
0.0
 10
368.4461439126674
 20
15.36870651780507
 30
0.0
 10
368.4693711186338
 20
15.40863018157731
 30
0.0
 10
368.5242192329229
 20
15.48426623849852
 30
0.0
 10
368.5854772500452
 20
15.55296969004721
 30
0.0
 10
368.6588240038421
 20
15.60859861566408
 30
0.0
 10
368.6987039572876
 20
15.63294501813297
 30
0.0
  0
SPLINE
  5
1C5
330
1F
100
AcDbEntity
  8
1
  6
Continuous
 62
   155
420
  5010073
370
    18
100
AcDbSpline
210
0.0
220
0.0
230
1.0
 70
     8
 71
     3
 72
    36
 73
    32
 74
     0
 42
0.0000000001
 43
0.0000000001
 40
0.0
 40
0.0
 40
0.0
 40
0.0
 40
0.0625000000000029
 40
0.0625000000000029
 40
0.0937500000000064
 40
0.0937500000000064
 40
0.1250000000000099
 40
0.1250000000000099
 40
0.2500000000000177
 40
0.2500000000000177
 40
0.2812500000000213
 40
0.2812500000000213
 40
0.3125000000000248
 40
0.3125000000000248
 40
0.3750000000000312
 40
0.3750000000000312
 40
0.5000000000000402
 40
0.5000000000000402
 40
0.5312500000000384
 40
0.5312500000000384
 40
0.5625000000000366
 40
0.5625000000000366
 40
0.6250000000000331
 40
0.6250000000000331
 40
0.7500000000000225
 40
0.7500000000000225
 40
0.812500000000017
 40
0.812500000000017
 40
0.8750000000000113
 40
0.8750000000000113
 40
1.0
 40
1.0
 40
1.0
 40
1.0
 10
388.3718919906078
 20
-6.252736382538018
 30
0.0
 10
388.3440162609159
 20
-6.298592182349722
 30
0.0
 10
388.3140085791193
 20
-6.342974216034435
 30
0.0
 10
388.2658503567408
 20
-6.407372030355901
 30
0.0
 10
388.2492539929254
 20
-6.428493564829893
 30
0.0
 10
388.2152516510224
 20
-6.469725839280017
 30
0.0
 10
388.19782071737
 20
-6.489872162579587
 30
0.0
 10
388.1085637371534
 20
-6.588305544658994
 30
0.0
 10
388.0304937657451
 20
-6.659766783436595
 30
0.0
 10
387.9246713984581
 20
-6.74009098687813
 30
0.0
 10
387.9030912430102
 20
-6.75570140658661
 30
0.0
 10
387.8590857619836
 20
-6.78599831124663
 30
0.0
 10
387.8366023368526
 20
-6.800719050384686
 30
0.0
 10
387.768467304702
 20
-6.843090233014181
 30
0.0
 10
387.7220509592038
 20
-6.86902747007278
 30
0.0
 10
387.5798861436251
 20
-6.94005554753133
 30
0.0
 10
387.4812518232085
 20
-6.978432384202193
 30
0.0
 10
387.3528951341414
 20
-7.014622398031435
 30
0.0
 10
387.3269113211251
 20
-7.021269862485696
 30
0.0
 10
387.274668148303
 20
-7.033290981256329
 30
0.0
 10
387.2485040604696
 20
-7.038645812801718
 30
0.0
 10
387.169888223471
 20
-7.0528037692944
 30
0.0
 10
387.117313239277
 20
-7.059705578134327
 30
0.0
 10
386.9591131950976
 20
-7.073081113819597
 30
0.0
 10
386.853018275391
 20
-7.072305669180224
 30
0.0
 10
386.6929106168038
 20
-7.056249816412702
 30
0.0
 10
386.6401851491863
 20
-7.048472821258002
 30
0.0
 10
386.536173520664
 20
-7.028253286657929
 30
0.0
 10
386.4848544955344
 20
-7.015806881829832
 30
0.0
 10
386.3329554153274
 20
-6.971465825652018
 30
0.0
 10
386.2344084343629
 20
-6.93265412065162
 30
0.0
 10
386.1388527055768
 20
-6.88366538783319
 30
0.0
  0
SPLINE
  5
1C6
330
1F
100
AcDbEntity
  8
1
  6
Continuous
 62
   155
420
  5010073
370
    35
100
AcDbSpline
210
0.0
220
0.0
230
1.0
 70
     8
 71
     3
 72
    42
 73
    38
 74
     0
 42
0.0000000001
 43
0.0000000001
 40
0.0
 40
0.0
 40
0.0
 40
0.0
 40
0.0039062500000044
 40
0.0039062500000044
 40
0.0078125000000088
 40
0.0156250000000136
 40
0.031250000000015
 40
0.0625000000000177
 40
0.0625000000000177
 40
0.1250000000000197
 40
0.1875000000000218
 40
0.1875000000000218
 40
0.2500000000000239
 40
0.2500000000000239
 40
0.375000000000027
 40
0.375000000000027
 40
0.4375000000000283
 40
0.4375000000000283
 40
0.4687500000000296
 40
0.4687500000000296
 40
0.5000000000000311
 40
0.5000000000000311
 40
0.6250000000000349
 40
0.6250000000000349
 40
0.6875000000000366
 40
0.6875000000000366
 40
0.7187500000000352
 40
0.7187500000000352
 40
0.7500000000000336
 40
0.7500000000000336
 40
0.875000000000022
 40
0.875000000000022
 40
0.9062500000000158
 40
0.9062500000000158
 40
0.9375000000000095
 40
0.9375000000000095
 40
1.0
 40
1.0
 40
1.0
 40
1.0
 10
386.2300811897321
 20
-6.705718260238797
 30
0.0
 10
386.2326704136377
 20
-6.707045614381315
 30
0.0
 10
386.235354253042
 20
-6.708411352731019
 30
0.0
 10
386.2406361059969
 20
-6.711078267640318
 30
0.0
 10
386.2485667028221
 20
-6.715052016719511
 30
0.0
 10
386.2671258722557
 20
-6.724138682508027
 30
0.0
 10
386.3044598715235
 20
-6.741577550784683
 30
0.0
 10
386.336823323405
 20
-6.755289307125935
 30
0.0
 10
386.4020200236852
 20
-6.781112858483283
 30
0.0
 10
386.4901991114797
 20
-6.811286676174092
 30
0.0
 10
386.5807960472284
 20
-6.833226156077586
 30
0.0
 10
386.6726014560239
 20
-6.85105000279961
 30
0.0
 10
386.7191374265765
 20
-6.857907512018215
 30
0.0
 10
386.8604424988833
 20
-6.872077243783195
 30
0.0
 10
386.954081295024
 20
-6.872788223338631
 30
0.0
 10
387.0937109756201
 20
-6.861035573341582
 30
0.0
 10
387.1401149408526
 20
-6.854963307405882
 30
0.0
 10
387.2095034653742
 20
-6.842490841168313
 30
0.0
 10
387.2325966593567
 20
-6.837771483618297
 30
0.0
 10
387.2787079874294
 20
-6.827171409541592
 30
0.0
 10
387.3016438267836
 20
-6.8213067929955
 30
0.0
 10
387.4149328428754
 20
-6.789365034090821
 30
0.0
 10
387.5019758009107
 20
-6.755467603253379
 30
0.0
 10
387.627434331027
 20
-6.692748329109605
 30
0.0
 10
387.6683960821716
 20
-6.669847296743029
 30
0.0
 10
387.7285255211823
 20
-6.632442099591316
 30
0.0
 10
387.7483667548794
 20
-6.619448025044704
 30
0.0
 10
387.787202033946
 20
-6.592706415143397
 30
0.0
 10
387.8062473972706
 20
-6.57892858330743
 30
0.0
 10
387.8996432646668
 20
-6.508037562219698
 30
0.0
 10
387.9685574589314
 20
-6.444980602731022
 30
0.0
 10
388.0473526186809
 20
-6.358125949209324
 30
0.0
 10
388.0627407355012
 20
-6.340349479750529
 30
0.0
 10
388.0927582119231
 20
-6.303966956292214
 30
0.0
 10
388.1074098797119
 20
-6.285329170666529
 30
0.0
 10
388.1499252723136
 20
-6.228500794570692
 30
0.0
 10
388.1764152019978
 20
-6.189333759784432
 30
0.0
 10
388.2010179230189
 20
-6.148862085592128
 30
0.0
  0
SPLINE
  5
1C7
330
1F
100
AcDbEntity
  8
1
  6
Continuous
 62
   155
420
  5010073
370
    18
100
AcDbSpline
210
0.0
220
0.0
230
1.0
 70
     8
 71
     3
 72
    37
 73
    33
 74
     0
 42
0.0000000001
 43
0.0000000001
 40
0.0
 40
0.0
 40
0.0
 40
0.0
 40
0.0625000000000003
 40
0.0625000000000003
 40
0.0937500000000004
 40
0.0937500000000004
 40
0.1250000000000005
 40
0.1250000000000005
 40
0.2499999999999866
 40
0.2499999999999866
 40
0.2812499999999791
 40
0.2812499999999791
 40
0.3124999999999716
 40
0.3124999999999716
 40
0.3749999999999567
 40
0.4374999999999419
 40
0.4374999999999419
 40
0.4687499999999339
 40
0.4687499999999339
 40
0.4999999999999259
 40
0.4999999999999259
 40
0.624999999999926
 40
0.624999999999926
 40
0.6562499999999277
 40
0.6562499999999277
 40
0.6874999999999294
 40
0.749999999999945
 40
0.8124999999999608
 40
0.8124999999999608
 40
0.8749999999999765
 40
0.8749999999999765
 40
1.0
 40
1.0
 40
1.0
 40
1.0
 10
365.8704645318239
 20
18.83613954146037
 30
0.0
 10
365.8472201791668
 20
18.8227194081966
 30
0.0
 10
365.8232984839398
 20
18.8106842357532
 30
0.0
 10
365.7864037503754
 20
18.79470110117032
 30
0.0
 10
365.7739262000823
 20
18.7897174987954
 30
0.0
 10
365.7488592009398
 20
18.78052724841191
 30
0.0
 10
365.7362426354631
 20
18.77630798092159
 30
0.0
 10
365.6727519004397
 20
18.75705734932498
 30
0.0
 10
365.6206698231171
 20
18.74749154221118
 30
0.0
 10
365.55391371846
 20
18.74301609808251
 30
0.0
 10
365.5404836044238
 20
18.74250324992082
 30
0.0
 10
365.5138023732022
 20
18.74224808090597
 30
0.0
 10
365.5005076955749
 20
18.74250211642001
 30
0.0
 10
365.4607591174517
 20
18.74438948454392
 30
0.0
 10
365.4081214041851
 20
18.74989984606341
 30
0.0
 10
365.3562005360957
 20
18.76136524634038
 30
0.0
 10
365.3175379267045
 20
18.77227406859888
 30
0.0
 10
365.3047262959532
 20
18.7762907741986
 30
0.0
 10
365.2795190279821
 20
18.7849919283947
 30
0.0
 10
365.2670848028927
 20
18.78968686076647
 30
0.0
 10
365.2057468429697
 20
18.81485508742057
 30
0.0
 10
365.1593101199201
 20
18.84034304467528
 30
0.0
 10
365.1046616149205
 20
18.87910883990631
 30
0.0
 10
365.0939533634532
 20
18.88717884815802
 30
0.0
 10
365.0731349131249
 20
18.90381961237611
 30
0.0
 10
365.0427286659407
 20
18.92958712919372
 30
0.0
 10
364.9960798608859
 20
18.97648742080381
 30
0.0
 10
364.9630454782879
 20
19.0182137722862
 30
0.0
 10
364.9322335091127
 20
19.06212179754849
 30
0.0
 10
364.9181978542645
 20
19.08480511368552
 30
0.0
 10
364.8802384614226
 20
19.15467578846167
 30
0.0
 10
364.8603211665557
 20
19.20378501848697
 30
0.0
 10
364.8459981403292
 20
19.25551936675052
 30
0.0
  0
SPLINE
  5
1C8
330
1F
100
AcDbEntity
  8
1
  6
Continuous
 62
   155
420
  5010073
370
    35
100
AcDbSpline
210
0.0
220
0.0
230
1.0
 70
     8
 71
     3
 72
    34
 73
    30
 74
     0
 42
0.0000000001
 43
0.0000000001
 40
0.0
 40
0.0
 40
0.0
 40
0.0
 40
0.1250000000000004
 40
0.1250000000000004
 40
0.1875000000000007
 40
0.1875000000000007
 40
0.2500000000000009
 40
0.3125000000000011
 40
0.3125000000000011
 40
0.3750000000000013
 40
0.3750000000000013
 40
0.5000000000000202
 40
0.5000000000000202
 40
0.5312500000000191
 40
0.5312500000000191
 40
0.562500000000018
 40
0.562500000000018
 40
0.6250000000000158
 40
0.6875000000000135
 40
0.6875000000000135
 40
0.7187500000000124
 40
0.7187500000000124
 40
0.7500000000000113
 40
0.7500000000000113
 40
0.8750000000000066
 40
0.8750000000000066
 40
0.9375000000000033
 40
0.9375000000000033
 40
1.0
 40
1.0
 40
1.0
 40
1.0
 10
365.0387180540978
 20
19.30887526030889
 30
0.0
 10
365.0489434905807
 20
19.2719186782551
 30
0.0
 10
365.0631644983749
 20
19.23683591873387
 30
0.0
 10
365.0902709376904
 20
19.18692007538166
 30
0.0
 10
365.1002940055649
 20
19.17071490484861
 30
0.0
 10
365.122298766618
 20
19.1393456017033
 30
0.0
 10
365.1458913760628
 20
19.10953452501909
 30
0.0
 10
365.1725461579999
 20
19.08272849480531
 30
0.0
 10
365.2007358523467
 20
19.0574287426119
 30
0.0
 10
365.2156400835247
 20
19.04550219826618
 30
0.0
 10
365.2624831448235
 20
19.01226690922542
 30
0.0
 10
365.2956542689706
 20
18.99405806471398
 30
0.0
 10
365.3394709738183
 20
18.976079138686
 30
0.0
 10
365.3483534060118
 20
18.97272540964761
 30
0.0
 10
365.3663604232021
 20
18.96651013376058
 30
0.0
 10
365.3755126061328
 20
18.96364109077538
 30
0.0
 10
365.4031317169096
 20
18.9558496342311
 30
0.0
 10
365.4402218543767
 20
18.94766176248081
 30
0.0
 10
365.4778238038386
 20
18.94372983711739
 30
0.0
 10
365.5062182019187
 20
18.94238524237048
 30
0.0
 10
365.5157152336061
 20
18.94220507038571
 30
0.0
 10
365.5347748824937
 20
18.94239009938511
 30
0.0
 10
365.5443686378024
 20
18.94275791170938
 30
0.0
 10
365.5920547737136
 20
18.94596244998891
 30
0.0
 10
365.6292576272693
 20
18.95280248108887
 30
0.0
 10
365.6836788869462
 20
18.96931411892407
 30
0.0
 10
365.7016536827465
 20
18.97590021384261
 30
0.0
 10
365.736790889955
 20
18.99112937164247
 30
0.0
 10
365.7538773011605
 20
18.99972932420147
 30
0.0
 10
365.7704797623084
 20
19.00931824224452
 30
0.0
  0
SPLINE
  5
1C9
330
1F
100
AcDbEntity
  8
1
  6
Continuous
 62
   155
420
  5010073
370
    18
100
AcDbSpline
210
0.0
220
0.0
230
1.0
 70
     8
 71
     3
 72
    15
 73
    11
 74
     0
 42
0.0000000001
 43
0.0000000001
 40
0.0
 40
0.0
 40
0.0
 40
0.0
 40
0.1250000000000047
 40
0.1250000000000047
 40
0.2500000000000093
 40
0.2500000000000093
 40
0.5000000000000062
 40
0.5000000000000062
 40
0.7500000000000031
 40
1.0
 40
1.0
 40
1.0
 40
1.0
 10
374.1570606339099
 20
6.17879392839049
 30
0.0
 10
374.1365483337762
 20
6.167611997023101
 30
0.0
 10
374.1154390082396
 20
6.15744619803931
 30
0.0
 10
374.0726500333255
 20
6.139400043872769
 30
0.0
 10
374.0509439362701
 20
6.131496391524905
 30
0.0
 10
373.9849122993905
 20
6.111066532970568
 30
0.0
 10
373.9396653420742
 20
6.101786722648711
 30
0.0
 10
373.8467192153843
 20
6.092292183114665
 30
0.0
 10
373.7546719505582
 20
6.092196622025114
 30
0.0
 10
373.6643198743415
 20
6.109826856002911
 30
0.0
 10
373.6195934950564
 20
6.123343845166772
 30
0.0
  0
SPLINE
  5
1CA
330
1F
100
AcDbEntity
  8
1
  6
Continuous
 62
   155
420
  5010073
370
    35
100
AcDbSpline
210
0.0
220
0.0
230
1.0
 70
     8
 71
     3
 72
    15
 73
    11
 74
     0
 42
0.0000000001
 43
0.0000000001
 40
0.0
 40
0.0
 40
0.0
 40
0.0
 40
0.2500000000000167
 40
0.5000000000000334
 40
0.5000000000000334
 40
0.7500000000000502
 40
0.7500000000000502
 40
0.8750000000000372
 40
0.8750000000000372
 40
1.0
 40
1.0
 40
1.0
 40
1.0
 10
373.6774432105277
 20
6.314762827925193
 30
0.0
 10
373.7093903611219
 20
6.305106137921911
 30
0.0
 10
373.7739273513392
 20
6.292510315190469
 30
0.0
 10
373.8396758506318
 20
6.292577508682569
 30
0.0
 10
373.906066762817
 20
6.299359373192516
 30
0.0
 10
373.9383861827237
 20
6.305988367808681
 30
0.0
 10
373.9855515368794
 20
6.320582565937315
 30
0.0
 10
374.0010558019719
 20
6.326228614740018
 30
0.0
 10
374.0316190676864
 20
6.339120072840302
 30
0.0
 10
374.0466969618499
 20
6.346382128427621
 30
0.0
 10
374.0613483097087
 20
6.354370030227784
 30
0.0
  0
SPLINE
  5
1CB
330
1F
100
AcDbEntity
  8
1
  6
Continuous
 62
   155
420
  5010073
370
    35
100
AcDbSpline
210
0.0
220
0.0
230
1.0
 70
     8
 71
     3
 72
    37
 73
    33
 74
     0
 42
0.0000000001
 43
0.0000000001
 40
0.0
 40
0.0
 40
0.0
 40
0.0
 40
0.0625000000000013
 40
0.0625000000000013
 40
0.1250000000000027
 40
0.1250000000000027
 40
0.2500000000000054
 40
0.2500000000000054
 40
0.312500000000007
 40
0.312500000000007
 40
0.3750000000000088
 40
0.3750000000000088
 40
0.5000000000000112
 40
0.5000000000000112
 40
0.5312500000000101
 40
0.5312500000000101
 40
0.562500000000009
 40
0.562500000000009
 40
0.6250000000000078
 40
0.6250000000000078
 40
0.7500000000000008
 40
0.7500000000000008
 40
0.7812500000000007
 40
0.7812500000000007
 40
0.8125000000000004
 40
0.8125000000000004
 40
0.8749999999999999
 40
0.9374999999999993
 40
0.9374999999999993
 40
0.9687499999999997
 40
0.9687499999999997
 40
1.0
 40
1.0
 40
1.0
 40
1.0
 10
410.8885267581543
 20
-9.493007981682098
 30
0.0
 10
410.8988301801244
 20
-9.540291008902926
 30
0.0
 10
410.9114753049563
 20
-9.586877432038733
 30
0.0
 10
410.9413021415912
 20
-9.678700745428984
 30
0.0
 10
410.9585473120696
 20
-9.724060148283598
 30
0.0
 10
411.0161459624627
 20
-9.856233952630788
 30
0.0
 10
411.0624238106469
 20
-9.939758525236385
 30
0.0
 10
411.1432662110808
 20
-10.05838716226552
 30
0.0
 10
411.1721433147882
 20
-10.09682014326299
 30
0.0
 10
411.2338579749724
 20
-10.1713194508325
 30
0.0
 10
411.2662228633958
 20
-10.2068164296293
 30
0.0
 10
411.3677542656661
 20
-10.30814925186812
 30
0.0
 10
411.4413037948435
 20
-10.36888943753073
 30
0.0
 10
411.5410853669653
 20
-10.43569453130434
 30
0.0
 10
411.5614326820941
 20
-10.44860097583839
 30
0.0
 10
411.6029173673868
 20
-10.47349535338398
 30
0.0
 10
411.623923696873
 20
-10.48540323699493
 30
0.0
 10
411.687513118332
 20
-10.51944231783008
 30
0.0
 10
411.7307507760655
 20
-10.53994538285903
 30
0.0
 10
411.8629013681087
 20
-10.59513578809438
 30
0.0
 10
411.9542246618294
 20
-10.62357500028483
 30
0.0
 10
412.0725056093371
 20
-10.6484264555468
 30
0.0
 10
412.0962675009462
 20
-10.65283266501629
 30
0.0
 10
412.1437779191721
 20
-10.66048981066692
 30
0.0
 10
412.1675612644232
 20
-10.66374815873669
 30
0.0
 10
412.2389949266887
 20
-10.67182837521389
 30
0.0
 10
412.334462376556
 20
-10.67809131684172
 30
0.0
 10
412.4303776958432
 20
-10.6752774538401
 30
0.0
 10
412.5024887816742
 20
-10.6696285763463
 30
0.0
 10
412.5265877865841
 20
-10.66714928939049
 30
0.0
 10
412.5745737078576
 20
-10.66101029232689
 30
0.0
 10
412.5984830390381
 20
-10.65735047213289
 30
0.0
 10
412.622307806264
 20
-10.65309373396232
 30
0.0
  0
SPLINE
  5
1CC
330
1F
100
AcDbEntity
  8
1
  6
Continuous
 62
   155
420
  5010073
370
    18
100
AcDbSpline
210
0.0
220
0.0
230
1.0
 70
     8
 71
     3
 72
    37
 73
    33
 74
     0
 42
0.0000000001
 43
0.0000000001
 40
0.0
 40
0.0
 40
0.0
 40
0.0
 40
0.1250000000000042
 40
0.1250000000000042
 40
0.1875000000000059
 40
0.1875000000000059
 40
0.2187500000000076
 40
0.2187500000000076
 40
0.2500000000000094
 40
0.2500000000000094
 40
0.3750000000000102
 40
0.3750000000000102
 40
0.4375000000000107
 40
0.4375000000000107
 40
0.4687500000000104
 40
0.4687500000000104
 40
0.5000000000000102
 40
0.6250000000000118
 40
0.6250000000000118
 40
0.6875000000000158
 40
0.6875000000000158
 40
0.7500000000000197
 40
0.7500000000000197
 40
0.8750000000000211
 40
0.8750000000000211
 40
0.9062500000000178
 40
0.9062500000000178
 40
0.9375000000000145
 40
0.9687500000000112
 40
0.9843750000000057
 40
0.9843750000000057
 40
1.0
 40
1.0
 40
1.0
 40
1.0
 10
412.657479127274
 20
-10.84994594938993
 30
0.0
 10
412.5490196304046
 20
-10.86932425751471
 30
0.0
 10
412.4407129780586
 20
-10.87763633814782
 30
0.0
 10
412.2784635217495
 20
-10.87486225989508
 30
0.0
 10
412.224415759367
 20
-10.87137528561689
 30
0.0
 10
412.1433974536305
 20
-10.86228306567179
 30
0.0
 10
412.1164002588338
 20
-10.85860743397294
 30
0.0
 10
412.0624239463407
 20
-10.84994735493731
 30
0.0
 10
412.0354034586929
 20
-10.8449541428179
 30
0.0
 10
411.9008005601
 20
-10.81673559933202
 30
0.0
 10
411.7969014270606
 20
-10.78435797405828
 30
0.0
 10
411.6465827000441
 20
-10.7214625645905
 30
0.0
 10
411.597405833316
 20
-10.69808927931049
 30
0.0
 10
411.5250874514012
 20
-10.65928017375003
 30
0.0
 10
411.5011913561581
 20
-10.6456984956707
 30
0.0
 10
411.4540344095711
 20
-10.6173254401094
 30
0.0
 10
411.3383898296244
 20
-10.54377835523829
 30
0.0
 10
411.233875144879
 20
-10.45728586414029
 30
0.0
 10
411.1185129615444
 20
-10.34179919107871
 30
0.0
 10
411.081734897308
 20
-10.30131925614663
 30
0.0
 10
411.0116943687003
 20
-10.21641172384469
 30
0.0
 10
410.9789587217847
 20
-10.17262687417312
 30
0.0
 10
410.8873558706014
 20
-10.03742459344019
 30
0.0
 10
410.8350152964776
 20
-9.942204560737792
 30
0.0
 10
410.7808776119914
 20
-9.816602788451888
 30
0.0
 10
410.7706123063299
 20
-9.7911272333412
 30
0.0
 10
410.7512954059792
 20
-9.739587612917632
 30
0.0
 10
410.7332677853764
 20
-9.687667623069188
 30
0.0
 10
410.713971331144
 20
-9.621812324544493
 30
0.0
 10
410.7038698952362
 20
-9.58186356009358
 30
0.0
 10
410.6974671754365
 20
-9.555133228868414
 30
0.0
 10
410.694476301849
 20
-9.54170596458593
 30
0.0
 10
410.6915464500639
 20
-9.528260697361787
 30
0.0
  0
SPLINE
  5
1CD
330
1F
100
AcDbEntity
  8
1
  6
Continuous
 62
   155
420
  5010073
370
    35
100
AcDbSpline
210
0.0
220
0.0
230
1.0
 70
    24
 71
     3
 72
    29
 73
    25
 74
     0
 42
0.0000000001
 43
0.0000000001
 40
0.0
 40
0.0
 40
0.0
 40
0.0
 40
0.125000000000007
 40
0.125000000000007
 40
0.1875000000000074
 40
0.1875000000000074
 40
0.2500000000000079
 40
0.3125000000000082
 40
0.3125000000000082
 40
0.3750000000000087
 40
0.3750000000000087
 40
0.5000000000000028
 40
0.5000000000000028
 40
0.5625
 40
0.5625
 40
0.6249999999999971
 40
0.6249999999999971
 40
0.7499999999999982
 40
0.7499999999999982
 40
0.8124999999999987
 40
0.8124999999999987
 40
0.8749999999999991
 40
0.8749999999999991
 40
1.0
 40
1.0
 40
1.0
 40
1.0
 10
410.6915464500636
 20
-9.528260697361787
 30
0.0
 10
410.7045138421946
 20
-9.525939979152412
 30
0.0
 10
410.7176438466324
 20
-9.5235901589202
 30
0.0
 10
410.7369217376369
 20
-9.520140077959894
 30
0.0
 10
410.7433100865929
 20
-9.518996782715789
 30
0.0
 10
410.7557739044612
 20
-9.51676618701893
 30
0.0
 10
410.7679801518249
 20
-9.51458168760368
 30
0.0
 10
410.7796802667393
 20
-9.5124877685287
 30
0.0
 10
410.7911243192046
 20
-9.510439675845333
 30
0.0
 10
410.7967436518643
 20
-9.509434008129091
 30
0.0
 10
410.8130179764494
 20
-9.50652146248919
 30
0.0
 10
410.8229794375176
 20
-9.504738702790092
 30
0.0
 10
410.836628217773
 20
-9.502296039488527
 30
0.0
 10
410.840960651429
 20
-9.501520682533425
 30
0.0
 10
410.8491781231514
 20
-9.500050037081422
 30
0.0
 10
410.8530388468243
 20
-9.499359100026396
 30
0.0
 10
410.863704208042
 20
-9.497450366355082
 30
0.0
 10
410.8696813358238
 20
-9.496380665590124
 30
0.0
 10
410.8769370375751
 20
-9.495082143959195
 30
0.0
 10
410.8790768948684
 20
-9.494699182933886
 30
0.0
 10
410.882691648063
 20
-9.494052266154
 30
0.0
 10
410.8841752275173
 20
-9.493786756341393
 30
0.0
 10
410.8876772202434
 20
-9.493160019815917
 30
0.0
 10
410.8887564142269
 20
-9.49296688112591
 30
0.0
 10
410.8885267581543
 20
-9.493007981682098
 30
0.0
  0
SPLINE
  5
1CE
330
1F
100
AcDbEntity
  8
1
  6
Continuous
 62
   155
420
  5010073
370
    35
100
AcDbSpline
210
0.0
220
0.0
230
1.0
 70
    24
 71
     3
 72
    31
 73
    27
 74
     0
 42
0.0000000001
 43
0.0000000001
 40
0.0
 40
0.0
 40
0.0
 40
0.0
 40
0.0624999999999919
 40
0.0624999999999919
 40
0.124999999999984
 40
0.124999999999984
 40
0.187499999999976
 40
0.187499999999976
 40
0.249999999999968
 40
0.31249999999996
 40
0.31249999999996
 40
0.374999999999952
 40
0.374999999999952
 40
0.4999999999999629
 40
0.4999999999999629
 40
0.5624999999999616
 40
0.5624999999999616
 40
0.6249999999999603
 40
0.6249999999999603
 40
0.7499999999999851
 40
0.7499999999999851
 40
0.8124999999999906
 40
0.8124999999999906
 40
0.874999999999996
 40
0.874999999999996
 40
1.0
 40
1.0
 40
1.0
 40
1.0
 10
382.0635272500762
 20
63.2500980027464
 30
0.0
 10
382.0689234321286
 20
63.25387645009701
 30
0.0
 10
382.0743098442072
 20
63.25764805643828
 30
0.0
 10
382.0851754079895
 20
63.26525620610559
 30
0.0
 10
382.0905661590178
 20
63.26903085061227
 30
0.0
 10
382.1012637453313
 20
63.27652138118961
 30
0.0
 10
382.1065778721284
 20
63.28024237283191
 30
0.0
 10
382.116947210103
 20
63.28750306144801
 30
0.0
 10
382.1271022666356
 20
63.29461370858311
 30
0.0
 10
382.1368362476934
 20
63.30142951549661
 30
0.0
 10
382.1463571914901
 20
63.3080961521139
 30
0.0
 10
382.1510325367864
 20
63.31136986413398
 30
0.0
 10
382.1645697451684
 20
63.32084871948948
 30
0.0
 10
382.1728556412941
 20
63.32665056641738
 30
0.0
 10
382.184208381052
 20
63.33459984037532
 30
0.0
 10
382.1878119526423
 20
63.33712308836741
 30
0.0
 10
382.1946468704526
 20
63.3419089493411
 30
0.0
 10
382.1978574279623
 20
63.34415700591128
 30
0.0
 10
382.2067270656693
 20
63.35036759309477
 30
0.0
 10
382.2116976836379
 20
63.35384805726611
 30
0.0
 10
382.2177314066608
 20
63.35807291561017
 30
0.0
 10
382.2195108081497
 20
63.35931886594616
 30
0.0
 10
382.2225165176905
 20
63.36142348642429
 30
0.0
 10
382.2237501247896
 20
63.36228726741442
 30
0.0
 10
382.2266620373085
 20
63.36432621051071
 30
0.0
 10
382.2275593519749
 20
63.36495451700429
 30
0.0
 10
382.2273683614179
 20
63.36482078397651
 30
0.0
  0
SPLINE
  5
1CF
330
1F
100
AcDbEntity
  8
1
  6
Continuous
 62
   155
420
  5010073
370
    35
100
AcDbSpline
210
0.0
220
0.0
230
1.0
 70
    24
 71
     3
 72
    31
 73
    27
 74
     0
 42
0.0000000001
 43
0.0000000001
 40
0.0
 40
0.0
 40
0.0
 40
0.0
 40
0.0624999999999785
 40
0.0624999999999785
 40
0.124999999999957
 40
0.124999999999957
 40
0.1874999999999355
 40
0.1874999999999355
 40
0.2499999999999141
 40
0.3124999999998926
 40
0.3124999999998926
 40
0.3749999999998712
 40
0.3749999999998712
 40
0.4999999999998709
 40
0.4999999999998709
 40
0.5624999999998701
 40
0.5624999999998701
 40
0.6249999999998692
 40
0.6249999999998692
 40
0.7499999999999059
 40
0.7499999999999059
 40
0.8124999999999293
 40
0.8124999999999293
 40
0.8749999999999527
 40
0.8749999999999527
 40
1.0
 40
1.0
 40
1.0
 40
1.0
 10
388.4799664236266
 20
-6.055506075271097
 30
0.0
 10
388.4739961012081
 20
-6.052722068205725
 30
0.0
 10
388.4680365882641
 20
-6.049943101681123
 30
0.0
 10
388.4560149554852
 20
-6.044337322252687
 30
0.0
 10
388.450050641938
 20
-6.041556117170018
 30
0.0
 10
388.4382148590137
 20
-6.03603700095212
 30
0.0
 10
388.4323353223256
 20
-6.033295327968034
 30
0.0
 10
388.4208627125478
 20
-6.027945562169606
 30
0.0
 10
388.409627183225
 20
-6.022706348802984
 30
0.0
 10
388.3988575307617
 20
-6.017684377383688
 30
0.0
 10
388.388323582195
 20
-6.012772316496381
 30
0.0
 10
388.3831507917729
 20
-6.010360204708633
 30
0.0
 10
388.3681732580451
 20
-6.003376066030995
 30
0.0
 10
388.3590057631538
 20
-5.999101192957227
 30
0.0
 10
388.3464451200857
 20
-5.993244068903124
 30
0.0
 10
388.3424581374294
 20
-5.991384908357617
 30
0.0
 10
388.3348960013419
 20
-5.987858626388032
 30
0.0
 10
388.3313438484882
 20
-5.986202230309431
 30
0.0
 10
388.3215305033614
 20
-5.981626192324626
 30
0.0
 10
388.3160310239878
 20
-5.979061742976825
 30
0.0
 10
388.3093553278229
 20
-5.975948814731595
 30
0.0
 10
388.3073866024356
 20
-5.975030783006815
 30
0.0
 10
388.3040610928659
 20
-5.973480072427122
 30
0.0
 10
388.3026962330356
 20
-5.972843627835886
 30
0.0
 10
388.2994745002579
 20
-5.971341309169219
 30
0.0
 10
388.2984817135398
 20
-5.970878365119603
 30
0.0
 10
388.2986930250178
 20
-5.970976901280011
 30
0.0
  0
SPLINE
  5
1D0
330
1F
100
AcDbEntity
  8
1
  6
Continuous
 62
   155
420
  5010073
370
    35
100
AcDbSpline
210
0.0
220
0.0
230
1.0
 70
    24
 71
     3
 72
    31
 73
    27
 74
     0
 42
0.0000000001
 43
0.0000000001
 40
0.0
 40
0.0
 40
0.0
 40
0.0
 40
0.0624999999999984
 40
0.0624999999999984
 40
0.124999999999997
 40
0.124999999999997
 40
0.1874999999999954
 40
0.1874999999999954
 40
0.249999999999994
 40
0.3124999999999925
 40
0.3124999999999925
 40
0.3749999999999909
 40
0.3749999999999909
 40
0.5000000000000034
 40
0.5000000000000034
 40
0.5625000000000014
 40
0.5625000000000014
 40
0.6249999999999994
 40
0.6249999999999994
 40
0.7499999999999953
 40
0.7499999999999953
 40
0.8124999999999954
 40
0.8124999999999954
 40
0.8749999999999954
 40
0.8749999999999954
 40
1.0
 40
1.0
 40
1.0
 40
1.0
 10
368.0964472634944
 20
45.69107194683087
 30
0.0
 10
368.0939795343468
 20
45.68496410285971
 30
0.0
 10
368.0915162731078
 20
45.67886731735067
 30
0.0
 10
368.0865473398525
 20
45.66656877597487
 30
0.0
 10
368.0840820943675
 20
45.66046707928459
 30
0.0
 10
368.0791899789238
 20
45.64835866866437
 30
0.0
 10
368.0767597744821
 20
45.64234370159969
 30
0.0
 10
368.072017770355
 20
45.6306068295261
 30
0.0
 10
368.0673737593194
 20
45.61911249886438
 30
0.0
 10
368.0629223103974
 20
45.60809477615911
 30
0.0
 10
368.0585682855901
 20
45.5973181865991
 30
0.0
 10
368.0564302024508
 20
45.59202624512952
 30
0.0
 10
368.0502394988424
 20
45.57670371601498
 30
0.0
 10
368.046450273945
 20
45.56732505528672
 30
0.0
 10
368.0412585501419
 20
45.55447508795507
 30
0.0
 10
368.039610600061
 20
45.55039626837501
 30
0.0
 10
368.0364849223618
 20
45.5426599445934
 30
0.0
 10
368.0350167016326
 20
45.53902597076902
 30
0.0
 10
368.0309605257502
 20
45.52898658316687
 30
0.0
 10
368.0286874114029
 20
45.52336042772967
 30
0.0
 10
368.02592812826
 20
45.51653096229799
 30
0.0
 10
368.0251143897914
 20
45.51451688891231
 30
0.0
 10
368.0237398481302
 20
45.51111477891689
 30
0.0
 10
368.0231757070084
 20
45.50971848064322
 30
0.0
 10
368.021844059683
 20
45.50642253785432
 30
0.0
 10
368.0214337085243
 20
45.50540688309641
 30
0.0
 10
368.021521050456
 20
45.50562306196352
 30
0.0
  0
SPLINE
  5
1D1
330
1F
100
AcDbEntity
  8
1
  6
Continuous
 62
   155
420
  5010073
370
    35
100
AcDbSpline
210
0.0
220
0.0
230
1.0
 70
    24
 71
     3
 72
    31
 73
    27
 74
     0
 42
0.0000000001
 43
0.0000000001
 40
0.0
 40
0.0
 40
0.0
 40
0.0
 40
0.1250000000000101
 40
0.1250000000000101
 40
0.1875000000000111
 40
0.1875000000000111
 40
0.2500000000000122
 40
0.2500000000000122
 40
0.3750000000000046
 40
0.3750000000000046
 40
0.4375000000000083
 40
0.4375000000000083
 40
0.5000000000000119
 40
0.5000000000000119
 40
0.6250000000000089
 40
0.6250000000000089
 40
0.6875000000000074
 40
0.6875000000000074
 40
0.7500000000000059
 40
0.8125000000000044
 40
0.8125000000000044
 40
0.875000000000003
 40
0.875000000000003
 40
0.9375000000000014
 40
0.9375000000000014
 40
1.0
 40
1.0
 40
1.0
 40
1.0
 10
436.9459976173167
 20
55.187066849231
 30
0.0
 10
436.945854071892
 20
55.18725057899618
 30
0.0
 10
436.9465284791344
 20
55.18638737708952
 30
0.0
 10
436.9487170256563
 20
55.18358616528221
 30
0.0
 10
436.9496441848718
 20
55.18239945560268
 30
0.0
 10
436.9519032277235
 20
55.17950801260767
 30
0.0
 10
436.9532405972063
 20
55.177796257729
 30
0.0
 10
436.9577754461931
 20
55.17199191571521
 30
0.0
 10
436.9615112825536
 20
55.16721026322617
 30
0.0
 10
436.9681775593142
 20
55.15867781806858
 30
0.0
 10
436.9705905625983
 20
55.1555893147067
 30
0.0
 10
436.9757275766755
 20
55.14901423652421
 30
0.0
 10
436.9784359630088
 20
55.14554766010011
 30
0.0
 10
436.9869684992542
 20
55.13462651173128
 30
0.0
 10
436.9931960452498
 20
55.1266556163454
 30
0.0
 10
437.0033703929089
 20
55.11363304519588
 30
0.0
 10
437.0068843070873
 20
55.10913544014707
 30
0.0
 10
437.0140400950087
 20
55.09997644927532
 30
0.0
 10
437.0213559960205
 20
55.09061252299327
 30
0.0
 10
437.0289883751371
 20
55.08084352320927
 30
0.0
 10
437.0367818024503
 20
55.0708683911337
 30
0.0
 10
437.0407758145104
 20
55.06575628881851
 30
0.0
 10
437.0488159479851
 20
55.05546538725579
 30
0.0
 10
437.0528675495826
 20
55.0502795736941
 30
0.0
 10
437.0610339322158
 20
55.03982708057728
 30
0.0
 10
437.0650822727287
 20
55.03464544101379
 30
0.0
 10
437.0691379561962
 20
55.02945440289662
 30
0.0
  0
SPLINE
  5
1D2
330
1F
100
AcDbEntity
  8
1
  6
Continuous
 62
   155
420
  5010073
370
    18
100
AcDbSpline
210
0.0
220
0.0
230
1.0
 70
     8
 71
     3
 72
    18
 73
    14
 74
     0
 42
0.0000000001
 43
0.0000000001
 40
0.0
 40
0.0
 40
0.0
 40
0.0
 40
0.1250000000000062
 40
0.1250000000000062
 40
0.2500000000000125
 40
0.2500000000000125
 40
0.500000000000025
 40
0.500000000000025
 40
0.7500000000000375
 40
0.7500000000000375
 40
0.8750000000000188
 40
0.8750000000000188
 40
1.0
 40
1.0
 40
1.0
 40
1.0
 10
407.3419822536943
 20
-2.747163107598084
 30
0.0
 10
407.3543980257944
 20
-2.746391372237923
 30
0.0
 10
407.3667983345237
 20
-2.74643380401713
 30
0.0
 10
407.3915682997384
 20
-2.748132992046322
 30
0.0
 10
407.4038915318412
 20
-2.749796250683715
 30
0.0
 10
407.440023482339
 20
-2.75704578765621
 30
0.0
 10
407.4632755703853
 20
-2.764877221899525
 30
0.0
 10
407.5080182810844
 20
-2.786571341766233
 30
0.0
 10
407.5285609560522
 20
-2.799969613468733
 30
0.0
 10
407.5568207287013
 20
-2.823632758254888
 30
0.0
 10
407.5658459877121
 20
-2.832161575111485
 30
0.0
 10
407.5828288855741
 20
-2.850260738294111
 30
0.0
 10
407.5907586579226
 20
-2.859790644656897
 30
0.0
 10
407.5981344434413
 20
-2.869794349830983
 30
0.0
  0
SPLINE
  5
1D3
330
1F
100
AcDbEntity
  8
1
  6
Continuous
 62
   155
420
  5010073
370
    35
100
AcDbSpline
210
0.0
220
0.0
230
1.0
 70
     8
 71
     3
 72
    42
 73
    38
 74
     0
 42
0.0000000001
 43
0.0000000001
 40
0.0
 40
0.0
 40
0.0
 40
0.0
 40
0.0039062500000001
 40
0.0039062500000001
 40
0.0078125000000002
 40
0.0156250000000003
 40
0.0312500000000006
 40
0.0625000000000007
 40
0.0625000000000007
 40
0.125000000000001
 40
0.1875000000000012
 40
0.1875000000000012
 40
0.2500000000000014
 40
0.2500000000000014
 40
0.3749999999999928
 40
0.3749999999999928
 40
0.4374999999999885
 40
0.4374999999999885
 40
0.4687499999999864
 40
0.4687499999999864
 40
0.4999999999999842
 40
0.4999999999999842
 40
0.6249999999999849
 40
0.6249999999999849
 40
0.6874999999999888
 40
0.6874999999999888
 40
0.7187499999999882
 40
0.7187499999999882
 40
0.7499999999999876
 40
0.7499999999999876
 40
0.874999999999987
 40
0.874999999999987
 40
0.9062499999999888
 40
0.9062499999999888
 40
0.9374999999999906
 40
0.9374999999999906
 40
1.0
 40
1.0
 40
1.0
 40
1.0
 10
367.8287685990733
 20
45.56910579059101
 30
0.0
 10
367.8259675491357
 20
45.56989330936179
 30
0.0
 10
367.8230661951918
 20
45.5706996688539
 30
0.0
 10
367.8173603656206
 20
45.57226613148387
 30
0.0
 10
367.808799236434
 20
45.57458816595911
 30
0.0
 10
367.7888066594812
 20
45.57981361547198
 30
0.0
 10
367.7487557155603
 20
45.58950147602579
 30
0.0
 10
367.7143156354061
 20
45.59652145207568
 30
0.0
 10
367.6452921646102
 20
45.6088992763558
 30
0.0
 10
367.5528795136618
 20
45.6209800347286
 30
0.0
 10
367.4597293416513
 20
45.62450695805032
 30
0.0
 10
367.366210558871
 20
45.62375870080118
 30
0.0
 10
367.3192336971471
 20
45.62124414319058
 30
0.0
 10
367.1779339569728
 20
45.60708839726297
 30
0.0
 10
367.0860188782735
 20
45.58920002851957
 30
0.0
 10
366.9514992841578
 20
45.54996475487721
 30
0.0
 10
366.9072230193079
 20
45.53480159379419
 30
0.0
 10
366.8416886189888
 20
45.50880177360952
 30
0.0
 10
366.8199907969404
 20
45.4995915000853
 30
0.0
 10
366.7768989676869
 20
45.48004715234899
 30
0.0
 10
366.7555870300796
 20
45.46974740682018
 30
0.0
 10
366.6509005962293
 20
45.41595399020551
 30
0.0
 10
366.5723207534138
 20
45.36545266470367
 30
0.0
 10
366.4618071056063
 20
45.27907543198077
 30
0.0
 10
366.4262049974953
 20
45.24849805665181
 30
0.0
 10
366.3746937870541
 20
45.19989924060317
 30
0.0
 10
366.357827392997
 20
45.18322632506951
 30
0.0
 10
366.3250745670121
 20
45.14931102994981
 30
0.0
 10
366.3091434414753
 20
45.13202829490982
 30
0.0
 10
366.2316779241609
 20
45.0440157032078
 30
0.0
 10
366.1766462241069
 20
44.96853847798829
 30
0.0
 10
366.1166466431538
 20
44.86777466869248
 30
0.0
 10
366.1050904599733
 20
44.847297954195
 30
0.0
 10
366.0828858446461
 20
44.80568181060417
 30
0.0
 10
366.0722221862732
 20
44.78450747491237
 30
0.0
 10
366.0418247197906
 20
44.72037717059217
 30
0.0
 10
366.0236295194618
 20
44.67673531671667
 30
0.0
 10
366.0075417256271
 20
44.63218899529991
 30
0.0
  0
SPLINE
  5
1D4
330
1F
100
AcDbEntity
  8
1
  6
Continuous
 62
   155
420
  5010073
370
    18
100
AcDbSpline
210
0.0
220
0.0
230
1.0
 70
     8
 71
     3
 72
    36
 73
    32
 74
     0
 42
0.0000000001
 43
0.0000000001
 40
0.0
 40
0.0
 40
0.0
 40
0.0
 40
0.0625000000000051
 40
0.0625000000000051
 40
0.0937500000000084
 40
0.0937500000000084
 40
0.1250000000000118
 40
0.1250000000000118
 40
0.2500000000000335
 40
0.2500000000000335
 40
0.2812500000000404
 40
0.2812500000000404
 40
0.3125000000000471
 40
0.3125000000000471
 40
0.3750000000000548
 40
0.3750000000000548
 40
0.5000000000000702
 40
0.5000000000000702
 40
0.5312500000000706
 40
0.5312500000000706
 40
0.562500000000071
 40
0.562500000000071
 40
0.6250000000000643
 40
0.6250000000000643
 40
0.750000000000051
 40
0.750000000000051
 40
0.8125000000000403
 40
0.8125000000000403
 40
0.8750000000000296
 40
0.8750000000000296
 40
1.0
 40
1.0
 40
1.0
 40
1.0
 10
365.8194617817293
 20
44.70011359499532
 30
0.0
 10
365.8376898200946
 20
44.7505861497884
 30
0.0
 10
365.8582986711909
 20
44.80003695463367
 30
0.0
 10
365.8927256756633
 20
44.87270520994147
 30
0.0
 10
365.9048028644513
 20
44.89669967333171
 30
0.0
 10
365.9299515654582
 20
44.94385975072132
 30
0.0
 10
365.9430400809068
 20
44.96706447123657
 30
0.0
 10
366.0109977493589
 20
45.08125216597367
 30
0.0
 10
366.0733367806333
 20
45.16678245202709
 30
0.0
 10
366.1611110002053
 20
45.26650492123972
 30
0.0
 10
366.1791630756633
 20
45.28608645755381
 30
0.0
 10
366.2162781699766
 20
45.32451158521118
 30
0.0
 10
366.2353917996334
 20
45.34340081563371
 30
0.0
 10
366.2937649842842
 20
45.39845482820121
 30
0.0
 10
366.3341113302259
 20
45.43308991146418
 30
0.0
 10
366.4593518722169
 20
45.53092411562929
 30
0.0
 10
366.5484044463651
 20
45.58811450676038
 30
0.0
 10
366.6670164420402
 20
45.6490595960806
 30
0.0
 10
366.6911603408583
 20
45.66073096929691
 30
0.0
 10
366.7399805713878
 20
45.68288421116679
 30
0.0
 10
366.7645623391876
 20
45.69332635604397
 30
0.0
 10
366.8388066988109
 20
45.72280813847991
 30
0.0
 10
366.8889669784575
 20
45.74000818183819
 30
0.0
 10
367.0413663438558
 20
45.78451689841168
 30
0.0
 10
367.1455028165317
 20
45.80481229579348
 30
0.0
 10
367.3056052723742
 20
45.82084822309488
 30
0.0
 10
367.3588313462596
 20
45.82368906312658
 30
0.0
 10
367.4647891202021
 20
45.82450989185847
 30
0.0
 10
367.5175580661767
 20
45.82249304929908
 30
0.0
 10
367.6752357888787
 20
45.80916893377938
 30
0.0
 10
367.7795230725121
 20
45.79067619708721
 30
0.0
 10
367.882895866216
 20
45.76161048012361
 30
0.0
  0
SPLINE
  5
1D5
330
1F
100
AcDbEntity
  8
1
  6
Continuous
 62
   155
420
  5010073
370
    18
100
AcDbSpline
210
0.0
220
0.0
230
1.0
 70
     8
 71
     3
 72
    27
 73
    23
 74
     0
 42
0.0000000001
 43
0.0000000001
 40
0.0
 40
0.0
 40
0.0
 40
0.0
 40
0.1250000000000068
 40
0.1250000000000068
 40
0.1875000000000063
 40
0.1875000000000063
 40
0.2500000000000059
 40
0.2500000000000059
 40
0.3750000000000066
 40
0.3750000000000066
 40
0.437500000000007
 40
0.437500000000007
 40
0.5000000000000074
 40
0.5000000000000074
 40
0.6250000000000222
 40
0.6250000000000222
 40
0.6875000000000235
 40
0.6875000000000235
 40
0.7500000000000248
 40
0.7500000000000248
 40
0.8750000000000124
 40
1.0
 40
1.0
 40
1.0
 40
1.0
 10
368.6710452915925
 20
21.04401704609651
 30
0.0
 10
368.6805546392886
 20
21.00700552887227
 30
0.0
 10
368.6869420999724
 20
20.96965486303989
 30
0.0
 10
368.6919799305274
 20
20.91313529281561
 30
0.0
 10
368.6928981366506
 20
20.89421275656738
 30
0.0
 10
368.6931899082745
 20
20.85619988084332
 30
0.0
 10
368.6925540719028
 20
20.83704300861072
 30
0.0
 10
368.6883417879557
 20
20.7802127963628
 30
0.0
 10
368.6824987963843
 20
20.74295304691501
 30
0.0
 10
368.6692888777665
 20
20.68798194928118
 30
0.0
 10
368.6641409903233
 20
20.66981209737648
 30
0.0
 10
368.6523294836244
 20
20.63378557800579
 30
0.0
 10
368.645629518721
 20
20.61584790126327
 30
0.0
 10
368.6234813446246
 20
20.56323230906978
 30
0.0
 10
368.6060455544173
 20
20.52976008302167
 30
0.0
 10
368.5760052046492
 20
20.48188757192392
 30
0.0
 10
368.565340714556
 20
20.46632133375797
 30
0.0
 10
368.5426906423993
 20
20.43598281420228
 30
0.0
 10
368.5306620556694
 20
20.42116242565149
 30
0.0
 10
368.4928237967902
 20
20.37826776439502
 30
0.0
 10
368.438372719725
 20
20.32589911864571
 30
0.0
 10
368.3762092458718
 20
20.28283192663642
 30
0.0
 10
368.3431153031688
 20
20.26372512990818
 30
0.0
  0
SPLINE
  5
1D6
330
1F
100
AcDbEntity
  8
1
  6
Continuous
 62
   155
420
  5010073
370
    35
100
AcDbSpline
210
0.0
220
0.0
230
1.0
 70
     8
 71
     3
 72
    27
 73
    23
 74
     0
 42
0.0000000001
 43
0.0000000001
 40
0.0
 40
0.0
 40
0.0
 40
0.0
 40
0.1249999999999899
 40
0.2499999999999797
 40
0.2499999999999797
 40
0.3124999999999852
 40
0.3124999999999852
 40
0.3749999999999907
 40
0.3749999999999907
 40
0.4999999999999846
 40
0.4999999999999846
 40
0.5624999999999839
 40
0.5624999999999839
 40
0.6249999999999833
 40
0.6249999999999833
 40
0.7499999999999899
 40
0.7499999999999899
 40
0.8124999999999944
 40
0.8124999999999944
 40
0.8749999999999989
 40
0.8749999999999989
 40
1.0
 40
1.0
 40
1.0
 40
1.0
 10
368.2431305336532
 20
20.43690383069239
 30
0.0
 10
368.2667707350407
 20
20.45054959279238
 30
0.0
 10
368.3111770088408
 20
20.48130820695948
 30
0.0
 10
368.350074349862
 20
20.51871230076071
 30
0.0
 10
368.3771044174759
 20
20.54935041841921
 30
0.0
 10
368.3856971596156
 20
20.55993624417661
 30
0.0
 10
368.401877336465
 20
20.58160639178422
 30
0.0
 10
368.4094955154968
 20
20.59272510057022
 30
0.0
 10
368.4309546779704
 20
20.62691989863507
 30
0.0
 10
368.4434096120216
 20
20.65082905481231
 30
0.0
 10
368.4592302535575
 20
20.68841281230428
 30
0.0
 10
368.4640159941056
 20
20.70122592527846
 30
0.0
 10
368.4724525761758
 20
20.7269600672291
 30
0.0
 10
368.4761293927698
 20
20.73993899033857
 30
0.0
 10
368.4855639272424
 20
20.77920542718218
 30
0.0
 10
368.4897362347376
 20
20.80582043843307
 30
0.0
 10
368.4927424669917
 20
20.8464147668038
 30
0.0
 10
368.4931956723675
 20
20.86009867765338
 30
0.0
 10
368.4929851801197
 20
20.88725138428751
 30
0.0
 10
368.4923281978353
 20
20.90076773570789
 30
0.0
 10
368.488726227293
 20
20.94113941440131
 30
0.0
 10
368.4841611961075
 20
20.9678185602759
 30
0.0
 10
368.4773662396701
 20
20.99425519939828
 30
0.0
  0
SPLINE
  5
1D7
330
1F
100
AcDbEntity
  8
1
  6
Continuous
 62
   155
420
  5010073
370
    18
100
AcDbSpline
210
0.0
220
0.0
230
1.0
 70
     8
 71
     3
 72
    37
 73
    33
 74
     0
 42
0.0000000001
 43
0.0000000001
 40
0.0
 40
0.0
 40
0.0
 40
0.0
 40
0.0624999999999727
 40
0.0624999999999727
 40
0.0937499999999583
 40
0.0937499999999583
 40
0.1249999999999439
 40
0.1249999999999439
 40
0.2499999999999159
 40
0.2499999999999159
 40
0.2812499999999134
 40
0.2812499999999134
 40
0.3124999999999108
 40
0.3124999999999108
 40
0.3749999999999058
 40
0.4374999999999007
 40
0.4374999999999007
 40
0.4687499999998982
 40
0.4687499999998982
 40
0.4999999999998958
 40
0.4999999999998958
 40
0.6249999999999077
 40
0.6249999999999077
 40
0.656249999999913
 40
0.656249999999913
 40
0.6874999999999182
 40
0.7499999999999357
 40
0.8124999999999533
 40
0.8124999999999533
 40
0.8749999999999707
 40
0.8749999999999707
 40
1.0
 40
1.0
 40
1.0
 40
1.0
 10
375.3679491384312
 20
1.030965643287601
 30
0.0
 10
375.3491282397283
 20
1.050101308400116
 30
0.0
 10
375.3314781593048
 20
1.070240015888913
 30
0.0
 10
375.3067526576233
 20
1.101946979200619
 30
0.0
 10
375.2987989648465
 20
1.112775844569313
 30
0.0
 10
375.2836156371474
 20
1.134736757758986
 30
0.0
 10
375.2763669852208
 20
1.145891890561103
 30
0.0
 10
375.2418081372995
 20
1.202525328395183
 30
0.0
 10
375.2194858694626
 20
1.250543697820518
 30
0.0
 10
375.1984110220938
 20
1.314043760151577
 30
0.0
 10
375.1945462900355
 20
1.32691601024348
 30
0.0
 10
375.1876076187515
 20
1.352680482908482
 30
0.0
 10
375.1845192273802
 20
1.365613959859303
 30
0.0
 10
375.1763773223005
 20
1.404565481052401
 30
0.0
 10
375.1685100181758
 20
1.456902833566716
 30
0.0
 10
375.1665872079724
 20
1.510039776905415
 30
0.0
 10
375.1674507823617
 20
1.550202620516615
 30
0.0
 10
375.1681259501528
 20
1.563612167671096
 30
0.0
 10
375.1702270181706
 20
1.590196034135801
 30
0.0
 10
375.1716533892544
 20
1.603410337337692
 30
0.0
 10
375.1806336393042
 20
1.669100063094874
 30
0.0
 10
375.1936606339965
 20
1.720445000742785
 30
0.0
 10
375.2174815756143
 20
1.783069346801909
 30
0.0
 10
375.2226080258713
 20
1.795459310095481
 30
0.0
 10
375.233495661347
 20
1.819785886129381
 30
0.0
 10
375.2508137269193
 20
1.855682813511493
 30
0.0
 10
375.2845155035309
 20
1.912603272213602
 30
0.0
 10
375.3166232046514
 20
1.955046815542204
 30
0.0
 10
375.3514002325114
 20
1.995886140465274
 30
0.0
 10
375.3698384195424
 20
2.015162179918178
 30
0.0
 10
375.4279557262946
 20
2.069431926136104
 30
0.0
 10
375.4705001089147
 20
2.101029245897308
 30
0.0
 10
375.5169887516428
 20
2.127869476290613
 30
0.0
  0
SPLINE
  5
1D8
330
1F
100
AcDbEntity
  8
1
  6
Continuous
 62
   155
420
  5010073
370
    35
100
AcDbSpline
210
0.0
220
0.0
230
1.0
 70
     8
 71
     3
 72
    34
 73
    30
 74
     0
 42
0.0000000001
 43
0.0000000001
 40
0.0
 40
0.0
 40
0.0
 40
0.0
 40
0.1249999999999864
 40
0.1249999999999864
 40
0.1874999999999838
 40
0.1874999999999838
 40
0.2499999999999812
 40
0.3124999999999786
 40
0.3124999999999786
 40
0.374999999999976
 40
0.374999999999976
 40
0.4999999999999749
 40
0.4999999999999749
 40
0.5312499999999778
 40
0.5312499999999778
 40
0.5624999999999808
 40
0.5624999999999808
 40
0.624999999999998
 40
0.6875000000000152
 40
0.6875000000000152
 40
0.718750000000017
 40
0.718750000000017
 40
0.7500000000000188
 40
0.7500000000000188
 40
0.8750000000000044
 40
0.8750000000000044
 40
0.9375000000000022
 40
0.9375000000000022
 40
1.0
 40
1.0
 40
1.0
 40
1.0
 10
375.6169735211583
 20
1.954690775506407
 30
0.0
 10
375.5837626543571
 20
1.93552343786061
 30
0.0
 10
375.5533678106103
 20
1.912958186908469
 30
0.0
 10
375.5118456336573
 20
1.874199197126615
 30
0.0
 10
375.4986721858494
 20
1.86043221800108
 30
0.0
 10
375.4738242790021
 20
1.83126332679339
 30
0.0
 10
375.4508832350986
 20
1.800948015961097
 30
0.0
 10
375.4316187735283
 20
1.768422317564813
 30
0.0
 10
375.414197610439
 20
1.734788414953613
 30
0.0
 10
375.4063902358163
 20
1.71736936019991
 30
0.0
 10
375.3859654324993
 20
1.663688039050697
 30
0.0
 10
375.3766578872925
 20
1.627010319682569
 30
0.0
 10
375.3702428257574
 20
1.580084927936383
 30
0.0
 10
375.3692240013318
 20
1.57064527238478
 30
0.0
 10
375.3677235359422
 20
1.551654987340072
 30
0.0
 10
375.3672415599938
 20
1.542075761941277
 30
0.0
 10
375.3666260053258
 20
1.513385290223567
 30
0.0
 10
375.3680020405919
 20
1.475427075461681
 30
0.0
 10
375.3736263599357
 20
1.438040798935475
 30
0.0
 10
375.3794460602827
 20
1.41021669310382
 30
0.0
 10
375.3816535041138
 20
1.400978010050807
 30
0.0
 10
375.3866127828668
 20
1.382573934259966
 30
0.0
 10
375.3893749551108
 20
1.373379053547893
 30
0.0
 10
375.4044367644857
 20
1.328020718908277
 30
0.0
 10
375.4203886630576
 20
1.293722391391185
 30
0.0
 10
375.4500214323787
 20
1.24518161808632
 30
0.0
 10
375.4609051104109
 20
1.22943311075781
 30
0.0
 10
375.4844599452834
 20
1.199238403718908
 30
0.0
 10
375.4970703087906
 20
1.184854963082813
 30
0.0
 10
375.5105166545789
 20
1.17118803764717
 30
0.0
  0
SPLINE
  5
1D9
330
1F
100
AcDbEntity
  8
1
  6
Continuous
 62
   155
420
  5010073
370
    35
100
AcDbSpline
210
0.0
220
0.0
230
1.0
 70
    24
 71
     3
 72
     8
 73
     4
 74
     0
 42
0.0000000001
 43
0.0000000001
 40
0.0
 40
0.0
 40
0.0
 40
0.0
 40
1.0
 40
1.0
 40
1.0
 40
1.0
 10
387.3301455456061
 20
-3.050435094830135
 30
0.0
 10
387.3129475044867
 20
-3.050435094830135
 30
0.0
 10
387.2957494633674
 20
-3.050435094830135
 30
0.0
 10
387.278551422248
 20
-3.050435094830135
 30
0.0
  0
SPLINE
  5
1DA
330
1F
100
AcDbEntity
  8
1
  6
Continuous
 62
   155
420
  5010073
370
    35
100
AcDbSpline
210
0.0
220
0.0
230
1.0
 70
     8
 71
     3
 72
    40
 73
    36
 74
     0
 42
0.0000000001
 43
0.0000000001
 40
0.0
 40
0.0
 40
0.0
 40
0.0
 40
0.003906250000001
 40
0.003906250000001
 40
0.0078125000000019
 40
0.0156250000000033
 40
0.0312500000000047
 40
0.0625000000000071
 40
0.0625000000000071
 40
0.1250000000000118
 40
0.1875000000000165
 40
0.1875000000000165
 40
0.2187500000000186
 40
0.2187500000000186
 40
0.2500000000000207
 40
0.2500000000000207
 40
0.3750000000000183
 40
0.3750000000000183
 40
0.4375000000000144
 40
0.4375000000000144
 40
0.4687500000000124
 40
0.4687500000000124
 40
0.5000000000000104
 40
0.5000000000000104
 40
0.6250000000000081
 40
0.6250000000000081
 40
0.6875000000000069
 40
0.6875000000000069
 40
0.7500000000000057
 40
0.7500000000000057
 40
0.8750000000000028
 40
0.8750000000000028
 40
0.9375000000000014
 40
0.9375000000000014
 40
1.0
 40
1.0
 40
1.0
 40
1.0
 10
446.9797348894037
 20
32.540111857097
 30
0.0
 10
446.9795862968542
 20
32.54307465853978
 30
0.0
 10
446.9794231571229
 20
32.54613963387297
 30
0.0
 10
446.9790831569226
 20
32.5521616499806
 30
0.0
 10
446.9785449932331
 20
32.56118785898107
 30
0.0
 10
446.9770931892427
 20
32.58220156248731
 30
0.0
 10
446.9734132368992
 20
32.62404110461787
 30
0.0
 10
446.9689539504537
 20
32.65958776681302
 30
0.0
 10
446.9583484109987
 20
32.73027286801178
 30
0.0
 10
446.9397190852235
 20
32.8234334872819
 30
0.0
 10
446.9124233514166
 20
32.91449695251632
 30
0.0
 10
446.8887025535126
 20
32.98200833778921
 30
0.0
 10
446.8802529421275
 20
33.0043808119307
 30
0.0
 10
446.8622538040502
 20
33.04885959552198
 30
0.0
 10
446.8526781313467
 20
33.07102148488102
 30
0.0
 10
446.8023219772303
 20
33.18043553546548
 30
0.0
 10
446.7545195895524
 20
33.26298121817948
 30
0.0
 10
446.6716980966523
 20
33.37942637984636
 30
0.0
 10
446.6422215179731
 20
33.41700164424387
 30
0.0
 10
446.5950674873829
 20
33.47141529785378
 30
0.0
 10
446.5788206279827
 20
33.48926666713518
 30
0.0
 10
446.5454867221578
 20
33.5241079842244
 30
0.0
 10
446.5284561689218
 20
33.54104310361359
 30
0.0
 10
446.4414949687347
 20
33.62330378103448
 30
0.0
 10
446.3662655144293
 20
33.68155349704742
 30
0.0
 10
446.2453524584333
 20
33.75815317821898
 30
0.0
 10
446.2036533814866
 20
33.78189418371821
 30
0.0
 10
446.1176293812446
 20
33.82558238441922
 30
0.0
 10
446.0739160082894
 20
33.8452238605806
 30
0.0
 10
445.9407461720389
 20
33.89777406926291
 30
0.0
 10
445.8492820529814
 20
33.92437786533722
 30
0.0
 10
445.707939108628
 20
33.95126086148102
 30
0.0
 10
445.6600004487118
 20
33.95803043113298
 30
0.0
 10
445.5641032381856
 20
33.96682815545287
 30
0.0
 10
445.515994913657
 20
33.96889679665051
 30
0.0
 10
445.4677226460072
 20
33.96857359303218
 30
0.0
  0
SPLINE
  5
1DB
330
1F
100
AcDbEntity
  8
1
  6
Continuous
 62
   155
420
  5010073
370
    18
100
AcDbSpline
210
0.0
220
0.0
230
1.0
 70
     8
 71
     3
 72
    34
 73
    30
 74
     0
 42
0.0000000001
 43
0.0000000001
 40
0.0
 40
0.0
 40
0.0
 40
0.0
 40
0.0625000000000056
 40
0.0625000000000056
 40
0.1250000000000111
 40
0.1250000000000111
 40
0.2500000000000223
 40
0.2500000000000223
 40
0.312500000000024
 40
0.312500000000024
 40
0.3750000000000257
 40
0.3750000000000257
 40
0.5000000000000222
 40
0.5000000000000222
 40
0.5312500000000225
 40
0.5312500000000225
 40
0.5625000000000229
 40
0.5625000000000229
 40
0.6250000000000182
 40
0.6250000000000182
 40
0.750000000000014
 40
0.750000000000014
 40
0.7812500000000123
 40
0.7812500000000123
 40
0.8125000000000105
 40
0.8125000000000105
 40
0.875000000000007
 40
0.875000000000007
 40
1.0
 40
1.0
 40
1.0
 40
1.0
 10
445.4663837924094
 20
34.1685386500379
 30
0.0
 10
445.5210781295179
 20
34.16890485256911
 30
0.0
 10
445.5755874827973
 20
34.16657062474829
 30
0.0
 10
445.6842449459563
 20
34.15662866684411
 30
0.0
 10
445.7385643464053
 20
34.14897499296998
 30
0.0
 10
445.8987265634839
 20
34.11855865496531
 30
0.0
 10
446.0023670720961
 20
34.08843599148801
 30
0.0
 10
446.1532556431517
 20
34.02889036265239
 30
0.0
 10
446.202783674148
 20
34.00662896750001
 30
0.0
 10
446.3002475364111
 20
33.95710494587118
 30
0.0
 10
446.3474820120769
 20
33.93019359427481
 30
0.0
 10
446.4844504860743
 20
33.84336065883011
 30
0.0
 10
446.5696613099727
 20
33.77732787656058
 30
0.0
 10
446.6681882939889
 20
33.68412660524498
 30
0.0
 10
446.6874861346346
 20
33.66494235257179
 30
0.0
 10
446.7252608871319
 20
33.62547808667651
 30
0.0
 10
446.7436766006917
 20
33.6052571334981
 30
0.0
 10
446.7971275786477
 20
33.54362390633597
 30
0.0
 10
446.8305456687988
 20
33.50106492304761
 30
0.0
 10
446.924440269554
 20
33.36916856553691
 30
0.0
 10
446.97862990088
 20
33.27566007744392
 30
0.0
 10
447.0356841877015
 20
33.15168685287281
 30
0.0
 10
447.046531542847
 20
33.12657553764276
 30
0.0
 10
447.0669168708007
 20
33.0761770950439
 30
0.0
 10
447.0764845408278
 20
33.05082683077197
 30
0.0
 10
447.1033383243952
 20
32.97432913335948
 30
0.0
 10
447.1187804140499
 20
32.9227360529467
 30
0.0
 10
447.1577359783449
 20
32.76617552543817
 30
0.0
 10
447.1739729458208
 20
32.6594495568863
 30
0.0
 10
447.1794536202926
 20
32.55012410322328
 30
0.0
  0
SPLINE
  5
1DC
330
1F
100
AcDbEntity
  8
1
  6
Continuous
 62
   155
420
  5010073
370
    35
100
AcDbSpline
210
0.0
220
0.0
230
1.0
 70
     8
 71
     3
 72
    32
 73
    28
 74
     0
 42
0.0000000001
 43
0.0000000001
 40
0.0
 40
0.0
 40
0.0
 40
0.0
 40
0.1250000000000228
 40
0.1250000000000228
 40
0.1875000000000256
 40
0.1875000000000256
 40
0.2187500000000267
 40
0.2187500000000267
 40
0.2500000000000278
 40
0.2500000000000278
 40
0.3750000000000323
 40
0.3750000000000323
 40
0.4062500000000371
 40
0.4062500000000371
 40
0.437500000000042
 40
0.5000000000000402
 40
0.5625000000000384
 40
0.5625000000000384
 40
0.6250000000000366
 40
0.6250000000000366
 40
0.750000000000021
 40
0.750000000000021
 40
0.8125000000000144
 40
0.8125000000000144
 40
0.875000000000008
 40
0.875000000000008
 40
1.0
 40
1.0
 40
1.0
 40
1.0
 10
374.8270186583194
 20
6.771762191635418
 30
0.0
 10
374.8587917281355
 20
6.789076912375577
 30
0.0
 10
374.8881280985804
 20
6.809482739369088
 30
0.0
 10
374.9286182452842
 20
6.844549728446879
 30
0.0
 10
374.9415240919911
 20
6.856988279081719
 30
0.0
 10
374.9599671776432
 20
6.876807708240818
 30
0.0
 10
374.9659534995043
 20
6.88360182876508
 30
0.0
 10
374.9774758820929
 20
6.897413084838519
 30
0.0
 10
374.9830306255087
 20
6.904449811370881
 30
0.0
 10
375.0097890424605
 20
6.940278179742364
 30
0.0
 10
375.0279818010899
 20
6.970981812239501
 30
0.0
 10
375.0466212958443
 20
7.011965857167382
 30
0.0
 10
375.0501500139417
 20
7.02031755785768
 30
0.0
 10
375.056712124132
 20
7.037104270736478
 30
0.0
 10
375.0658349629394
 20
7.062451642437367
 30
0.0
 10
375.07751752552
 20
7.105515317701673
 30
0.0
 10
375.0831520110088
 20
7.140828302577717
 30
0.0
 10
375.0868881043754
 20
7.176582206307813
 30
0.0
 10
375.0877945973245
 20
7.194727624769513
 30
0.0
 10
375.0875766757587
 20
7.248533146749168
 30
0.0
 10
375.0836150347575
 20
7.283984724366718
 30
0.0
 10
375.071941949902
 20
7.336533267704084
 30
0.0
 10
375.0670475169983
 20
7.354038939594005
 30
0.0
 10
375.0555262708358
 20
7.388040496260402
 30
0.0
 10
375.0488952109438
 20
7.404606577745795
 30
0.0
 10
375.0264600857236
 20
7.453035372540882
 30
0.0
 10
375.0081440872825
 20
7.483643624421603
 30
0.0
 10
374.986296694975
 20
7.512488295349073
 30
0.0
  0
SPLINE
  5
1DD
330
1F
100
AcDbEntity
  8
1
  6
Continuous
 62
   155
420
  5010073
370
    18
100
AcDbSpline
210
0.0
220
0.0
230
1.0
 70
     8
 71
     3
 72
    35
 73
    31
 74
     0
 42
0.0000000001
 43
0.0000000001
 40
0.0
 40
0.0
 40
0.0
 40
0.0
 40
0.1250000000000224
 40
0.1250000000000224
 40
0.1875000000000296
 40
0.1875000000000296
 40
0.2500000000000369
 40
0.2500000000000369
 40
0.3750000000000597
 40
0.3750000000000597
 40
0.4062500000000633
 40
0.4062500000000633
 40
0.4375000000000668
 40
0.4375000000000668
 40
0.5000000000000654
 40
0.562500000000064
 40
0.562500000000064
 40
0.5937500000000591
 40
0.5937500000000591
 40
0.6250000000000542
 40
0.6250000000000542
 40
0.7500000000000548
 40
0.7500000000000548
 40
0.7812500000000532
 40
0.7812500000000532
 40
0.8125000000000516
 40
0.8125000000000516
 40
0.8750000000000363
 40
0.8750000000000363
 40
1.0
 40
1.0
 40
1.0
 40
1.0
 10
375.1457202338382
 20
7.633202634997218
 30
0.0
 10
375.1762996541305
 20
7.592817379909917
 30
0.0
 10
375.201933987437
 20
7.549963750621572
 30
0.0
 10
375.2333309691677
 20
7.482161995366283
 30
0.0
 10
375.2426103655246
 20
7.458969278331921
 30
0.0
 10
375.2587321336327
 20
7.411367386659805
 30
0.0
 10
375.2655803943122
 20
7.386860114786174
 30
0.0
 10
375.2819120080686
 20
7.31329484618189
 30
0.0
 10
375.2874525339734
 20
7.263665230580301
 30
0.0
 10
375.2877020716306
 20
7.200896448103691
 30
0.0
 10
375.2874145745284
 20
7.188305709015395
 30
0.0
 10
375.2861500580747
 20
7.16304865297721
 30
0.0
 10
375.2851735148137
 20
7.150428316312315
 30
0.0
 10
375.2812494756857
 20
7.112889672253601
 30
0.0
 10
375.2733608963821
 20
7.063455131072175
 30
0.0
 10
375.2602781755335
 20
7.015226940612109
 30
0.0
 10
375.2484950467515
 20
6.979513587294974
 30
0.0
 10
375.2442381273847
 20
6.96768559587818
 30
0.0
 10
375.2350531946717
 20
6.944185476087483
 30
0.0
 10
375.2301141391382
 20
6.932493679969667
 30
0.0
 10
375.2040249590119
 20
6.875118174943083
 30
0.0
 10
375.1785614253598
 20
6.832133063946486
 30
0.0
 10
375.1411085641431
 20
6.781971647068389
 30
0.0
 10
375.1333337595069
 20
6.772119805005872
 30
0.0
 10
375.1172061823343
 20
6.752783036437876
 30
0.0
 10
375.108827280925
 20
6.743270700661895
 30
0.0
 10
375.0830125554675
 20
6.715521270298808
 30
0.0
 10
375.0649480428146
 20
6.698105446921005
 30
0.0
 10
375.0082724367078
 20
6.649005363318707
 30
0.0
 10
374.9672080474282
 20
6.620432004882076
 30
0.0
 10
374.9227309825205
 20
6.59618608979801
 30
0.0
  0
SPLINE
  5
1DE
330
1F
100
AcDbEntity
  8
1
  6
Continuous
 62
   155
420
  5010073
370
    35
100
AcDbSpline
210
0.0
220
0.0
230
1.0
 70
     8
 71
     3
 72
    27
 73
    23
 74
     0
 42
0.0000000001
 43
0.0000000001
 40
0.0
 40
0.0
 40
0.0
 40
0.0
 40
0.1250000000000052
 40
0.2500000000000103
 40
0.2500000000000103
 40
0.3125000000000057
 40
0.3125000000000057
 40
0.3750000000000012
 40
0.3750000000000012
 40
0.4999999999999811
 40
0.4999999999999811
 40
0.562499999999978
 40
0.562499999999978
 40
0.6249999999999749
 40
0.6249999999999749
 40
0.7499999999999855
 40
0.7499999999999855
 40
0.8124999999999891
 40
0.8124999999999891
 40
0.8749999999999928
 40
0.8749999999999928
 40
1.0
 40
1.0
 40
1.0
 40
1.0
 10
378.689422589645
 20
3.306454751485518
 30
0.0
 10
378.6699252848006
 20
3.325557658295878
 30
0.0
 10
378.6283636133212
 20
3.360063265981381
 30
0.0
 10
378.5818815743212
 20
3.38747657336782
 30
0.0
 10
378.5451060548826
 20
3.405277696336469
 30
0.0
 10
378.5326003067427
 20
3.410709195937017
 30
0.0
 10
378.5073788458185
 20
3.420469899245376
 30
0.0
 10
378.4946217483742
 20
3.424819474124178
 30
0.0
 10
378.4559176679352
 20
3.436298760954202
 30
0.0
 10
378.4295407891395
 20
3.441869523587883
 30
0.0
 10
378.3890878702462
 20
3.447006923595865
 30
0.0
 10
378.37545996809
 20
3.448172882216312
 30
0.0
 10
378.3484052377881
 20
3.44938265378741
 30
0.0
 10
378.3349156645036
 20
3.449435926261998
 30
0.0
 10
378.2945583305512
 20
3.447969945567166
 30
0.0
 10
378.2678012225992
 20
3.444835595905801
 30
0.0
 10
378.2278925479389
 20
3.436820945875667
 30
0.0
 10
378.2145903149454
 20
3.43357974106388
 30
0.0
 10
378.1884932318249
 20
3.426079338599067
 30
0.0
 10
378.1756507709758
 20
3.421813827985801
 30
0.0
 10
378.1377325972252
 20
3.407493956064371
 30
0.0
 10
378.113261991661
 20
3.395926510463568
 30
0.0
 10
378.0896242925032
 20
3.382276363954276
 30
0.0
  0
SPLINE
  5
1DF
330
1F
100
AcDbEntity
  8
1
  6
Continuous
 62
   155
420
  5010073
370
    18
100
AcDbSpline
210
0.0
220
0.0
230
1.0
 70
     8
 71
     3
 72
    27
 73
    23
 74
     0
 42
0.0000000001
 43
0.0000000001
 40
0.0
 40
0.0
 40
0.0
 40
0.0
 40
0.1250000000000036
 40
0.1250000000000036
 40
0.1875000000000108
 40
0.1875000000000108
 40
0.250000000000018
 40
0.250000000000018
 40
0.3750000000000346
 40
0.3750000000000346
 40
0.4375000000000371
 40
0.4375000000000371
 40
0.5000000000000396
 40
0.5000000000000396
 40
0.6250000000000349
 40
0.6250000000000349
 40
0.6875000000000308
 40
0.6875000000000308
 40
0.7500000000000268
 40
0.7500000000000268
 40
0.8750000000000133
 40
1.0
 40
1.0
 40
1.0
 40
1.0
 10
377.9896395229875
 20
3.555455064738481
 30
0.0
 10
378.0227334812827
 20
3.574561870468671
 30
0.0
 10
378.056993158739
 20
3.590752805978269
 30
0.0
 10
378.1100791752558
 20
3.610795670178476
 30
0.0
 10
378.1280586995016
 20
3.616765778086716
 30
0.0
 10
378.1645945200424
 20
3.627263285832015
 30
0.0
 10
378.1832174279821
 20
3.631799511300386
 30
0.0
 10
378.2390887494845
 20
3.643016096959997
 30
0.0
 10
378.2765479542193
 20
3.647402149865371
 30
0.0
 10
378.3330468002811
 20
3.649452495854206
 30
0.0
 10
378.3519316785065
 20
3.649377410710684
 30
0.0
 10
378.3898071470664
 20
3.647683105595121
 30
0.0
 10
378.4088855344211
 20
3.646050649601506
 30
0.0
 10
378.4655178193589
 20
3.638858538615665
 30
0.0
 10
378.5024445785418
 20
3.631060388000918
 30
0.0
 10
378.556629426634
 20
3.614991717545394
 30
0.0
 10
378.5744891490721
 20
3.608903250249313
 30
0.0
 10
378.6097989110798
 20
3.595240445102519
 30
0.0
 10
378.6273068458481
 20
3.587637614336273
 30
0.0
 10
378.6787927909743
 20
3.562720085289214
 30
0.0
 10
378.743869055107
 20
3.524347247268707
 30
0.0
 10
378.802058911547
 20
3.476045889973278
 30
0.0
 10
378.8293571389861
 20
3.449304807282005
 30
0.0
  0
SPLINE
  5
1E0
330
1F
100
AcDbEntity
  8
1
  6
Continuous
 62
   155
420
  5010073
370
    35
100
AcDbSpline
210
0.0
220
0.0
230
1.0
 70
     8
 71
     3
 72
    32
 73
    28
 74
     0
 42
0.0000000001
 43
0.0000000001
 40
0.0
 40
0.0
 40
0.0
 40
0.0
 40
0.1249999999999503
 40
0.1249999999999503
 40
0.1874999999999279
 40
0.1874999999999279
 40
0.2187499999999224
 40
0.2187499999999224
 40
0.2499999999999169
 40
0.2499999999999169
 40
0.3749999999999568
 40
0.3749999999999568
 40
0.4062499999999579
 40
0.4062499999999579
 40
0.4374999999999589
 40
0.4999999999999635
 40
0.562499999999968
 40
0.562499999999968
 40
0.6249999999999726
 40
0.6249999999999726
 40
0.7499999999999823
 40
0.7499999999999823
 40
0.8124999999999873
 40
0.8124999999999873
 40
0.8749999999999922
 40
0.8749999999999922
 40
1.0
 40
1.0
 40
1.0
 40
1.0
 10
370.2683351904906
 20
15.6842373292703
 30
0.0
 10
370.2542786477782
 20
15.71758011147929
 30
0.0
 10
370.2369031988815
 20
15.74880692977578
 30
0.0
 10
370.2060532250496
 20
15.7925953393873
 30
0.0
 10
370.1949651075478
 20
15.8066783813629
 30
0.0
 10
370.1770857234064
 20
15.82700778871302
 30
0.0
 10
370.1709231129746
 20
15.83364242177018
 30
0.0
 10
370.1583310444349
 20
15.84648593782848
 30
0.0
 10
370.1518839581652
 20
15.85271536583892
 30
0.0
 10
370.1189056607935
 20
15.8829166366767
 30
0.0
 10
370.0901714494898
 20
15.90408346486836
 30
0.0
 10
370.0512527692836
 20
15.92672102291917
 30
0.0
 10
370.043295032295
 20
15.93106581035622
 30
0.0
 10
370.0272472178489
 20
15.93927084972191
 30
0.0
 10
370.0029371240471
 20
15.9508783808765
 30
0.0
 10
369.9612547559757
 20
15.9668014077229
 30
0.0
 10
369.926680587094
 20
15.97593275336916
 30
0.0
 10
369.8914782171329
 20
15.98321925971518
 30
0.0
 10
369.8735139209965
 20
15.98593256117991
 30
0.0
 10
369.8199553944644
 20
15.991086775056
 30
0.0
 10
369.7842854269895
 20
15.99068381668869
 30
0.0
 10
369.73083410803
 20
15.98431460804878
 30
0.0
 10
369.7129272952403
 20
15.98119209665307
 30
0.0
 10
369.6779454810627
 20
15.97312254612521
 30
0.0
 10
369.6608002096722
 20
15.96817828884051
 30
0.0
 10
369.6103737589766
 20
15.95068954730877
 30
0.0
 10
369.5780900257197
 20
15.935520452085
 30
0.0
 10
369.5472085491004
 20
15.91666155511851
 30
0.0
  0
SPLINE
  5
1E1
330
1F
100
AcDbEntity
  8
1
  6
Continuous
 62
   155
420
  5010073
370
    18
100
AcDbSpline
210
0.0
220
0.0
230
1.0
 70
     8
 71
     3
 72
    35
 73
    31
 74
     0
 42
0.0000000001
 43
0.0000000001
 40
0.0
 40
0.0
 40
0.0
 40
0.0
 40
0.1250000000000112
 40
0.1250000000000112
 40
0.1875000000000176
 40
0.1875000000000176
 40
0.2500000000000239
 40
0.2500000000000239
 40
0.3750000000000199
 40
0.3750000000000199
 40
0.4062500000000229
 40
0.4062500000000229
 40
0.4375000000000259
 40
0.4375000000000259
 40
0.500000000000015
 40
0.5625000000000041
 40
0.5625000000000041
 40
0.5937499999999987
 40
0.5937499999999987
 40
0.6249999999999932
 40
0.6249999999999932
 40
0.7499999999999692
 40
0.7499999999999692
 40
0.7812499999999719
 40
0.7812499999999719
 40
0.8124999999999745
 40
0.8124999999999745
 40
0.8749999999999797
 40
0.8749999999999797
 40
1.0
 40
1.0
 40
1.0
 40
1.0
 10
369.4430113467123
 20
16.08733891025057
 30
0.0
 10
369.486247424484
 20
16.11373420060741
 30
0.0
 10
369.5314459122575
 20
16.13496270243857
 30
0.0
 10
369.6020431613226
 20
16.15943466397007
 30
0.0
 10
369.6260463351729
 20
16.16635253685129
 30
0.0
 10
369.6750197925427
 20
16.1776419996568
 30
0.0
 10
369.7000882711757
 20
16.18200965670181
 30
0.0
 10
369.7749163704848
 20
16.19091616597277
 30
0.0
 10
369.8248511687084
 20
16.19147482385378
 30
0.0
 10
369.8873313418516
 20
16.18545732550908
 30
0.0
 10
369.8998304934935
 20
16.18391441475771
 30
0.0
 10
369.9248351667252
 20
16.18013497061398
 30
0.0
 10
369.937294985222
 20
16.17790350083962
 30
0.0
 10
369.9742544196708
 20
16.17025182871632
 30
0.0
 10
370.022654579685
 20
16.15746793039997
 30
0.0
 10
370.0693359179215
 20
16.13963625632047
 30
0.0
 10
370.1036946580432
 20
16.12434695593251
 30
0.0
 10
370.1150386308111
 20
16.11893058950326
 30
0.0
 10
370.1375045009688
 20
16.10744567343048
 30
0.0
 10
370.1486448655976
 20
16.1013641734539
 30
0.0
 10
370.2031294809452
 20
16.06967788955788
 30
0.0
 10
370.2433580338624
 20
16.04005062435348
 30
0.0
 10
370.2895302335284
 20
15.99777755332289
 30
0.0
 10
370.2985567603935
 20
15.98905813866898
 30
0.0
 10
370.3161870365573
 20
15.97108085504541
 30
0.0
 10
370.324815449951
 20
15.96179425162691
 30
0.0
 10
370.3498493646293
 20
15.93333842530191
 30
0.0
 10
370.3653749390114
 20
15.91362563601601
 30
0.0
 10
370.4085722279306
 20
15.85233178014542
 30
0.0
 10
370.4329036828979
 20
15.80862021212837
 30
0.0
 10
370.4525886446584
 20
15.76194499406338
 30
0.0
  0
ENDSEC
  0
SECTION
  2
OBJECTS
  0
DICTIONARY
  5
C
330
0
100
AcDbDictionary
281
     1
  3
ACAD_DETAILVIEWSTYLE
350
21D
  3
ACAD_GROUP
350
D
  3
ACAD_LAYOUT
350
1A
  3
ACAD_MATERIAL
350
43
  3
ACAD_MLEADERSTYLE
350
5B
  3
ACAD_MLINESTYLE
350
17
  3
ACAD_PLOTSETTINGS
350
19
  3
ACAD_PLOTSTYLENAME
350
E
  3
ACAD_SCALELIST
350
47
  3
ACAD_SECTIONVIEWSTYLE
350
21E
  3
ACAD_TABLESTYLE
350
59
  3
ACAD_VISUALSTYLE
350
2A
  3
AcDbVariableDictionary
350
1E2
  3
ACDB_RECOMPOSE_DATA
350
21A
  0
SUN
  5
5D
330
29
100
AcDbSun
 90
        1
290
     0
 63
     7
421
 16777215
 40
1.0
291
     1
 91
  2455826
 92
 54000000
292
     0
 70
     2
 71
   256
280
     1
  0
DICTIONARY
  5
21D
102
{ACAD_REACTORS
330
C
102
}
330
C
100
AcDbDictionary
281
     1
  0
DICTIONARY
  5
D
102
{ACAD_REACTORS
330
C
102
}
330
C
100
AcDbDictionary
281
     1
  0
DICTIONARY
  5
1A
102
{ACAD_REACTORS
330
C
102
}
330
C
100
AcDbDictionary
281
     1
  3
Layout1
350
1E
  3
Layout2
350
26
  3
Model
350
22
  0
DICTIONARY
  5
43
102
{ACAD_REACTORS
330
C
102
}
330
C
100
AcDbDictionary
281
     1
  3
ByBlock
350
45
  3
ByLayer
350
44
  3
Global
350
46
  0
DICTIONARY
  5
5B
102
{ACAD_REACTORS
330
C
102
}
330
C
100
AcDbDictionary
281
     1
  3
Standard
350
5C
  0
DICTIONARY
  5
17
102
{ACAD_REACTORS
330
C
102
}
330
C
100
AcDbDictionary
281
     1
  3
Standard
350
18
  0
DICTIONARY
  5
19
102
{ACAD_REACTORS
330
C
102
}
330
C
100
AcDbDictionary
281
     1
  0
ACDBDICTIONARYWDFLT
  5
E
102
{ACAD_REACTORS
330
C
102
}
330
C
100
AcDbDictionary
281
     1
  3
Normal
350
F
100
AcDbDictionaryWithDefault
340
F
  0
DICTIONARY
  5
47
102
{ACAD_REACTORS
330
C
102
}
330
C
100
AcDbDictionary
281
     1
  3
A0
350
48
  3
A1
350
49
  3
A2
350
4A
  3
A3
350
4B
  3
A4
350
4C
  3
A5
350
4D
  3
A6
350
4E
  3
A7
350
4F
  3
A8
350
50
  3
A9
350
51
  3
B1
350
52
  3
B2
350
53
  3
B3
350
54
  3
B4
350
55
  3
B5
350
56
  3
B6
350
57
  3
B7
350
58
  0
DICTIONARY
  5
21E
102
{ACAD_REACTORS
330
C
102
}
330
C
100
AcDbDictionary
281
     1
  0
DICTIONARY
  5
59
102
{ACAD_REACTORS
330
C
102
}
330
C
100
AcDbDictionary
281
     1
  3
Standard
350
5A
  0
DICTIONARY
  5
2A
102
{ACAD_REACTORS
330
C
102
}
330
C
100
AcDbDictionary
281
     1
  3
2dWireframe
350
2F
  3
Basic
350
32
  3
Brighten
350
36
  3
ColorChange
350
3A
  3
Conceptual
350
34
  3
Dim
350
35
  3
EdgeColorOff
350
3D
  3
Facepattern
350
39
  3
Flat
350
2B
  3
FlatWithEdges
350
2C
  3
Gouraud
350
2D
  3
GouraudWithEdges
350
2E
  3
Hidden
350
31
  3
JitterOff
350
3B
  3
Linepattern
350
38
  3
OverhangOff
350
3C
  3
Realistic
350
33
  3
Shaded
350
42
  3
Shaded with edges
350
41
  3
Shades of Gray
350
3E
  3
Sketchy
350
3F
  3
Thicken
350
37
  3
Wireframe
350
30
  3
X-Ray
350
40
  0
DICTIONARY
  5
1E2
102
{ACAD_REACTORS
330
C
102
}
330
C
100
AcDbDictionary
281
     1
  3
CANNOSCALE
350
1E3
  3
CMLEADERSTYLE
350
21C
  3
CTABLESTYLE
350
21B
  3
XCLIPFRAME
350
1E4
  0
XRECORD
  5
21A
102
{ACAD_REACTORS
330
C
102
}
330
C
100
AcDbXrecord
280
     1
 90
        1
330
5A
  0
LAYOUT
  5
1E
102
{ACAD_REACTORS
330
1A
102
}
330
1A
100
AcDbPlotSettings
  1

  2
none_device
  4

  6

 40
0.0
 41
0.0
 42
0.0
 43
0.0
 44
0.0
 45
0.0
 46
0.0
 47
0.0
 48
0.0
 49
0.0
140
0.0
141
0.0
142
1.0
143
1.0
 70
   688
 72
     0
 73
     0
 74
     5
  7

 75
    16
 76
     0
 77
     2
 78
   300
147
1.0
148
0.0
149
0.0
100
AcDbLayout
  1
Layout1
 70
     1
 71
     1
 10
0.0
 20
0.0
 11
12.0
 21
9.0
 12
0.0
 22
0.0
 32
0.0
 14
1.000000000000000E+20
 24
1.000000000000000E+20
 34
1.000000000000000E+20
 15
-1.000000000000000E+20
 25
-1.000000000000000E+20
 35
-1.000000000000000E+20
146
0.0
 13
0.0
 23
0.0
 33
0.0
 16
1.0
 26
0.0
 36
0.0
 17
0.0
 27
1.0
 37
0.0
 76
     0
330
1B
  0
LAYOUT
  5
26
102
{ACAD_REACTORS
330
1A
102
}
330
1A
100
AcDbPlotSettings
  1

  2
none_device
  4

  6

 40
0.0
 41
0.0
 42
0.0
 43
0.0
 44
0.0
 45
0.0
 46
0.0
 47
0.0
 48
0.0
 49
0.0
140
0.0
141
0.0
142
1.0
143
1.0
 70
   688
 72
     0
 73
     0
 74
     5
  7

 75
    16
 76
     0
 77
     2
 78
   300
147
1.0
148
0.0
149
0.0
100
AcDbLayout
  1
Layout2
 70
     1
 71
     2
 10
0.0
 20
0.0
 11
0.0
 21
0.0
 12
0.0
 22
0.0
 32
0.0
 14
0.0
 24
0.0
 34
0.0
 15
0.0
 25
0.0
 35
0.0
146
0.0
 13
0.0
 23
0.0
 33
0.0
 16
1.0
 26
0.0
 36
0.0
 17
0.0
 27
1.0
 37
0.0
 76
     0
330
23
  0
LAYOUT
  5
22
102
{ACAD_REACTORS
330
1A
102
}
330
1A
100
AcDbPlotSettings
  1

  2
none_device
  4
Letter_(8.50_x_11.00_Inches)
  6

 40
6.35
 41
6.35
 42
6.35000508
 43
6.35000508
 44
215.9
 45
279.4
 46
0.0
 47
0.0
 48
0.0
 49
0.0
140
0.0
141
0.0
142
1.0
143
1.0
 70
  1712
 72
     0
 73
     0
 74
     0
  7

 75
     0
 76
     0
 77
     2
 78
   300
147
1.0
148
0.0
149
0.0
100
AcDbLayout
  1
Model
 70
     1
 71
     0
 10
0.0
 20
0.0
 11
12.0
 21
9.0
 12
0.0
 22
0.0
 32
0.0
 14
360.275
 24
-14.5504376258958
 34
0.0
 15
684.140192
 25
763.30435095026
 35
0.0
146
0.0
 13
0.0
 23
0.0
 33
0.0
 16
1.0
 26
0.0
 36
0.0
 17
0.0
 27
1.0
 37
0.0
 76
     0
330
1F
331
29
  0
MATERIAL
  5
45
102
{ACAD_REACTORS
330
43
102
}
330
43
100
AcDbMaterial
  1
ByBlock
 72
     1
 94
      127
  0
MATERIAL
  5
44
102
{ACAD_REACTORS
330
43
102
}
330
43
100
AcDbMaterial
  1
ByLayer
 72
     1
 94
      127
  0
MATERIAL
  5
46
102
{ACAD_REACTORS
330
43
102
}
330
43
100
AcDbMaterial
  1
Global
 72
     1
 94
      127
  0
MLEADERSTYLE
  5
5C
102
{ACAD_REACTORS
330
5B
102
}
102
{ACAD_XDICTIONARY
360
218
102
}
330
5B
100
AcDbMLeaderStyle
170
     2
171
     1
172
     0
 90
        2
 40
0.0
 41
0.0
173
     1
 91
-1056964608
340
14
 92
       -2
290
     1
 42
0.09
291
     1
 43
0.36
  3
Standard
341
0
 44
0.18
300

342
11
174
     1
178
     6
175
     1
176
     0
 93
-1056964608
 45
0.18
292
     0
297
     0
 46
0.18
343
0
 94
-1056964608
 47
1.0
 49
1.0
140
1.0
293
     1
141
0.0
294
     1
177
     0
142
1.0
295
     0
296
     0
143
0.125
1001
ACAD_MLEADERVER
1070
     2
  0
MLINESTYLE
  5
18
102
{ACAD_REACTORS
330
17
102
}
330
17
100
AcDbMlineStyle
  2
Standard
 70
     0
  3

 62
   256
 51
90.0
 52
90.0
 71
     2
 49
0.5
 62
   256
  6
BYLAYER
 49
-0.5
 62
   256
  6
BYLAYER
  0
ACDBPLACEHOLDER
  5
F
102
{ACAD_REACTORS
330
E
102
}
330
E
  0
SCALE
  5
48
102
{ACAD_REACTORS
330
47
102
}
330
47
100
AcDbScale
 70
     0
300
1:1
140
1.0
141
1.0
290
     1
  0
SCALE
  5
49
102
{ACAD_REACTORS
330
47
102
}
330
47
100
AcDbScale
 70
     0
300
1/128" = 1'-0"
140
0.0078125
141
12.0
290
     0
  0
SCALE
  5
4A
102
{ACAD_REACTORS
330
47
102
}
330
47
100
AcDbScale
 70
     0
300
1/64" = 1'-0"
140
0.015625
141
12.0
290
     0
  0
SCALE
  5
4B
102
{ACAD_REACTORS
330
47
102
}
330
47
100
AcDbScale
 70
     0
300
1/32" = 1'-0"
140
0.03125
141
12.0
290
     0
  0
SCALE
  5
4C
102
{ACAD_REACTORS
330
47
102
}
330
47
100
AcDbScale
 70
     0
300
1/16" = 1'-0"
140
0.0625
141
12.0
290
     0
  0
SCALE
  5
4D
102
{ACAD_REACTORS
330
47
102
}
330
47
100
AcDbScale
 70
     0
300
3/32" = 1'-0"
140
0.09375
141
12.0
290
     0
  0
SCALE
  5
4E
102
{ACAD_REACTORS
330
47
102
}
330
47
100
AcDbScale
 70
     0
300
1/8" = 1'-0"
140
0.125
141
12.0
290
     0
  0
SCALE
  5
4F
102
{ACAD_REACTORS
330
47
102
}
330
47
100
AcDbScale
 70
     0
300
3/16" = 1'-0"
140
0.1875
141
12.0
290
     0
  0
SCALE
  5
50
102
{ACAD_REACTORS
330
47
102
}
330
47
100
AcDbScale
 70
     0
300
1/4" = 1'-0"
140
0.25
141
12.0
290
     0
  0
SCALE
  5
51
102
{ACAD_REACTORS
330
47
102
}
330
47
100
AcDbScale
 70
     0
300
3/8" = 1'-0"
140
0.375
141
12.0
290
     0
  0
SCALE
  5
52
102
{ACAD_REACTORS
330
47
102
}
330
47
100
AcDbScale
 70
     0
300
1/2" = 1'-0"
140
0.5
141
12.0
290
     0
  0
SCALE
  5
53
102
{ACAD_REACTORS
330
47
102
}
330
47
100
AcDbScale
 70
     0
300
3/4" = 1'-0"
140
0.75
141
12.0
290
     0
  0
SCALE
  5
54
102
{ACAD_REACTORS
330
47
102
}
330
47
100
AcDbScale
 70
     0
300
1" = 1'-0"
140
1.0
141
12.0
290
     0
  0
SCALE
  5
55
102
{ACAD_REACTORS
330
47
102
}
330
47
100
AcDbScale
 70
     0
300
1-1/2" = 1'-0"
140
1.5
141
12.0
290
     0
  0
SCALE
  5
56
102
{ACAD_REACTORS
330
47
102
}
330
47
100
AcDbScale
 70
     0
300
3" = 1'-0"
140
3.0
141
12.0
290
     0
  0
SCALE
  5
57
102
{ACAD_REACTORS
330
47
102
}
330
47
100
AcDbScale
 70
     0
300
6" = 1'-0"
140
6.0
141
12.0
290
     0
  0
SCALE
  5
58
102
{ACAD_REACTORS
330
47
102
}
330
47
100
AcDbScale
 70
     0
300
1'-0" = 1'-0"
140
12.0
141
12.0
290
     0
  0
TABLESTYLE
  5
5A
102
{ACAD_REACTORS
330
59
102
}
102
{ACAD_XDICTIONARY
360
215
102
}
330
59
100
AcDbTableStyle
  3
Standard
 70
     0
 71
     0
 40
0.06
 41
0.06
280
     0
281
     0
  7
Standard
140
0.18
170
     2
 62
     0
 63
   257
283
     0
 90
        4
 91
        0
  1

274
    -2
284
     1
 64
     0
275
    -2
285
     1
 65
     0
276
    -2
286
     1
 66
     0
277
    -2
287
     1
 67
     0
278
    -2
288
     1
 68
     0
279
    -2
289
     1
 69
     0
  7
Standard
140
0.25
170
     5
 62
     0
 63
   257
283
     0
 90
        4
 91
        0
  1

274
    -2
284
     1
 64
     0
275
    -2
285
     1
 65
     0
276
    -2
286
     1
 66
     0
277
    -2
287
     1
 67
     0
278
    -2
288
     1
 68
     0
279
    -2
289
     1
 69
     0
  7
Standard
140
0.18
170
     5
 62
     0
 63
   257
283
     0
 90
        4
 91
        0
  1

274
    -2
284
     1
 64
     0
275
    -2
285
     1
 65
     0
276
    -2
286
     1
 66
     0
277
    -2
287
     1
 67
     0
278
    -2
288
     1
 68
     0
279
    -2
289
     1
 69
     0
  0
VISUALSTYLE
  5
2F
102
{ACAD_REACTORS
330
2A
102
}
102
{ACAD_XDICTIONARY
360
1ED
102
}
330
2A
100
AcDbVisualStyle
  2
2dWireframe
 70
     4
 71
     0
 72
     2
 73
     0
 90
        0
 40
0.6
 41
30.0
 62
     5
 63
     7
421
 16777215
 74
     1
 91
        4
 64
     7
 65
   257
 75
     1
175
     1
 42
1.0
 92
        0
 66
   257
 43
1.0
 76
     1
 77
     6
 78
     2
 67
     7
 79
     5
170
     0
171
     0
290
     0
174
     0
 93
        1
 44
0.0
173
     0
291
     0
 45
0.0
  0
VISUALSTYLE
  5
32
102
{ACAD_REACTORS
330
2A
102
}
102
{ACAD_XDICTIONARY
360
1F3
102
}
330
2A
100
AcDbVisualStyle
  2
Basic
 70
     7
 71
     1
 72
     0
 73
     1
 90
        0
 40
0.6
 41
30.0
 62
     5
 63
     7
421
 16777215
 74
     0
 91
        4
 64
     7
 65
   257
 75
     1
175
     1
 42
1.0
 92
        8
 66
     7
 43
1.0
 76
     1
 77
     6
 78
     2
 67
     7
 79
     5
170
     0
171
     0
290
     0
174
     0
 93
        1
 44
0.0
173
     0
291
     1
 45
0.0
  0
VISUALSTYLE
  5
36
102
{ACAD_REACTORS
330
2A
102
}
102
{ACAD_XDICTIONARY
360
1FB
102
}
330
2A
100
AcDbVisualStyle
  2
Brighten
 70
    12
 71
     2
 72
     2
 73
     0
 90
        0
 40
0.6
 41
30.0
 62
     5
 63
     7
421
 16777215
 74
     1
 91
        4
 64
     7
 65
   257
 75
     1
175
     1
 42
1.0
 92
        8
 66
     7
 43
1.0
 76
     1
 77
     6
 78
     2
 67
     7
 79
     5
170
     0
171
     0
290
     0
174
     0
 93
        1
 44
50.0
173
     0
291
     1
 45
0.0
  0
VISUALSTYLE
  5
3A
102
{ACAD_REACTORS
330
2A
102
}
102
{ACAD_XDICTIONARY
360
203
102
}
330
2A
100
AcDbVisualStyle
  2
ColorChange
 70
    16
 71
     2
 72
     2
 73
     3
 90
        0
 40
0.6
 41
30.0
 62
     5
 63
     8
421
  8421504
 74
     1
 91
        4
 64
     7
 65
   257
 75
     1
175
     1
 42
1.0
 92
        8
 66
     8
424
  8421504
 43
1.0
 76
     1
 77
     6
 78
     2
 67
     7
 79
     5
170
     0
171
     0
290
     0
174
     0
 93
        1
 44
0.0
173
     0
291
     1
 45
0.0
  0
VISUALSTYLE
  5
34
102
{ACAD_REACTORS
330
2A
102
}
102
{ACAD_XDICTIONARY
360
1F7
102
}
330
2A
100
AcDbVisualStyle
  2
Conceptual
 70
     9
 71
     3
 72
     2
 73
     0
 90
        0
 40
0.6
 41
30.0
 62
     5
 63
     7
421
 16777215
 74
     2
 91
        2
 64
     7
 65
   257
 75
     1
175
     1
 42
179.0
 92
        8
 66
     7
 43
1.0
 76
     1
 77
     6
 78
     2
 67
     7
 79
     3
170
     0
171
     0
290
     0
174
     0
 93
        1
 44
0.0
173
     0
291
     0
 45
0.0
  0
VISUALSTYLE
  5
35
102
{ACAD_REACTORS
330
2A
102
}
102
{ACAD_XDICTIONARY
360
1F9
102
}
330
2A
100
AcDbVisualStyle
  2
Dim
 70
    11
 71
     2
 72
     2
 73
     0
 90
        0
 40
0.6
 41
30.0
 62
     5
 63
     7
421
 16777215
 74
     1
 91
        4
 64
     7
 65
   257
 75
     1
175
     1
 42
1.0
 92
        8
 66
     7
 43
1.0
 76
     1
 77
     6
 78
     2
 67
     7
 79
     5
170
     0
171
     0
290
     0
174
     0
 93
        1
 44
-50.0
173
     0
291
     1
 45
0.0
  0
VISUALSTYLE
  5
3D
102
{ACAD_REACTORS
330
2A
102
}
102
{ACAD_XDICTIONARY
360
209
102
}
330
2A
100
AcDbVisualStyle
  2
EdgeColorOff
 70
    22
 71
     2
 72
     2
 73
     0
 90
        0
 40
0.6
 41
30.0
 62
     5
 63
     7
421
 16777215
 74
     1
 91
        4
 64
     7
 65
   257
 75
     1
175
     1
 42
1.0
 92
        8
 66
     7
 43
1.0
 76
     1
 77
     6
 78
     2
 67
     7
 79
     5
170
     0
171
     0
290
     0
174
     0
 93
        1
 44
0.0
173
     0
291
     1
 45
0.0
  0
VISUALSTYLE
  5
39
102
{ACAD_REACTORS
330
2A
102
}
102
{ACAD_XDICTIONARY
360
201
102
}
330
2A
100
AcDbVisualStyle
  2
Facepattern
 70
    15
 71
     2
 72
     2
 73
     0
 90
        0
 40
0.6
 41
30.0
 62
     5
 63
     7
421
 16777215
 74
     1
 91
        4
 64
     7
 65
   257
 75
     1
175
     1
 42
1.0
 92
        8
 66
     7
 43
1.0
 76
     1
 77
     6
 78
     2
 67
     7
 79
     5
170
     0
171
     0
290
     0
174
     0
 93
        1
 44
0.0
173
     0
291
     1
 45
0.0
  0
VISUALSTYLE
  5
2B
102
{ACAD_REACTORS
330
2A
102
}
102
{ACAD_XDICTIONARY
360
1E5
102
}
330
2A
100
AcDbVisualStyle
  2
Flat
 70
     0
 71
     2
 72
     1
 73
     1
 90
        2
 40
0.6
 41
30.0
 62
     5
 63
     7
421
 16777215
 74
     0
 91
        0
 64
     7
 65
   257
 75
     1
175
     1
 42
1.0
 92
        8
 66
     7
 43
1.0
 76
     1
 77
     6
 78
     2
 67
     7
 79
     5
170
     0
171
     0
290
     0
174
     0
 93
       13
 44
0.0
173
     0
291
     1
 45
0.0
  0
VISUALSTYLE
  5
2C
102
{ACAD_REACTORS
330
2A
102
}
102
{ACAD_XDICTIONARY
360
1E7
102
}
330
2A
100
AcDbVisualStyle
  2
FlatWithEdges
 70
     1
 71
     2
 72
     1
 73
     1
 90
        2
 40
0.6
 41
30.0
 62
     5
 63
     7
421
 16777215
 74
     1
 91
        0
 64
     7
 65
   257
 75
     1
175
     1
 42
1.0
 92
        0
 66
   257
 43
1.0
 76
     1
 77
     6
 78
     2
 67
     7
 79
     5
170
     0
171
     0
290
     0
174
     0
 93
       13
 44
0.0
173
     0
291
     1
 45
0.0
  0
VISUALSTYLE
  5
2D
102
{ACAD_REACTORS
330
2A
102
}
102
{ACAD_XDICTIONARY
360
1E9
102
}
330
2A
100
AcDbVisualStyle
  2
Gouraud
 70
     2
 71
     2
 72
     2
 73
     1
 90
        2
 40
0.6
 41
30.0
 62
     5
 63
     7
421
 16777215
 74
     0
 91
        0
 64
     7
 65
   257
 75
     1
175
     1
 42
1.0
 92
        0
 66
     7
 43
1.0
 76
     1
 77
     6
 78
     2
 67
     7
 79
     5
170
     0
171
     0
290
     0
174
     0
 93
       13
 44
0.0
173
     0
291
     1
 45
0.0
  0
VISUALSTYLE
  5
2E
102
{ACAD_REACTORS
330
2A
102
}
102
{ACAD_XDICTIONARY
360
1EB
102
}
330
2A
100
AcDbVisualStyle
  2
GouraudWithEdges
 70
     3
 71
     2
 72
     2
 73
     1
 90
        2
 40
0.6
 41
30.0
 62
     5
 63
     7
421
 16777215
 74
     1
 91
        0
 64
     7
 65
   257
 75
     1
175
     1
 42
1.0
 92
        0
 66
   257
 43
1.0
 76
     1
 77
     6
 78
     2
 67
     7
 79
     5
170
     0
171
     0
290
     0
174
     0
 93
       13
 44
0.0
173
     0
291
     1
 45
0.0
  0
VISUALSTYLE
  5
31
102
{ACAD_REACTORS
330
2A
102
}
102
{ACAD_XDICTIONARY
360
1F1
102
}
330
2A
100
AcDbVisualStyle
  2
Hidden
 70
     6
 71
     1
 72
     2
 73
     2
 90
        0
 40
0.6
 41
30.0
 62
     5
 63
     7
421
 16777215
 74
     2
 91
        2
 64
     7
 65
   257
 75
     2
175
     1
 42
40.0
 92
        0
 66
   257
 43
1.0
 76
     1
 77
     6
 78
     2
 67
     7
 79
     3
170
     0
171
     0
290
     0
174
     0
 93
        1
 44
0.0
173
     0
291
     0
 45
0.0
  0
VISUALSTYLE
  5
3B
102
{ACAD_REACTORS
330
2A
102
}
102
{ACAD_XDICTIONARY
360
205
102
}
330
2A
100
AcDbVisualStyle
  2
JitterOff
 70
    20
 71
     2
 72
     2
 73
     0
 90
        0
 40
0.6
 41
30.0
 62
     5
 63
     7
421
 16777215
 74
     1
 91
        4
 64
     7
 65
   257
 75
     1
175
     1
 42
1.0
 92
       10
 66
     7
 43
1.0
 76
     1
 77
     6
 78
     2
 67
     7
 79
     5
170
     0
171
     0
290
     0
174
     0
 93
        1
 44
0.0
173
     0
291
     1
 45
0.0
  0
VISUALSTYLE
  5
38
102
{ACAD_REACTORS
330
2A
102
}
102
{ACAD_XDICTIONARY
360
1FF
102
}
330
2A
100
AcDbVisualStyle
  2
Linepattern
 70
    14
 71
     2
 72
     2
 73
     0
 90
        0
 40
0.6
 41
30.0
 62
     5
 63
     7
421
 16777215
 74
     1
 91
        4
 64
     7
 65
   257
 75
     7
175
     7
 42
1.0
 92
        8
 66
     7
 43
1.0
 76
     1
 77
     6
 78
     2
 67
     7
 79
     5
170
     0
171
     0
290
     0
174
     0
 93
        1
 44
0.0
173
     0
291
     1
 45
0.0
  0
VISUALSTYLE
  5
3C
102
{ACAD_REACTORS
330
2A
102
}
102
{ACAD_XDICTIONARY
360
207
102
}
330
2A
100
AcDbVisualStyle
  2
OverhangOff
 70
    21
 71
     2
 72
     2
 73
     0
 90
        0
 40
0.6
 41
30.0
 62
     5
 63
     7
421
 16777215
 74
     1
 91
        4
 64
     7
 65
   257
 75
     1
175
     1
 42
1.0
 92
        9
 66
     7
 43
1.0
 76
     1
 77
     6
 78
     2
 67
     7
 79
     5
170
     0
171
     0
290
     0
174
     0
 93
        1
 44
0.0
173
     0
291
     1
 45
0.0
  0
VISUALSTYLE
  5
33
102
{ACAD_REACTORS
330
2A
102
}
102
{ACAD_XDICTIONARY
360
1F5
102
}
330
2A
100
AcDbVisualStyle
  2
Realistic
 70
     8
 71
     2
 72
     3
 73
     0
 90
        2
 40
0.6
 41
30.0
 62
     5
 63
     7
421
 16777215
 74
     0
 91
        0
 64
     7
 65
   257
 75
     1
175
     1
 42
1.0
 92
        8
 66
   257
 43
1.0
 76
     1
 77
     6
 78
     2
 67
     7
 79
     3
170
     0
171
     0
290
     0
174
     0
 93
       13
 44
0.0
173
     0
291
     0
 45
0.0
  0
VISUALSTYLE
  5
42
102
{ACAD_REACTORS
330
2A
102
}
102
{ACAD_XDICTIONARY
360
213
102
}
330
2A
100
AcDbVisualStyle
  2
Shaded
 70
    27
 71
     2
 72
     2
 73
     1
 90
        2
 40
0.6
 41
30.0
 62
     5
 63
     7
421
 16777215
 74
     0
 91
        4
 64
     7
 65
   257
 75
     1
175
     1
 42
1.0
 92
        8
 66
   257
 43
1.0
 76
     1
 77
     6
 78
     2
 67
     8
425
  7895160
 79
     3
170
     0
171
     0
290
     0
174
     0
 93
        5
 44
0.0
173
     0
291
     0
 45
0.0
  0
VISUALSTYLE
  5
41
102
{ACAD_REACTORS
330
2A
102
}
102
{ACAD_XDICTIONARY
360
211
102
}
330
2A
100
AcDbVisualStyle
  2
Shaded with edges
 70
    26
 71
     2
 72
     2
 73
     1
 90
        2
 40
0.6
 41
30.0
 62
     5
 63
     7
421
 16777215
 74
     1
 91
       10
 64
     7
 65
   257
 75
     2
175
     1
 42
1.0
 92
        8
 66
   257
 43
1.0
 76
     1
 77
     6
 78
     2
 67
     7
 79
     3
170
     0
171
     0
290
     0
174
     0
 93
        5
 44
0.0
173
     0
291
     0
 45
0.0
  0
VISUALSTYLE
  5
3E
102
{ACAD_REACTORS
330
2A
102
}
102
{ACAD_XDICTIONARY
360
20B
102
}
330
2A
100
AcDbVisualStyle
  2
Shades of Gray
 70
    23
 71
     2
 72
     2
 73
     3
 90
        0
 40
0.6
 41
30.0
 62
     5
 63
     7
421
 16777215
 74
     2
 91
        2
 64
     7
 65
     7
 75
     1
175
     1
 42
40.0
 92
        8
 66
     7
 43
1.0
 76
     1
 77
     6
 78
     2
 67
     7
 79
     3
170
     0
171
     0
290
     0
174
     0
 93
        1
 44
0.0
173
     0
291
     0
 45
0.0
  0
VISUALSTYLE
  5
3F
102
{ACAD_REACTORS
330
2A
102
}
102
{ACAD_XDICTIONARY
360
20D
102
}
330
2A
100
AcDbVisualStyle
  2
Sketchy
 70
    24
 71
     1
 72
     2
 73
     2
 90
        0
 40
0.6
 41
30.0
 62
     5
 63
     7
421
 16777215
 74
     2
 91
        2
 64
     7
 65
     7
 75
     1
175
     1
 42
40.0
 92
       11
 66
     7
 43
1.0
 76
     1
 77
     6
 78
     2
 67
     7
 79
     6
170
     0
171
     0
290
     0
174
     0
 93
        1
 44
0.0
173
     0
291
     0
 45
0.0
  0
VISUALSTYLE
  5
37
102
{ACAD_REACTORS
330
2A
102
}
102
{ACAD_XDICTIONARY
360
1FD
102
}
330
2A
100
AcDbVisualStyle
  2
Thicken
 70
    13
 71
     2
 72
     2
 73
     0
 90
        0
 40
0.6
 41
30.0
 62
     5
 63
     7
421
 16777215
 74
     1
 91
        4
 64
     7
 65
   257
 75
     1
175
     1
 42
1.0
 92
       12
 66
     7
 43
1.0
 76
     1
 77
     6
 78
     2
 67
     7
 79
     5
170
     0
171
     0
290
     0
174
     0
 93
        1
 44
0.0
173
     0
291
     1
 45
0.0
  0
VISUALSTYLE
  5
30
102
{ACAD_REACTORS
330
2A
102
}
102
{ACAD_XDICTIONARY
360
1EF
102
}
330
2A
100
AcDbVisualStyle
  2
Wireframe
 70
     5
 71
     0
 72
     2
 73
     0
 90
        0
 40
0.6
 41
30.0
 62
     5
 63
     7
421
 16777215
 74
     1
 91
        4
 64
     7
 65
   257
 75
     1
175
     1
 42
1.0
 92
        0
 66
   257
 43
1.0
 76
     1
 77
     6
 78
     2
 67
     7
 79
     3
170
     0
171
     0
290
     0
174
     0
 93
        1
 44
0.0
173
     0
291
     0
 45
0.0
  0
VISUALSTYLE
  5
40
102
{ACAD_REACTORS
330
2A
102
}
102
{ACAD_XDICTIONARY
360
20F
102
}
330
2A
100
AcDbVisualStyle
  2
X-Ray
 70
    25
 71
     2
 72
     2
 73
     1
 90
        1
 40
0.5
 41
30.0
 62
     5
 63
     7
421
 16777215
 74
     1
 91
        0
 64
     7
 65
   257
 75
     1
175
     1
 42
1.0
 92
        8
 66
     7
 43
1.0
 76
     1
 77
     6
 78
     2
 67
     7
 79
     3
170
     0
171
     0
290
     0
174
     0
 93
       13
 44
0.0
173
     0
291
     0
 45
0.0
  0
DICTIONARYVAR
  5
1E3
102
{ACAD_REACTORS
330
1E2
102
}
330
1E2
100
DictionaryVariables
280
     0
  1
1:1
  0
DICTIONARYVAR
  5
21C
102
{ACAD_REACTORS
330
1E2
102
}
330
1E2
100
DictionaryVariables
280
     0
  1
Standard
  0
DICTIONARYVAR
  5
21B
102
{ACAD_REACTORS
330
1E2
102
}
330
1E2
100
DictionaryVariables
280
     0
  1
Standard
  0
DICTIONARYVAR
  5
1E4
102
{ACAD_REACTORS
330
1E2
102
}
330
1E2
100
DictionaryVariables
280
     0
  1
2
  0
DICTIONARY
  5
218
330
5C
100
AcDbDictionary
280
     1
281
     1
  3
ACAD_XREC_ROUNDTRIP
360
219
  0
DICTIONARY
  5
215
330
5A
100
AcDbDictionary
280
     1
281
     1
  3
ACAD_ROUNDTRIP_2008_TABLESTYLE_CELLSTYLEMAP
360
216
  0
DICTIONARY
  5
1ED
330
2F
100
AcDbDictionary
280
     1
281
     1
  3
ACAD_XREC_ROUNDTRIP
360
1EE
  0
DICTIONARY
  5
1F3
330
32
100
AcDbDictionary
280
     1
281
     1
  3
ACAD_XREC_ROUNDTRIP
360
1F4
  0
DICTIONARY
  5
1FB
330
36
100
AcDbDictionary
280
     1
281
     1
  3
ACAD_XREC_ROUNDTRIP
360
1FC
  0
DICTIONARY
  5
203
330
3A
100
AcDbDictionary
280
     1
281
     1
  3
ACAD_XREC_ROUNDTRIP
360
204
  0
DICTIONARY
  5
1F7
330
34
100
AcDbDictionary
280
     1
281
     1
  3
ACAD_XREC_ROUNDTRIP
360
1F8
  0
DICTIONARY
  5
1F9
330
35
100
AcDbDictionary
280
     1
281
     1
  3
ACAD_XREC_ROUNDTRIP
360
1FA
  0
DICTIONARY
  5
209
330
3D
100
AcDbDictionary
280
     1
281
     1
  3
ACAD_XREC_ROUNDTRIP
360
20A
  0
DICTIONARY
  5
201
330
39
100
AcDbDictionary
280
     1
281
     1
  3
ACAD_XREC_ROUNDTRIP
360
202
  0
DICTIONARY
  5
1E5
330
2B
100
AcDbDictionary
280
     1
281
     1
  3
ACAD_XREC_ROUNDTRIP
360
1E6
  0
DICTIONARY
  5
1E7
330
2C
100
AcDbDictionary
280
     1
281
     1
  3
ACAD_XREC_ROUNDTRIP
360
1E8
  0
DICTIONARY
  5
1E9
330
2D
100
AcDbDictionary
280
     1
281
     1
  3
ACAD_XREC_ROUNDTRIP
360
1EA
  0
DICTIONARY
  5
1EB
330
2E
100
AcDbDictionary
280
     1
281
     1
  3
ACAD_XREC_ROUNDTRIP
360
1EC
  0
DICTIONARY
  5
1F1
330
31
100
AcDbDictionary
280
     1
281
     1
  3
ACAD_XREC_ROUNDTRIP
360
1F2
  0
DICTIONARY
  5
205
330
3B
100
AcDbDictionary
280
     1
281
     1
  3
ACAD_XREC_ROUNDTRIP
360
206
  0
DICTIONARY
  5
1FF
330
38
100
AcDbDictionary
280
     1
281
     1
  3
ACAD_XREC_ROUNDTRIP
360
200
  0
DICTIONARY
  5
207
330
3C
100
AcDbDictionary
280
     1
281
     1
  3
ACAD_XREC_ROUNDTRIP
360
208
  0
DICTIONARY
  5
1F5
330
33
100
AcDbDictionary
280
     1
281
     1
  3
ACAD_XREC_ROUNDTRIP
360
1F6
  0
DICTIONARY
  5
213
330
42
100
AcDbDictionary
280
     1
281
     1
  3
ACAD_XREC_ROUNDTRIP
360
214
  0
DICTIONARY
  5
211
330
41
100
AcDbDictionary
280
     1
281
     1
  3
ACAD_XREC_ROUNDTRIP
360
212
  0
DICTIONARY
  5
20B
330
3E
100
AcDbDictionary
280
     1
281
     1
  3
ACAD_XREC_ROUNDTRIP
360
20C
  0
DICTIONARY
  5
20D
330
3F
100
AcDbDictionary
280
     1
281
     1
  3
ACAD_XREC_ROUNDTRIP
360
20E
  0
DICTIONARY
  5
1FD
330
37
100
AcDbDictionary
280
     1
281
     1
  3
ACAD_XREC_ROUNDTRIP
360
1FE
  0
DICTIONARY
  5
1EF
330
30
100
AcDbDictionary
280
     1
281
     1
  3
ACAD_XREC_ROUNDTRIP
360
1F0
  0
DICTIONARY
  5
20F
330
40
100
AcDbDictionary
280
     1
281
     1
  3
ACAD_XREC_ROUNDTRIP
360
210
  0
XRECORD
  5
219
102
{ACAD_REACTORS
330
218
102
}
330
218
100
AcDbXrecord
280
     1
102
ACAD_ROUNDTRIP_2010_MLEADER_STYLE
  0
CELLSTYLEMAP
  5
216
102
{ACAD_REACTORS
330
215
102
}
330
215
100
AcDbCellStyleMap
 90
        3
300
CELLSTYLE
  1
TABLEFORMAT_BEGIN
 90
        5
170
     1
 91
        0
 92
    32768
 62
   257
 93
        1
300
CONTENTFORMAT
  1
CONTENTFORMAT_BEGIN
 90
        0
 91
        0
 92
        4
 93
        0
300

 40
0.0
140
1.0
 94
        5
 62
     0
340
11
144
0.25
309
CONTENTFORMAT_END
171
     1
301
MARGIN
  1
CELLMARGIN_BEGIN
 40
0.06
 40
0.06
 40
0.06
 40
0.06
 40
0.06
 40
0.06
309
CELLMARGIN_END
 94
        6
 95
        1
302
GRIDFORMAT
  1
GRIDFORMAT_BEGIN
 90
        0
 91
        1
 62
     0
 92
       -2
340
14
 93
        0
 40
0.045
309
GRIDFORMAT_END
 95
        2
302
GRIDFORMAT
  1
GRIDFORMAT_BEGIN
 90
        0
 91
        1
 62
     0
 92
       -2
340
14
 93
        0
 40
0.045
309
GRIDFORMAT_END
 95
        4
302
GRIDFORMAT
  1
GRIDFORMAT_BEGIN
 90
        0
 91
        1
 62
     0
 92
       -2
340
14
 93
        0
 40
0.045
309
GRIDFORMAT_END
 95
        8
302
GRIDFORMAT
  1
GRIDFORMAT_BEGIN
 90
        0
 91
        1
 62
     0
 92
       -2
340
14
 93
        0
 40
0.045
309
GRIDFORMAT_END
 95
       16
302
GRIDFORMAT
  1
GRIDFORMAT_BEGIN
 90
        0
 91
        1
 62
     0
 92
       -2
340
14
 93
        0
 40
0.045
309
GRIDFORMAT_END
 95
       32
302
GRIDFORMAT
  1
GRIDFORMAT_BEGIN
 90
        0
 91
        1
 62
     0
 92
       -2
340
14
 93
        0
 40
0.045
309
GRIDFORMAT_END
309
TABLEFORMAT_END
  1
CELLSTYLE_BEGIN
 90
        1
 91
        1
300
_TITLE
309
CELLSTYLE_END
300
CELLSTYLE
  1
TABLEFORMAT_BEGIN
 90
        5
170
     1
 91
        0
 92
        0
 62
   257
 93
        1
300
CONTENTFORMAT
  1
CONTENTFORMAT_BEGIN
 90
        0
 91
        0
 92
        4
 93
        0
300

 40
0.0
140
1.0
 94
        5
 62
     0
340
11
144
0.18
309
CONTENTFORMAT_END
171
     1
301
MARGIN
  1
CELLMARGIN_BEGIN
 40
0.06
 40
0.06
 40
0.06
 40
0.06
 40
0.06
 40
0.06
309
CELLMARGIN_END
 94
        6
 95
        1
302
GRIDFORMAT
  1
GRIDFORMAT_BEGIN
 90
        0
 91
        1
 62
     0
 92
       -2
340
14
 93
        0
 40
0.045
309
GRIDFORMAT_END
 95
        2
302
GRIDFORMAT
  1
GRIDFORMAT_BEGIN
 90
        0
 91
        1
 62
     0
 92
       -2
340
14
 93
        0
 40
0.045
309
GRIDFORMAT_END
 95
        4
302
GRIDFORMAT
  1
GRIDFORMAT_BEGIN
 90
        0
 91
        1
 62
     0
 92
       -2
340
14
 93
        0
 40
0.045
309
GRIDFORMAT_END
 95
        8
302
GRIDFORMAT
  1
GRIDFORMAT_BEGIN
 90
        0
 91
        1
 62
     0
 92
       -2
340
14
 93
        0
 40
0.045
309
GRIDFORMAT_END
 95
       16
302
GRIDFORMAT
  1
GRIDFORMAT_BEGIN
 90
        0
 91
        1
 62
     0
 92
       -2
340
14
 93
        0
 40
0.045
309
GRIDFORMAT_END
 95
       32
302
GRIDFORMAT
  1
GRIDFORMAT_BEGIN
 90
        0
 91
        1
 62
     0
 92
       -2
340
14
 93
        0
 40
0.045
309
GRIDFORMAT_END
309
TABLEFORMAT_END
  1
CELLSTYLE_BEGIN
 90
        2
 91
        1
300
_HEADER
309
CELLSTYLE_END
300
CELLSTYLE
  1
TABLEFORMAT_BEGIN
 90
        5
170
     1
 91
        0
 92
        0
 62
   257
 93
        1
300
CONTENTFORMAT
  1
CONTENTFORMAT_BEGIN
 90
        0
 91
        0
 92
        4
 93
        0
300

 40
0.0
140
1.0
 94
        2
 62
     0
340
11
144
0.18
309
CONTENTFORMAT_END
171
     1
301
MARGIN
  1
CELLMARGIN_BEGIN
 40
0.06
 40
0.06
 40
0.06
 40
0.06
 40
0.06
 40
0.06
309
CELLMARGIN_END
 94
        6
 95
        1
302
GRIDFORMAT
  1
GRIDFORMAT_BEGIN
 90
        0
 91
        1
 62
     0
 92
       -2
340
14
 93
        0
 40
0.045
309
GRIDFORMAT_END
 95
        2
302
GRIDFORMAT
  1
GRIDFORMAT_BEGIN
 90
        0
 91
        1
 62
     0
 92
       -2
340
14
 93
        0
 40
0.045
309
GRIDFORMAT_END
 95
        4
302
GRIDFORMAT
  1
GRIDFORMAT_BEGIN
 90
        0
 91
        1
 62
     0
 92
       -2
340
14
 93
        0
 40
0.045
309
GRIDFORMAT_END
 95
        8
302
GRIDFORMAT
  1
GRIDFORMAT_BEGIN
 90
        0
 91
        1
 62
     0
 92
       -2
340
14
 93
        0
 40
0.045
309
GRIDFORMAT_END
 95
       16
302
GRIDFORMAT
  1
GRIDFORMAT_BEGIN
 90
        0
 91
        1
 62
     0
 92
       -2
340
14
 93
        0
 40
0.045
309
GRIDFORMAT_END
 95
       32
302
GRIDFORMAT
  1
GRIDFORMAT_BEGIN
 90
        0
 91
        1
 62
     0
 92
       -2
340
14
 93
        0
 40
0.045
309
GRIDFORMAT_END
309
TABLEFORMAT_END
  1
CELLSTYLE_BEGIN
 90
        3
 91
        2
300
_DATA
309
CELLSTYLE_END
  0
XRECORD
  5
1EE
102
{ACAD_REACTORS
330
1ED
102
}
330
1ED
100
AcDbXrecord
280
     1
102
RTVSPropertyOp0
 70
     1
102
RTVSPropertyOp1
 70
     1
102
RTVSPropertyOp2
 70
     1
102
RTVSPropertyOp3
 70
     1
102
RTVSPropertyOp4
 70
     1
102
RTVSPropertyOp5
 70
     1
102
RTVSPropertyOp6
 70
     1
102
RTVSPropertyOp7
 70
     1
102
RTVSPropertyOp8
 70
     1
102
RTVSPropertyOp9
 70
     1
102
RTVSPropertyOp10
 70
     1
102
RTVSPropertyOp11
 70
     1
102
RTVSPropertyOp12
 70
     1
102
RTVSPropertyOp13
 70
     1
102
RTVSPropertyOp14
 70
     1
102
RTVSPropertyOp15
 70
     1
102
RTVSPropertyOp16
 70
     1
102
RTVSPropertyOp17
 70
     1
102
RTVSPropertyOp18
 70
     1
102
RTVSPropertyOp19
 70
     1
102
RTVSPropertyOp20
 70
     1
102
RTVSPropertyOp21
 70
     1
102
RTVSPropertyOp22
 70
     1
102
RTVSPropertyOp23
 70
     1
102
RTVSPropertyOp24
 70
     1
102
RTVSPropertyOp25
 70
     1
102
RTVSPropertyOp26
 70
     1
102
RTVSPropertyOp27
 70
     1
102
RTVSPropertyOp28
 70
     1
102
RTVSPropertyOp29
 70
     1
102
RTVSPropertyOp30
 70
     1
102
RTVSPropertyOp31
 70
     1
102
RTVSPropertyOp32
 70
     1
102
RTVSPropertyOp33
 70
     1
102
RTVSPropertyOp34
 70
     1
102
RTVSPropertyOp35
 70
     1
102
RTVSPropertyOp36
 70
     1
102
RTVSPropertyOp37
 70
     1
102
RTVSPropertyOp38
 70
     1
102
RTVSPropertyOp39
 70
     1
102
RTVSPropertyOp40
 70
     1
102
RTVSPropertyOp41
 70
     1
102
RTVSPropertyOp42
 70
     1
102
RTVSPropertyOp43
 70
     1
102
RTVSPropertyOp44
 70
     1
102
RTVSPropertyOp45
 70
     1
102
RTVSPropertyOp46
 70
     1
102
RTVSPropertyOp47
 70
     1
102
RTVSPropertyOp48
 70
     1
102
RTVSPropertyOp49
 70
     1
102
RTVSPropertyOp50
 70
     1
102
RTVSPropertyOp51
 70
     0
102
RTVSPropertyOp52
 70
     0
102
RTVSPropertyOp53
 70
     1
102
RTVSPropertyOp54
 70
     1
102
RTVSPropertyOp55
 70
     1
102
RTVSPropertyOp56
 70
     1
102
RTVSPropertyOp57
 70
     1
102
RTVSPost2010Prop28
280
     1
102
RTVSPost2010PropOp28
 70
     1
102
RTVSPost2010Prop29
280
     1
102
RTVSPost2010PropOp29
 70
     1
102
RTVSPost2010Prop30
280
     0
102
RTVSPost2010PropOp30
 70
     1
102
RTVSPost2010Prop31
280
     0
102
RTVSPost2010PropOp31
 70
     1
102
RTVSPost2010Prop32
280
     0
102
RTVSPost2010PropOp32
 70
     1
102
RTVSPost2010Prop33
280
     0
102
RTVSPost2010PropOp33
 70
     1
102
RTVSPost2010Prop34
280
     0
102
RTVSPost2010PropOp34
 70
     1
102
RTVSPost2010Prop35
280
     0
102
RTVSPost2010PropOp35
 70
     1
102
RTVSPost2010Prop36
280
     0
102
RTVSPost2010PropOp36
 70
     1
102
RTVSPost2010Prop37
 90
       50
102
RTVSPost2010PropOp37
 70
     1
102
RTVSPost2010Prop38
140
0.0
102
RTVSPost2010PropOp38
 70
     1
102
RTVSPost2010Prop39
140
1.0
102
RTVSPost2010PropOp39
 70
     1
102
RTVSPost2010Prop40
 90
        0
102
RTVSPost2010PropOp40
 70
     1
102
RTVSPost2010Prop41ColorIndex
 90
       18
102
RTVSPost2010Prop41ColorRGB
 90
        0
102
RTVSPost2010PropOp41
 70
     1
102
RTVSPost2010Prop42
 90
       50
102
RTVSPost2010PropOp42
 70
     1
102
RTVSPost2010Prop43
 90
        3
102
RTVSPost2010PropOp43
 70
     1
102
RTVSPost2010Prop44ColorIndex
 90
        5
102
RTVSPost2010Prop44ColorRGB
 90
      255
102
RTVSPost2010PropOp44
 70
     1
102
RTVSPost2010Prop45
280
     0
102
RTVSPost2010PropOp45
 70
     1
102
RTVSPost2010Prop46
 90
       50
102
RTVSPost2010PropOp46
 70
     1
102
RTVSPost2010Prop47
 90
       50
102
RTVSPost2010PropOp47
 70
     1
102
RTVSPost2010Prop48
 90
       50
102
RTVSPost2010PropOp48
 70
     1
102
RTVSPost2010Prop49
280
     0
102
RTVSPost2010PropOp49
 70
     1
102
RTVSPost2010Prop50
 90
       50
102
RTVSPost2010PropOp50
 70
     1
102
RTVSPost2010Prop51ColorIndex
 90
      256
102
RTVSPost2010Prop51ColorRGB
 90
-16777216
102
RTVSPost2010PropOp51
 70
     0
102
RTVSPost2010Prop52
140
1.0
102
RTVSPost2010PropOp52
 70
     0
102
RTVSPost2010Prop53
 90
        2
102
RTVSPost2010PropOp53
 70
     1
102
RTVSPost2010Prop54
  1
strokes_ogs.tif
102
RTVSPost2010PropOp54
 70
     1
102
RTVSPost2010Prop55
280
     0
102
RTVSPost2010PropOp55
 70
     1
102
RTVSPost2010Prop56
140
1.0
102
RTVSPost2010PropOp56
 70
     1
102
RTVSPost2010Prop57
140
1.0
102
RTVSPost2010PropOp57
 70
     1
  0
XRECORD
  5
1F4
102
{ACAD_REACTORS
330
1F3
102
}
330
1F3
100
AcDbXrecord
280
     1
102
RTVSPropertyOp0
 70
     1
102
RTVSPropertyOp1
 70
     1
102
RTVSPropertyOp2
 70
     1
102
RTVSPropertyOp3
 70
     1
102
RTVSPropertyOp4
 70
     1
102
RTVSPropertyOp5
 70
     1
102
RTVSPropertyOp6
 70
     1
102
RTVSPropertyOp7
 70
     1
102
RTVSPropertyOp8
 70
     1
102
RTVSPropertyOp9
 70
     1
102
RTVSPropertyOp10
 70
     1
102
RTVSPropertyOp11
 70
     1
102
RTVSPropertyOp12
 70
     1
102
RTVSPropertyOp13
 70
     1
102
RTVSPropertyOp14
 70
     1
102
RTVSPropertyOp15
 70
     1
102
RTVSPropertyOp16
 70
     1
102
RTVSPropertyOp17
 70
     1
102
RTVSPropertyOp18
 70
     1
102
RTVSPropertyOp19
 70
     1
102
RTVSPropertyOp20
 70
     1
102
RTVSPropertyOp21
 70
     1
102
RTVSPropertyOp22
 70
     1
102
RTVSPropertyOp23
 70
     1
102
RTVSPropertyOp24
 70
     1
102
RTVSPropertyOp25
 70
     1
102
RTVSPropertyOp26
 70
     1
102
RTVSPropertyOp27
 70
     1
102
RTVSPropertyOp28
 70
     1
102
RTVSPropertyOp29
 70
     1
102
RTVSPropertyOp30
 70
     1
102
RTVSPropertyOp31
 70
     1
102
RTVSPropertyOp32
 70
     1
102
RTVSPropertyOp33
 70
     1
102
RTVSPropertyOp34
 70
     1
102
RTVSPropertyOp35
 70
     1
102
RTVSPropertyOp36
 70
     1
102
RTVSPropertyOp37
 70
     1
102
RTVSPropertyOp38
 70
     1
102
RTVSPropertyOp39
 70
     1
102
RTVSPropertyOp40
 70
     1
102
RTVSPropertyOp41
 70
     1
102
RTVSPropertyOp42
 70
     1
102
RTVSPropertyOp43
 70
     1
102
RTVSPropertyOp44
 70
     1
102
RTVSPropertyOp45
 70
     1
102
RTVSPropertyOp46
 70
     1
102
RTVSPropertyOp47
 70
     1
102
RTVSPropertyOp48
 70
     1
102
RTVSPropertyOp49
 70
     1
102
RTVSPropertyOp50
 70
     1
102
RTVSPropertyOp51
 70
     0
102
RTVSPropertyOp52
 70
     0
102
RTVSPropertyOp53
 70
     1
102
RTVSPropertyOp54
 70
     1
102
RTVSPropertyOp55
 70
     1
102
RTVSPropertyOp56
 70
     1
102
RTVSPropertyOp57
 70
     1
102
RTVSPost2010Prop28
280
     0
102
RTVSPost2010PropOp28
 70
     1
102
RTVSPost2010Prop29
280
     1
102
RTVSPost2010PropOp29
 70
     1
102
RTVSPost2010Prop30
280
     1
102
RTVSPost2010PropOp30
 70
     1
102
RTVSPost2010Prop31
280
     0
102
RTVSPost2010PropOp31
 70
     1
102
RTVSPost2010Prop32
280
     0
102
RTVSPost2010PropOp32
 70
     1
102
RTVSPost2010Prop33
280
     0
102
RTVSPost2010PropOp33
 70
     1
102
RTVSPost2010Prop34
280
     0
102
RTVSPost2010PropOp34
 70
     1
102
RTVSPost2010Prop35
280
     0
102
RTVSPost2010PropOp35
 70
     1
102
RTVSPost2010Prop36
280
     0
102
RTVSPost2010PropOp36
 70
     1
102
RTVSPost2010Prop37
 90
       50
102
RTVSPost2010PropOp37
 70
     1
102
RTVSPost2010Prop38
140
0.0
102
RTVSPost2010PropOp38
 70
     1
102
RTVSPost2010Prop39
140
1.0
102
RTVSPost2010PropOp39
 70
     1
102
RTVSPost2010Prop40
 90
        0
102
RTVSPost2010PropOp40
 70
     1
102
RTVSPost2010Prop41ColorIndex
 90
       18
102
RTVSPost2010Prop41ColorRGB
 90
        0
102
RTVSPost2010PropOp41
 70
     1
102
RTVSPost2010Prop42
 90
       50
102
RTVSPost2010PropOp42
 70
     1
102
RTVSPost2010Prop43
 90
        3
102
RTVSPost2010PropOp43
 70
     1
102
RTVSPost2010Prop44ColorIndex
 90
        5
102
RTVSPost2010Prop44ColorRGB
 90
      255
102
RTVSPost2010PropOp44
 70
     1
102
RTVSPost2010Prop45
280
     0
102
RTVSPost2010PropOp45
 70
     1
102
RTVSPost2010Prop46
 90
       50
102
RTVSPost2010PropOp46
 70
     1
102
RTVSPost2010Prop47
 90
       50
102
RTVSPost2010PropOp47
 70
     1
102
RTVSPost2010Prop48
 90
       50
102
RTVSPost2010PropOp48
 70
     1
102
RTVSPost2010Prop49
280
     0
102
RTVSPost2010PropOp49
 70
     1
102
RTVSPost2010Prop50
 90
       50
102
RTVSPost2010PropOp50
 70
     1
102
RTVSPost2010Prop51ColorIndex
 90
      256
102
RTVSPost2010Prop51ColorRGB
 90
-16777216
102
RTVSPost2010PropOp51
 70
     0
102
RTVSPost2010Prop52
140
1.0
102
RTVSPost2010PropOp52
 70
     0
102
RTVSPost2010Prop53
 90
        2
102
RTVSPost2010PropOp53
 70
     1
102
RTVSPost2010Prop54
  1
strokes_ogs.tif
102
RTVSPost2010PropOp54
 70
     1
102
RTVSPost2010Prop55
280
     0
102
RTVSPost2010PropOp55
 70
     1
102
RTVSPost2010Prop56
140
1.0
102
RTVSPost2010PropOp56
 70
     1
102
RTVSPost2010Prop57
140
1.0
102
RTVSPost2010PropOp57
 70
     1
  0
XRECORD
  5
1FC
102
{ACAD_REACTORS
330
1FB
102
}
330
1FB
100
AcDbXrecord
280
     1
102
RTVSPropertyOp0
 70
     1
102
RTVSPropertyOp1
 70
     1
102
RTVSPropertyOp2
 70
     1
102
RTVSPropertyOp3
 70
     1
102
RTVSPropertyOp4
 70
     1
102
RTVSPropertyOp5
 70
     1
102
RTVSPropertyOp6
 70
     1
102
RTVSPropertyOp7
 70
     1
102
RTVSPropertyOp8
 70
     1
102
RTVSPropertyOp9
 70
     1
102
RTVSPropertyOp10
 70
     1
102
RTVSPropertyOp11
 70
     1
102
RTVSPropertyOp12
 70
     1
102
RTVSPropertyOp13
 70
     1
102
RTVSPropertyOp14
 70
     1
102
RTVSPropertyOp15
 70
     1
102
RTVSPropertyOp16
 70
     1
102
RTVSPropertyOp17
 70
     1
102
RTVSPropertyOp18
 70
     1
102
RTVSPropertyOp19
 70
     1
102
RTVSPropertyOp20
 70
     1
102
RTVSPropertyOp21
 70
     1
102
RTVSPropertyOp22
 70
     1
102
RTVSPropertyOp23
 70
     1
102
RTVSPropertyOp24
 70
     1
102
RTVSPropertyOp25
 70
     1
102
RTVSPropertyOp26
 70
     1
102
RTVSPropertyOp27
 70
     1
102
RTVSPropertyOp28
 70
     1
102
RTVSPropertyOp29
 70
     1
102
RTVSPropertyOp30
 70
     1
102
RTVSPropertyOp31
 70
     1
102
RTVSPropertyOp32
 70
     1
102
RTVSPropertyOp33
 70
     1
102
RTVSPropertyOp34
 70
     1
102
RTVSPropertyOp35
 70
     1
102
RTVSPropertyOp36
 70
     1
102
RTVSPropertyOp37
 70
     1
102
RTVSPropertyOp38
 70
     1
102
RTVSPropertyOp39
 70
     1
102
RTVSPropertyOp40
 70
     1
102
RTVSPropertyOp41
 70
     1
102
RTVSPropertyOp42
 70
     1
102
RTVSPropertyOp43
 70
     1
102
RTVSPropertyOp44
 70
     1
102
RTVSPropertyOp45
 70
     1
102
RTVSPropertyOp46
 70
     1
102
RTVSPropertyOp47
 70
     1
102
RTVSPropertyOp48
 70
     1
102
RTVSPropertyOp49
 70
     1
102
RTVSPropertyOp50
 70
     1
102
RTVSPropertyOp51
 70
     0
102
RTVSPropertyOp52
 70
     0
102
RTVSPropertyOp53
 70
     1
102
RTVSPropertyOp54
 70
     1
102
RTVSPropertyOp55
 70
     1
102
RTVSPropertyOp56
 70
     1
102
RTVSPropertyOp57
 70
     1
102
RTVSPost2010Prop28
280
     0
102
RTVSPost2010PropOp28
 70
     1
102
RTVSPost2010Prop29
280
     1
102
RTVSPost2010PropOp29
 70
     1
102
RTVSPost2010Prop30
280
     1
102
RTVSPost2010PropOp30
 70
     1
102
RTVSPost2010Prop31
280
     0
102
RTVSPost2010PropOp31
 70
     1
102
RTVSPost2010Prop32
280
     0
102
RTVSPost2010PropOp32
 70
     1
102
RTVSPost2010Prop33
280
     0
102
RTVSPost2010PropOp33
 70
     1
102
RTVSPost2010Prop34
280
     0
102
RTVSPost2010PropOp34
 70
     1
102
RTVSPost2010Prop35
280
     0
102
RTVSPost2010PropOp35
 70
     1
102
RTVSPost2010Prop36
280
     0
102
RTVSPost2010PropOp36
 70
     1
102
RTVSPost2010Prop37
 90
       50
102
RTVSPost2010PropOp37
 70
     1
102
RTVSPost2010Prop38
140
0.0
102
RTVSPost2010PropOp38
 70
     1
102
RTVSPost2010Prop39
140
1.0
102
RTVSPost2010PropOp39
 70
     1
102
RTVSPost2010Prop40
 90
        0
102
RTVSPost2010PropOp40
 70
     1
102
RTVSPost2010Prop41ColorIndex
 90
       18
102
RTVSPost2010Prop41ColorRGB
 90
        0
102
RTVSPost2010PropOp41
 70
     1
102
RTVSPost2010Prop42
 90
       50
102
RTVSPost2010PropOp42
 70
     1
102
RTVSPost2010Prop43
 90
        3
102
RTVSPost2010PropOp43
 70
     1
102
RTVSPost2010Prop44ColorIndex
 90
        5
102
RTVSPost2010Prop44ColorRGB
 90
      255
102
RTVSPost2010PropOp44
 70
     1
102
RTVSPost2010Prop45
280
     0
102
RTVSPost2010PropOp45
 70
     1
102
RTVSPost2010Prop46
 90
       50
102
RTVSPost2010PropOp46
 70
     1
102
RTVSPost2010Prop47
 90
       50
102
RTVSPost2010PropOp47
 70
     1
102
RTVSPost2010Prop48
 90
       50
102
RTVSPost2010PropOp48
 70
     1
102
RTVSPost2010Prop49
280
     0
102
RTVSPost2010PropOp49
 70
     1
102
RTVSPost2010Prop50
 90
       50
102
RTVSPost2010PropOp50
 70
     1
102
RTVSPost2010Prop51ColorIndex
 90
      256
102
RTVSPost2010Prop51ColorRGB
 90
-16777216
102
RTVSPost2010PropOp51
 70
     0
102
RTVSPost2010Prop52
140
1.0
102
RTVSPost2010PropOp52
 70
     0
102
RTVSPost2010Prop53
 90
        2
102
RTVSPost2010PropOp53
 70
     1
102
RTVSPost2010Prop54
  1
strokes_ogs.tif
102
RTVSPost2010PropOp54
 70
     1
102
RTVSPost2010Prop55
280
     0
102
RTVSPost2010PropOp55
 70
     1
102
RTVSPost2010Prop56
140
1.0
102
RTVSPost2010PropOp56
 70
     1
102
RTVSPost2010Prop57
140
1.0
102
RTVSPost2010PropOp57
 70
     1
  0
XRECORD
  5
204
102
{ACAD_REACTORS
330
203
102
}
330
203
100
AcDbXrecord
280
     1
102
RTVSPropertyOp0
 70
     1
102
RTVSPropertyOp1
 70
     1
102
RTVSPropertyOp2
 70
     1
102
RTVSPropertyOp3
 70
     1
102
RTVSPropertyOp4
 70
     1
102
RTVSPropertyOp5
 70
     1
102
RTVSPropertyOp6
 70
     1
102
RTVSPropertyOp7
 70
     1
102
RTVSPropertyOp8
 70
     1
102
RTVSPropertyOp9
 70
     1
102
RTVSPropertyOp10
 70
     1
102
RTVSPropertyOp11
 70
     1
102
RTVSPropertyOp12
 70
     1
102
RTVSPropertyOp13
 70
     1
102
RTVSPropertyOp14
 70
     1
102
RTVSPropertyOp15
 70
     1
102
RTVSPropertyOp16
 70
     1
102
RTVSPropertyOp17
 70
     1
102
RTVSPropertyOp18
 70
     1
102
RTVSPropertyOp19
 70
     1
102
RTVSPropertyOp20
 70
     1
102
RTVSPropertyOp21
 70
     1
102
RTVSPropertyOp22
 70
     1
102
RTVSPropertyOp23
 70
     1
102
RTVSPropertyOp24
 70
     1
102
RTVSPropertyOp25
 70
     1
102
RTVSPropertyOp26
 70
     1
102
RTVSPropertyOp27
 70
     1
102
RTVSPropertyOp28
 70
     1
102
RTVSPropertyOp29
 70
     1
102
RTVSPropertyOp30
 70
     1
102
RTVSPropertyOp31
 70
     1
102
RTVSPropertyOp32
 70
     1
102
RTVSPropertyOp33
 70
     1
102
RTVSPropertyOp34
 70
     1
102
RTVSPropertyOp35
 70
     1
102
RTVSPropertyOp36
 70
     1
102
RTVSPropertyOp37
 70
     1
102
RTVSPropertyOp38
 70
     1
102
RTVSPropertyOp39
 70
     1
102
RTVSPropertyOp40
 70
     1
102
RTVSPropertyOp41
 70
     1
102
RTVSPropertyOp42
 70
     1
102
RTVSPropertyOp43
 70
     1
102
RTVSPropertyOp44
 70
     1
102
RTVSPropertyOp45
 70
     1
102
RTVSPropertyOp46
 70
     1
102
RTVSPropertyOp47
 70
     1
102
RTVSPropertyOp48
 70
     1
102
RTVSPropertyOp49
 70
     1
102
RTVSPropertyOp50
 70
     1
102
RTVSPropertyOp51
 70
     0
102
RTVSPropertyOp52
 70
     0
102
RTVSPropertyOp53
 70
     1
102
RTVSPropertyOp54
 70
     1
102
RTVSPropertyOp55
 70
     1
102
RTVSPropertyOp56
 70
     1
102
RTVSPropertyOp57
 70
     1
102
RTVSPost2010Prop28
280
     0
102
RTVSPost2010PropOp28
 70
     1
102
RTVSPost2010Prop29
280
     1
102
RTVSPost2010PropOp29
 70
     1
102
RTVSPost2010Prop30
280
     1
102
RTVSPost2010PropOp30
 70
     1
102
RTVSPost2010Prop31
280
     0
102
RTVSPost2010PropOp31
 70
     1
102
RTVSPost2010Prop32
280
     0
102
RTVSPost2010PropOp32
 70
     1
102
RTVSPost2010Prop33
280
     0
102
RTVSPost2010PropOp33
 70
     1
102
RTVSPost2010Prop34
280
     0
102
RTVSPost2010PropOp34
 70
     1
102
RTVSPost2010Prop35
280
     0
102
RTVSPost2010PropOp35
 70
     1
102
RTVSPost2010Prop36
280
     0
102
RTVSPost2010PropOp36
 70
     1
102
RTVSPost2010Prop37
 90
       50
102
RTVSPost2010PropOp37
 70
     1
102
RTVSPost2010Prop38
140
0.0
102
RTVSPost2010PropOp38
 70
     1
102
RTVSPost2010Prop39
140
1.0
102
RTVSPost2010PropOp39
 70
     1
102
RTVSPost2010Prop40
 90
        0
102
RTVSPost2010PropOp40
 70
     1
102
RTVSPost2010Prop41ColorIndex
 90
       18
102
RTVSPost2010Prop41ColorRGB
 90
        0
102
RTVSPost2010PropOp41
 70
     1
102
RTVSPost2010Prop42
 90
       50
102
RTVSPost2010PropOp42
 70
     1
102
RTVSPost2010Prop43
 90
        3
102
RTVSPost2010PropOp43
 70
     1
102
RTVSPost2010Prop44ColorIndex
 90
        5
102
RTVSPost2010Prop44ColorRGB
 90
      255
102
RTVSPost2010PropOp44
 70
     1
102
RTVSPost2010Prop45
280
     0
102
RTVSPost2010PropOp45
 70
     1
102
RTVSPost2010Prop46
 90
       50
102
RTVSPost2010PropOp46
 70
     1
102
RTVSPost2010Prop47
 90
       50
102
RTVSPost2010PropOp47
 70
     1
102
RTVSPost2010Prop48
 90
       50
102
RTVSPost2010PropOp48
 70
     1
102
RTVSPost2010Prop49
280
     0
102
RTVSPost2010PropOp49
 70
     1
102
RTVSPost2010Prop50
 90
       50
102
RTVSPost2010PropOp50
 70
     1
102
RTVSPost2010Prop51ColorIndex
 90
      256
102
RTVSPost2010Prop51ColorRGB
 90
-16777216
102
RTVSPost2010PropOp51
 70
     0
102
RTVSPost2010Prop52
140
1.0
102
RTVSPost2010PropOp52
 70
     0
102
RTVSPost2010Prop53
 90
        2
102
RTVSPost2010PropOp53
 70
     1
102
RTVSPost2010Prop54
  1
strokes_ogs.tif
102
RTVSPost2010PropOp54
 70
     1
102
RTVSPost2010Prop55
280
     0
102
RTVSPost2010PropOp55
 70
     1
102
RTVSPost2010Prop56
140
1.0
102
RTVSPost2010PropOp56
 70
     1
102
RTVSPost2010Prop57
140
1.0
102
RTVSPost2010PropOp57
 70
     1
  0
XRECORD
  5
1F8
102
{ACAD_REACTORS
330
1F7
102
}
330
1F7
100
AcDbXrecord
280
     1
102
RTVSPropertyOp0
 70
     1
102
RTVSPropertyOp1
 70
     1
102
RTVSPropertyOp2
 70
     1
102
RTVSPropertyOp3
 70
     1
102
RTVSPropertyOp4
 70
     1
102
RTVSPropertyOp5
 70
     1
102
RTVSPropertyOp6
 70
     1
102
RTVSPropertyOp7
 70
     1
102
RTVSPropertyOp8
 70
     1
102
RTVSPropertyOp9
 70
     1
102
RTVSPropertyOp10
 70
     1
102
RTVSPropertyOp11
 70
     1
102
RTVSPropertyOp12
 70
     1
102
RTVSPropertyOp13
 70
     1
102
RTVSPropertyOp14
 70
     1
102
RTVSPropertyOp15
 70
     1
102
RTVSPropertyOp16
 70
     1
102
RTVSPropertyOp17
 70
     1
102
RTVSPropertyOp18
 70
     1
102
RTVSPropertyOp19
 70
     1
102
RTVSPropertyOp20
 70
     1
102
RTVSPropertyOp21
 70
     1
102
RTVSPropertyOp22
 70
     1
102
RTVSPropertyOp23
 70
     1
102
RTVSPropertyOp24
 70
     1
102
RTVSPropertyOp25
 70
     1
102
RTVSPropertyOp26
 70
     1
102
RTVSPropertyOp27
 70
     1
102
RTVSPropertyOp28
 70
     1
102
RTVSPropertyOp29
 70
     1
102
RTVSPropertyOp30
 70
     1
102
RTVSPropertyOp31
 70
     1
102
RTVSPropertyOp32
 70
     1
102
RTVSPropertyOp33
 70
     1
102
RTVSPropertyOp34
 70
     1
102
RTVSPropertyOp35
 70
     1
102
RTVSPropertyOp36
 70
     1
102
RTVSPropertyOp37
 70
     1
102
RTVSPropertyOp38
 70
     1
102
RTVSPropertyOp39
 70
     1
102
RTVSPropertyOp40
 70
     1
102
RTVSPropertyOp41
 70
     1
102
RTVSPropertyOp42
 70
     1
102
RTVSPropertyOp43
 70
     1
102
RTVSPropertyOp44
 70
     1
102
RTVSPropertyOp45
 70
     1
102
RTVSPropertyOp46
 70
     1
102
RTVSPropertyOp47
 70
     1
102
RTVSPropertyOp48
 70
     1
102
RTVSPropertyOp49
 70
     1
102
RTVSPropertyOp50
 70
     1
102
RTVSPropertyOp51
 70
     0
102
RTVSPropertyOp52
 70
     0
102
RTVSPropertyOp53
 70
     1
102
RTVSPropertyOp54
 70
     1
102
RTVSPropertyOp55
 70
     1
102
RTVSPropertyOp56
 70
     1
102
RTVSPropertyOp57
 70
     1
102
RTVSPost2010Prop28
280
     0
102
RTVSPost2010PropOp28
 70
     1
102
RTVSPost2010Prop29
280
     1
102
RTVSPost2010PropOp29
 70
     1
102
RTVSPost2010Prop30
280
     1
102
RTVSPost2010PropOp30
 70
     1
102
RTVSPost2010Prop31
280
     0
102
RTVSPost2010PropOp31
 70
     1
102
RTVSPost2010Prop32
280
     0
102
RTVSPost2010PropOp32
 70
     1
102
RTVSPost2010Prop33
280
     0
102
RTVSPost2010PropOp33
 70
     1
102
RTVSPost2010Prop34
280
     0
102
RTVSPost2010PropOp34
 70
     1
102
RTVSPost2010Prop35
280
     0
102
RTVSPost2010PropOp35
 70
     1
102
RTVSPost2010Prop36
280
     0
102
RTVSPost2010PropOp36
 70
     1
102
RTVSPost2010Prop37
 90
       50
102
RTVSPost2010PropOp37
 70
     1
102
RTVSPost2010Prop38
140
0.0
102
RTVSPost2010PropOp38
 70
     1
102
RTVSPost2010Prop39
140
1.0
102
RTVSPost2010PropOp39
 70
     1
102
RTVSPost2010Prop40
 90
        0
102
RTVSPost2010PropOp40
 70
     1
102
RTVSPost2010Prop41ColorIndex
 90
       18
102
RTVSPost2010Prop41ColorRGB
 90
        0
102
RTVSPost2010PropOp41
 70
     1
102
RTVSPost2010Prop42
 90
       50
102
RTVSPost2010PropOp42
 70
     1
102
RTVSPost2010Prop43
 90
        3
102
RTVSPost2010PropOp43
 70
     1
102
RTVSPost2010Prop44ColorIndex
 90
        5
102
RTVSPost2010Prop44ColorRGB
 90
      255
102
RTVSPost2010PropOp44
 70
     1
102
RTVSPost2010Prop45
280
     0
102
RTVSPost2010PropOp45
 70
     1
102
RTVSPost2010Prop46
 90
       50
102
RTVSPost2010PropOp46
 70
     1
102
RTVSPost2010Prop47
 90
       50
102
RTVSPost2010PropOp47
 70
     1
102
RTVSPost2010Prop48
 90
       50
102
RTVSPost2010PropOp48
 70
     1
102
RTVSPost2010Prop49
280
     0
102
RTVSPost2010PropOp49
 70
     1
102
RTVSPost2010Prop50
 90
       50
102
RTVSPost2010PropOp50
 70
     1
102
RTVSPost2010Prop51ColorIndex
 90
      256
102
RTVSPost2010Prop51ColorRGB
 90
-16777216
102
RTVSPost2010PropOp51
 70
     0
102
RTVSPost2010Prop52
140
1.0
102
RTVSPost2010PropOp52
 70
     0
102
RTVSPost2010Prop53
 90
        2
102
RTVSPost2010PropOp53
 70
     1
102
RTVSPost2010Prop54
  1
strokes_ogs.tif
102
RTVSPost2010PropOp54
 70
     1
102
RTVSPost2010Prop55
280
     0
102
RTVSPost2010PropOp55
 70
     1
102
RTVSPost2010Prop56
140
1.0
102
RTVSPost2010PropOp56
 70
     1
102
RTVSPost2010Prop57
140
1.0
102
RTVSPost2010PropOp57
 70
     1
  0
XRECORD
  5
1FA
102
{ACAD_REACTORS
330
1F9
102
}
330
1F9
100
AcDbXrecord
280
     1
102
RTVSPropertyOp0
 70
     1
102
RTVSPropertyOp1
 70
     1
102
RTVSPropertyOp2
 70
     1
102
RTVSPropertyOp3
 70
     1
102
RTVSPropertyOp4
 70
     1
102
RTVSPropertyOp5
 70
     1
102
RTVSPropertyOp6
 70
     1
102
RTVSPropertyOp7
 70
     1
102
RTVSPropertyOp8
 70
     1
102
RTVSPropertyOp9
 70
     1
102
RTVSPropertyOp10
 70
     1
102
RTVSPropertyOp11
 70
     1
102
RTVSPropertyOp12
 70
     1
102
RTVSPropertyOp13
 70
     1
102
RTVSPropertyOp14
 70
     1
102
RTVSPropertyOp15
 70
     1
102
RTVSPropertyOp16
 70
     1
102
RTVSPropertyOp17
 70
     1
102
RTVSPropertyOp18
 70
     1
102
RTVSPropertyOp19
 70
     1
102
RTVSPropertyOp20
 70
     1
102
RTVSPropertyOp21
 70
     1
102
RTVSPropertyOp22
 70
     1
102
RTVSPropertyOp23
 70
     1
102
RTVSPropertyOp24
 70
     1
102
RTVSPropertyOp25
 70
     1
102
RTVSPropertyOp26
 70
     1
102
RTVSPropertyOp27
 70
     1
102
RTVSPropertyOp28
 70
     1
102
RTVSPropertyOp29
 70
     1
102
RTVSPropertyOp30
 70
     1
102
RTVSPropertyOp31
 70
     1
102
RTVSPropertyOp32
 70
     1
102
RTVSPropertyOp33
 70
     1
102
RTVSPropertyOp34
 70
     1
102
RTVSPropertyOp35
 70
     1
102
RTVSPropertyOp36
 70
     1
102
RTVSPropertyOp37
 70
     1
102
RTVSPropertyOp38
 70
     1
102
RTVSPropertyOp39
 70
     1
102
RTVSPropertyOp40
 70
     1
102
RTVSPropertyOp41
 70
     1
102
RTVSPropertyOp42
 70
     1
102
RTVSPropertyOp43
 70
     1
102
RTVSPropertyOp44
 70
     1
102
RTVSPropertyOp45
 70
     1
102
RTVSPropertyOp46
 70
     1
102
RTVSPropertyOp47
 70
     1
102
RTVSPropertyOp48
 70
     1
102
RTVSPropertyOp49
 70
     1
102
RTVSPropertyOp50
 70
     1
102
RTVSPropertyOp51
 70
     0
102
RTVSPropertyOp52
 70
     0
102
RTVSPropertyOp53
 70
     1
102
RTVSPropertyOp54
 70
     1
102
RTVSPropertyOp55
 70
     1
102
RTVSPropertyOp56
 70
     1
102
RTVSPropertyOp57
 70
     1
102
RTVSPost2010Prop28
280
     0
102
RTVSPost2010PropOp28
 70
     1
102
RTVSPost2010Prop29
280
     1
102
RTVSPost2010PropOp29
 70
     1
102
RTVSPost2010Prop30
280
     1
102
RTVSPost2010PropOp30
 70
     1
102
RTVSPost2010Prop31
280
     0
102
RTVSPost2010PropOp31
 70
     1
102
RTVSPost2010Prop32
280
     0
102
RTVSPost2010PropOp32
 70
     1
102
RTVSPost2010Prop33
280
     0
102
RTVSPost2010PropOp33
 70
     1
102
RTVSPost2010Prop34
280
     0
102
RTVSPost2010PropOp34
 70
     1
102
RTVSPost2010Prop35
280
     0
102
RTVSPost2010PropOp35
 70
     1
102
RTVSPost2010Prop36
280
     0
102
RTVSPost2010PropOp36
 70
     1
102
RTVSPost2010Prop37
 90
       50
102
RTVSPost2010PropOp37
 70
     1
102
RTVSPost2010Prop38
140
0.0
102
RTVSPost2010PropOp38
 70
     1
102
RTVSPost2010Prop39
140
1.0
102
RTVSPost2010PropOp39
 70
     1
102
RTVSPost2010Prop40
 90
        0
102
RTVSPost2010PropOp40
 70
     1
102
RTVSPost2010Prop41ColorIndex
 90
       18
102
RTVSPost2010Prop41ColorRGB
 90
        0
102
RTVSPost2010PropOp41
 70
     1
102
RTVSPost2010Prop42
 90
       50
102
RTVSPost2010PropOp42
 70
     1
102
RTVSPost2010Prop43
 90
        3
102
RTVSPost2010PropOp43
 70
     1
102
RTVSPost2010Prop44ColorIndex
 90
        5
102
RTVSPost2010Prop44ColorRGB
 90
      255
102
RTVSPost2010PropOp44
 70
     1
102
RTVSPost2010Prop45
280
     0
102
RTVSPost2010PropOp45
 70
     1
102
RTVSPost2010Prop46
 90
       50
102
RTVSPost2010PropOp46
 70
     1
102
RTVSPost2010Prop47
 90
       50
102
RTVSPost2010PropOp47
 70
     1
102
RTVSPost2010Prop48
 90
       50
102
RTVSPost2010PropOp48
 70
     1
102
RTVSPost2010Prop49
280
     0
102
RTVSPost2010PropOp49
 70
     1
102
RTVSPost2010Prop50
 90
       50
102
RTVSPost2010PropOp50
 70
     1
102
RTVSPost2010Prop51ColorIndex
 90
      256
102
RTVSPost2010Prop51ColorRGB
 90
-16777216
102
RTVSPost2010PropOp51
 70
     0
102
RTVSPost2010Prop52
140
1.0
102
RTVSPost2010PropOp52
 70
     0
102
RTVSPost2010Prop53
 90
        2
102
RTVSPost2010PropOp53
 70
     1
102
RTVSPost2010Prop54
  1
strokes_ogs.tif
102
RTVSPost2010PropOp54
 70
     1
102
RTVSPost2010Prop55
280
     0
102
RTVSPost2010PropOp55
 70
     1
102
RTVSPost2010Prop56
140
1.0
102
RTVSPost2010PropOp56
 70
     1
102
RTVSPost2010Prop57
140
1.0
102
RTVSPost2010PropOp57
 70
     1
  0
XRECORD
  5
20A
102
{ACAD_REACTORS
330
209
102
}
330
209
100
AcDbXrecord
280
     1
102
RTVSPropertyOp0
 70
     0
102
RTVSPropertyOp1
 70
     0
102
RTVSPropertyOp2
 70
     0
102
RTVSPropertyOp3
 70
     0
102
RTVSPropertyOp4
 70
     0
102
RTVSPropertyOp5
 70
     0
102
RTVSPropertyOp6
 70
     0
102
RTVSPropertyOp7
 70
     0
102
RTVSPropertyOp8
 70
     0
102
RTVSPropertyOp9
 70
     0
102
RTVSPropertyOp10
 70
     0
102
RTVSPropertyOp11
 70
     0
102
RTVSPropertyOp12
 70
     0
102
RTVSPropertyOp13
 70
     0
102
RTVSPropertyOp14
 70
     2
102
RTVSPropertyOp15
 70
     0
102
RTVSPropertyOp16
 70
     0
102
RTVSPropertyOp17
 70
     0
102
RTVSPropertyOp18
 70
     0
102
RTVSPropertyOp19
 70
     0
102
RTVSPropertyOp20
 70
     0
102
RTVSPropertyOp21
 70
     0
102
RTVSPropertyOp22
 70
     0
102
RTVSPropertyOp23
 70
     0
102
RTVSPropertyOp24
 70
     0
102
RTVSPropertyOp25
 70
     0
102
RTVSPropertyOp26
 70
     0
102
RTVSPropertyOp27
 70
     0
102
RTVSPropertyOp28
 70
     0
102
RTVSPropertyOp29
 70
     0
102
RTVSPropertyOp30
 70
     0
102
RTVSPropertyOp31
 70
     0
102
RTVSPropertyOp32
 70
     0
102
RTVSPropertyOp33
 70
     0
102
RTVSPropertyOp34
 70
     0
102
RTVSPropertyOp35
 70
     0
102
RTVSPropertyOp36
 70
     0
102
RTVSPropertyOp37
 70
     0
102
RTVSPropertyOp38
 70
     0
102
RTVSPropertyOp39
 70
     0
102
RTVSPropertyOp40
 70
     0
102
RTVSPropertyOp41
 70
     0
102
RTVSPropertyOp42
 70
     0
102
RTVSPropertyOp43
 70
     0
102
RTVSPropertyOp44
 70
     0
102
RTVSPropertyOp45
 70
     0
102
RTVSPropertyOp46
 70
     0
102
RTVSPropertyOp47
 70
     0
102
RTVSPropertyOp48
 70
     0
102
RTVSPropertyOp49
 70
     0
102
RTVSPropertyOp50
 70
     0
102
RTVSPropertyOp51
 70
     0
102
RTVSPropertyOp52
 70
     0
102
RTVSPropertyOp53
 70
     0
102
RTVSPropertyOp54
 70
     0
102
RTVSPropertyOp55
 70
     0
102
RTVSPropertyOp56
 70
     0
102
RTVSPropertyOp57
 70
     0
102
RTVSPost2010Prop28
280
     0
102
RTVSPost2010PropOp28
 70
     0
102
RTVSPost2010Prop29
280
     1
102
RTVSPost2010PropOp29
 70
     0
102
RTVSPost2010Prop30
280
     1
102
RTVSPost2010PropOp30
 70
     0
102
RTVSPost2010Prop31
280
     0
102
RTVSPost2010PropOp31
 70
     0
102
RTVSPost2010Prop32
280
     0
102
RTVSPost2010PropOp32
 70
     0
102
RTVSPost2010Prop33
280
     0
102
RTVSPost2010PropOp33
 70
     0
102
RTVSPost2010Prop34
280
     0
102
RTVSPost2010PropOp34
 70
     0
102
RTVSPost2010Prop35
280
     0
102
RTVSPost2010PropOp35
 70
     0
102
RTVSPost2010Prop36
280
     0
102
RTVSPost2010PropOp36
 70
     0
102
RTVSPost2010Prop37
 90
       50
102
RTVSPost2010PropOp37
 70
     0
102
RTVSPost2010Prop38
140
0.0
102
RTVSPost2010PropOp38
 70
     0
102
RTVSPost2010Prop39
140
1.0
102
RTVSPost2010PropOp39
 70
     0
102
RTVSPost2010Prop40
 90
        0
102
RTVSPost2010PropOp40
 70
     0
102
RTVSPost2010Prop41ColorIndex
 90
       18
102
RTVSPost2010Prop41ColorRGB
 90
        0
102
RTVSPost2010PropOp41
 70
     0
102
RTVSPost2010Prop42
 90
       50
102
RTVSPost2010PropOp42
 70
     0
102
RTVSPost2010Prop43
 90
        3
102
RTVSPost2010PropOp43
 70
     0
102
RTVSPost2010Prop44ColorIndex
 90
        5
102
RTVSPost2010Prop44ColorRGB
 90
      255
102
RTVSPost2010PropOp44
 70
     0
102
RTVSPost2010Prop45
280
     0
102
RTVSPost2010PropOp45
 70
     0
102
RTVSPost2010Prop46
 90
       50
102
RTVSPost2010PropOp46
 70
     0
102
RTVSPost2010Prop47
 90
       50
102
RTVSPost2010PropOp47
 70
     0
102
RTVSPost2010Prop48
 90
       50
102
RTVSPost2010PropOp48
 70
     0
102
RTVSPost2010Prop49
280
     0
102
RTVSPost2010PropOp49
 70
     0
102
RTVSPost2010Prop50
 90
       50
102
RTVSPost2010PropOp50
 70
     0
102
RTVSPost2010Prop51ColorIndex
 90
      256
102
RTVSPost2010Prop51ColorRGB
 90
-16777216
102
RTVSPost2010PropOp51
 70
     0
102
RTVSPost2010Prop52
140
1.0
102
RTVSPost2010PropOp52
 70
     0
102
RTVSPost2010Prop53
 90
        2
102
RTVSPost2010PropOp53
 70
     0
102
RTVSPost2010Prop54
  1
strokes_ogs.tif
102
RTVSPost2010PropOp54
 70
     0
102
RTVSPost2010Prop55
280
     0
102
RTVSPost2010PropOp55
 70
     0
102
RTVSPost2010Prop56
140
1.0
102
RTVSPost2010PropOp56
 70
     0
102
RTVSPost2010Prop57
140
1.0
102
RTVSPost2010PropOp57
 70
     0
  0
XRECORD
  5
202
102
{ACAD_REACTORS
330
201
102
}
330
201
100
AcDbXrecord
280
     1
102
RTVSPropertyOp0
 70
     1
102
RTVSPropertyOp1
 70
     1
102
RTVSPropertyOp2
 70
     1
102
RTVSPropertyOp3
 70
     1
102
RTVSPropertyOp4
 70
     1
102
RTVSPropertyOp5
 70
     1
102
RTVSPropertyOp6
 70
     1
102
RTVSPropertyOp7
 70
     1
102
RTVSPropertyOp8
 70
     1
102
RTVSPropertyOp9
 70
     1
102
RTVSPropertyOp10
 70
     1
102
RTVSPropertyOp11
 70
     1
102
RTVSPropertyOp12
 70
     1
102
RTVSPropertyOp13
 70
     1
102
RTVSPropertyOp14
 70
     1
102
RTVSPropertyOp15
 70
     1
102
RTVSPropertyOp16
 70
     1
102
RTVSPropertyOp17
 70
     1
102
RTVSPropertyOp18
 70
     1
102
RTVSPropertyOp19
 70
     1
102
RTVSPropertyOp20
 70
     1
102
RTVSPropertyOp21
 70
     1
102
RTVSPropertyOp22
 70
     1
102
RTVSPropertyOp23
 70
     1
102
RTVSPropertyOp24
 70
     1
102
RTVSPropertyOp25
 70
     1
102
RTVSPropertyOp26
 70
     1
102
RTVSPropertyOp27
 70
     1
102
RTVSPropertyOp28
 70
     1
102
RTVSPropertyOp29
 70
     1
102
RTVSPropertyOp30
 70
     1
102
RTVSPropertyOp31
 70
     1
102
RTVSPropertyOp32
 70
     1
102
RTVSPropertyOp33
 70
     1
102
RTVSPropertyOp34
 70
     1
102
RTVSPropertyOp35
 70
     1
102
RTVSPropertyOp36
 70
     1
102
RTVSPropertyOp37
 70
     1
102
RTVSPropertyOp38
 70
     1
102
RTVSPropertyOp39
 70
     1
102
RTVSPropertyOp40
 70
     1
102
RTVSPropertyOp41
 70
     1
102
RTVSPropertyOp42
 70
     1
102
RTVSPropertyOp43
 70
     1
102
RTVSPropertyOp44
 70
     1
102
RTVSPropertyOp45
 70
     1
102
RTVSPropertyOp46
 70
     1
102
RTVSPropertyOp47
 70
     1
102
RTVSPropertyOp48
 70
     1
102
RTVSPropertyOp49
 70
     1
102
RTVSPropertyOp50
 70
     1
102
RTVSPropertyOp51
 70
     0
102
RTVSPropertyOp52
 70
     0
102
RTVSPropertyOp53
 70
     1
102
RTVSPropertyOp54
 70
     1
102
RTVSPropertyOp55
 70
     1
102
RTVSPropertyOp56
 70
     1
102
RTVSPropertyOp57
 70
     1
102
RTVSPost2010Prop28
280
     0
102
RTVSPost2010PropOp28
 70
     1
102
RTVSPost2010Prop29
280
     1
102
RTVSPost2010PropOp29
 70
     1
102
RTVSPost2010Prop30
280
     1
102
RTVSPost2010PropOp30
 70
     1
102
RTVSPost2010Prop31
280
     0
102
RTVSPost2010PropOp31
 70
     1
102
RTVSPost2010Prop32
280
     0
102
RTVSPost2010PropOp32
 70
     1
102
RTVSPost2010Prop33
280
     0
102
RTVSPost2010PropOp33
 70
     1
102
RTVSPost2010Prop34
280
     0
102
RTVSPost2010PropOp34
 70
     1
102
RTVSPost2010Prop35
280
     0
102
RTVSPost2010PropOp35
 70
     1
102
RTVSPost2010Prop36
280
     0
102
RTVSPost2010PropOp36
 70
     1
102
RTVSPost2010Prop37
 90
       50
102
RTVSPost2010PropOp37
 70
     1
102
RTVSPost2010Prop38
140
0.0
102
RTVSPost2010PropOp38
 70
     1
102
RTVSPost2010Prop39
140
1.0
102
RTVSPost2010PropOp39
 70
     1
102
RTVSPost2010Prop40
 90
        0
102
RTVSPost2010PropOp40
 70
     1
102
RTVSPost2010Prop41ColorIndex
 90
       18
102
RTVSPost2010Prop41ColorRGB
 90
        0
102
RTVSPost2010PropOp41
 70
     1
102
RTVSPost2010Prop42
 90
       50
102
RTVSPost2010PropOp42
 70
     1
102
RTVSPost2010Prop43
 90
        3
102
RTVSPost2010PropOp43
 70
     1
102
RTVSPost2010Prop44ColorIndex
 90
        5
102
RTVSPost2010Prop44ColorRGB
 90
      255
102
RTVSPost2010PropOp44
 70
     1
102
RTVSPost2010Prop45
280
     0
102
RTVSPost2010PropOp45
 70
     1
102
RTVSPost2010Prop46
 90
       50
102
RTVSPost2010PropOp46
 70
     1
102
RTVSPost2010Prop47
 90
       50
102
RTVSPost2010PropOp47
 70
     1
102
RTVSPost2010Prop48
 90
       50
102
RTVSPost2010PropOp48
 70
     1
102
RTVSPost2010Prop49
280
     0
102
RTVSPost2010PropOp49
 70
     1
102
RTVSPost2010Prop50
 90
       50
102
RTVSPost2010PropOp50
 70
     1
102
RTVSPost2010Prop51ColorIndex
 90
      256
102
RTVSPost2010Prop51ColorRGB
 90
-16777216
102
RTVSPost2010PropOp51
 70
     0
102
RTVSPost2010Prop52
140
1.0
102
RTVSPost2010PropOp52
 70
     0
102
RTVSPost2010Prop53
 90
        2
102
RTVSPost2010PropOp53
 70
     1
102
RTVSPost2010Prop54
  1
strokes_ogs.tif
102
RTVSPost2010PropOp54
 70
     1
102
RTVSPost2010Prop55
280
     0
102
RTVSPost2010PropOp55
 70
     1
102
RTVSPost2010Prop56
140
1.0
102
RTVSPost2010PropOp56
 70
     1
102
RTVSPost2010Prop57
140
1.0
102
RTVSPost2010PropOp57
 70
     1
  0
XRECORD
  5
1E6
102
{ACAD_REACTORS
330
1E5
102
}
330
1E5
100
AcDbXrecord
280
     1
102
RTVSPropertyOp0
 70
     1
102
RTVSPropertyOp1
 70
     1
102
RTVSPropertyOp2
 70
     1
102
RTVSPropertyOp3
 70
     1
102
RTVSPropertyOp4
 70
     1
102
RTVSPropertyOp5
 70
     1
102
RTVSPropertyOp6
 70
     1
102
RTVSPropertyOp7
 70
     1
102
RTVSPropertyOp8
 70
     1
102
RTVSPropertyOp9
 70
     1
102
RTVSPropertyOp10
 70
     1
102
RTVSPropertyOp11
 70
     1
102
RTVSPropertyOp12
 70
     1
102
RTVSPropertyOp13
 70
     1
102
RTVSPropertyOp14
 70
     1
102
RTVSPropertyOp15
 70
     1
102
RTVSPropertyOp16
 70
     1
102
RTVSPropertyOp17
 70
     1
102
RTVSPropertyOp18
 70
     1
102
RTVSPropertyOp19
 70
     1
102
RTVSPropertyOp20
 70
     1
102
RTVSPropertyOp21
 70
     1
102
RTVSPropertyOp22
 70
     1
102
RTVSPropertyOp23
 70
     1
102
RTVSPropertyOp24
 70
     1
102
RTVSPropertyOp25
 70
     1
102
RTVSPropertyOp26
 70
     1
102
RTVSPropertyOp27
 70
     1
102
RTVSPropertyOp28
 70
     1
102
RTVSPropertyOp29
 70
     1
102
RTVSPropertyOp30
 70
     1
102
RTVSPropertyOp31
 70
     1
102
RTVSPropertyOp32
 70
     1
102
RTVSPropertyOp33
 70
     1
102
RTVSPropertyOp34
 70
     1
102
RTVSPropertyOp35
 70
     1
102
RTVSPropertyOp36
 70
     1
102
RTVSPropertyOp37
 70
     1
102
RTVSPropertyOp38
 70
     1
102
RTVSPropertyOp39
 70
     1
102
RTVSPropertyOp40
 70
     1
102
RTVSPropertyOp41
 70
     1
102
RTVSPropertyOp42
 70
     1
102
RTVSPropertyOp43
 70
     1
102
RTVSPropertyOp44
 70
     1
102
RTVSPropertyOp45
 70
     1
102
RTVSPropertyOp46
 70
     1
102
RTVSPropertyOp47
 70
     1
102
RTVSPropertyOp48
 70
     1
102
RTVSPropertyOp49
 70
     1
102
RTVSPropertyOp50
 70
     1
102
RTVSPropertyOp51
 70
     0
102
RTVSPropertyOp52
 70
     0
102
RTVSPropertyOp53
 70
     1
102
RTVSPropertyOp54
 70
     1
102
RTVSPropertyOp55
 70
     1
102
RTVSPropertyOp56
 70
     1
102
RTVSPropertyOp57
 70
     1
102
RTVSPost2010Prop28
280
     0
102
RTVSPost2010PropOp28
 70
     1
102
RTVSPost2010Prop29
280
     1
102
RTVSPost2010PropOp29
 70
     1
102
RTVSPost2010Prop30
280
     1
102
RTVSPost2010PropOp30
 70
     1
102
RTVSPost2010Prop31
280
     0
102
RTVSPost2010PropOp31
 70
     1
102
RTVSPost2010Prop32
280
     0
102
RTVSPost2010PropOp32
 70
     1
102
RTVSPost2010Prop33
280
     0
102
RTVSPost2010PropOp33
 70
     1
102
RTVSPost2010Prop34
280
     0
102
RTVSPost2010PropOp34
 70
     1
102
RTVSPost2010Prop35
280
     0
102
RTVSPost2010PropOp35
 70
     1
102
RTVSPost2010Prop36
280
     0
102
RTVSPost2010PropOp36
 70
     1
102
RTVSPost2010Prop37
 90
       50
102
RTVSPost2010PropOp37
 70
     1
102
RTVSPost2010Prop38
140
0.0
102
RTVSPost2010PropOp38
 70
     1
102
RTVSPost2010Prop39
140
1.0
102
RTVSPost2010PropOp39
 70
     1
102
RTVSPost2010Prop40
 90
        0
102
RTVSPost2010PropOp40
 70
     1
102
RTVSPost2010Prop41ColorIndex
 90
       18
102
RTVSPost2010Prop41ColorRGB
 90
        0
102
RTVSPost2010PropOp41
 70
     1
102
RTVSPost2010Prop42
 90
       50
102
RTVSPost2010PropOp42
 70
     1
102
RTVSPost2010Prop43
 90
        3
102
RTVSPost2010PropOp43
 70
     1
102
RTVSPost2010Prop44ColorIndex
 90
        5
102
RTVSPost2010Prop44ColorRGB
 90
      255
102
RTVSPost2010PropOp44
 70
     1
102
RTVSPost2010Prop45
280
     0
102
RTVSPost2010PropOp45
 70
     1
102
RTVSPost2010Prop46
 90
       50
102
RTVSPost2010PropOp46
 70
     1
102
RTVSPost2010Prop47
 90
       50
102
RTVSPost2010PropOp47
 70
     1
102
RTVSPost2010Prop48
 90
       50
102
RTVSPost2010PropOp48
 70
     1
102
RTVSPost2010Prop49
280
     0
102
RTVSPost2010PropOp49
 70
     1
102
RTVSPost2010Prop50
 90
       50
102
RTVSPost2010PropOp50
 70
     1
102
RTVSPost2010Prop51ColorIndex
 90
      256
102
RTVSPost2010Prop51ColorRGB
 90
-16777216
102
RTVSPost2010PropOp51
 70
     0
102
RTVSPost2010Prop52
140
1.0
102
RTVSPost2010PropOp52
 70
     0
102
RTVSPost2010Prop53
 90
        2
102
RTVSPost2010PropOp53
 70
     1
102
RTVSPost2010Prop54
  1
strokes_ogs.tif
102
RTVSPost2010PropOp54
 70
     1
102
RTVSPost2010Prop55
280
     0
102
RTVSPost2010PropOp55
 70
     1
102
RTVSPost2010Prop56
140
1.0
102
RTVSPost2010PropOp56
 70
     1
102
RTVSPost2010Prop57
140
1.0
102
RTVSPost2010PropOp57
 70
     1
  0
XRECORD
  5
1E8
102
{ACAD_REACTORS
330
1E7
102
}
330
1E7
100
AcDbXrecord
280
     1
102
RTVSPropertyOp0
 70
     1
102
RTVSPropertyOp1
 70
     1
102
RTVSPropertyOp2
 70
     1
102
RTVSPropertyOp3
 70
     1
102
RTVSPropertyOp4
 70
     1
102
RTVSPropertyOp5
 70
     1
102
RTVSPropertyOp6
 70
     1
102
RTVSPropertyOp7
 70
     1
102
RTVSPropertyOp8
 70
     1
102
RTVSPropertyOp9
 70
     1
102
RTVSPropertyOp10
 70
     1
102
RTVSPropertyOp11
 70
     1
102
RTVSPropertyOp12
 70
     1
102
RTVSPropertyOp13
 70
     1
102
RTVSPropertyOp14
 70
     1
102
RTVSPropertyOp15
 70
     1
102
RTVSPropertyOp16
 70
     1
102
RTVSPropertyOp17
 70
     1
102
RTVSPropertyOp18
 70
     1
102
RTVSPropertyOp19
 70
     1
102
RTVSPropertyOp20
 70
     1
102
RTVSPropertyOp21
 70
     1
102
RTVSPropertyOp22
 70
     1
102
RTVSPropertyOp23
 70
     1
102
RTVSPropertyOp24
 70
     1
102
RTVSPropertyOp25
 70
     1
102
RTVSPropertyOp26
 70
     1
102
RTVSPropertyOp27
 70
     1
102
RTVSPropertyOp28
 70
     1
102
RTVSPropertyOp29
 70
     1
102
RTVSPropertyOp30
 70
     1
102
RTVSPropertyOp31
 70
     1
102
RTVSPropertyOp32
 70
     1
102
RTVSPropertyOp33
 70
     1
102
RTVSPropertyOp34
 70
     1
102
RTVSPropertyOp35
 70
     1
102
RTVSPropertyOp36
 70
     1
102
RTVSPropertyOp37
 70
     1
102
RTVSPropertyOp38
 70
     1
102
RTVSPropertyOp39
 70
     1
102
RTVSPropertyOp40
 70
     1
102
RTVSPropertyOp41
 70
     1
102
RTVSPropertyOp42
 70
     1
102
RTVSPropertyOp43
 70
     1
102
RTVSPropertyOp44
 70
     1
102
RTVSPropertyOp45
 70
     1
102
RTVSPropertyOp46
 70
     1
102
RTVSPropertyOp47
 70
     1
102
RTVSPropertyOp48
 70
     1
102
RTVSPropertyOp49
 70
     1
102
RTVSPropertyOp50
 70
     1
102
RTVSPropertyOp51
 70
     0
102
RTVSPropertyOp52
 70
     0
102
RTVSPropertyOp53
 70
     1
102
RTVSPropertyOp54
 70
     1
102
RTVSPropertyOp55
 70
     1
102
RTVSPropertyOp56
 70
     1
102
RTVSPropertyOp57
 70
     1
102
RTVSPost2010Prop28
280
     0
102
RTVSPost2010PropOp28
 70
     1
102
RTVSPost2010Prop29
280
     1
102
RTVSPost2010PropOp29
 70
     1
102
RTVSPost2010Prop30
280
     1
102
RTVSPost2010PropOp30
 70
     1
102
RTVSPost2010Prop31
280
     0
102
RTVSPost2010PropOp31
 70
     1
102
RTVSPost2010Prop32
280
     0
102
RTVSPost2010PropOp32
 70
     1
102
RTVSPost2010Prop33
280
     0
102
RTVSPost2010PropOp33
 70
     1
102
RTVSPost2010Prop34
280
     0
102
RTVSPost2010PropOp34
 70
     1
102
RTVSPost2010Prop35
280
     0
102
RTVSPost2010PropOp35
 70
     1
102
RTVSPost2010Prop36
280
     0
102
RTVSPost2010PropOp36
 70
     1
102
RTVSPost2010Prop37
 90
       50
102
RTVSPost2010PropOp37
 70
     1
102
RTVSPost2010Prop38
140
0.0
102
RTVSPost2010PropOp38
 70
     1
102
RTVSPost2010Prop39
140
1.0
102
RTVSPost2010PropOp39
 70
     1
102
RTVSPost2010Prop40
 90
        0
102
RTVSPost2010PropOp40
 70
     1
102
RTVSPost2010Prop41ColorIndex
 90
       18
102
RTVSPost2010Prop41ColorRGB
 90
        0
102
RTVSPost2010PropOp41
 70
     1
102
RTVSPost2010Prop42
 90
       50
102
RTVSPost2010PropOp42
 70
     1
102
RTVSPost2010Prop43
 90
        3
102
RTVSPost2010PropOp43
 70
     1
102
RTVSPost2010Prop44ColorIndex
 90
        5
102
RTVSPost2010Prop44ColorRGB
 90
      255
102
RTVSPost2010PropOp44
 70
     1
102
RTVSPost2010Prop45
280
     0
102
RTVSPost2010PropOp45
 70
     1
102
RTVSPost2010Prop46
 90
       50
102
RTVSPost2010PropOp46
 70
     1
102
RTVSPost2010Prop47
 90
       50
102
RTVSPost2010PropOp47
 70
     1
102
RTVSPost2010Prop48
 90
       50
102
RTVSPost2010PropOp48
 70
     1
102
RTVSPost2010Prop49
280
     0
102
RTVSPost2010PropOp49
 70
     1
102
RTVSPost2010Prop50
 90
       50
102
RTVSPost2010PropOp50
 70
     1
102
RTVSPost2010Prop51ColorIndex
 90
      256
102
RTVSPost2010Prop51ColorRGB
 90
-16777216
102
RTVSPost2010PropOp51
 70
     0
102
RTVSPost2010Prop52
140
1.0
102
RTVSPost2010PropOp52
 70
     0
102
RTVSPost2010Prop53
 90
        2
102
RTVSPost2010PropOp53
 70
     1
102
RTVSPost2010Prop54
  1
strokes_ogs.tif
102
RTVSPost2010PropOp54
 70
     1
102
RTVSPost2010Prop55
280
     0
102
RTVSPost2010PropOp55
 70
     1
102
RTVSPost2010Prop56
140
1.0
102
RTVSPost2010PropOp56
 70
     1
102
RTVSPost2010Prop57
140
1.0
102
RTVSPost2010PropOp57
 70
     1
  0
XRECORD
  5
1EA
102
{ACAD_REACTORS
330
1E9
102
}
330
1E9
100
AcDbXrecord
280
     1
102
RTVSPropertyOp0
 70
     1
102
RTVSPropertyOp1
 70
     1
102
RTVSPropertyOp2
 70
     1
102
RTVSPropertyOp3
 70
     1
102
RTVSPropertyOp4
 70
     1
102
RTVSPropertyOp5
 70
     1
102
RTVSPropertyOp6
 70
     1
102
RTVSPropertyOp7
 70
     1
102
RTVSPropertyOp8
 70
     1
102
RTVSPropertyOp9
 70
     1
102
RTVSPropertyOp10
 70
     1
102
RTVSPropertyOp11
 70
     1
102
RTVSPropertyOp12
 70
     1
102
RTVSPropertyOp13
 70
     1
102
RTVSPropertyOp14
 70
     1
102
RTVSPropertyOp15
 70
     1
102
RTVSPropertyOp16
 70
     1
102
RTVSPropertyOp17
 70
     1
102
RTVSPropertyOp18
 70
     1
102
RTVSPropertyOp19
 70
     1
102
RTVSPropertyOp20
 70
     1
102
RTVSPropertyOp21
 70
     1
102
RTVSPropertyOp22
 70
     1
102
RTVSPropertyOp23
 70
     1
102
RTVSPropertyOp24
 70
     1
102
RTVSPropertyOp25
 70
     1
102
RTVSPropertyOp26
 70
     1
102
RTVSPropertyOp27
 70
     1
102
RTVSPropertyOp28
 70
     1
102
RTVSPropertyOp29
 70
     1
102
RTVSPropertyOp30
 70
     1
102
RTVSPropertyOp31
 70
     1
102
RTVSPropertyOp32
 70
     1
102
RTVSPropertyOp33
 70
     1
102
RTVSPropertyOp34
 70
     1
102
RTVSPropertyOp35
 70
     1
102
RTVSPropertyOp36
 70
     1
102
RTVSPropertyOp37
 70
     1
102
RTVSPropertyOp38
 70
     1
102
RTVSPropertyOp39
 70
     1
102
RTVSPropertyOp40
 70
     1
102
RTVSPropertyOp41
 70
     1
102
RTVSPropertyOp42
 70
     1
102
RTVSPropertyOp43
 70
     1
102
RTVSPropertyOp44
 70
     1
102
RTVSPropertyOp45
 70
     1
102
RTVSPropertyOp46
 70
     1
102
RTVSPropertyOp47
 70
     1
102
RTVSPropertyOp48
 70
     1
102
RTVSPropertyOp49
 70
     1
102
RTVSPropertyOp50
 70
     1
102
RTVSPropertyOp51
 70
     0
102
RTVSPropertyOp52
 70
     0
102
RTVSPropertyOp53
 70
     1
102
RTVSPropertyOp54
 70
     1
102
RTVSPropertyOp55
 70
     1
102
RTVSPropertyOp56
 70
     1
102
RTVSPropertyOp57
 70
     1
102
RTVSPost2010Prop28
280
     0
102
RTVSPost2010PropOp28
 70
     1
102
RTVSPost2010Prop29
280
     1
102
RTVSPost2010PropOp29
 70
     1
102
RTVSPost2010Prop30
280
     1
102
RTVSPost2010PropOp30
 70
     1
102
RTVSPost2010Prop31
280
     0
102
RTVSPost2010PropOp31
 70
     1
102
RTVSPost2010Prop32
280
     0
102
RTVSPost2010PropOp32
 70
     1
102
RTVSPost2010Prop33
280
     0
102
RTVSPost2010PropOp33
 70
     1
102
RTVSPost2010Prop34
280
     0
102
RTVSPost2010PropOp34
 70
     1
102
RTVSPost2010Prop35
280
     0
102
RTVSPost2010PropOp35
 70
     1
102
RTVSPost2010Prop36
280
     0
102
RTVSPost2010PropOp36
 70
     1
102
RTVSPost2010Prop37
 90
       50
102
RTVSPost2010PropOp37
 70
     1
102
RTVSPost2010Prop38
140
0.0
102
RTVSPost2010PropOp38
 70
     1
102
RTVSPost2010Prop39
140
1.0
102
RTVSPost2010PropOp39
 70
     1
102
RTVSPost2010Prop40
 90
        0
102
RTVSPost2010PropOp40
 70
     1
102
RTVSPost2010Prop41ColorIndex
 90
       18
102
RTVSPost2010Prop41ColorRGB
 90
        0
102
RTVSPost2010PropOp41
 70
     1
102
RTVSPost2010Prop42
 90
       50
102
RTVSPost2010PropOp42
 70
     1
102
RTVSPost2010Prop43
 90
        3
102
RTVSPost2010PropOp43
 70
     1
102
RTVSPost2010Prop44ColorIndex
 90
        5
102
RTVSPost2010Prop44ColorRGB
 90
      255
102
RTVSPost2010PropOp44
 70
     1
102
RTVSPost2010Prop45
280
     0
102
RTVSPost2010PropOp45
 70
     1
102
RTVSPost2010Prop46
 90
       50
102
RTVSPost2010PropOp46
 70
     1
102
RTVSPost2010Prop47
 90
       50
102
RTVSPost2010PropOp47
 70
     1
102
RTVSPost2010Prop48
 90
       50
102
RTVSPost2010PropOp48
 70
     1
102
RTVSPost2010Prop49
280
     0
102
RTVSPost2010PropOp49
 70
     1
102
RTVSPost2010Prop50
 90
       50
102
RTVSPost2010PropOp50
 70
     1
102
RTVSPost2010Prop51ColorIndex
 90
      256
102
RTVSPost2010Prop51ColorRGB
 90
-16777216
102
RTVSPost2010PropOp51
 70
     0
102
RTVSPost2010Prop52
140
1.0
102
RTVSPost2010PropOp52
 70
     0
102
RTVSPost2010Prop53
 90
        2
102
RTVSPost2010PropOp53
 70
     1
102
RTVSPost2010Prop54
  1
strokes_ogs.tif
102
RTVSPost2010PropOp54
 70
     1
102
RTVSPost2010Prop55
280
     0
102
RTVSPost2010PropOp55
 70
     1
102
RTVSPost2010Prop56
140
1.0
102
RTVSPost2010PropOp56
 70
     1
102
RTVSPost2010Prop57
140
1.0
102
RTVSPost2010PropOp57
 70
     1
  0
XRECORD
  5
1EC
102
{ACAD_REACTORS
330
1EB
102
}
330
1EB
100
AcDbXrecord
280
     1
102
RTVSPropertyOp0
 70
     1
102
RTVSPropertyOp1
 70
     1
102
RTVSPropertyOp2
 70
     1
102
RTVSPropertyOp3
 70
     1
102
RTVSPropertyOp4
 70
     1
102
RTVSPropertyOp5
 70
     1
102
RTVSPropertyOp6
 70
     1
102
RTVSPropertyOp7
 70
     1
102
RTVSPropertyOp8
 70
     1
102
RTVSPropertyOp9
 70
     1
102
RTVSPropertyOp10
 70
     1
102
RTVSPropertyOp11
 70
     1
102
RTVSPropertyOp12
 70
     1
102
RTVSPropertyOp13
 70
     1
102
RTVSPropertyOp14
 70
     1
102
RTVSPropertyOp15
 70
     1
102
RTVSPropertyOp16
 70
     1
102
RTVSPropertyOp17
 70
     1
102
RTVSPropertyOp18
 70
     1
102
RTVSPropertyOp19
 70
     1
102
RTVSPropertyOp20
 70
     1
102
RTVSPropertyOp21
 70
     1
102
RTVSPropertyOp22
 70
     1
102
RTVSPropertyOp23
 70
     1
102
RTVSPropertyOp24
 70
     1
102
RTVSPropertyOp25
 70
     1
102
RTVSPropertyOp26
 70
     1
102
RTVSPropertyOp27
 70
     1
102
RTVSPropertyOp28
 70
     1
102
RTVSPropertyOp29
 70
     1
102
RTVSPropertyOp30
 70
     1
102
RTVSPropertyOp31
 70
     1
102
RTVSPropertyOp32
 70
     1
102
RTVSPropertyOp33
 70
     1
102
RTVSPropertyOp34
 70
     1
102
RTVSPropertyOp35
 70
     1
102
RTVSPropertyOp36
 70
     1
102
RTVSPropertyOp37
 70
     1
102
RTVSPropertyOp38
 70
     1
102
RTVSPropertyOp39
 70
     1
102
RTVSPropertyOp40
 70
     1
102
RTVSPropertyOp41
 70
     1
102
RTVSPropertyOp42
 70
     1
102
RTVSPropertyOp43
 70
     1
102
RTVSPropertyOp44
 70
     1
102
RTVSPropertyOp45
 70
     1
102
RTVSPropertyOp46
 70
     1
102
RTVSPropertyOp47
 70
     1
102
RTVSPropertyOp48
 70
     1
102
RTVSPropertyOp49
 70
     1
102
RTVSPropertyOp50
 70
     1
102
RTVSPropertyOp51
 70
     0
102
RTVSPropertyOp52
 70
     0
102
RTVSPropertyOp53
 70
     1
102
RTVSPropertyOp54
 70
     1
102
RTVSPropertyOp55
 70
     1
102
RTVSPropertyOp56
 70
     1
102
RTVSPropertyOp57
 70
     1
102
RTVSPost2010Prop28
280
     0
102
RTVSPost2010PropOp28
 70
     1
102
RTVSPost2010Prop29
280
     1
102
RTVSPost2010PropOp29
 70
     1
102
RTVSPost2010Prop30
280
     1
102
RTVSPost2010PropOp30
 70
     1
102
RTVSPost2010Prop31
280
     0
102
RTVSPost2010PropOp31
 70
     1
102
RTVSPost2010Prop32
280
     0
102
RTVSPost2010PropOp32
 70
     1
102
RTVSPost2010Prop33
280
     0
102
RTVSPost2010PropOp33
 70
     1
102
RTVSPost2010Prop34
280
     0
102
RTVSPost2010PropOp34
 70
     1
102
RTVSPost2010Prop35
280
     0
102
RTVSPost2010PropOp35
 70
     1
102
RTVSPost2010Prop36
280
     0
102
RTVSPost2010PropOp36
 70
     1
102
RTVSPost2010Prop37
 90
       50
102
RTVSPost2010PropOp37
 70
     1
102
RTVSPost2010Prop38
140
0.0
102
RTVSPost2010PropOp38
 70
     1
102
RTVSPost2010Prop39
140
1.0
102
RTVSPost2010PropOp39
 70
     1
102
RTVSPost2010Prop40
 90
        0
102
RTVSPost2010PropOp40
 70
     1
102
RTVSPost2010Prop41ColorIndex
 90
       18
102
RTVSPost2010Prop41ColorRGB
 90
        0
102
RTVSPost2010PropOp41
 70
     1
102
RTVSPost2010Prop42
 90
       50
102
RTVSPost2010PropOp42
 70
     1
102
RTVSPost2010Prop43
 90
        3
102
RTVSPost2010PropOp43
 70
     1
102
RTVSPost2010Prop44ColorIndex
 90
        5
102
RTVSPost2010Prop44ColorRGB
 90
      255
102
RTVSPost2010PropOp44
 70
     1
102
RTVSPost2010Prop45
280
     0
102
RTVSPost2010PropOp45
 70
     1
102
RTVSPost2010Prop46
 90
       50
102
RTVSPost2010PropOp46
 70
     1
102
RTVSPost2010Prop47
 90
       50
102
RTVSPost2010PropOp47
 70
     1
102
RTVSPost2010Prop48
 90
       50
102
RTVSPost2010PropOp48
 70
     1
102
RTVSPost2010Prop49
280
     0
102
RTVSPost2010PropOp49
 70
     1
102
RTVSPost2010Prop50
 90
       50
102
RTVSPost2010PropOp50
 70
     1
102
RTVSPost2010Prop51ColorIndex
 90
      256
102
RTVSPost2010Prop51ColorRGB
 90
-16777216
102
RTVSPost2010PropOp51
 70
     0
102
RTVSPost2010Prop52
140
1.0
102
RTVSPost2010PropOp52
 70
     0
102
RTVSPost2010Prop53
 90
        2
102
RTVSPost2010PropOp53
 70
     1
102
RTVSPost2010Prop54
  1
strokes_ogs.tif
102
RTVSPost2010PropOp54
 70
     1
102
RTVSPost2010Prop55
280
     0
102
RTVSPost2010PropOp55
 70
     1
102
RTVSPost2010Prop56
140
1.0
102
RTVSPost2010PropOp56
 70
     1
102
RTVSPost2010Prop57
140
1.0
102
RTVSPost2010PropOp57
 70
     1
  0
XRECORD
  5
1F2
102
{ACAD_REACTORS
330
1F1
102
}
330
1F1
100
AcDbXrecord
280
     1
102
RTVSPropertyOp0
 70
     1
102
RTVSPropertyOp1
 70
     1
102
RTVSPropertyOp2
 70
     1
102
RTVSPropertyOp3
 70
     1
102
RTVSPropertyOp4
 70
     1
102
RTVSPropertyOp5
 70
     1
102
RTVSPropertyOp6
 70
     1
102
RTVSPropertyOp7
 70
     1
102
RTVSPropertyOp8
 70
     1
102
RTVSPropertyOp9
 70
     1
102
RTVSPropertyOp10
 70
     1
102
RTVSPropertyOp11
 70
     1
102
RTVSPropertyOp12
 70
     1
102
RTVSPropertyOp13
 70
     1
102
RTVSPropertyOp14
 70
     1
102
RTVSPropertyOp15
 70
     1
102
RTVSPropertyOp16
 70
     1
102
RTVSPropertyOp17
 70
     1
102
RTVSPropertyOp18
 70
     1
102
RTVSPropertyOp19
 70
     1
102
RTVSPropertyOp20
 70
     1
102
RTVSPropertyOp21
 70
     1
102
RTVSPropertyOp22
 70
     1
102
RTVSPropertyOp23
 70
     1
102
RTVSPropertyOp24
 70
     1
102
RTVSPropertyOp25
 70
     1
102
RTVSPropertyOp26
 70
     1
102
RTVSPropertyOp27
 70
     1
102
RTVSPropertyOp28
 70
     1
102
RTVSPropertyOp29
 70
     1
102
RTVSPropertyOp30
 70
     1
102
RTVSPropertyOp31
 70
     1
102
RTVSPropertyOp32
 70
     1
102
RTVSPropertyOp33
 70
     1
102
RTVSPropertyOp34
 70
     1
102
RTVSPropertyOp35
 70
     1
102
RTVSPropertyOp36
 70
     1
102
RTVSPropertyOp37
 70
     1
102
RTVSPropertyOp38
 70
     1
102
RTVSPropertyOp39
 70
     1
102
RTVSPropertyOp40
 70
     1
102
RTVSPropertyOp41
 70
     1
102
RTVSPropertyOp42
 70
     1
102
RTVSPropertyOp43
 70
     1
102
RTVSPropertyOp44
 70
     1
102
RTVSPropertyOp45
 70
     1
102
RTVSPropertyOp46
 70
     1
102
RTVSPropertyOp47
 70
     1
102
RTVSPropertyOp48
 70
     1
102
RTVSPropertyOp49
 70
     1
102
RTVSPropertyOp50
 70
     1
102
RTVSPropertyOp51
 70
     0
102
RTVSPropertyOp52
 70
     0
102
RTVSPropertyOp53
 70
     1
102
RTVSPropertyOp54
 70
     1
102
RTVSPropertyOp55
 70
     1
102
RTVSPropertyOp56
 70
     1
102
RTVSPropertyOp57
 70
     1
102
RTVSPost2010Prop28
280
     0
102
RTVSPost2010PropOp28
 70
     1
102
RTVSPost2010Prop29
280
     1
102
RTVSPost2010PropOp29
 70
     1
102
RTVSPost2010Prop30
280
     1
102
RTVSPost2010PropOp30
 70
     1
102
RTVSPost2010Prop31
280
     0
102
RTVSPost2010PropOp31
 70
     1
102
RTVSPost2010Prop32
280
     0
102
RTVSPost2010PropOp32
 70
     1
102
RTVSPost2010Prop33
280
     0
102
RTVSPost2010PropOp33
 70
     1
102
RTVSPost2010Prop34
280
     0
102
RTVSPost2010PropOp34
 70
     1
102
RTVSPost2010Prop35
280
     0
102
RTVSPost2010PropOp35
 70
     1
102
RTVSPost2010Prop36
280
     0
102
RTVSPost2010PropOp36
 70
     1
102
RTVSPost2010Prop37
 90
       50
102
RTVSPost2010PropOp37
 70
     1
102
RTVSPost2010Prop38
140
0.0
102
RTVSPost2010PropOp38
 70
     1
102
RTVSPost2010Prop39
140
1.0
102
RTVSPost2010PropOp39
 70
     1
102
RTVSPost2010Prop40
 90
        0
102
RTVSPost2010PropOp40
 70
     1
102
RTVSPost2010Prop41ColorIndex
 90
       18
102
RTVSPost2010Prop41ColorRGB
 90
        0
102
RTVSPost2010PropOp41
 70
     1
102
RTVSPost2010Prop42
 90
       50
102
RTVSPost2010PropOp42
 70
     1
102
RTVSPost2010Prop43
 90
        3
102
RTVSPost2010PropOp43
 70
     1
102
RTVSPost2010Prop44ColorIndex
 90
        5
102
RTVSPost2010Prop44ColorRGB
 90
      255
102
RTVSPost2010PropOp44
 70
     1
102
RTVSPost2010Prop45
280
     0
102
RTVSPost2010PropOp45
 70
     1
102
RTVSPost2010Prop46
 90
       50
102
RTVSPost2010PropOp46
 70
     1
102
RTVSPost2010Prop47
 90
       50
102
RTVSPost2010PropOp47
 70
     1
102
RTVSPost2010Prop48
 90
       50
102
RTVSPost2010PropOp48
 70
     1
102
RTVSPost2010Prop49
280
     0
102
RTVSPost2010PropOp49
 70
     1
102
RTVSPost2010Prop50
 90
       50
102
RTVSPost2010PropOp50
 70
     1
102
RTVSPost2010Prop51ColorIndex
 90
      256
102
RTVSPost2010Prop51ColorRGB
 90
-16777216
102
RTVSPost2010PropOp51
 70
     0
102
RTVSPost2010Prop52
140
1.0
102
RTVSPost2010PropOp52
 70
     0
102
RTVSPost2010Prop53
 90
        2
102
RTVSPost2010PropOp53
 70
     1
102
RTVSPost2010Prop54
  1
strokes_ogs.tif
102
RTVSPost2010PropOp54
 70
     1
102
RTVSPost2010Prop55
280
     0
102
RTVSPost2010PropOp55
 70
     1
102
RTVSPost2010Prop56
140
1.0
102
RTVSPost2010PropOp56
 70
     1
102
RTVSPost2010Prop57
140
1.0
102
RTVSPost2010PropOp57
 70
     1
  0
XRECORD
  5
206
102
{ACAD_REACTORS
330
205
102
}
330
205
100
AcDbXrecord
280
     1
102
RTVSPropertyOp0
 70
     0
102
RTVSPropertyOp1
 70
     0
102
RTVSPropertyOp2
 70
     0
102
RTVSPropertyOp3
 70
     0
102
RTVSPropertyOp4
 70
     0
102
RTVSPropertyOp5
 70
     0
102
RTVSPropertyOp6
 70
     0
102
RTVSPropertyOp7
 70
     0
102
RTVSPropertyOp8
 70
     0
102
RTVSPropertyOp9
 70
     0
102
RTVSPropertyOp10
 70
     0
102
RTVSPropertyOp11
 70
     0
102
RTVSPropertyOp12
 70
     0
102
RTVSPropertyOp13
 70
     0
102
RTVSPropertyOp14
 70
     2
102
RTVSPropertyOp15
 70
     0
102
RTVSPropertyOp16
 70
     0
102
RTVSPropertyOp17
 70
     0
102
RTVSPropertyOp18
 70
     0
102
RTVSPropertyOp19
 70
     0
102
RTVSPropertyOp20
 70
     0
102
RTVSPropertyOp21
 70
     0
102
RTVSPropertyOp22
 70
     0
102
RTVSPropertyOp23
 70
     0
102
RTVSPropertyOp24
 70
     0
102
RTVSPropertyOp25
 70
     0
102
RTVSPropertyOp26
 70
     0
102
RTVSPropertyOp27
 70
     0
102
RTVSPropertyOp28
 70
     0
102
RTVSPropertyOp29
 70
     0
102
RTVSPropertyOp30
 70
     0
102
RTVSPropertyOp31
 70
     0
102
RTVSPropertyOp32
 70
     0
102
RTVSPropertyOp33
 70
     0
102
RTVSPropertyOp34
 70
     0
102
RTVSPropertyOp35
 70
     0
102
RTVSPropertyOp36
 70
     0
102
RTVSPropertyOp37
 70
     0
102
RTVSPropertyOp38
 70
     0
102
RTVSPropertyOp39
 70
     0
102
RTVSPropertyOp40
 70
     0
102
RTVSPropertyOp41
 70
     0
102
RTVSPropertyOp42
 70
     0
102
RTVSPropertyOp43
 70
     0
102
RTVSPropertyOp44
 70
     0
102
RTVSPropertyOp45
 70
     0
102
RTVSPropertyOp46
 70
     0
102
RTVSPropertyOp47
 70
     0
102
RTVSPropertyOp48
 70
     0
102
RTVSPropertyOp49
 70
     0
102
RTVSPropertyOp50
 70
     0
102
RTVSPropertyOp51
 70
     0
102
RTVSPropertyOp52
 70
     0
102
RTVSPropertyOp53
 70
     0
102
RTVSPropertyOp54
 70
     0
102
RTVSPropertyOp55
 70
     0
102
RTVSPropertyOp56
 70
     0
102
RTVSPropertyOp57
 70
     0
102
RTVSPost2010Prop28
280
     0
102
RTVSPost2010PropOp28
 70
     0
102
RTVSPost2010Prop29
280
     1
102
RTVSPost2010PropOp29
 70
     0
102
RTVSPost2010Prop30
280
     1
102
RTVSPost2010PropOp30
 70
     0
102
RTVSPost2010Prop31
280
     0
102
RTVSPost2010PropOp31
 70
     0
102
RTVSPost2010Prop32
280
     0
102
RTVSPost2010PropOp32
 70
     0
102
RTVSPost2010Prop33
280
     0
102
RTVSPost2010PropOp33
 70
     0
102
RTVSPost2010Prop34
280
     0
102
RTVSPost2010PropOp34
 70
     0
102
RTVSPost2010Prop35
280
     0
102
RTVSPost2010PropOp35
 70
     0
102
RTVSPost2010Prop36
280
     0
102
RTVSPost2010PropOp36
 70
     0
102
RTVSPost2010Prop37
 90
       50
102
RTVSPost2010PropOp37
 70
     0
102
RTVSPost2010Prop38
140
0.0
102
RTVSPost2010PropOp38
 70
     0
102
RTVSPost2010Prop39
140
1.0
102
RTVSPost2010PropOp39
 70
     0
102
RTVSPost2010Prop40
 90
        0
102
RTVSPost2010PropOp40
 70
     0
102
RTVSPost2010Prop41ColorIndex
 90
       18
102
RTVSPost2010Prop41ColorRGB
 90
        0
102
RTVSPost2010PropOp41
 70
     0
102
RTVSPost2010Prop42
 90
       50
102
RTVSPost2010PropOp42
 70
     0
102
RTVSPost2010Prop43
 90
        3
102
RTVSPost2010PropOp43
 70
     0
102
RTVSPost2010Prop44ColorIndex
 90
        5
102
RTVSPost2010Prop44ColorRGB
 90
      255
102
RTVSPost2010PropOp44
 70
     0
102
RTVSPost2010Prop45
280
     0
102
RTVSPost2010PropOp45
 70
     0
102
RTVSPost2010Prop46
 90
       50
102
RTVSPost2010PropOp46
 70
     0
102
RTVSPost2010Prop47
 90
       50
102
RTVSPost2010PropOp47
 70
     0
102
RTVSPost2010Prop48
 90
       50
102
RTVSPost2010PropOp48
 70
     0
102
RTVSPost2010Prop49
280
     0
102
RTVSPost2010PropOp49
 70
     0
102
RTVSPost2010Prop50
 90
       50
102
RTVSPost2010PropOp50
 70
     0
102
RTVSPost2010Prop51ColorIndex
 90
      256
102
RTVSPost2010Prop51ColorRGB
 90
-16777216
102
RTVSPost2010PropOp51
 70
     0
102
RTVSPost2010Prop52
140
1.0
102
RTVSPost2010PropOp52
 70
     0
102
RTVSPost2010Prop53
 90
        2
102
RTVSPost2010PropOp53
 70
     0
102
RTVSPost2010Prop54
  1
strokes_ogs.tif
102
RTVSPost2010PropOp54
 70
     0
102
RTVSPost2010Prop55
280
     0
102
RTVSPost2010PropOp55
 70
     0
102
RTVSPost2010Prop56
140
1.0
102
RTVSPost2010PropOp56
 70
     0
102
RTVSPost2010Prop57
140
1.0
102
RTVSPost2010PropOp57
 70
     0
  0
XRECORD
  5
200
102
{ACAD_REACTORS
330
1FF
102
}
330
1FF
100
AcDbXrecord
280
     1
102
RTVSPropertyOp0
 70
     1
102
RTVSPropertyOp1
 70
     1
102
RTVSPropertyOp2
 70
     1
102
RTVSPropertyOp3
 70
     1
102
RTVSPropertyOp4
 70
     1
102
RTVSPropertyOp5
 70
     1
102
RTVSPropertyOp6
 70
     1
102
RTVSPropertyOp7
 70
     1
102
RTVSPropertyOp8
 70
     1
102
RTVSPropertyOp9
 70
     1
102
RTVSPropertyOp10
 70
     1
102
RTVSPropertyOp11
 70
     1
102
RTVSPropertyOp12
 70
     1
102
RTVSPropertyOp13
 70
     1
102
RTVSPropertyOp14
 70
     1
102
RTVSPropertyOp15
 70
     1
102
RTVSPropertyOp16
 70
     1
102
RTVSPropertyOp17
 70
     1
102
RTVSPropertyOp18
 70
     1
102
RTVSPropertyOp19
 70
     1
102
RTVSPropertyOp20
 70
     1
102
RTVSPropertyOp21
 70
     1
102
RTVSPropertyOp22
 70
     1
102
RTVSPropertyOp23
 70
     1
102
RTVSPropertyOp24
 70
     1
102
RTVSPropertyOp25
 70
     1
102
RTVSPropertyOp26
 70
     1
102
RTVSPropertyOp27
 70
     1
102
RTVSPropertyOp28
 70
     1
102
RTVSPropertyOp29
 70
     1
102
RTVSPropertyOp30
 70
     1
102
RTVSPropertyOp31
 70
     1
102
RTVSPropertyOp32
 70
     1
102
RTVSPropertyOp33
 70
     1
102
RTVSPropertyOp34
 70
     1
102
RTVSPropertyOp35
 70
     1
102
RTVSPropertyOp36
 70
     1
102
RTVSPropertyOp37
 70
     1
102
RTVSPropertyOp38
 70
     1
102
RTVSPropertyOp39
 70
     1
102
RTVSPropertyOp40
 70
     1
102
RTVSPropertyOp41
 70
     1
102
RTVSPropertyOp42
 70
     1
102
RTVSPropertyOp43
 70
     1
102
RTVSPropertyOp44
 70
     1
102
RTVSPropertyOp45
 70
     1
102
RTVSPropertyOp46
 70
     1
102
RTVSPropertyOp47
 70
     1
102
RTVSPropertyOp48
 70
     1
102
RTVSPropertyOp49
 70
     1
102
RTVSPropertyOp50
 70
     1
102
RTVSPropertyOp51
 70
     0
102
RTVSPropertyOp52
 70
     0
102
RTVSPropertyOp53
 70
     1
102
RTVSPropertyOp54
 70
     1
102
RTVSPropertyOp55
 70
     1
102
RTVSPropertyOp56
 70
     1
102
RTVSPropertyOp57
 70
     1
102
RTVSPost2010Prop28
280
     0
102
RTVSPost2010PropOp28
 70
     1
102
RTVSPost2010Prop29
280
     1
102
RTVSPost2010PropOp29
 70
     1
102
RTVSPost2010Prop30
280
     1
102
RTVSPost2010PropOp30
 70
     1
102
RTVSPost2010Prop31
280
     0
102
RTVSPost2010PropOp31
 70
     1
102
RTVSPost2010Prop32
280
     0
102
RTVSPost2010PropOp32
 70
     1
102
RTVSPost2010Prop33
280
     0
102
RTVSPost2010PropOp33
 70
     1
102
RTVSPost2010Prop34
280
     0
102
RTVSPost2010PropOp34
 70
     1
102
RTVSPost2010Prop35
280
     0
102
RTVSPost2010PropOp35
 70
     1
102
RTVSPost2010Prop36
280
     0
102
RTVSPost2010PropOp36
 70
     1
102
RTVSPost2010Prop37
 90
       50
102
RTVSPost2010PropOp37
 70
     1
102
RTVSPost2010Prop38
140
0.0
102
RTVSPost2010PropOp38
 70
     1
102
RTVSPost2010Prop39
140
1.0
102
RTVSPost2010PropOp39
 70
     1
102
RTVSPost2010Prop40
 90
        0
102
RTVSPost2010PropOp40
 70
     1
102
RTVSPost2010Prop41ColorIndex
 90
       18
102
RTVSPost2010Prop41ColorRGB
 90
        0
102
RTVSPost2010PropOp41
 70
     1
102
RTVSPost2010Prop42
 90
       50
102
RTVSPost2010PropOp42
 70
     1
102
RTVSPost2010Prop43
 90
        3
102
RTVSPost2010PropOp43
 70
     1
102
RTVSPost2010Prop44ColorIndex
 90
        5
102
RTVSPost2010Prop44ColorRGB
 90
      255
102
RTVSPost2010PropOp44
 70
     1
102
RTVSPost2010Prop45
280
     0
102
RTVSPost2010PropOp45
 70
     1
102
RTVSPost2010Prop46
 90
       50
102
RTVSPost2010PropOp46
 70
     1
102
RTVSPost2010Prop47
 90
       50
102
RTVSPost2010PropOp47
 70
     1
102
RTVSPost2010Prop48
 90
       50
102
RTVSPost2010PropOp48
 70
     1
102
RTVSPost2010Prop49
280
     0
102
RTVSPost2010PropOp49
 70
     1
102
RTVSPost2010Prop50
 90
       50
102
RTVSPost2010PropOp50
 70
     1
102
RTVSPost2010Prop51ColorIndex
 90
      256
102
RTVSPost2010Prop51ColorRGB
 90
-16777216
102
RTVSPost2010PropOp51
 70
     0
102
RTVSPost2010Prop52
140
1.0
102
RTVSPost2010PropOp52
 70
     0
102
RTVSPost2010Prop53
 90
        2
102
RTVSPost2010PropOp53
 70
     1
102
RTVSPost2010Prop54
  1
strokes_ogs.tif
102
RTVSPost2010PropOp54
 70
     1
102
RTVSPost2010Prop55
280
     0
102
RTVSPost2010PropOp55
 70
     1
102
RTVSPost2010Prop56
140
1.0
102
RTVSPost2010PropOp56
 70
     1
102
RTVSPost2010Prop57
140
1.0
102
RTVSPost2010PropOp57
 70
     1
  0
XRECORD
  5
208
102
{ACAD_REACTORS
330
207
102
}
330
207
100
AcDbXrecord
280
     1
102
RTVSPropertyOp0
 70
     0
102
RTVSPropertyOp1
 70
     0
102
RTVSPropertyOp2
 70
     0
102
RTVSPropertyOp3
 70
     0
102
RTVSPropertyOp4
 70
     0
102
RTVSPropertyOp5
 70
     0
102
RTVSPropertyOp6
 70
     0
102
RTVSPropertyOp7
 70
     0
102
RTVSPropertyOp8
 70
     0
102
RTVSPropertyOp9
 70
     0
102
RTVSPropertyOp10
 70
     0
102
RTVSPropertyOp11
 70
     0
102
RTVSPropertyOp12
 70
     0
102
RTVSPropertyOp13
 70
     0
102
RTVSPropertyOp14
 70
     2
102
RTVSPropertyOp15
 70
     0
102
RTVSPropertyOp16
 70
     0
102
RTVSPropertyOp17
 70
     0
102
RTVSPropertyOp18
 70
     0
102
RTVSPropertyOp19
 70
     0
102
RTVSPropertyOp20
 70
     0
102
RTVSPropertyOp21
 70
     0
102
RTVSPropertyOp22
 70
     0
102
RTVSPropertyOp23
 70
     0
102
RTVSPropertyOp24
 70
     0
102
RTVSPropertyOp25
 70
     0
102
RTVSPropertyOp26
 70
     0
102
RTVSPropertyOp27
 70
     0
102
RTVSPropertyOp28
 70
     0
102
RTVSPropertyOp29
 70
     0
102
RTVSPropertyOp30
 70
     0
102
RTVSPropertyOp31
 70
     0
102
RTVSPropertyOp32
 70
     0
102
RTVSPropertyOp33
 70
     0
102
RTVSPropertyOp34
 70
     0
102
RTVSPropertyOp35
 70
     0
102
RTVSPropertyOp36
 70
     0
102
RTVSPropertyOp37
 70
     0
102
RTVSPropertyOp38
 70
     0
102
RTVSPropertyOp39
 70
     0
102
RTVSPropertyOp40
 70
     0
102
RTVSPropertyOp41
 70
     0
102
RTVSPropertyOp42
 70
     0
102
RTVSPropertyOp43
 70
     0
102
RTVSPropertyOp44
 70
     0
102
RTVSPropertyOp45
 70
     0
102
RTVSPropertyOp46
 70
     0
102
RTVSPropertyOp47
 70
     0
102
RTVSPropertyOp48
 70
     0
102
RTVSPropertyOp49
 70
     0
102
RTVSPropertyOp50
 70
     0
102
RTVSPropertyOp51
 70
     0
102
RTVSPropertyOp52
 70
     0
102
RTVSPropertyOp53
 70
     0
102
RTVSPropertyOp54
 70
     0
102
RTVSPropertyOp55
 70
     0
102
RTVSPropertyOp56
 70
     0
102
RTVSPropertyOp57
 70
     0
102
RTVSPost2010Prop28
280
     0
102
RTVSPost2010PropOp28
 70
     0
102
RTVSPost2010Prop29
280
     1
102
RTVSPost2010PropOp29
 70
     0
102
RTVSPost2010Prop30
280
     1
102
RTVSPost2010PropOp30
 70
     0
102
RTVSPost2010Prop31
280
     0
102
RTVSPost2010PropOp31
 70
     0
102
RTVSPost2010Prop32
280
     0
102
RTVSPost2010PropOp32
 70
     0
102
RTVSPost2010Prop33
280
     0
102
RTVSPost2010PropOp33
 70
     0
102
RTVSPost2010Prop34
280
     0
102
RTVSPost2010PropOp34
 70
     0
102
RTVSPost2010Prop35
280
     0
102
RTVSPost2010PropOp35
 70
     0
102
RTVSPost2010Prop36
280
     0
102
RTVSPost2010PropOp36
 70
     0
102
RTVSPost2010Prop37
 90
       50
102
RTVSPost2010PropOp37
 70
     0
102
RTVSPost2010Prop38
140
0.0
102
RTVSPost2010PropOp38
 70
     0
102
RTVSPost2010Prop39
140
1.0
102
RTVSPost2010PropOp39
 70
     0
102
RTVSPost2010Prop40
 90
        0
102
RTVSPost2010PropOp40
 70
     0
102
RTVSPost2010Prop41ColorIndex
 90
       18
102
RTVSPost2010Prop41ColorRGB
 90
        0
102
RTVSPost2010PropOp41
 70
     0
102
RTVSPost2010Prop42
 90
       50
102
RTVSPost2010PropOp42
 70
     0
102
RTVSPost2010Prop43
 90
        3
102
RTVSPost2010PropOp43
 70
     0
102
RTVSPost2010Prop44ColorIndex
 90
        5
102
RTVSPost2010Prop44ColorRGB
 90
      255
102
RTVSPost2010PropOp44
 70
     0
102
RTVSPost2010Prop45
280
     0
102
RTVSPost2010PropOp45
 70
     0
102
RTVSPost2010Prop46
 90
       50
102
RTVSPost2010PropOp46
 70
     0
102
RTVSPost2010Prop47
 90
       50
102
RTVSPost2010PropOp47
 70
     0
102
RTVSPost2010Prop48
 90
       50
102
RTVSPost2010PropOp48
 70
     0
102
RTVSPost2010Prop49
280
     0
102
RTVSPost2010PropOp49
 70
     0
102
RTVSPost2010Prop50
 90
       50
102
RTVSPost2010PropOp50
 70
     0
102
RTVSPost2010Prop51ColorIndex
 90
      256
102
RTVSPost2010Prop51ColorRGB
 90
-16777216
102
RTVSPost2010PropOp51
 70
     0
102
RTVSPost2010Prop52
140
1.0
102
RTVSPost2010PropOp52
 70
     0
102
RTVSPost2010Prop53
 90
        2
102
RTVSPost2010PropOp53
 70
     0
102
RTVSPost2010Prop54
  1
strokes_ogs.tif
102
RTVSPost2010PropOp54
 70
     0
102
RTVSPost2010Prop55
280
     0
102
RTVSPost2010PropOp55
 70
     0
102
RTVSPost2010Prop56
140
1.0
102
RTVSPost2010PropOp56
 70
     0
102
RTVSPost2010Prop57
140
1.0
102
RTVSPost2010PropOp57
 70
     0
  0
XRECORD
  5
1F6
102
{ACAD_REACTORS
330
1F5
102
}
330
1F5
100
AcDbXrecord
280
     1
102
RTVSPropertyOp0
 70
     1
102
RTVSPropertyOp1
 70
     1
102
RTVSPropertyOp2
 70
     1
102
RTVSPropertyOp3
 70
     1
102
RTVSPropertyOp4
 70
     1
102
RTVSPropertyOp5
 70
     1
102
RTVSPropertyOp6
 70
     1
102
RTVSPropertyOp7
 70
     1
102
RTVSPropertyOp8
 70
     1
102
RTVSPropertyOp9
 70
     1
102
RTVSPropertyOp10
 70
     1
102
RTVSPropertyOp11
 70
     1
102
RTVSPropertyOp12
 70
     1
102
RTVSPropertyOp13
 70
     1
102
RTVSPropertyOp14
 70
     1
102
RTVSPropertyOp15
 70
     1
102
RTVSPropertyOp16
 70
     1
102
RTVSPropertyOp17
 70
     1
102
RTVSPropertyOp18
 70
     1
102
RTVSPropertyOp19
 70
     1
102
RTVSPropertyOp20
 70
     1
102
RTVSPropertyOp21
 70
     1
102
RTVSPropertyOp22
 70
     1
102
RTVSPropertyOp23
 70
     1
102
RTVSPropertyOp24
 70
     1
102
RTVSPropertyOp25
 70
     1
102
RTVSPropertyOp26
 70
     1
102
RTVSPropertyOp27
 70
     1
102
RTVSPropertyOp28
 70
     1
102
RTVSPropertyOp29
 70
     1
102
RTVSPropertyOp30
 70
     1
102
RTVSPropertyOp31
 70
     1
102
RTVSPropertyOp32
 70
     1
102
RTVSPropertyOp33
 70
     1
102
RTVSPropertyOp34
 70
     1
102
RTVSPropertyOp35
 70
     1
102
RTVSPropertyOp36
 70
     1
102
RTVSPropertyOp37
 70
     1
102
RTVSPropertyOp38
 70
     1
102
RTVSPropertyOp39
 70
     1
102
RTVSPropertyOp40
 70
     1
102
RTVSPropertyOp41
 70
     1
102
RTVSPropertyOp42
 70
     1
102
RTVSPropertyOp43
 70
     1
102
RTVSPropertyOp44
 70
     1
102
RTVSPropertyOp45
 70
     1
102
RTVSPropertyOp46
 70
     1
102
RTVSPropertyOp47
 70
     1
102
RTVSPropertyOp48
 70
     1
102
RTVSPropertyOp49
 70
     1
102
RTVSPropertyOp50
 70
     1
102
RTVSPropertyOp51
 70
     0
102
RTVSPropertyOp52
 70
     0
102
RTVSPropertyOp53
 70
     1
102
RTVSPropertyOp54
 70
     1
102
RTVSPropertyOp55
 70
     1
102
RTVSPropertyOp56
 70
     1
102
RTVSPropertyOp57
 70
     1
102
RTVSPost2010Prop28
280
     0
102
RTVSPost2010PropOp28
 70
     1
102
RTVSPost2010Prop29
280
     1
102
RTVSPost2010PropOp29
 70
     1
102
RTVSPost2010Prop30
280
     1
102
RTVSPost2010PropOp30
 70
     1
102
RTVSPost2010Prop31
280
     0
102
RTVSPost2010PropOp31
 70
     1
102
RTVSPost2010Prop32
280
     0
102
RTVSPost2010PropOp32
 70
     1
102
RTVSPost2010Prop33
280
     0
102
RTVSPost2010PropOp33
 70
     1
102
RTVSPost2010Prop34
280
     0
102
RTVSPost2010PropOp34
 70
     1
102
RTVSPost2010Prop35
280
     0
102
RTVSPost2010PropOp35
 70
     1
102
RTVSPost2010Prop36
280
     0
102
RTVSPost2010PropOp36
 70
     1
102
RTVSPost2010Prop37
 90
       50
102
RTVSPost2010PropOp37
 70
     1
102
RTVSPost2010Prop38
140
0.0
102
RTVSPost2010PropOp38
 70
     1
102
RTVSPost2010Prop39
140
1.0
102
RTVSPost2010PropOp39
 70
     1
102
RTVSPost2010Prop40
 90
        0
102
RTVSPost2010PropOp40
 70
     1
102
RTVSPost2010Prop41ColorIndex
 90
       18
102
RTVSPost2010Prop41ColorRGB
 90
        0
102
RTVSPost2010PropOp41
 70
     1
102
RTVSPost2010Prop42
 90
       50
102
RTVSPost2010PropOp42
 70
     1
102
RTVSPost2010Prop43
 90
        3
102
RTVSPost2010PropOp43
 70
     1
102
RTVSPost2010Prop44ColorIndex
 90
        5
102
RTVSPost2010Prop44ColorRGB
 90
      255
102
RTVSPost2010PropOp44
 70
     1
102
RTVSPost2010Prop45
280
     0
102
RTVSPost2010PropOp45
 70
     1
102
RTVSPost2010Prop46
 90
       50
102
RTVSPost2010PropOp46
 70
     1
102
RTVSPost2010Prop47
 90
       50
102
RTVSPost2010PropOp47
 70
     1
102
RTVSPost2010Prop48
 90
       50
102
RTVSPost2010PropOp48
 70
     1
102
RTVSPost2010Prop49
280
     0
102
RTVSPost2010PropOp49
 70
     1
102
RTVSPost2010Prop50
 90
       50
102
RTVSPost2010PropOp50
 70
     1
102
RTVSPost2010Prop51ColorIndex
 90
      256
102
RTVSPost2010Prop51ColorRGB
 90
-16777216
102
RTVSPost2010PropOp51
 70
     0
102
RTVSPost2010Prop52
140
1.0
102
RTVSPost2010PropOp52
 70
     0
102
RTVSPost2010Prop53
 90
        2
102
RTVSPost2010PropOp53
 70
     1
102
RTVSPost2010Prop54
  1
strokes_ogs.tif
102
RTVSPost2010PropOp54
 70
     1
102
RTVSPost2010Prop55
280
     0
102
RTVSPost2010PropOp55
 70
     1
102
RTVSPost2010Prop56
140
1.0
102
RTVSPost2010PropOp56
 70
     1
102
RTVSPost2010Prop57
140
1.0
102
RTVSPost2010PropOp57
 70
     1
  0
XRECORD
  5
214
102
{ACAD_REACTORS
330
213
102
}
330
213
100
AcDbXrecord
280
     1
102
RTVSPropertyOp0
 70
     1
102
RTVSPropertyOp1
 70
     1
102
RTVSPropertyOp2
 70
     1
102
RTVSPropertyOp3
 70
     1
102
RTVSPropertyOp4
 70
     1
102
RTVSPropertyOp5
 70
     1
102
RTVSPropertyOp6
 70
     1
102
RTVSPropertyOp7
 70
     1
102
RTVSPropertyOp8
 70
     1
102
RTVSPropertyOp9
 70
     1
102
RTVSPropertyOp10
 70
     1
102
RTVSPropertyOp11
 70
     1
102
RTVSPropertyOp12
 70
     1
102
RTVSPropertyOp13
 70
     1
102
RTVSPropertyOp14
 70
     1
102
RTVSPropertyOp15
 70
     1
102
RTVSPropertyOp16
 70
     1
102
RTVSPropertyOp17
 70
     1
102
RTVSPropertyOp18
 70
     1
102
RTVSPropertyOp19
 70
     1
102
RTVSPropertyOp20
 70
     1
102
RTVSPropertyOp21
 70
     1
102
RTVSPropertyOp22
 70
     1
102
RTVSPropertyOp23
 70
     1
102
RTVSPropertyOp24
 70
     1
102
RTVSPropertyOp25
 70
     1
102
RTVSPropertyOp26
 70
     1
102
RTVSPropertyOp27
 70
     1
102
RTVSPropertyOp28
 70
     1
102
RTVSPropertyOp29
 70
     1
102
RTVSPropertyOp30
 70
     1
102
RTVSPropertyOp31
 70
     1
102
RTVSPropertyOp32
 70
     1
102
RTVSPropertyOp33
 70
     1
102
RTVSPropertyOp34
 70
     1
102
RTVSPropertyOp35
 70
     1
102
RTVSPropertyOp36
 70
     1
102
RTVSPropertyOp37
 70
     1
102
RTVSPropertyOp38
 70
     1
102
RTVSPropertyOp39
 70
     1
102
RTVSPropertyOp40
 70
     1
102
RTVSPropertyOp41
 70
     1
102
RTVSPropertyOp42
 70
     1
102
RTVSPropertyOp43
 70
     1
102
RTVSPropertyOp44
 70
     1
102
RTVSPropertyOp45
 70
     1
102
RTVSPropertyOp46
 70
     1
102
RTVSPropertyOp47
 70
     1
102
RTVSPropertyOp48
 70
     1
102
RTVSPropertyOp49
 70
     1
102
RTVSPropertyOp50
 70
     1
102
RTVSPropertyOp51
 70
     0
102
RTVSPropertyOp52
 70
     0
102
RTVSPropertyOp53
 70
     1
102
RTVSPropertyOp54
 70
     1
102
RTVSPropertyOp55
 70
     1
102
RTVSPropertyOp56
 70
     1
102
RTVSPropertyOp57
 70
     1
102
RTVSPost2010Prop28
280
     0
102
RTVSPost2010PropOp28
 70
     1
102
RTVSPost2010Prop29
280
     1
102
RTVSPost2010PropOp29
 70
     1
102
RTVSPost2010Prop30
280
     1
102
RTVSPost2010PropOp30
 70
     1
102
RTVSPost2010Prop31
280
     0
102
RTVSPost2010PropOp31
 70
     1
102
RTVSPost2010Prop32
280
     0
102
RTVSPost2010PropOp32
 70
     1
102
RTVSPost2010Prop33
280
     0
102
RTVSPost2010PropOp33
 70
     1
102
RTVSPost2010Prop34
280
     0
102
RTVSPost2010PropOp34
 70
     1
102
RTVSPost2010Prop35
280
     0
102
RTVSPost2010PropOp35
 70
     1
102
RTVSPost2010Prop36
280
     0
102
RTVSPost2010PropOp36
 70
     1
102
RTVSPost2010Prop37
 90
       50
102
RTVSPost2010PropOp37
 70
     1
102
RTVSPost2010Prop38
140
0.0
102
RTVSPost2010PropOp38
 70
     1
102
RTVSPost2010Prop39
140
1.0
102
RTVSPost2010PropOp39
 70
     1
102
RTVSPost2010Prop40
 90
        0
102
RTVSPost2010PropOp40
 70
     1
102
RTVSPost2010Prop41ColorIndex
 90
       18
102
RTVSPost2010Prop41ColorRGB
 90
        0
102
RTVSPost2010PropOp41
 70
     1
102
RTVSPost2010Prop42
 90
       50
102
RTVSPost2010PropOp42
 70
     1
102
RTVSPost2010Prop43
 90
        3
102
RTVSPost2010PropOp43
 70
     1
102
RTVSPost2010Prop44ColorIndex
 90
        5
102
RTVSPost2010Prop44ColorRGB
 90
      255
102
RTVSPost2010PropOp44
 70
     1
102
RTVSPost2010Prop45
280
     0
102
RTVSPost2010PropOp45
 70
     1
102
RTVSPost2010Prop46
 90
       50
102
RTVSPost2010PropOp46
 70
     1
102
RTVSPost2010Prop47
 90
       50
102
RTVSPost2010PropOp47
 70
     1
102
RTVSPost2010Prop48
 90
       50
102
RTVSPost2010PropOp48
 70
     1
102
RTVSPost2010Prop49
280
     0
102
RTVSPost2010PropOp49
 70
     1
102
RTVSPost2010Prop50
 90
       50
102
RTVSPost2010PropOp50
 70
     1
102
RTVSPost2010Prop51ColorIndex
 90
      256
102
RTVSPost2010Prop51ColorRGB
 90
-16777216
102
RTVSPost2010PropOp51
 70
     0
102
RTVSPost2010Prop52
140
1.0
102
RTVSPost2010PropOp52
 70
     0
102
RTVSPost2010Prop53
 90
        2
102
RTVSPost2010PropOp53
 70
     1
102
RTVSPost2010Prop54
  1
strokes_ogs.tif
102
RTVSPost2010PropOp54
 70
     1
102
RTVSPost2010Prop55
280
     0
102
RTVSPost2010PropOp55
 70
     1
102
RTVSPost2010Prop56
140
1.0
102
RTVSPost2010PropOp56
 70
     1
102
RTVSPost2010Prop57
140
1.0
102
RTVSPost2010PropOp57
 70
     1
  0
XRECORD
  5
212
102
{ACAD_REACTORS
330
211
102
}
330
211
100
AcDbXrecord
280
     1
102
RTVSPropertyOp0
 70
     1
102
RTVSPropertyOp1
 70
     1
102
RTVSPropertyOp2
 70
     1
102
RTVSPropertyOp3
 70
     1
102
RTVSPropertyOp4
 70
     1
102
RTVSPropertyOp5
 70
     1
102
RTVSPropertyOp6
 70
     1
102
RTVSPropertyOp7
 70
     1
102
RTVSPropertyOp8
 70
     1
102
RTVSPropertyOp9
 70
     1
102
RTVSPropertyOp10
 70
     1
102
RTVSPropertyOp11
 70
     1
102
RTVSPropertyOp12
 70
     1
102
RTVSPropertyOp13
 70
     1
102
RTVSPropertyOp14
 70
     1
102
RTVSPropertyOp15
 70
     1
102
RTVSPropertyOp16
 70
     1
102
RTVSPropertyOp17
 70
     1
102
RTVSPropertyOp18
 70
     1
102
RTVSPropertyOp19
 70
     1
102
RTVSPropertyOp20
 70
     1
102
RTVSPropertyOp21
 70
     1
102
RTVSPropertyOp22
 70
     1
102
RTVSPropertyOp23
 70
     1
102
RTVSPropertyOp24
 70
     1
102
RTVSPropertyOp25
 70
     1
102
RTVSPropertyOp26
 70
     1
102
RTVSPropertyOp27
 70
     1
102
RTVSPropertyOp28
 70
     1
102
RTVSPropertyOp29
 70
     1
102
RTVSPropertyOp30
 70
     1
102
RTVSPropertyOp31
 70
     1
102
RTVSPropertyOp32
 70
     1
102
RTVSPropertyOp33
 70
     1
102
RTVSPropertyOp34
 70
     1
102
RTVSPropertyOp35
 70
     1
102
RTVSPropertyOp36
 70
     1
102
RTVSPropertyOp37
 70
     1
102
RTVSPropertyOp38
 70
     1
102
RTVSPropertyOp39
 70
     1
102
RTVSPropertyOp40
 70
     1
102
RTVSPropertyOp41
 70
     1
102
RTVSPropertyOp42
 70
     1
102
RTVSPropertyOp43
 70
     1
102
RTVSPropertyOp44
 70
     1
102
RTVSPropertyOp45
 70
     1
102
RTVSPropertyOp46
 70
     1
102
RTVSPropertyOp47
 70
     1
102
RTVSPropertyOp48
 70
     1
102
RTVSPropertyOp49
 70
     1
102
RTVSPropertyOp50
 70
     1
102
RTVSPropertyOp51
 70
     0
102
RTVSPropertyOp52
 70
     0
102
RTVSPropertyOp53
 70
     1
102
RTVSPropertyOp54
 70
     1
102
RTVSPropertyOp55
 70
     1
102
RTVSPropertyOp56
 70
     1
102
RTVSPropertyOp57
 70
     1
102
RTVSPost2010Prop28
280
     0
102
RTVSPost2010PropOp28
 70
     1
102
RTVSPost2010Prop29
280
     1
102
RTVSPost2010PropOp29
 70
     1
102
RTVSPost2010Prop30
280
     1
102
RTVSPost2010PropOp30
 70
     1
102
RTVSPost2010Prop31
280
     0
102
RTVSPost2010PropOp31
 70
     1
102
RTVSPost2010Prop32
280
     0
102
RTVSPost2010PropOp32
 70
     1
102
RTVSPost2010Prop33
280
     0
102
RTVSPost2010PropOp33
 70
     1
102
RTVSPost2010Prop34
280
     0
102
RTVSPost2010PropOp34
 70
     1
102
RTVSPost2010Prop35
280
     0
102
RTVSPost2010PropOp35
 70
     1
102
RTVSPost2010Prop36
280
     0
102
RTVSPost2010PropOp36
 70
     1
102
RTVSPost2010Prop37
 90
       50
102
RTVSPost2010PropOp37
 70
     1
102
RTVSPost2010Prop38
140
0.0
102
RTVSPost2010PropOp38
 70
     1
102
RTVSPost2010Prop39
140
1.0
102
RTVSPost2010PropOp39
 70
     1
102
RTVSPost2010Prop40
 90
        0
102
RTVSPost2010PropOp40
 70
     1
102
RTVSPost2010Prop41ColorIndex
 90
       18
102
RTVSPost2010Prop41ColorRGB
 90
        0
102
RTVSPost2010PropOp41
 70
     1
102
RTVSPost2010Prop42
 90
       50
102
RTVSPost2010PropOp42
 70
     1
102
RTVSPost2010Prop43
 90
        3
102
RTVSPost2010PropOp43
 70
     1
102
RTVSPost2010Prop44ColorIndex
 90
        5
102
RTVSPost2010Prop44ColorRGB
 90
      255
102
RTVSPost2010PropOp44
 70
     1
102
RTVSPost2010Prop45
280
     0
102
RTVSPost2010PropOp45
 70
     1
102
RTVSPost2010Prop46
 90
       50
102
RTVSPost2010PropOp46
 70
     1
102
RTVSPost2010Prop47
 90
       50
102
RTVSPost2010PropOp47
 70
     1
102
RTVSPost2010Prop48
 90
       50
102
RTVSPost2010PropOp48
 70
     1
102
RTVSPost2010Prop49
280
     0
102
RTVSPost2010PropOp49
 70
     1
102
RTVSPost2010Prop50
 90
       50
102
RTVSPost2010PropOp50
 70
     1
102
RTVSPost2010Prop51ColorIndex
 90
      256
102
RTVSPost2010Prop51ColorRGB
 90
-16777216
102
RTVSPost2010PropOp51
 70
     0
102
RTVSPost2010Prop52
140
1.0
102
RTVSPost2010PropOp52
 70
     0
102
RTVSPost2010Prop53
 90
        2
102
RTVSPost2010PropOp53
 70
     1
102
RTVSPost2010Prop54
  1
strokes_ogs.tif
102
RTVSPost2010PropOp54
 70
     1
102
RTVSPost2010Prop55
280
     0
102
RTVSPost2010PropOp55
 70
     1
102
RTVSPost2010Prop56
140
1.0
102
RTVSPost2010PropOp56
 70
     1
102
RTVSPost2010Prop57
140
1.0
102
RTVSPost2010PropOp57
 70
     1
  0
XRECORD
  5
20C
102
{ACAD_REACTORS
330
20B
102
}
330
20B
100
AcDbXrecord
280
     1
102
RTVSPropertyOp0
 70
     1
102
RTVSPropertyOp1
 70
     1
102
RTVSPropertyOp2
 70
     1
102
RTVSPropertyOp3
 70
     1
102
RTVSPropertyOp4
 70
     1
102
RTVSPropertyOp5
 70
     1
102
RTVSPropertyOp6
 70
     1
102
RTVSPropertyOp7
 70
     1
102
RTVSPropertyOp8
 70
     1
102
RTVSPropertyOp9
 70
     1
102
RTVSPropertyOp10
 70
     1
102
RTVSPropertyOp11
 70
     1
102
RTVSPropertyOp12
 70
     1
102
RTVSPropertyOp13
 70
     1
102
RTVSPropertyOp14
 70
     1
102
RTVSPropertyOp15
 70
     1
102
RTVSPropertyOp16
 70
     1
102
RTVSPropertyOp17
 70
     1
102
RTVSPropertyOp18
 70
     1
102
RTVSPropertyOp19
 70
     1
102
RTVSPropertyOp20
 70
     1
102
RTVSPropertyOp21
 70
     1
102
RTVSPropertyOp22
 70
     1
102
RTVSPropertyOp23
 70
     1
102
RTVSPropertyOp24
 70
     1
102
RTVSPropertyOp25
 70
     1
102
RTVSPropertyOp26
 70
     1
102
RTVSPropertyOp27
 70
     1
102
RTVSPropertyOp28
 70
     1
102
RTVSPropertyOp29
 70
     1
102
RTVSPropertyOp30
 70
     1
102
RTVSPropertyOp31
 70
     1
102
RTVSPropertyOp32
 70
     1
102
RTVSPropertyOp33
 70
     1
102
RTVSPropertyOp34
 70
     1
102
RTVSPropertyOp35
 70
     1
102
RTVSPropertyOp36
 70
     1
102
RTVSPropertyOp37
 70
     1
102
RTVSPropertyOp38
 70
     1
102
RTVSPropertyOp39
 70
     1
102
RTVSPropertyOp40
 70
     1
102
RTVSPropertyOp41
 70
     1
102
RTVSPropertyOp42
 70
     1
102
RTVSPropertyOp43
 70
     1
102
RTVSPropertyOp44
 70
     1
102
RTVSPropertyOp45
 70
     1
102
RTVSPropertyOp46
 70
     1
102
RTVSPropertyOp47
 70
     1
102
RTVSPropertyOp48
 70
     1
102
RTVSPropertyOp49
 70
     1
102
RTVSPropertyOp50
 70
     1
102
RTVSPropertyOp51
 70
     0
102
RTVSPropertyOp52
 70
     0
102
RTVSPropertyOp53
 70
     1
102
RTVSPropertyOp54
 70
     1
102
RTVSPropertyOp55
 70
     1
102
RTVSPropertyOp56
 70
     1
102
RTVSPropertyOp57
 70
     1
102
RTVSPost2010Prop28
280
     0
102
RTVSPost2010PropOp28
 70
     1
102
RTVSPost2010Prop29
280
     1
102
RTVSPost2010PropOp29
 70
     1
102
RTVSPost2010Prop30
280
     1
102
RTVSPost2010PropOp30
 70
     1
102
RTVSPost2010Prop31
280
     0
102
RTVSPost2010PropOp31
 70
     1
102
RTVSPost2010Prop32
280
     0
102
RTVSPost2010PropOp32
 70
     1
102
RTVSPost2010Prop33
280
     0
102
RTVSPost2010PropOp33
 70
     1
102
RTVSPost2010Prop34
280
     0
102
RTVSPost2010PropOp34
 70
     1
102
RTVSPost2010Prop35
280
     0
102
RTVSPost2010PropOp35
 70
     1
102
RTVSPost2010Prop36
280
     0
102
RTVSPost2010PropOp36
 70
     1
102
RTVSPost2010Prop37
 90
       50
102
RTVSPost2010PropOp37
 70
     1
102
RTVSPost2010Prop38
140
0.0
102
RTVSPost2010PropOp38
 70
     1
102
RTVSPost2010Prop39
140
1.0
102
RTVSPost2010PropOp39
 70
     1
102
RTVSPost2010Prop40
 90
        0
102
RTVSPost2010PropOp40
 70
     1
102
RTVSPost2010Prop41ColorIndex
 90
       18
102
RTVSPost2010Prop41ColorRGB
 90
        0
102
RTVSPost2010PropOp41
 70
     1
102
RTVSPost2010Prop42
 90
       50
102
RTVSPost2010PropOp42
 70
     1
102
RTVSPost2010Prop43
 90
        3
102
RTVSPost2010PropOp43
 70
     1
102
RTVSPost2010Prop44ColorIndex
 90
        5
102
RTVSPost2010Prop44ColorRGB
 90
      255
102
RTVSPost2010PropOp44
 70
     1
102
RTVSPost2010Prop45
280
     0
102
RTVSPost2010PropOp45
 70
     1
102
RTVSPost2010Prop46
 90
       50
102
RTVSPost2010PropOp46
 70
     1
102
RTVSPost2010Prop47
 90
       50
102
RTVSPost2010PropOp47
 70
     1
102
RTVSPost2010Prop48
 90
       50
102
RTVSPost2010PropOp48
 70
     1
102
RTVSPost2010Prop49
280
     0
102
RTVSPost2010PropOp49
 70
     1
102
RTVSPost2010Prop50
 90
       50
102
RTVSPost2010PropOp50
 70
     1
102
RTVSPost2010Prop51ColorIndex
 90
      256
102
RTVSPost2010Prop51ColorRGB
 90
-16777216
102
RTVSPost2010PropOp51
 70
     0
102
RTVSPost2010Prop52
140
1.0
102
RTVSPost2010PropOp52
 70
     0
102
RTVSPost2010Prop53
 90
        2
102
RTVSPost2010PropOp53
 70
     1
102
RTVSPost2010Prop54
  1
strokes_ogs.tif
102
RTVSPost2010PropOp54
 70
     1
102
RTVSPost2010Prop55
280
     0
102
RTVSPost2010PropOp55
 70
     1
102
RTVSPost2010Prop56
140
1.0
102
RTVSPost2010PropOp56
 70
     1
102
RTVSPost2010Prop57
140
1.0
102
RTVSPost2010PropOp57
 70
     1
  0
XRECORD
  5
20E
102
{ACAD_REACTORS
330
20D
102
}
330
20D
100
AcDbXrecord
280
     1
102
RTVSPropertyOp0
 70
     1
102
RTVSPropertyOp1
 70
     1
102
RTVSPropertyOp2
 70
     1
102
RTVSPropertyOp3
 70
     1
102
RTVSPropertyOp4
 70
     1
102
RTVSPropertyOp5
 70
     1
102
RTVSPropertyOp6
 70
     1
102
RTVSPropertyOp7
 70
     1
102
RTVSPropertyOp8
 70
     1
102
RTVSPropertyOp9
 70
     1
102
RTVSPropertyOp10
 70
     1
102
RTVSPropertyOp11
 70
     1
102
RTVSPropertyOp12
 70
     1
102
RTVSPropertyOp13
 70
     1
102
RTVSPropertyOp14
 70
     1
102
RTVSPropertyOp15
 70
     1
102
RTVSPropertyOp16
 70
     1
102
RTVSPropertyOp17
 70
     1
102
RTVSPropertyOp18
 70
     1
102
RTVSPropertyOp19
 70
     1
102
RTVSPropertyOp20
 70
     1
102
RTVSPropertyOp21
 70
     1
102
RTVSPropertyOp22
 70
     1
102
RTVSPropertyOp23
 70
     1
102
RTVSPropertyOp24
 70
     1
102
RTVSPropertyOp25
 70
     1
102
RTVSPropertyOp26
 70
     1
102
RTVSPropertyOp27
 70
     1
102
RTVSPropertyOp28
 70
     1
102
RTVSPropertyOp29
 70
     1
102
RTVSPropertyOp30
 70
     1
102
RTVSPropertyOp31
 70
     1
102
RTVSPropertyOp32
 70
     1
102
RTVSPropertyOp33
 70
     1
102
RTVSPropertyOp34
 70
     1
102
RTVSPropertyOp35
 70
     1
102
RTVSPropertyOp36
 70
     1
102
RTVSPropertyOp37
 70
     1
102
RTVSPropertyOp38
 70
     1
102
RTVSPropertyOp39
 70
     1
102
RTVSPropertyOp40
 70
     1
102
RTVSPropertyOp41
 70
     1
102
RTVSPropertyOp42
 70
     1
102
RTVSPropertyOp43
 70
     1
102
RTVSPropertyOp44
 70
     1
102
RTVSPropertyOp45
 70
     1
102
RTVSPropertyOp46
 70
     1
102
RTVSPropertyOp47
 70
     1
102
RTVSPropertyOp48
 70
     1
102
RTVSPropertyOp49
 70
     1
102
RTVSPropertyOp50
 70
     1
102
RTVSPropertyOp51
 70
     0
102
RTVSPropertyOp52
 70
     0
102
RTVSPropertyOp53
 70
     1
102
RTVSPropertyOp54
 70
     1
102
RTVSPropertyOp55
 70
     1
102
RTVSPropertyOp56
 70
     1
102
RTVSPropertyOp57
 70
     1
102
RTVSPost2010Prop28
280
     0
102
RTVSPost2010PropOp28
 70
     1
102
RTVSPost2010Prop29
280
     1
102
RTVSPost2010PropOp29
 70
     1
102
RTVSPost2010Prop30
280
     1
102
RTVSPost2010PropOp30
 70
     1
102
RTVSPost2010Prop31
280
     0
102
RTVSPost2010PropOp31
 70
     1
102
RTVSPost2010Prop32
280
     0
102
RTVSPost2010PropOp32
 70
     1
102
RTVSPost2010Prop33
280
     0
102
RTVSPost2010PropOp33
 70
     1
102
RTVSPost2010Prop34
280
     0
102
RTVSPost2010PropOp34
 70
     1
102
RTVSPost2010Prop35
280
     0
102
RTVSPost2010PropOp35
 70
     1
102
RTVSPost2010Prop36
280
     0
102
RTVSPost2010PropOp36
 70
     1
102
RTVSPost2010Prop37
 90
       50
102
RTVSPost2010PropOp37
 70
     1
102
RTVSPost2010Prop38
140
0.0
102
RTVSPost2010PropOp38
 70
     1
102
RTVSPost2010Prop39
140
1.0
102
RTVSPost2010PropOp39
 70
     1
102
RTVSPost2010Prop40
 90
        0
102
RTVSPost2010PropOp40
 70
     1
102
RTVSPost2010Prop41ColorIndex
 90
       18
102
RTVSPost2010Prop41ColorRGB
 90
        0
102
RTVSPost2010PropOp41
 70
     1
102
RTVSPost2010Prop42
 90
       50
102
RTVSPost2010PropOp42
 70
     1
102
RTVSPost2010Prop43
 90
        3
102
RTVSPost2010PropOp43
 70
     1
102
RTVSPost2010Prop44ColorIndex
 90
        5
102
RTVSPost2010Prop44ColorRGB
 90
      255
102
RTVSPost2010PropOp44
 70
     1
102
RTVSPost2010Prop45
280
     0
102
RTVSPost2010PropOp45
 70
     1
102
RTVSPost2010Prop46
 90
       50
102
RTVSPost2010PropOp46
 70
     1
102
RTVSPost2010Prop47
 90
       50
102
RTVSPost2010PropOp47
 70
     1
102
RTVSPost2010Prop48
 90
       50
102
RTVSPost2010PropOp48
 70
     1
102
RTVSPost2010Prop49
280
     0
102
RTVSPost2010PropOp49
 70
     1
102
RTVSPost2010Prop50
 90
       50
102
RTVSPost2010PropOp50
 70
     1
102
RTVSPost2010Prop51ColorIndex
 90
      256
102
RTVSPost2010Prop51ColorRGB
 90
-16777216
102
RTVSPost2010PropOp51
 70
     0
102
RTVSPost2010Prop52
140
1.0
102
RTVSPost2010PropOp52
 70
     0
102
RTVSPost2010Prop53
 90
        2
102
RTVSPost2010PropOp53
 70
     1
102
RTVSPost2010Prop54
  1
strokes_ogs.tif
102
RTVSPost2010PropOp54
 70
     1
102
RTVSPost2010Prop55
280
     0
102
RTVSPost2010PropOp55
 70
     1
102
RTVSPost2010Prop56
140
1.0
102
RTVSPost2010PropOp56
 70
     1
102
RTVSPost2010Prop57
140
1.0
102
RTVSPost2010PropOp57
 70
     1
  0
XRECORD
  5
1FE
102
{ACAD_REACTORS
330
1FD
102
}
330
1FD
100
AcDbXrecord
280
     1
102
RTVSPropertyOp0
 70
     1
102
RTVSPropertyOp1
 70
     1
102
RTVSPropertyOp2
 70
     1
102
RTVSPropertyOp3
 70
     1
102
RTVSPropertyOp4
 70
     1
102
RTVSPropertyOp5
 70
     1
102
RTVSPropertyOp6
 70
     1
102
RTVSPropertyOp7
 70
     1
102
RTVSPropertyOp8
 70
     1
102
RTVSPropertyOp9
 70
     1
102
RTVSPropertyOp10
 70
     1
102
RTVSPropertyOp11
 70
     1
102
RTVSPropertyOp12
 70
     1
102
RTVSPropertyOp13
 70
     1
102
RTVSPropertyOp14
 70
     1
102
RTVSPropertyOp15
 70
     1
102
RTVSPropertyOp16
 70
     1
102
RTVSPropertyOp17
 70
     1
102
RTVSPropertyOp18
 70
     1
102
RTVSPropertyOp19
 70
     1
102
RTVSPropertyOp20
 70
     1
102
RTVSPropertyOp21
 70
     1
102
RTVSPropertyOp22
 70
     1
102
RTVSPropertyOp23
 70
     1
102
RTVSPropertyOp24
 70
     1
102
RTVSPropertyOp25
 70
     1
102
RTVSPropertyOp26
 70
     1
102
RTVSPropertyOp27
 70
     1
102
RTVSPropertyOp28
 70
     1
102
RTVSPropertyOp29
 70
     1
102
RTVSPropertyOp30
 70
     1
102
RTVSPropertyOp31
 70
     1
102
RTVSPropertyOp32
 70
     1
102
RTVSPropertyOp33
 70
     1
102
RTVSPropertyOp34
 70
     1
102
RTVSPropertyOp35
 70
     1
102
RTVSPropertyOp36
 70
     1
102
RTVSPropertyOp37
 70
     1
102
RTVSPropertyOp38
 70
     1
102
RTVSPropertyOp39
 70
     1
102
RTVSPropertyOp40
 70
     1
102
RTVSPropertyOp41
 70
     1
102
RTVSPropertyOp42
 70
     1
102
RTVSPropertyOp43
 70
     1
102
RTVSPropertyOp44
 70
     1
102
RTVSPropertyOp45
 70
     1
102
RTVSPropertyOp46
 70
     1
102
RTVSPropertyOp47
 70
     1
102
RTVSPropertyOp48
 70
     1
102
RTVSPropertyOp49
 70
     1
102
RTVSPropertyOp50
 70
     1
102
RTVSPropertyOp51
 70
     0
102
RTVSPropertyOp52
 70
     0
102
RTVSPropertyOp53
 70
     1
102
RTVSPropertyOp54
 70
     1
102
RTVSPropertyOp55
 70
     1
102
RTVSPropertyOp56
 70
     1
102
RTVSPropertyOp57
 70
     1
102
RTVSPost2010Prop28
280
     0
102
RTVSPost2010PropOp28
 70
     1
102
RTVSPost2010Prop29
280
     1
102
RTVSPost2010PropOp29
 70
     1
102
RTVSPost2010Prop30
280
     1
102
RTVSPost2010PropOp30
 70
     1
102
RTVSPost2010Prop31
280
     0
102
RTVSPost2010PropOp31
 70
     1
102
RTVSPost2010Prop32
280
     0
102
RTVSPost2010PropOp32
 70
     1
102
RTVSPost2010Prop33
280
     0
102
RTVSPost2010PropOp33
 70
     1
102
RTVSPost2010Prop34
280
     0
102
RTVSPost2010PropOp34
 70
     1
102
RTVSPost2010Prop35
280
     0
102
RTVSPost2010PropOp35
 70
     1
102
RTVSPost2010Prop36
280
     0
102
RTVSPost2010PropOp36
 70
     1
102
RTVSPost2010Prop37
 90
       50
102
RTVSPost2010PropOp37
 70
     1
102
RTVSPost2010Prop38
140
0.0
102
RTVSPost2010PropOp38
 70
     1
102
RTVSPost2010Prop39
140
1.0
102
RTVSPost2010PropOp39
 70
     1
102
RTVSPost2010Prop40
 90
        0
102
RTVSPost2010PropOp40
 70
     1
102
RTVSPost2010Prop41ColorIndex
 90
       18
102
RTVSPost2010Prop41ColorRGB
 90
        0
102
RTVSPost2010PropOp41
 70
     1
102
RTVSPost2010Prop42
 90
       50
102
RTVSPost2010PropOp42
 70
     1
102
RTVSPost2010Prop43
 90
        3
102
RTVSPost2010PropOp43
 70
     1
102
RTVSPost2010Prop44ColorIndex
 90
        5
102
RTVSPost2010Prop44ColorRGB
 90
      255
102
RTVSPost2010PropOp44
 70
     1
102
RTVSPost2010Prop45
280
     0
102
RTVSPost2010PropOp45
 70
     1
102
RTVSPost2010Prop46
 90
       50
102
RTVSPost2010PropOp46
 70
     1
102
RTVSPost2010Prop47
 90
       50
102
RTVSPost2010PropOp47
 70
     1
102
RTVSPost2010Prop48
 90
       50
102
RTVSPost2010PropOp48
 70
     1
102
RTVSPost2010Prop49
280
     0
102
RTVSPost2010PropOp49
 70
     1
102
RTVSPost2010Prop50
 90
       50
102
RTVSPost2010PropOp50
 70
     1
102
RTVSPost2010Prop51ColorIndex
 90
      256
102
RTVSPost2010Prop51ColorRGB
 90
-16777216
102
RTVSPost2010PropOp51
 70
     0
102
RTVSPost2010Prop52
140
1.0
102
RTVSPost2010PropOp52
 70
     0
102
RTVSPost2010Prop53
 90
        2
102
RTVSPost2010PropOp53
 70
     1
102
RTVSPost2010Prop54
  1
strokes_ogs.tif
102
RTVSPost2010PropOp54
 70
     1
102
RTVSPost2010Prop55
280
     0
102
RTVSPost2010PropOp55
 70
     1
102
RTVSPost2010Prop56
140
1.0
102
RTVSPost2010PropOp56
 70
     1
102
RTVSPost2010Prop57
140
1.0
102
RTVSPost2010PropOp57
 70
     1
  0
XRECORD
  5
1F0
102
{ACAD_REACTORS
330
1EF
102
}
330
1EF
100
AcDbXrecord
280
     1
102
RTVSPropertyOp0
 70
     1
102
RTVSPropertyOp1
 70
     1
102
RTVSPropertyOp2
 70
     1
102
RTVSPropertyOp3
 70
     1
102
RTVSPropertyOp4
 70
     1
102
RTVSPropertyOp5
 70
     1
102
RTVSPropertyOp6
 70
     1
102
RTVSPropertyOp7
 70
     1
102
RTVSPropertyOp8
 70
     1
102
RTVSPropertyOp9
 70
     1
102
RTVSPropertyOp10
 70
     1
102
RTVSPropertyOp11
 70
     1
102
RTVSPropertyOp12
 70
     1
102
RTVSPropertyOp13
 70
     1
102
RTVSPropertyOp14
 70
     1
102
RTVSPropertyOp15
 70
     1
102
RTVSPropertyOp16
 70
     1
102
RTVSPropertyOp17
 70
     1
102
RTVSPropertyOp18
 70
     1
102
RTVSPropertyOp19
 70
     1
102
RTVSPropertyOp20
 70
     1
102
RTVSPropertyOp21
 70
     1
102
RTVSPropertyOp22
 70
     1
102
RTVSPropertyOp23
 70
     1
102
RTVSPropertyOp24
 70
     1
102
RTVSPropertyOp25
 70
     1
102
RTVSPropertyOp26
 70
     1
102
RTVSPropertyOp27
 70
     1
102
RTVSPropertyOp28
 70
     1
102
RTVSPropertyOp29
 70
     1
102
RTVSPropertyOp30
 70
     1
102
RTVSPropertyOp31
 70
     1
102
RTVSPropertyOp32
 70
     1
102
RTVSPropertyOp33
 70
     1
102
RTVSPropertyOp34
 70
     1
102
RTVSPropertyOp35
 70
     1
102
RTVSPropertyOp36
 70
     1
102
RTVSPropertyOp37
 70
     1
102
RTVSPropertyOp38
 70
     1
102
RTVSPropertyOp39
 70
     1
102
RTVSPropertyOp40
 70
     1
102
RTVSPropertyOp41
 70
     1
102
RTVSPropertyOp42
 70
     1
102
RTVSPropertyOp43
 70
     1
102
RTVSPropertyOp44
 70
     1
102
RTVSPropertyOp45
 70
     1
102
RTVSPropertyOp46
 70
     1
102
RTVSPropertyOp47
 70
     1
102
RTVSPropertyOp48
 70
     1
102
RTVSPropertyOp49
 70
     1
102
RTVSPropertyOp50
 70
     1
102
RTVSPropertyOp51
 70
     0
102
RTVSPropertyOp52
 70
     0
102
RTVSPropertyOp53
 70
     1
102
RTVSPropertyOp54
 70
     1
102
RTVSPropertyOp55
 70
     1
102
RTVSPropertyOp56
 70
     1
102
RTVSPropertyOp57
 70
     1
102
RTVSPost2010Prop28
280
     0
102
RTVSPost2010PropOp28
 70
     1
102
RTVSPost2010Prop29
280
     1
102
RTVSPost2010PropOp29
 70
     1
102
RTVSPost2010Prop30
280
     1
102
RTVSPost2010PropOp30
 70
     1
102
RTVSPost2010Prop31
280
     0
102
RTVSPost2010PropOp31
 70
     1
102
RTVSPost2010Prop32
280
     0
102
RTVSPost2010PropOp32
 70
     1
102
RTVSPost2010Prop33
280
     0
102
RTVSPost2010PropOp33
 70
     1
102
RTVSPost2010Prop34
280
     0
102
RTVSPost2010PropOp34
 70
     1
102
RTVSPost2010Prop35
280
     0
102
RTVSPost2010PropOp35
 70
     1
102
RTVSPost2010Prop36
280
     0
102
RTVSPost2010PropOp36
 70
     1
102
RTVSPost2010Prop37
 90
       50
102
RTVSPost2010PropOp37
 70
     1
102
RTVSPost2010Prop38
140
0.0
102
RTVSPost2010PropOp38
 70
     1
102
RTVSPost2010Prop39
140
1.0
102
RTVSPost2010PropOp39
 70
     1
102
RTVSPost2010Prop40
 90
        0
102
RTVSPost2010PropOp40
 70
     1
102
RTVSPost2010Prop41ColorIndex
 90
       18
102
RTVSPost2010Prop41ColorRGB
 90
        0
102
RTVSPost2010PropOp41
 70
     1
102
RTVSPost2010Prop42
 90
       50
102
RTVSPost2010PropOp42
 70
     1
102
RTVSPost2010Prop43
 90
        3
102
RTVSPost2010PropOp43
 70
     1
102
RTVSPost2010Prop44ColorIndex
 90
        5
102
RTVSPost2010Prop44ColorRGB
 90
      255
102
RTVSPost2010PropOp44
 70
     1
102
RTVSPost2010Prop45
280
     0
102
RTVSPost2010PropOp45
 70
     1
102
RTVSPost2010Prop46
 90
       50
102
RTVSPost2010PropOp46
 70
     1
102
RTVSPost2010Prop47
 90
       50
102
RTVSPost2010PropOp47
 70
     1
102
RTVSPost2010Prop48
 90
       50
102
RTVSPost2010PropOp48
 70
     1
102
RTVSPost2010Prop49
280
     0
102
RTVSPost2010PropOp49
 70
     1
102
RTVSPost2010Prop50
 90
       50
102
RTVSPost2010PropOp50
 70
     1
102
RTVSPost2010Prop51ColorIndex
 90
      256
102
RTVSPost2010Prop51ColorRGB
 90
-16777216
102
RTVSPost2010PropOp51
 70
     0
102
RTVSPost2010Prop52
140
1.0
102
RTVSPost2010PropOp52
 70
     0
102
RTVSPost2010Prop53
 90
        2
102
RTVSPost2010PropOp53
 70
     1
102
RTVSPost2010Prop54
  1
strokes_ogs.tif
102
RTVSPost2010PropOp54
 70
     1
102
RTVSPost2010Prop55
280
     0
102
RTVSPost2010PropOp55
 70
     1
102
RTVSPost2010Prop56
140
1.0
102
RTVSPost2010PropOp56
 70
     1
102
RTVSPost2010Prop57
140
1.0
102
RTVSPost2010PropOp57
 70
     1
  0
XRECORD
  5
210
102
{ACAD_REACTORS
330
20F
102
}
330
20F
100
AcDbXrecord
280
     1
102
RTVSPropertyOp0
 70
     1
102
RTVSPropertyOp1
 70
     1
102
RTVSPropertyOp2
 70
     1
102
RTVSPropertyOp3
 70
     1
102
RTVSPropertyOp4
 70
     1
102
RTVSPropertyOp5
 70
     1
102
RTVSPropertyOp6
 70
     1
102
RTVSPropertyOp7
 70
     1
102
RTVSPropertyOp8
 70
     1
102
RTVSPropertyOp9
 70
     1
102
RTVSPropertyOp10
 70
     1
102
RTVSPropertyOp11
 70
     1
102
RTVSPropertyOp12
 70
     1
102
RTVSPropertyOp13
 70
     1
102
RTVSPropertyOp14
 70
     1
102
RTVSPropertyOp15
 70
     1
102
RTVSPropertyOp16
 70
     1
102
RTVSPropertyOp17
 70
     1
102
RTVSPropertyOp18
 70
     1
102
RTVSPropertyOp19
 70
     1
102
RTVSPropertyOp20
 70
     1
102
RTVSPropertyOp21
 70
     1
102
RTVSPropertyOp22
 70
     1
102
RTVSPropertyOp23
 70
     1
102
RTVSPropertyOp24
 70
     1
102
RTVSPropertyOp25
 70
     1
102
RTVSPropertyOp26
 70
     1
102
RTVSPropertyOp27
 70
     1
102
RTVSPropertyOp28
 70
     1
102
RTVSPropertyOp29
 70
     1
102
RTVSPropertyOp30
 70
     1
102
RTVSPropertyOp31
 70
     1
102
RTVSPropertyOp32
 70
     1
102
RTVSPropertyOp33
 70
     1
102
RTVSPropertyOp34
 70
     1
102
RTVSPropertyOp35
 70
     1
102
RTVSPropertyOp36
 70
     1
102
RTVSPropertyOp37
 70
     1
102
RTVSPropertyOp38
 70
     1
102
RTVSPropertyOp39
 70
     1
102
RTVSPropertyOp40
 70
     1
102
RTVSPropertyOp41
 70
     1
102
RTVSPropertyOp42
 70
     1
102
RTVSPropertyOp43
 70
     1
102
RTVSPropertyOp44
 70
     1
102
RTVSPropertyOp45
 70
     1
102
RTVSPropertyOp46
 70
     1
102
RTVSPropertyOp47
 70
     1
102
RTVSPropertyOp48
 70
     1
102
RTVSPropertyOp49
 70
     1
102
RTVSPropertyOp50
 70
     1
102
RTVSPropertyOp51
 70
     0
102
RTVSPropertyOp52
 70
     0
102
RTVSPropertyOp53
 70
     1
102
RTVSPropertyOp54
 70
     1
102
RTVSPropertyOp55
 70
     1
102
RTVSPropertyOp56
 70
     1
102
RTVSPropertyOp57
 70
     1
102
RTVSPost2010Prop28
280
     0
102
RTVSPost2010PropOp28
 70
     1
102
RTVSPost2010Prop29
280
     1
102
RTVSPost2010PropOp29
 70
     1
102
RTVSPost2010Prop30
280
     1
102
RTVSPost2010PropOp30
 70
     1
102
RTVSPost2010Prop31
280
     0
102
RTVSPost2010PropOp31
 70
     1
102
RTVSPost2010Prop32
280
     0
102
RTVSPost2010PropOp32
 70
     1
102
RTVSPost2010Prop33
280
     0
102
RTVSPost2010PropOp33
 70
     1
102
RTVSPost2010Prop34
280
     0
102
RTVSPost2010PropOp34
 70
     1
102
RTVSPost2010Prop35
280
     0
102
RTVSPost2010PropOp35
 70
     1
102
RTVSPost2010Prop36
280
     0
102
RTVSPost2010PropOp36
 70
     1
102
RTVSPost2010Prop37
 90
       50
102
RTVSPost2010PropOp37
 70
     1
102
RTVSPost2010Prop38
140
0.0
102
RTVSPost2010PropOp38
 70
     1
102
RTVSPost2010Prop39
140
1.0
102
RTVSPost2010PropOp39
 70
     1
102
RTVSPost2010Prop40
 90
        0
102
RTVSPost2010PropOp40
 70
     1
102
RTVSPost2010Prop41ColorIndex
 90
       18
102
RTVSPost2010Prop41ColorRGB
 90
        0
102
RTVSPost2010PropOp41
 70
     1
102
RTVSPost2010Prop42
 90
       50
102
RTVSPost2010PropOp42
 70
     1
102
RTVSPost2010Prop43
 90
        3
102
RTVSPost2010PropOp43
 70
     1
102
RTVSPost2010Prop44ColorIndex
 90
        5
102
RTVSPost2010Prop44ColorRGB
 90
      255
102
RTVSPost2010PropOp44
 70
     1
102
RTVSPost2010Prop45
280
     0
102
RTVSPost2010PropOp45
 70
     1
102
RTVSPost2010Prop46
 90
       50
102
RTVSPost2010PropOp46
 70
     1
102
RTVSPost2010Prop47
 90
       50
102
RTVSPost2010PropOp47
 70
     1
102
RTVSPost2010Prop48
 90
       50
102
RTVSPost2010PropOp48
 70
     1
102
RTVSPost2010Prop49
280
     0
102
RTVSPost2010PropOp49
 70
     1
102
RTVSPost2010Prop50
 90
       50
102
RTVSPost2010PropOp50
 70
     1
102
RTVSPost2010Prop51ColorIndex
 90
      256
102
RTVSPost2010Prop51ColorRGB
 90
-16777216
102
RTVSPost2010PropOp51
 70
     0
102
RTVSPost2010Prop52
140
1.0
102
RTVSPost2010PropOp52
 70
     0
102
RTVSPost2010Prop53
 90
        2
102
RTVSPost2010PropOp53
 70
     1
102
RTVSPost2010Prop54
  1
strokes_ogs.tif
102
RTVSPost2010PropOp54
 70
     1
102
RTVSPost2010Prop55
280
     0
102
RTVSPost2010PropOp55
 70
     1
102
RTVSPost2010Prop56
140
1.0
102
RTVSPost2010PropOp56
 70
     1
102
RTVSPost2010Prop57
140
1.0
102
RTVSPost2010PropOp57
 70
     1
  0
ENDSEC
  0
EOF
