  0
SECTION
  2
HEADER
  9
$ACADVER
  1
AC1018
  9
$ACADMAINTVER
 70
     0
  9
$DWGCODEPAGE
  3
ANSI_1252
  9
$INSBASE
 10
0.0
 20
0.0
 30
0.0
  9
$EXTMIN
 10
655.9952837068837
 20
0.0000001450523825
 30
0.0
  9
$EXTMAX
 10
2358.600314754389
 20
2100.604413828711
 30
0.0
  9
$LIMMIN
 10
0.0
 20
0.0
  9
$LIMMAX
 10
12.0
 20
9.0
  9
$ORTHOMODE
 70
     0
  9
$REGENMODE
 70
     1
  9
$FILLMODE
 70
     1
  9
$QTEXTMODE
 70
     0
  9
$MIRRTEXT
 70
     1
  9
$LTSCALE
 40
1.0
  9
$ATTMODE
 70
     1
  9
$TEXTSIZE
 40
0.2
  9
$TRACEWID
 40
0.05
  9
$TEXTSTYLE
  7
Standard
  9
$CLAYER
  8
Predefinito
  9
$CELTYPE
  6
ByLayer
  9
$CECOLOR
 62
   256
  9
$CELTSCALE
 40
1.0
  9
$DISPSILH
 70
     0
  9
$DIMSCALE
 40
1.0
  9
$DIMASZ
 40
0.18
  9
$DIMEXO
 40
0.0625
  9
$DIMDLI
 40
0.38
  9
$DIMRND
 40
0.0
  9
$DIMDLE
 40
0.0
  9
$DIMEXE
 40
0.18
  9
$DIMTP
 40
0.0
  9
$DIMTM
 40
0.0
  9
$DIMTXT
 40
0.18
  9
$DIMCEN
 40
0.09
  9
$DIMTSZ
 40
0.0
  9
$DIMTOL
 70
     0
  9
$DIMLIM
 70
     0
  9
$DIMTIH
 70
     1
  9
$DIMTOH
 70
     1
  9
$DIMSE1
 70
     0
  9
$DIMSE2
 70
     0
  9
$DIMTAD
 70
     0
  9
$DIMZIN
 70
     0
  9
$DIMBLK
  1

  9
$DIMASO
 70
     1
  9
$DIMSHO
 70
     1
  9
$DIMPOST
  1

  9
$DIMAPOST
  1

  9
$DIMALT
 70
     0
  9
$DIMALTD
 70
     2
  9
$DIMALTF
 40
25.4
  9
$DIMLFAC
 40
1.0
  9
$DIMTOFL
 70
     0
  9
$DIMTVP
 40
0.0
  9
$DIMTIX
 70
     0
  9
$DIMSOXD
 70
     0
  9
$DIMSAH
 70
     0
  9
$DIMBLK1
  1

  9
$DIMBLK2
  1

  9
$DIMSTYLE
  2
Standard
  9
$DIMCLRD
 70
     0
  9
$DIMCLRE
 70
     0
  9
$DIMCLRT
 70
     0
  9
$DIMTFAC
 40
1.0
  9
$DIMGAP
 40
0.09
  9
$DIMJUST
 70
     0
  9
$DIMSD1
 70
     0
  9
$DIMSD2
 70
     0
  9
$DIMTOLJ
 70
     1
  9
$DIMTZIN
 70
     0
  9
$DIMALTZ
 70
     0
  9
$DIMALTTZ
 70
     0
  9
$DIMUPT
 70
     0
  9
$DIMDEC
 70
     4
  9
$DIMTDEC
 70
     4
  9
$DIMALTU
 70
     2
  9
$DIMALTTD
 70
     2
  9
$DIMTXSTY
  7
Standard
  9
$DIMAUNIT
 70
     0
  9
$DIMADEC
 70
     0
  9
$DIMALTRND
 40
0.0
  9
$DIMAZIN
 70
     0
  9
$DIMDSEP
 70
    46
  9
$DIMATFIT
 70
     3
  9
$DIMFRAC
 70
     0
  9
$DIMLDRBLK
  1

  9
$DIMLUNIT
 70
     2
  9
$DIMLWD
 70
    -2
  9
$DIMLWE
 70
    -2
  9
$DIMTMOVE
 70
     2
  9
$LUNITS
 70
     2
  9
$LUPREC
 70
     3
  9
$SKETCHINC
 40
0.1
  9
$FILLETRAD
 40
0.5
  9
$AUNITS
 70
     0
  9
$AUPREC
 70
     0
  9
$MENU
  1
.
  9
$ELEVATION
 40
0.0
  9
$PELEVATION
 40
0.0
  9
$THICKNESS
 40
0.0
  9
$LIMCHECK
 70
     0
  9
$CHAMFERA
 40
0.5
  9
$CHAMFERB
 40
0.5
  9
$CHAMFERC
 40
1.0
  9
$CHAMFERD
 40
0.0
  9
$SKPOLY
 70
     0
  9
$TDCREATE
 40
2458261.652547465
  9
$TDUCREATE
 40
2458261.569214132
  9
$TDUPDATE
 40
2458261.652547477
  9
$TDUUPDATE
 40
2458261.569214143
  9
$TDINDWG
 40
0.0000000116
  9
$TDUSRTIMER
 40
0.0000000116
  9
$USRTIMER
 70
     1
  9
$ANGBASE
 50
0.0
  9
$ANGDIR
 70
     0
  9
$PDMODE
 70
     0
  9
$PDSIZE
 40
0.0
  9
$PLINEWID
 40
0.0
  9
$SPLFRAME
 70
     0
  9
$SPLINETYPE
 70
     6
  9
$SPLINESEGS
 70
     8
  9
$HANDSEED
  5
206
  9
$SURFTAB1
 70
     6
  9
$SURFTAB2
 70
     6
  9
$SURFTYPE
 70
     6
  9
$SURFU
 70
     6
  9
$SURFV
 70
     6
  9
$UCSBASE
  2

  9
$UCSNAME
  2

  9
$UCSORG
 10
0.0
 20
0.0
 30
0.0
  9
$UCSXDIR
 10
1.0
 20
0.0
 30
0.0
  9
$UCSYDIR
 10
0.0
 20
1.0
 30
0.0
  9
$UCSORTHOREF
  2

  9
$UCSORTHOVIEW
 70
     0
  9
$UCSORGTOP
 10
0.0
 20
0.0
 30
0.0
  9
$UCSORGBOTTOM
 10
0.0
 20
0.0
 30
0.0
  9
$UCSORGLEFT
 10
0.0
 20
0.0
 30
0.0
  9
$UCSORGRIGHT
 10
0.0
 20
0.0
 30
0.0
  9
$UCSORGFRONT
 10
0.0
 20
0.0
 30
0.0
  9
$UCSORGBACK
 10
0.0
 20
0.0
 30
0.0
  9
$PUCSBASE
  2

  9
$PUCSNAME
  2

  9
$PUCSORG
 10
0.0
 20
0.0
 30
0.0
  9
$PUCSXDIR
 10
1.0
 20
0.0
 30
0.0
  9
$PUCSYDIR
 10
0.0
 20
1.0
 30
0.0
  9
$PUCSORTHOREF
  2

  9
$PUCSORTHOVIEW
 70
     0
  9
$PUCSORGTOP
 10
0.0
 20
0.0
 30
0.0
  9
$PUCSORGBOTTOM
 10
0.0
 20
0.0
 30
0.0
  9
$PUCSORGLEFT
 10
0.0
 20
0.0
 30
0.0
  9
$PUCSORGRIGHT
 10
0.0
 20
0.0
 30
0.0
  9
$PUCSORGFRONT
 10
0.0
 20
0.0
 30
0.0
  9
$PUCSORGBACK
 10
0.0
 20
0.0
 30
0.0
  9
$USERI1
 70
     0
  9
$USERI2
 70
     0
  9
$USERI3
 70
     0
  9
$USERI4
 70
     0
  9
$USERI5
 70
     0
  9
$USERR1
 40
0.0
  9
$USERR2
 40
0.0
  9
$USERR3
 40
0.0
  9
$USERR4
 40
0.0
  9
$USERR5
 40
0.0
  9
$WORLDVIEW
 70
     1
  9
$SHADEDGE
 70
     3
  9
$SHADEDIF
 70
    70
  9
$TILEMODE
 70
     1
  9
$MAXACTVP
 70
    64
  9
$PINSBASE
 10
0.0
 20
0.0
 30
0.0
  9
$PLIMCHECK
 70
     0
  9
$PEXTMIN
 10
1.000000000000000E+20
 20
1.000000000000000E+20
 30
1.000000000000000E+20
  9
$PEXTMAX
 10
-1.000000000000000E+20
 20
-1.000000000000000E+20
 30
-1.000000000000000E+20
  9
$PLIMMIN
 10
0.0
 20
0.0
  9
$PLIMMAX
 10
12.0
 20
9.0
  9
$UNITMODE
 70
     0
  9
$VISRETAIN
 70
     1
  9
$PLINEGEN
 70
     0
  9
$PSLTSCALE
 70
     1
  9
$TREEDEPTH
 70
  3020
  9
$CMLSTYLE
  2
Standard
  9
$CMLJUST
 70
     0
  9
$CMLSCALE
 40
1.0
  9
$PROXYGRAPHICS
 70
     1
  9
$MEASUREMENT
 70
     0
  9
$CELWEIGHT
370
    -1
  9
$ENDCAPS
280
     0
  9
$JOINSTYLE
280
     0
  9
$LWDISPLAY
290
     0
  9
$INSUNITS
 70
     4
  9
$HYPERLINKBASE
  1

  9
$STYLESHEET
  1

  9
$XEDIT
290
     1
  9
$CEPSNTYPE
380
     0
  9
$PSTYLEMODE
290
     1
  9
$FINGERPRINTGUID
  2
{1F9FBD12-068A-4A06-A577-50EABC4C6C72}
  9
$VERSIONGUID
  2
{FAEB1C32-E019-11D5-929B-00C0DF256EC4}
  9
$EXTNAMES
290
     1
  9
$PSVPSCALE
 40
0.0
  9
$OLESTARTUP
290
     0
  9
$SORTENTS
280
   127
  9
$INDEXCTL
280
     0
  9
$HIDETEXT
280
     1
  9
$XCLIPFRAME
290
     0
  9
$HALOGAP
280
     0
  9
$OBSCOLOR
 70
   257
  9
$OBSLTYPE
280
     0
  9
$INTERSECTIONDISPLAY
280
     0
  9
$INTERSECTIONCOLOR
 70
   257
  9
$DIMASSOC
280
     2
  9
$PROJECTNAME
  1

  0
ENDSEC
  0
SECTION
  2
CLASSES
  0
CLASS
  1
ACDBDICTIONARYWDFLT
  2
AcDbDictionaryWithDefault
  3
ObjectDBX Classes
 90
        0
 91
        4
280
     0
281
     0
  0
CLASS
  1
VISUALSTYLE
  2
AcDbVisualStyle
  3
ObjectDBX Classes
 90
     4095
 91
        4
280
     0
281
     0
  0
ENDSEC
  0
SECTION
  2
TABLES
  0
TABLE
  2
VPORT
  5
8
330
0
100
AcDbSymbolTable
 70
     1
  0
VPORT
  5
29
330
8
100
AcDbSymbolTableRecord
100
AcDbViewportTableRecord
  2
*Active
 70
     0
 10
0.0
 20
0.0
 11
1.0
 21
1.0
 12
1507.297799230636
 22
1050.302206986882
 13
0.0
 23
0.0
 14
0.5
 24
0.5
 15
0.5
 25
0.5
 16
0.0
 26
0.0
 36
1.0
 17
0.0
 27
0.0
 37
0.0
 40
2142.616501957331
 41
0.8105310166714284
 42
50.0
 43
0.0
 44
0.0
 50
0.0
 51
0.0
 71
     0
 72
   100
 73
     1
 74
     3
 75
     0
 76
     0
 77
     0
 78
     0
281
     0
 65
     1
110
0.0
120
0.0
130
0.0
111
1.0
121
0.0
131
0.0
112
0.0
122
1.0
132
0.0
 79
     0
146
0.0
  0
ENDTAB
  0
TABLE
  2
LTYPE
  5
5
330
0
100
AcDbSymbolTable
 70
     1
  0
LTYPE
  5
14
330
5
100
AcDbSymbolTableRecord
100
AcDbLinetypeTableRecord
  2
ByBlock
 70
     0
  3

 72
    65
 73
     0
 40
0.0
  0
LTYPE
  5
15
330
5
100
AcDbSymbolTableRecord
100
AcDbLinetypeTableRecord
  2
ByLayer
 70
     0
  3

 72
    65
 73
     0
 40
0.0
  0
LTYPE
  5
16
330
5
100
AcDbSymbolTableRecord
100
AcDbLinetypeTableRecord
  2
Continuous
 70
     0
  3
Solid line
 72
    65
 73
     0
 40
0.0
  0
ENDTAB
  0
TABLE
  2
LAYER
  5
2
330
0
100
AcDbSymbolTable
 70
     2
  0
LAYER
  5
10
330
2
100
AcDbSymbolTableRecord
100
AcDbLayerTableRecord
  2
0
 70
     0
 62
     7
  6
Continuous
370
    -3
390
F
  0
LAYER
  5
3B
330
2
100
AcDbSymbolTableRecord
100
AcDbLayerTableRecord
  2
Predefinito
 70
     0
 62
     7
  6
Continuous
370
    -3
390
F
  0
ENDTAB
  0
TABLE
  2
STYLE
  5
3
330
0
100
AcDbSymbolTable
 70
     1
  0
STYLE
  5
11
330
3
100
AcDbSymbolTableRecord
100
AcDbTextStyleTableRecord
  2
Standard
 70
     0
 40
0.0
 41
1.0
 50
0.0
 71
     0
 42
0.2
  3
txt
  4

  0
ENDTAB
  0
TABLE
  2
VIEW
  5
6
330
0
100
AcDbSymbolTable
 70
     0
  0
ENDTAB
  0
TABLE
  2
UCS
  5
7
330
0
100
AcDbSymbolTable
 70
     0
  0
ENDTAB
  0
TABLE
  2
APPID
  5
9
330
0
100
AcDbSymbolTable
 70
     1
  0
APPID
  5
12
330
9
100
AcDbSymbolTableRecord
100
AcDbRegAppTableRecord
  2
ACAD
 70
     0
  0
ENDTAB
  0
TABLE
  2
DIMSTYLE
  5
A
330
0
100
AcDbSymbolTable
 70
     1
100
AcDbDimStyleTable
  0
DIMSTYLE
105
27
330
A
100
AcDbSymbolTableRecord
100
AcDbDimStyleTableRecord
  2
Standard
 70
     0
340
11
  0
ENDTAB
  0
TABLE
  2
BLOCK_RECORD
  5
1
330
0
100
AcDbSymbolTable
 70
     1
  0
BLOCK_RECORD
  5
1F
330
1
100
AcDbSymbolTableRecord
100
AcDbBlockTableRecord
  2
*Model_Space
340
22
  0
BLOCK_RECORD
  5
1B
330
1
100
AcDbSymbolTableRecord
100
AcDbBlockTableRecord
  2
*Paper_Space
340
1E
  0
BLOCK_RECORD
  5
23
330
1
100
AcDbSymbolTableRecord
100
AcDbBlockTableRecord
  2
*Paper_Space0
340
26
  0
ENDTAB
  0
ENDSEC
  0
SECTION
  2
BLOCKS
  0
BLOCK
  5
20
330
1F
100
AcDbEntity
  8
0
100
AcDbBlockBegin
  2
*Model_Space
 70
     0
 10
0.0
 20
0.0
 30
0.0
  3
*Model_Space
  1

  0
ENDBLK
  5
21
330
1F
100
AcDbEntity
  8
0
100
AcDbBlockEnd
  0
BLOCK
  5
1C
330
1B
100
AcDbEntity
 67
     1
  8
0
100
AcDbBlockBegin
  2
*Paper_Space
 70
     0
 10
0.0
 20
0.0
 30
0.0
  3
*Paper_Space
  1

  0
ENDBLK
  5
1D
330
1B
100
AcDbEntity
 67
     1
  8
0
100
AcDbBlockEnd
  0
BLOCK
  5
24
330
23
100
AcDbEntity
  8
0
100
AcDbBlockBegin
  2
*Paper_Space0
 70
     0
 10
0.0
 20
0.0
 30
0.0
  3
*Paper_Space0
  1

  0
ENDBLK
  5
25
330
23
100
AcDbEntity
  8
0
100
AcDbBlockEnd
  0
ENDSEC
  0
SECTION
  2
ENTITIES
  0
LINE
  5
3C
330
1F
100
AcDbEntity
  8
Predefinito
100
AcDbLine
 10
2245.38238681049
 20
1872.600236927246
 30
0.0
 11
2245.500261201978
 21
1974.100236927246
 31
0.0
  0
LINE
  5
3D
330
1F
100
AcDbEntity
  8
Predefinito
100
AcDbLine
 10
2251.700260538341
 20
1974.100236927246
 30
0.0
 11
2251.580648748846
 21
1872.600236927246
 31
0.0
  0
SPLINE
  5
3E
330
1F
100
AcDbEntity
  8
Predefinito
100
AcDbSpline
210
0.0
220
0.0
230
1.0
 70
    24
 71
     2
 72
     6
 73
     3
 74
     0
 42
0.0000000001
 43
0.0000000001
 40
0.0
 40
0.0
 40
0.0
 40
0.7820383260363997
 40
0.7820383260363997
 40
0.7820383260363997
 10
2251.700289114431
 20
2072.600156297348
 30
0.0
 10
2251.700289114176
 20
2072.20913713433
 30
0.0
 10
2251.70028911392
 20
2071.818117971312
 30
0.0
  0
SPLINE
  5
3F
330
1F
100
AcDbEntity
  8
Predefinito
100
AcDbSpline
210
0.0
220
0.0
230
1.0
 70
    24
 71
     2
 72
     6
 73
     3
 74
     0
 42
0.0000000001
 43
0.0000000001
 40
0.0
 40
0.0
 40
0.0
 40
0.6118949536603395
 40
0.6118949536603395
 40
0.6118949536603395
 10
2245.500289114275
 20
2071.818119983544
 30
0.0
 10
2245.500289114214
 20
2072.124067460374
 30
0.0
 10
2245.500289114152
 20
2072.430014937206
 30
0.0
  0
SPLINE
  5
40
330
1F
100
AcDbEntity
  8
Predefinito
100
AcDbSpline
210
0.0
220
0.0
230
1.0
 70
    24
 71
     2
 72
     6
 73
     3
 74
     0
 42
0.0000000001
 43
0.0000000001
 40
0.0
 40
0.0
 40
0.0
 40
2.302963505895832
 40
2.302963505895832
 40
2.302963505895832
 10
2251.700289114179
 20
2031.295521612398
 30
0.0
 10
2251.700289113554
 20
2030.14403985945
 30
0.0
 10
2251.700289112928
 20
2028.992558106503
 30
0.0
  0
SPLINE
  5
41
330
1F
100
AcDbEntity
  8
Predefinito
100
AcDbSpline
210
0.0
220
0.0
230
1.0
 70
    24
 71
     2
 72
     6
 73
     3
 74
     0
 42
0.0000000001
 43
0.0000000001
 40
0.0
 40
0.0
 40
0.0
 40
42.80767941753675
 40
42.80767941753675
 40
42.80767941753675
 10
2245.50028911286
 20
2028.992557509125
 30
0.0
 10
2245.50028911357
 20
2050.396397217893
 30
0.0
 10
2245.50028911428
 20
2071.800236926661
 30
0.0
  0
SPLINE
  5
42
330
1F
100
AcDbEntity
  8
Predefinito
100
AcDbSpline
210
0.0
220
0.0
230
1.0
 70
    24
 71
     2
 72
     6
 73
     3
 74
     0
 42
0.0000000001
 43
0.0000000001
 40
0.0
 40
0.0
 40
0.0
 40
0.1701954876707532
 40
0.1701954876707532
 40
0.1701954876707532
 10
2245.500289113779
 20
2072.430014939063
 30
0.0
 10
2245.50028911377
 20
2072.515112682899
 30
0.0
 10
2245.500289113761
 20
2072.600210426734
 30
0.0
  0
SPLINE
  5
43
330
1F
100
AcDbEntity
  8
Predefinito
100
AcDbSpline
210
0.0
220
0.0
230
1.0
 70
    24
 71
     2
 72
     6
 73
     3
 74
     0
 42
0.0000000001
 43
0.0000000001
 40
0.0
 40
0.0
 40
0.0
 40
40.50471531429275
 40
40.50471531429275
 40
40.50471531429275
 10
2251.700289113906
 20
2071.800236926752
 30
0.0
 10
2251.700289114
 20
2051.547879269607
 30
0.0
 10
2251.700289114093
 20
2031.295521612459
 30
0.0
  0
SPLINE
  5
44
330
1F
100
AcDbEntity
  8
Predefinito
100
AcDbSpline
210
0.0
220
0.0
230
1.0
 70
    24
 71
     2
 72
     6
 73
     3
 74
     0
 42
0.0000000001
 43
0.0000000001
 40
0.0
 40
0.0
 40
0.0
 40
1.88860374768683
 40
1.88860374768683
 40
1.88860374768683
 10
2251.700289112928
 20
2028.988840674933
 30
0.0
 10
2251.700289113948
 20
2028.04453880109
 30
0.0
 10
2251.700289114967
 20
2027.100236927246
 30
0.0
  0
SPLINE
  5
45
330
1F
100
AcDbEntity
  8
Predefinito
100
AcDbSpline
210
0.0
220
0.0
230
1.0
 70
    24
 71
     2
 72
     6
 73
     3
 74
     0
 42
0.0000000001
 43
0.0000000001
 40
0.0
 40
0.0
 40
0.0
 40
1.88772635745454
 40
1.88772635745454
 40
1.88772635745454
 10
2245.500289114973
 20
2027.100236927246
 30
0.0
 10
2245.500289113915
 20
2028.044100105974
 30
0.0
 10
2245.500289112859
 20
2028.987963284701
 30
0.0
  0
SPLINE
  5
46
330
1F
100
AcDbEntity
  8
Predefinito
100
AcDbSpline
210
0.0
220
0.0
230
1.0
 70
    24
 71
     2
 72
     6
 73
     3
 74
     0
 42
0.0000000001
 43
0.0000000001
 40
0.0
 40
0.0
 40
0.0
 40
2.666687388892342
 40
2.666687388892342
 40
2.666687388892342
 10
2251.700289114485
 20
2024.100236927246
 30
0.0
 10
2251.70028911401
 20
2022.766893232801
 30
0.0
 10
2251.700289113536
 20
2021.433549538354
 30
0.0
  0
SPLINE
  5
47
330
1F
100
AcDbEntity
  8
Predefinito
100
AcDbSpline
210
0.0
220
0.0
230
1.0
 70
    24
 71
     2
 72
     6
 73
     3
 74
     0
 42
0.0000000001
 43
0.0000000001
 40
0.0
 40
0.0
 40
0.0
 40
2.666689398832887
 40
2.666689398832887
 40
2.666689398832887
 10
2245.50028911345
 20
2021.433547528413
 30
0.0
 10
2245.500289113973
 20
2022.76689222783
 30
0.0
 10
2245.500289114495
 20
2024.100236927246
 30
0.0
  0
SPLINE
  5
48
330
1F
100
AcDbEntity
  8
Predefinito
100
AcDbSpline
210
0.0
220
0.0
230
1.0
 70
    24
 71
     2
 72
     6
 73
     3
 74
     0
 42
0.0000000001
 43
0.0000000001
 40
0.0
 40
0.0
 40
0.0
 40
10.19085581008858
 40
10.19085581008858
 40
10.19085581008858
 10
2251.700289102206
 20
1991.55418037183
 30
0.0
 10
2251.700289111317
 20
1986.458752466785
 30
0.0
 10
2251.700289120425
 20
1981.363324561741
 30
0.0
  0
SPLINE
  5
49
330
1F
100
AcDbEntity
  8
Predefinito
100
AcDbSpline
210
0.0
220
0.0
230
1.0
 70
    28
 71
     2
 72
     6
 73
     3
 74
     0
 42
0.0000000001
 43
0.0000000001
 40
0.0
 40
0.0
 40
0.0
 40
20.37139048860035
 40
20.37139048860035
 40
20.37139048860035
 10
2245.500288970458
 20
1981.363326219229
 30
0.0
 41
1.0
 10
2245.500288938099
 20
1991.549021463529
 30
0.0
 41
1.0
 10
2245.500288905739
 20
2001.73471670783
 30
0.0
 41
1.0
  0
SPLINE
  5
4A
330
1F
100
AcDbEntity
  8
Predefinito
100
AcDbSpline
210
0.0
220
0.0
230
1.0
 70
    24
 71
     2
 72
     6
 73
     3
 74
     0
 42
0.0000000001
 43
0.0000000001
 40
0.0
 40
0.0
 40
0.0
 40
2.880904406355626
 40
2.880904406355626
 40
2.880904406355626
 10
2242.619384706521
 20
2071.800236927246
 30
0.0
 10
2244.059836909698
 20
2071.800236927246
 30
0.0
 10
2245.500289112876
 20
2071.800236927246
 30
0.0
  0
SPLINE
  5
4B
330
1F
100
AcDbEntity
  8
Predefinito
100
AcDbSpline
210
0.0
220
0.0
230
1.0
 70
    24
 71
     2
 72
     6
 73
     3
 74
     0
 42
0.0000000001
 43
0.0000000001
 40
0.0
 40
0.0
 40
0.0
 40
2.880904406355626
 40
2.880904406355626
 40
2.880904406355626
 10
2251.738480300165
 20
2071.800236927246
 30
0.0
 10
2253.178932503343
 20
2071.800236927246
 30
0.0
 10
2254.619384706521
 20
2071.800236927246
 30
0.0
  0
SPLINE
  5
4C
330
1F
100
AcDbEntity
  8
Predefinito
100
AcDbSpline
210
0.0
220
0.0
230
1.0
 70
    24
 71
     2
 72
     6
 73
     3
 74
     0
 42
0.0000000001
 43
0.0000000001
 40
0.0
 40
0.0
 40
0.0
 40
0.2000000000000455
 40
0.2000000000000455
 40
0.2000000000000455
 10
2242.91938470652
 20
2071.800236927246
 30
0.0
 10
2242.91938470652
 20
2071.700236927246
 30
0.0
 10
2242.91938470652
 20
2071.600236927246
 30
0.0
  0
SPLINE
  5
4D
330
1F
100
AcDbEntity
  8
Predefinito
100
AcDbSpline
210
0.0
220
0.0
230
1.0
 70
    24
 71
     2
 72
     6
 73
     3
 74
     0
 42
0.0000000001
 43
0.0000000001
 40
0.0
 40
0.0
 40
0.0
 40
2.900000001406511
 40
2.900000001406511
 40
2.900000001406511
 10
2254.619384706521
 20
2071.600236927246
 30
0.0
 10
2253.169384705817
 20
2071.600236927246
 30
0.0
 10
2251.719384705114
 20
2071.600236927246
 30
0.0
  0
SPLINE
  5
4E
330
1F
100
AcDbEntity
  8
Predefinito
100
AcDbSpline
210
0.0
220
0.0
230
1.0
 70
    24
 71
     2
 72
     6
 73
     3
 74
     0
 42
0.0000000001
 43
0.0000000001
 40
0.0
 40
0.0
 40
0.0
 40
2.900000001367857
 40
2.900000001367857
 40
2.900000001367857
 10
2245.519384707888
 20
2071.600236927247
 30
0.0
 10
2244.069384707204
 20
2071.600236927246
 30
0.0
 10
2242.619384706521
 20
2071.600236927246
 30
0.0
  0
SPLINE
  5
4F
330
1F
100
AcDbEntity
  8
Predefinito
100
AcDbSpline
210
0.0
220
0.0
230
1.0
 70
    24
 71
     2
 72
     6
 73
     3
 74
     0
 42
0.0000000001
 43
0.0000000001
 40
0.0
 40
0.0
 40
0.0
 40
2.0
 40
2.0
 40
2.0
 10
2242.619384706521
 20
2071.600236927246
 30
0.0
 10
2242.619384706521
 20
2070.600236927246
 30
0.0
 10
2242.619384706521
 20
2069.600236927246
 30
0.0
  0
SPLINE
  5
50
330
1F
100
AcDbEntity
  8
Predefinito
100
AcDbSpline
210
0.0
220
0.0
230
1.0
 70
    24
 71
     2
 72
     6
 73
     3
 74
     0
 42
0.0000000001
 43
0.0000000001
 40
0.0
 40
0.0
 40
0.0
 40
2.900000001385024
 40
2.900000001385024
 40
2.900000001385024
 10
2251.719384705135
 20
2069.600236927246
 30
0.0
 10
2253.169384705828
 20
2069.600236927246
 30
0.0
 10
2254.619384706521
 20
2069.600236927246
 30
0.0
  0
SPLINE
  5
51
330
1F
100
AcDbEntity
  8
Predefinito
100
AcDbSpline
210
0.0
220
0.0
230
1.0
 70
    24
 71
     2
 72
     6
 73
     3
 74
     0
 42
0.0000000001
 43
0.0000000001
 40
0.0
 40
0.0
 40
0.0
 40
0.5376593899609361
 40
0.5376593899609361
 40
0.5376593899609361
 10
2246.252381751697
 20
2027.100236927246
 30
0.0
 10
2245.983552056717
 20
2027.100236927246
 30
0.0
 10
2245.714722361737
 20
2027.100236927246
 30
0.0
  0
SPLINE
  5
52
330
1F
100
AcDbEntity
  8
Predefinito
100
AcDbSpline
210
0.0
220
0.0
230
1.0
 70
    24
 71
     2
 72
     6
 73
     3
 74
     0
 42
0.0000000001
 43
0.0000000001
 40
0.0
 40
0.0
 40
0.0
 40
0.3623652739485124
 40
0.3623652739485124
 40
0.3623652739485124
 10
2245.714722361737
 20
2027.100236927246
 30
0.0
 10
2245.533539724763
 20
2027.100236927246
 30
0.0
 10
2245.352357087789
 20
2027.100236927246
 30
0.0
  0
SPLINE
  5
53
330
1F
100
AcDbEntity
  8
Predefinito
100
AcDbSpline
210
0.0
220
0.0
230
1.0
 70
    24
 71
     2
 72
     6
 73
     3
 74
     0
 42
0.0000000001
 43
0.0000000001
 40
0.0
 40
0.0
 40
0.0
 40
0.6919524775851187
 40
0.6919524775851187
 40
0.6919524775851187
 10
2245.352357087789
 20
2027.100236927246
 30
0.0
 10
2245.006380848996
 20
2027.100236927246
 30
0.0
 10
2244.660404610204
 20
2027.100236927246
 30
0.0
  0
SPLINE
  5
54
330
1F
100
AcDbEntity
  8
Predefinito
100
AcDbSpline
210
0.0
220
0.0
230
1.0
 70
    28
 71
     2
 72
     6
 73
     3
 74
     0
 42
0.0000000001
 43
0.0000000001
 40
-3.401075980659051
 40
-3.401075980659051
 40
-3.401075980659051
 40
-0.0205613128057056
 40
-0.0205613128057056
 40
-0.0205613128057056
 10
2252.582527233278
 20
2027.100236927246
 30
0.0
 41
1.0
 10
2252.952509383606
 20
2027.100236927246
 30
0.0
 41
0.9136605926337794
 10
2251.898176475251
 20
2027.100236927246
 30
0.0
 41
0.9989560647439742
  0
SPLINE
  5
55
330
1F
100
AcDbEntity
  8
Predefinito
100
AcDbSpline
210
0.0
220
0.0
230
1.0
 70
    24
 71
     2
 72
     6
 73
     3
 74
     0
 42
0.0000000001
 43
0.0000000001
 40
0.0
 40
0.0
 40
0.0
 40
0.3623652739483987
 40
0.3623652739483987
 40
0.3623652739483987
 10
2251.886412325252
 20
2027.100236927246
 30
0.0
 10
2251.705229688278
 20
2027.100236927246
 30
0.0
 10
2251.524047051304
 20
2027.100236927246
 30
0.0
  0
SPLINE
  5
56
330
1F
100
AcDbEntity
  8
Predefinito
100
AcDbSpline
210
0.0
220
0.0
230
1.0
 70
    24
 71
     2
 72
     6
 73
     3
 74
     0
 42
0.0000000001
 43
0.0000000001
 40
0.0
 40
0.0
 40
0.0
 40
0.5376593899609361
 40
0.5376593899609361
 40
0.5376593899609361
 10
2251.524047051304
 20
2027.100236927246
 30
0.0
 10
2251.255217356322
 20
2027.100236927246
 30
0.0
 10
2250.986387661342
 20
2027.100236927246
 30
0.0
  0
SPLINE
  5
57
330
1F
100
AcDbEntity
  8
Predefinito
100
AcDbSpline
210
0.0
220
0.0
230
1.0
 70
    24
 71
     2
 72
     6
 73
     3
 74
     0
 42
0.0000000001
 43
0.0000000001
 40
0.0
 40
0.0
 40
0.0
 40
0.5376593899609361
 40
0.5376593899609361
 40
0.5376593899609361
 10
2246.252381751697
 20
2024.100236927246
 30
0.0
 10
2245.983552056717
 20
2024.100236927246
 30
0.0
 10
2245.714722361737
 20
2024.100236927246
 30
0.0
  0
SPLINE
  5
58
330
1F
100
AcDbEntity
  8
Predefinito
100
AcDbSpline
210
0.0
220
0.0
230
1.0
 70
    24
 71
     2
 72
     6
 73
     3
 74
     0
 42
0.0000000001
 43
0.0000000001
 40
0.0
 40
0.0
 40
0.0
 40
0.3623652739485124
 40
0.3623652739485124
 40
0.3623652739485124
 10
2245.714722361737
 20
2024.100236927246
 30
0.0
 10
2245.533539724763
 20
2024.100236927246
 30
0.0
 10
2245.352357087789
 20
2024.100236927246
 30
0.0
  0
SPLINE
  5
59
330
1F
100
AcDbEntity
  8
Predefinito
100
AcDbSpline
210
0.0
220
0.0
230
1.0
 70
    24
 71
     2
 72
     6
 73
     3
 74
     0
 42
0.0000000001
 43
0.0000000001
 40
0.0
 40
0.0
 40
0.0
 40
0.6919524775851187
 40
0.6919524775851187
 40
0.6919524775851187
 10
2245.352357087789
 20
2024.100236927246
 30
0.0
 10
2245.006380848996
 20
2024.100236927246
 30
0.0
 10
2244.660404610204
 20
2024.100236927246
 30
0.0
  0
SPLINE
  5
5A
330
1F
100
AcDbEntity
  8
Predefinito
100
AcDbSpline
210
0.0
220
0.0
230
1.0
 70
    28
 71
     2
 72
     6
 73
     3
 74
     0
 42
0.0000000001
 43
0.0000000001
 40
-3.401075980659051
 40
-3.401075980659051
 40
-3.401075980659051
 40
-0.0205613128056995
 40
-0.0205613128056995
 40
-0.0205613128056995
 10
2252.582527233278
 20
2024.100236927246
 30
0.0
 41
1.0
 10
2252.952509383605
 20
2024.100236927245
 30
0.0
 41
0.9136605926337792
 10
2251.898176475252
 20
2024.100236927248
 30
0.0
 41
0.9989560647439746
  0
SPLINE
  5
5B
330
1F
100
AcDbEntity
  8
Predefinito
100
AcDbSpline
210
0.0
220
0.0
230
1.0
 70
    24
 71
     2
 72
     6
 73
     3
 74
     0
 42
0.0000000001
 43
0.0000000001
 40
0.0
 40
0.0
 40
0.0
 40
0.3623652739483987
 40
0.3623652739483987
 40
0.3623652739483987
 10
2251.886412325252
 20
2024.100236927246
 30
0.0
 10
2251.705229688278
 20
2024.100236927246
 30
0.0
 10
2251.524047051304
 20
2024.100236927246
 30
0.0
  0
SPLINE
  5
5C
330
1F
100
AcDbEntity
  8
Predefinito
100
AcDbSpline
210
0.0
220
0.0
230
1.0
 70
    24
 71
     2
 72
     6
 73
     3
 74
     0
 42
0.0000000001
 43
0.0000000001
 40
0.0
 40
0.0
 40
0.0
 40
0.5376593899609361
 40
0.5376593899609361
 40
0.5376593899609361
 10
2251.524047051304
 20
2024.100236927246
 30
0.0
 10
2251.255217356322
 20
2024.100236927246
 30
0.0
 10
2250.986387661342
 20
2024.100236927246
 30
0.0
  0
SPLINE
  5
5D
330
1F
100
AcDbEntity
  8
Predefinito
100
AcDbSpline
210
0.0
220
0.0
230
1.0
 70
    24
 71
     2
 72
     6
 73
     3
 74
     0
 42
0.0000000001
 43
0.0000000001
 40
0.0
 40
0.0
 40
0.0
 40
3.0
 40
3.0
 40
3.0
 10
2251.524047051304
 20
2027.100236927246
 30
0.0
 10
2251.524047051304
 20
2025.600236927246
 30
0.0
 10
2251.524047051304
 20
2024.100236927246
 30
0.0
  0
SPLINE
  5
5E
330
1F
100
AcDbEntity
  8
Predefinito
100
AcDbSpline
210
0.0
220
0.0
230
1.0
 70
    24
 71
     2
 72
     6
 73
     3
 74
     0
 42
0.0000000001
 43
0.0000000001
 40
0.0
 40
0.0
 40
0.0
 40
3.0
 40
3.0
 40
3.0
 10
2251.886412325252
 20
2024.100236927246
 30
0.0
 10
2251.886412325252
 20
2025.600236927246
 30
0.0
 10
2251.886412325252
 20
2027.100236927246
 30
0.0
  0
SPLINE
  5
5F
330
1F
100
AcDbEntity
  8
Predefinito
100
AcDbSpline
210
0.0
220
0.0
230
1.0
 70
    24
 71
     2
 72
     6
 73
     3
 74
     0
 42
0.0000000001
 43
0.0000000001
 40
0.0
 40
0.0
 40
0.0
 40
3.0
 40
3.0
 40
3.0
 10
2250.986387661342
 20
2024.100236927246
 30
0.0
 10
2250.986387661342
 20
2025.600236927246
 30
0.0
 10
2250.986387661342
 20
2027.100236927246
 30
0.0
  0
SPLINE
  5
60
330
1F
100
AcDbEntity
  8
Predefinito
100
AcDbSpline
210
0.0
220
0.0
230
1.0
 70
    24
 71
     2
 72
     6
 73
     3
 74
     0
 42
0.0000000001
 43
0.0000000001
 40
0.0
 40
0.0
 40
0.0
 40
3.0
 40
3.0
 40
3.0
 10
2245.352357087789
 20
2027.100236927246
 30
0.0
 10
2245.352357087789
 20
2025.600236927246
 30
0.0
 10
2245.352357087789
 20
2024.100236927246
 30
0.0
  0
SPLINE
  5
61
330
1F
100
AcDbEntity
  8
Predefinito
100
AcDbSpline
210
0.0
220
0.0
230
1.0
 70
    24
 71
     2
 72
     6
 73
     3
 74
     0
 42
0.0000000001
 43
0.0000000001
 40
0.0
 40
0.0
 40
0.0
 40
3.0
 40
3.0
 40
3.0
 10
2245.714722361737
 20
2024.100236927246
 30
0.0
 10
2245.714722361737
 20
2025.600236927246
 30
0.0
 10
2245.714722361737
 20
2027.100236927246
 30
0.0
  0
SPLINE
  5
62
330
1F
100
AcDbEntity
  8
Predefinito
100
AcDbSpline
210
0.0
220
0.0
230
1.0
 70
    24
 71
     2
 72
     6
 73
     3
 74
     0
 42
0.0000000001
 43
0.0000000001
 40
0.0
 40
0.0
 40
0.0
 40
3.0
 40
3.0
 40
3.0
 10
2246.252381751697
 20
2027.100236927246
 30
0.0
 10
2246.252381751697
 20
2025.600236927246
 30
0.0
 10
2246.252381751697
 20
2024.100236927246
 30
0.0
  0
SPLINE
  5
63
330
1F
100
AcDbEntity
  8
Predefinito
100
AcDbSpline
210
0.0
220
0.0
230
1.0
 70
    24
 71
     2
 72
     6
 73
     3
 74
     0
 42
0.0000000001
 43
0.0000000001
 40
0.0
 40
0.0
 40
0.0
 40
0.5376593899609361
 40
0.5376593899609361
 40
0.5376593899609361
 10
2246.252381751697
 20
1977.100236927246
 30
0.0
 10
2245.983552056717
 20
1977.100236927246
 30
0.0
 10
2245.714722361737
 20
1977.100236927246
 30
0.0
  0
SPLINE
  5
64
330
1F
100
AcDbEntity
  8
Predefinito
100
AcDbSpline
210
0.0
220
0.0
230
1.0
 70
    24
 71
     2
 72
     6
 73
     3
 74
     0
 42
0.0000000001
 43
0.0000000001
 40
0.0
 40
0.0
 40
0.0
 40
0.3623652739485124
 40
0.3623652739485124
 40
0.3623652739485124
 10
2245.714722361737
 20
1977.100236927246
 30
0.0
 10
2245.533539724763
 20
1977.100236927246
 30
0.0
 10
2245.352357087789
 20
1977.100236927246
 30
0.0
  0
SPLINE
  5
65
330
1F
100
AcDbEntity
  8
Predefinito
100
AcDbSpline
210
0.0
220
0.0
230
1.0
 70
    24
 71
     2
 72
     6
 73
     3
 74
     0
 42
0.0000000001
 43
0.0000000001
 40
0.0
 40
0.0
 40
0.0
 40
0.6919524775851187
 40
0.6919524775851187
 40
0.6919524775851187
 10
2245.352357087789
 20
1977.100236927246
 30
0.0
 10
2245.006380848996
 20
1977.100236927246
 30
0.0
 10
2244.660404610204
 20
1977.100236927246
 30
0.0
  0
SPLINE
  5
66
330
1F
100
AcDbEntity
  8
Predefinito
100
AcDbSpline
210
0.0
220
0.0
230
1.0
 70
    28
 71
     2
 72
     6
 73
     3
 74
     0
 42
0.0000000001
 43
0.0000000001
 40
-3.401075980659051
 40
-3.401075980659051
 40
-3.401075980659051
 40
-0.0205613128057056
 40
-0.0205613128057056
 40
-0.0205613128057056
 10
2252.582527233278
 20
1977.100236927246
 30
0.0
 41
1.0
 10
2252.952509383606
 20
1977.100236927246
 30
0.0
 41
0.9136605926337794
 10
2251.898176475251
 20
1977.100236927246
 30
0.0
 41
0.9989560647439742
  0
SPLINE
  5
67
330
1F
100
AcDbEntity
  8
Predefinito
100
AcDbSpline
210
0.0
220
0.0
230
1.0
 70
    24
 71
     2
 72
     6
 73
     3
 74
     0
 42
0.0000000001
 43
0.0000000001
 40
0.0
 40
0.0
 40
0.0
 40
0.3623652739483987
 40
0.3623652739483987
 40
0.3623652739483987
 10
2251.886412325252
 20
1977.100236927246
 30
0.0
 10
2251.705229688278
 20
1977.100236927246
 30
0.0
 10
2251.524047051304
 20
1977.100236927246
 30
0.0
  0
SPLINE
  5
68
330
1F
100
AcDbEntity
  8
Predefinito
100
AcDbSpline
210
0.0
220
0.0
230
1.0
 70
    24
 71
     2
 72
     6
 73
     3
 74
     0
 42
0.0000000001
 43
0.0000000001
 40
0.0
 40
0.0
 40
0.0
 40
0.5376593899609361
 40
0.5376593899609361
 40
0.5376593899609361
 10
2251.524047051304
 20
1977.100236927246
 30
0.0
 10
2251.255217356322
 20
1977.100236927246
 30
0.0
 10
2250.986387661342
 20
1977.100236927246
 30
0.0
  0
SPLINE
  5
69
330
1F
100
AcDbEntity
  8
Predefinito
100
AcDbSpline
210
0.0
220
0.0
230
1.0
 70
    24
 71
     2
 72
     6
 73
     3
 74
     0
 42
0.0000000001
 43
0.0000000001
 40
0.0
 40
0.0
 40
0.0
 40
0.5376593899609361
 40
0.5376593899609361
 40
0.5376593899609361
 10
2246.252381751697
 20
1974.100236927246
 30
0.0
 10
2245.983552056717
 20
1974.100236927246
 30
0.0
 10
2245.714722361737
 20
1974.100236927246
 30
0.0
  0
SPLINE
  5
6A
330
1F
100
AcDbEntity
  8
Predefinito
100
AcDbSpline
210
0.0
220
0.0
230
1.0
 70
    24
 71
     2
 72
     6
 73
     3
 74
     0
 42
0.0000000001
 43
0.0000000001
 40
0.0
 40
0.0
 40
0.0
 40
0.3623652739485124
 40
0.3623652739485124
 40
0.3623652739485124
 10
2245.714722361737
 20
1974.100236927246
 30
0.0
 10
2245.533539724763
 20
1974.100236927246
 30
0.0
 10
2245.352357087789
 20
1974.100236927246
 30
0.0
  0
SPLINE
  5
6B
330
1F
100
AcDbEntity
  8
Predefinito
100
AcDbSpline
210
0.0
220
0.0
230
1.0
 70
    24
 71
     2
 72
     6
 73
     3
 74
     0
 42
0.0000000001
 43
0.0000000001
 40
0.0
 40
0.0
 40
0.0
 40
0.6919524775851187
 40
0.6919524775851187
 40
0.6919524775851187
 10
2245.352357087789
 20
1974.100236927246
 30
0.0
 10
2245.006380848996
 20
1974.100236927246
 30
0.0
 10
2244.660404610204
 20
1974.100236927246
 30
0.0
  0
SPLINE
  5
6C
330
1F
100
AcDbEntity
  8
Predefinito
100
AcDbSpline
210
0.0
220
0.0
230
1.0
 70
    28
 71
     2
 72
     6
 73
     3
 74
     0
 42
0.0000000001
 43
0.0000000001
 40
-3.401075980659051
 40
-3.401075980659051
 40
-3.401075980659051
 40
-0.0205613128056995
 40
-0.0205613128056995
 40
-0.0205613128056995
 10
2252.582527233278
 20
1974.100236927246
 30
0.0
 41
1.0
 10
2252.952509383605
 20
1974.100236927246
 30
0.0
 41
0.9136605926337792
 10
2251.898176475252
 20
1974.100236927248
 30
0.0
 41
0.9989560647439746
  0
SPLINE
  5
6D
330
1F
100
AcDbEntity
  8
Predefinito
100
AcDbSpline
210
0.0
220
0.0
230
1.0
 70
    24
 71
     2
 72
     6
 73
     3
 74
     0
 42
0.0000000001
 43
0.0000000001
 40
0.0
 40
0.0
 40
0.0
 40
0.3623652739483987
 40
0.3623652739483987
 40
0.3623652739483987
 10
2251.886412325252
 20
1974.100236927246
 30
0.0
 10
2251.705229688278
 20
1974.100236927246
 30
0.0
 10
2251.524047051304
 20
1974.100236927246
 30
0.0
  0
SPLINE
  5
6E
330
1F
100
AcDbEntity
  8
Predefinito
100
AcDbSpline
210
0.0
220
0.0
230
1.0
 70
    24
 71
     2
 72
     6
 73
     3
 74
     0
 42
0.0000000001
 43
0.0000000001
 40
0.0
 40
0.0
 40
0.0
 40
0.5376593899609361
 40
0.5376593899609361
 40
0.5376593899609361
 10
2251.524047051304
 20
1974.100236927246
 30
0.0
 10
2251.255217356322
 20
1974.100236927246
 30
0.0
 10
2250.986387661342
 20
1974.100236927246
 30
0.0
  0
SPLINE
  5
6F
330
1F
100
AcDbEntity
  8
Predefinito
100
AcDbSpline
210
0.0
220
0.0
230
1.0
 70
    24
 71
     2
 72
     6
 73
     3
 74
     0
 42
0.0000000001
 43
0.0000000001
 40
0.0
 40
0.0
 40
0.0
 40
3.0
 40
3.0
 40
3.0
 10
2251.524047051304
 20
1977.100236927246
 30
0.0
 10
2251.524047051304
 20
1975.600236927246
 30
0.0
 10
2251.524047051304
 20
1974.100236927246
 30
0.0
  0
SPLINE
  5
70
330
1F
100
AcDbEntity
  8
Predefinito
100
AcDbSpline
210
0.0
220
0.0
230
1.0
 70
    24
 71
     2
 72
     6
 73
     3
 74
     0
 42
0.0000000001
 43
0.0000000001
 40
0.0
 40
0.0
 40
0.0
 40
3.0
 40
3.0
 40
3.0
 10
2251.886412325252
 20
1974.100236927246
 30
0.0
 10
2251.886412325252
 20
1975.600236927246
 30
0.0
 10
2251.886412325252
 20
1977.100236927246
 30
0.0
  0
SPLINE
  5
71
330
1F
100
AcDbEntity
  8
Predefinito
100
AcDbSpline
210
0.0
220
0.0
230
1.0
 70
    24
 71
     2
 72
     6
 73
     3
 74
     0
 42
0.0000000001
 43
0.0000000001
 40
0.0
 40
0.0
 40
0.0
 40
3.0
 40
3.0
 40
3.0
 10
2250.986387661342
 20
1974.100236927246
 30
0.0
 10
2250.986387661342
 20
1975.600236927246
 30
0.0
 10
2250.986387661342
 20
1977.100236927246
 30
0.0
  0
SPLINE
  5
72
330
1F
100
AcDbEntity
  8
Predefinito
100
AcDbSpline
210
0.0
220
0.0
230
1.0
 70
    24
 71
     2
 72
     6
 73
     3
 74
     0
 42
0.0000000001
 43
0.0000000001
 40
0.0
 40
0.0
 40
0.0
 40
3.0
 40
3.0
 40
3.0
 10
2245.352357087789
 20
1977.100236927246
 30
0.0
 10
2245.352357087789
 20
1975.600236927246
 30
0.0
 10
2245.352357087789
 20
1974.100236927246
 30
0.0
  0
SPLINE
  5
73
330
1F
100
AcDbEntity
  8
Predefinito
100
AcDbSpline
210
0.0
220
0.0
230
1.0
 70
    24
 71
     2
 72
     6
 73
     3
 74
     0
 42
0.0000000001
 43
0.0000000001
 40
0.0
 40
0.0
 40
0.0
 40
3.0
 40
3.0
 40
3.0
 10
2245.714722361737
 20
1974.100236927246
 30
0.0
 10
2245.714722361737
 20
1975.600236927246
 30
0.0
 10
2245.714722361737
 20
1977.100236927246
 30
0.0
  0
SPLINE
  5
74
330
1F
100
AcDbEntity
  8
Predefinito
100
AcDbSpline
210
0.0
220
0.0
230
1.0
 70
    24
 71
     2
 72
     6
 73
     3
 74
     0
 42
0.0000000001
 43
0.0000000001
 40
0.0
 40
0.0
 40
0.0
 40
3.0
 40
3.0
 40
3.0
 10
2246.252381751697
 20
1977.100236927246
 30
0.0
 10
2246.252381751697
 20
1975.600236927246
 30
0.0
 10
2246.252381751697
 20
1974.100236927246
 30
0.0
  0
SPLINE
  5
75
330
1F
100
AcDbEntity
  8
Predefinito
100
AcDbSpline
210
0.0
220
0.0
230
1.0
 70
    24
 71
     2
 72
     6
 73
     3
 74
     0
 42
0.0000000001
 43
0.0000000001
 40
0.0
 40
0.0
 40
0.0
 40
0.7999999999999545
 40
0.7999999999999545
 40
0.7999999999999545
 10
2254.61938470664
 20
2072.600236927246
 30
0.0
 10
2254.61938470664
 20
2072.200236927246
 30
0.0
 10
2254.61938470664
 20
2071.800236927246
 30
0.0
  0
SPLINE
  5
76
330
1F
100
AcDbEntity
  8
Predefinito
100
AcDbSpline
210
0.0
220
0.0
230
1.0
 70
    24
 71
     2
 72
     6
 73
     3
 74
     0
 42
0.0000000001
 43
0.0000000001
 40
0.0
 40
0.0
 40
0.0
 40
0.7999999999999545
 40
0.7999999999999545
 40
0.7999999999999545
 10
2242.619384706464
 20
2071.800236927246
 30
0.0
 10
2242.619384706464
 20
2072.200236927246
 30
0.0
 10
2242.619384706464
 20
2072.600236927246
 30
0.0
  0
SPLINE
  5
77
330
1F
100
AcDbEntity
  8
Predefinito
100
AcDbSpline
210
0.0
220
0.0
230
1.0
 70
    24
 71
     2
 72
     6
 73
     3
 74
     0
 42
0.0000000001
 43
0.0000000001
 40
0.0
 40
0.0
 40
0.0
 40
0.2000000000000455
 40
0.2000000000000455
 40
0.2000000000000455
 10
2254.31938470652
 20
2071.800236927246
 30
0.0
 10
2254.31938470652
 20
2071.700236927246
 30
0.0
 10
2254.31938470652
 20
2071.600236927246
 30
0.0
  0
SPLINE
  5
78
330
1F
100
AcDbEntity
  8
Predefinito
100
AcDbSpline
210
0.0
220
0.0
230
1.0
 70
    24
 71
     2
 72
     6
 73
     3
 74
     0
 42
0.0000000001
 43
0.0000000001
 40
0.0
 40
0.0
 40
0.0
 40
2.0
 40
2.0
 40
2.0
 10
2254.619384706521
 20
2071.600236927246
 30
0.0
 10
2254.619384706521
 20
2070.600236927246
 30
0.0
 10
2254.619384706521
 20
2069.600236927246
 30
0.0
  0
SPLINE
  5
79
330
1F
100
AcDbEntity
  8
Predefinito
100
AcDbSpline
210
0.0
220
0.0
230
1.0
 70
    24
 71
     2
 72
     6
 73
     3
 74
     0
 42
0.0000000001
 43
0.0000000001
 40
0.0
 40
0.0
 40
0.0
 40
3.0
 40
3.0
 40
3.0
 10
2252.669384706521
 20
2027.100236927246
 30
0.0
 10
2252.669384706521
 20
2025.600236927246
 30
0.0
 10
2252.669384706521
 20
2024.100236927246
 30
0.0
  0
SPLINE
  5
7A
330
1F
100
AcDbEntity
  8
Predefinito
100
AcDbSpline
210
0.0
220
0.0
230
1.0
 70
    24
 71
     2
 72
     6
 73
     3
 74
     0
 42
0.0000000001
 43
0.0000000001
 40
0.0
 40
0.0
 40
0.0
 40
3.0
 40
3.0
 40
3.0
 10
2252.669384706521
 20
1977.100236927246
 30
0.0
 10
2252.669384706521
 20
1975.600236927246
 30
0.0
 10
2252.669384706521
 20
1974.100236927246
 30
0.0
  0
SPLINE
  5
7B
330
1F
100
AcDbEntity
  8
Predefinito
100
AcDbSpline
210
0.0
220
0.0
230
1.0
 70
    24
 71
     2
 72
     6
 73
     3
 74
     0
 42
0.0000000001
 43
0.0000000001
 40
0.0
 40
0.0
 40
0.0
 40
3.0
 40
3.0
 40
3.0
 10
2244.56938470652
 20
1974.100236927246
 30
0.0
 10
2244.56938470652
 20
1975.600236927246
 30
0.0
 10
2244.56938470652
 20
1977.100236927246
 30
0.0
  0
SPLINE
  5
7C
330
1F
100
AcDbEntity
  8
Predefinito
100
AcDbSpline
210
0.0
220
0.0
230
1.0
 70
    24
 71
     2
 72
     6
 73
     3
 74
     0
 42
0.0000000001
 43
0.0000000001
 40
0.0
 40
0.0
 40
0.0
 40
2.880904407685899
 40
2.880904407685899
 40
2.880904407685899
 10
2242.619384706521
 20
2069.600236927246
 30
0.0
 10
2244.059836910363
 20
2069.600236927246
 30
0.0
 10
2245.500289114207
 20
2069.600236927246
 30
0.0
  0
POLYLINE
  5
7D
330
1F
100
AcDbEntity
  8
Predefinito
100
AcDb2dPolyline
 66
     1
 10
0.0
 20
0.0
 30
0.0
  0
VERTEX
  5
7E
330
7D
100
AcDbEntity
  8
Predefinito
100
AcDbVertex
100
AcDb2dVertex
 10
2244.660404610204
 20
2027.100236927246
 30
0.0
  0
VERTEX
  5
7F
330
7D
100
AcDbEntity
  8
Predefinito
100
AcDbVertex
100
AcDb2dVertex
 10
2244.660404610204
 20
2024.100236927246
 30
0.0
  0
SEQEND
  5
80
330
7D
100
AcDbEntity
  8
Predefinito
  0
POLYLINE
  5
81
330
1F
100
AcDbEntity
  8
Predefinito
100
AcDb2dPolyline
 66
     1
 10
0.0
 20
0.0
 30
0.0
  0
VERTEX
  5
82
330
81
100
AcDbEntity
  8
Predefinito
100
AcDbVertex
100
AcDb2dVertex
 10
2245.50028911345
 20
2021.433547528413
 30
0.0
  0
VERTEX
  5
83
330
81
100
AcDbEntity
  8
Predefinito
100
AcDbVertex
100
AcDb2dVertex
 10
2245.500288905739
 20
2001.73471670783
 30
0.0
  0
SEQEND
  5
84
330
81
100
AcDbEntity
  8
Predefinito
  0
POLYLINE
  5
85
330
1F
100
AcDbEntity
  8
Predefinito
100
AcDb2dPolyline
 66
     1
 10
0.0
 20
0.0
 30
0.0
  0
VERTEX
  5
86
330
85
100
AcDbEntity
  8
Predefinito
100
AcDbVertex
100
AcDb2dVertex
 10
2251.700289113536
 20
2021.433549538354
 30
0.0
  0
VERTEX
  5
87
330
85
100
AcDbEntity
  8
Predefinito
100
AcDbVertex
100
AcDb2dVertex
 10
2251.700289102206
 20
1991.55418037183
 30
0.0
  0
SEQEND
  5
88
330
85
100
AcDbEntity
  8
Predefinito
  0
LINE
  5
89
330
1F
100
AcDbEntity
  8
Predefinito
100
AcDbLine
 10
2251.700289120425
 20
1981.363310569597
 30
0.0
 11
2251.700289129129
 21
1977.100236927246
 31
0.0
  0
LINE
  5
8A
330
1F
100
AcDbEntity
  8
Predefinito
100
AcDbLine
 10
2245.500289126068
 20
1977.100236927246
 30
0.0
 11
2245.50028912043
 21
1981.363308918453
 31
0.0
  0
SPLINE
  5
8B
330
1F
100
AcDbEntity
  8
Predefinito
100
AcDbSpline
210
0.0
220
0.0
230
1.0
 70
     8
 71
     3
 72
    13
 73
     9
 74
     0
 42
0.0000000001
 43
0.0000000001
 40
0.0
 40
0.0
 40
0.0
 40
0.0
 40
2.23543828174032
 40
6.007769835548062
 40
18.16964469497311
 40
59.28829974396664
 40
114.7383681999115
 40
153.7383834279998
 40
153.7383834279998
 40
153.7383834279998
 40
153.7383834279998
 10
2252.203253786746
 20
1735.759848117143
 30
0.0
 10
2252.318560115114
 20
1735.023409679823
 30
0.0
 10
2252.515802816353
 20
1733.030140944645
 30
0.0
 10
2252.928808714687
 20
1726.987177094108
 30
0.0
 10
2253.801106079285
 20
1707.989190469623
 30
0.0
 10
2254.9916304084
 20
1671.76440854533
 30
0.0
 10
2256.146289484256
 20
1626.589963310232
 30
0.0
 10
2256.746107119548
 20
1595.111407715277
 30
0.0
 10
2256.805567715677
 20
1582.111391622287
 30
0.0
  0
SPLINE
  5
8C
330
1F
100
AcDbEntity
  8
Predefinito
100
AcDbSpline
210
0.0
220
0.0
230
1.0
 70
    12
 71
     2
 72
     6
 73
     3
 74
     0
 42
0.0000000001
 43
0.0000000001
 40
0.0
 40
0.0
 40
0.0
 40
6.266852965914508
 40
6.266852965914508
 40
6.266852965914508
 10
2256.805780879795
 20
1581.62006127284
 30
0.0
 41
1.0
 10
2256.80586555547
 20
1578.486634790295
 30
0.0
 41
0.9999999996495249
 10
2256.805784313322
 20
1575.353208307658
 30
0.0
 41
1.0
  0
SPLINE
  5
8D
330
1F
100
AcDbEntity
  8
Predefinito
100
AcDbSpline
210
0.0
220
0.0
230
1.0
 70
     8
 71
     3
 72
    15
 73
    11
 74
     0
 42
0.0000000001
 43
0.0000000001
 40
0.0
 40
0.0
 40
0.0
 40
0.0
 40
44.85612972148282
 40
95.25720406739461
 40
204.4691897840279
 40
301.2008156184052
 40
331.514969122579
 40
340.7069653590672
 40
343.6588750020612
 40
344.4348809767549
 40
344.4348809767549
 40
344.4348809767549
 40
344.4348809767549
 10
2251.549176446733
 20
1864.105601682543
 30
0.0
 10
2251.548712487043
 20
1849.153523668388
 30
0.0
 10
2251.626155036922
 20
1817.401237950871
 30
0.0
 10
2252.02271550099
 20
1749.245787083868
 30
0.0
 10
2252.904950151392
 20
1663.801962040558
 30
0.0
 10
2254.090836349097
 20
1585.0578570162
 30
0.0
 10
2255.113281291593
 20
1539.656439370772
 30
0.0
 10
2255.595888542834
 20
1525.511604368701
 30
0.0
 10
2255.814682480604
 20
1521.210496106686
 30
0.0
 10
2255.902116944409
 20
1519.970740221047
 30
0.0
 10
2255.924231076031
 20
1519.713040452017
 30
0.0
  0
SPLINE
  5
8E
330
1F
100
AcDbEntity
  8
Predefinito
100
AcDbSpline
210
0.0
220
0.0
230
1.0
 70
    12
 71
     2
 72
     6
 73
     3
 74
     0
 42
0.0000000001
 43
0.0000000001
 40
0.0
 40
0.0
 40
0.0
 40
52.58286510670185
 40
52.58286510670185
 40
52.58286510670185
 10
2256.805777380035
 20
1574.861618737489
 30
0.0
 41
1.0
 10
2256.916553464662
 20
1548.569360989719
 30
0.0
 41
0.9999396098479044
 10
2256.449442101363
 20
1522.281019547355
 30
0.0
 41
1.0
  0
POLYLINE
  5
8F
330
1F
100
AcDbEntity
  8
Predefinito
100
AcDb2dPolyline
 66
     1
 10
0.0
 20
0.0
 30
0.0
  0
VERTEX
  5
90
330
8F
100
AcDbEntity
  8
Predefinito
100
AcDbVertex
100
AcDb2dVertex
 10
2245.377139699912
 20
1864.105400507242
 30
0.0
  0
VERTEX
  5
91
330
8F
100
AcDbEntity
  8
Predefinito
100
AcDbVertex
100
AcDb2dVertex
 10
2245.975261087531
 20
1740.51641409917
 30
0.0
  0
SEQEND
  5
92
330
8F
100
AcDbEntity
  8
Predefinito
  0
SPLINE
  5
93
330
1F
100
AcDbEntity
  8
Predefinito
100
AcDbSpline
210
0.0
220
0.0
230
1.0
 70
     8
 71
     3
 72
     8
 73
     4
 74
     0
 42
0.0000000001
 43
0.0000000001
 40
0.0
 40
0.0
 40
0.0
 40
0.0
 40
1.0
 40
1.0
 40
1.0
 40
1.0
 10
2245.975261087531
 20
1740.51641409917
 30
0.0
 10
2245.975261087531
 20
1726.876132164314
 30
0.0
 10
2245.975261087531
 20
1715.876132164314
 30
0.0
 10
2246.246750680579
 20
1635.573485800982
 30
0.0
  0
POLYLINE
  5
94
330
1F
100
AcDbEntity
  8
Predefinito
100
AcDb2dPolyline
 66
     1
 10
0.0
 20
0.0
 30
0.0
  0
VERTEX
  5
95
330
94
100
AcDbEntity
  8
Predefinito
100
AcDbVertex
100
AcDb2dVertex
 10
2246.702320086909
 20
1608.416729117943
 30
0.0
  0
VERTEX
  5
96
330
94
100
AcDbEntity
  8
Predefinito
100
AcDbVertex
100
AcDb2dVertex
 10
2246.246750680579
 20
1635.573485800982
 30
0.0
  0
SEQEND
  5
97
330
94
100
AcDbEntity
  8
Predefinito
  0
SPLINE
  5
98
330
1F
100
AcDbEntity
  8
Predefinito
100
AcDbSpline
210
0.0
220
0.0
230
1.0
 70
     8
 71
     3
 72
    17
 73
    13
 74
     0
 42
0.0000000001
 43
0.0000000001
 40
0.0
 40
0.0
 40
0.0
 40
0.0
 40
2.047231070938191
 40
3.345366713184038
 40
6.167190674386442
 40
9.092687673454975
 40
10.45740778038164
 40
12.28153708398576
 40
16.02378010739524
 40
22.12226867922612
 40
41.72451700311798
 40
102.4061684833284
 40
102.4061684833284
 40
102.4061684833284
 40
102.4061684833284
 10
2255.920780565919
 20
1519.7127443515
 30
0.0
 10
2255.863289777972
 20
1519.03415387537
 30
0.0
 10
2255.858480725885
 20
1517.908912642252
 30
0.0
 10
2255.135356394493
 20
1515.941074555527
 30
0.0
 10
2252.91120393582
 20
1514.58632725392
 30
0.0
 10
2250.444411149281
 20
1515.54561041029
 30
0.0
 10
2249.455604801525
 20
1517.389617277186
 30
0.0
 10
2249.22044449245
 20
1519.700988550213
 30
0.0
 10
2248.964595906967
 20
1523.575593461893
 30
0.0
 10
2248.52549327826
 20
1533.382740268345
 30
0.0
 10
2247.602383701751
 20
1562.161191783764
 30
0.0
 10
2247.025101424702
 20
1588.917594208015
 30
0.0
 10
2246.702320086909
 20
1608.416729117943
 30
0.0
  0
SPLINE
  5
99
330
1F
100
AcDbEntity
  8
Predefinito
100
AcDbSpline
210
0.0
220
0.0
230
1.0
 70
    12
 71
     2
 72
     6
 73
     3
 74
     0
 42
0.0000000001
 43
0.0000000001
 40
0.0
 40
0.0
 40
0.0
 40
58.51904345351357
 40
58.51904345351357
 40
58.51904345351357
 10
1452.063175882968
 20
1701.825152596925
 30
0.0
 41
1.0
 10
1422.223507450269
 20
1699.036570134535
 30
0.0
 41
0.9648320120906655
 10
1397.922128571501
 20
1681.497328733792
 30
0.0
 41
1.0
  0
SPLINE
  5
9A
330
1F
100
AcDbEntity
  8
Predefinito
100
AcDbSpline
210
0.0
220
0.0
230
1.0
 70
     8
 71
     3
 72
    20
 73
    16
 74
     0
 42
0.0000000001
 43
0.0000000001
 40
0.0
 40
0.0
 40
0.0
 40
0.0
 40
14.83437731630299
 40
34.11024432656627
 40
55.94402674361154
 40
132.4020538233644
 40
180.127797393522
 40
222.3987315325515
 40
255.8088388034941
 40
272.1725715707446
 40
286.152514501588
 40
309.338091070478
 40
319.9048085268088
 40
330.8071120677211
 40
356.258311302303
 40
356.258311302303
 40
356.258311302303
 40
356.258311302303
 10
1156.912447518119
 20
1584.384659088771
 30
0.0
 10
1161.194292446007
 20
1586.861221623581
 30
0.0
 10
1170.70358311222
 20
1593.104296275416
 30
0.0
 10
1185.748513749394
 20
1604.129549346176
 30
0.0
 10
1216.659789423129
 20
1628.218648221562
 30
0.0
 10
1254.420241019936
 20
1658.940638066154
 30
0.0
 10
1298.886046927509
 20
1692.15035068238
 30
0.0
 10
1333.306892104411
 20
1714.73279422799
 30
0.0
 10
1360.59427682513
 20
1728.883858337656
 30
0.0
 10
1380.692433436458
 20
1735.99077715391
 30
0.0
 10
1398.146072299973
 20
1739.647260812156
 30
0.0
 10
1414.449143664309
 20
1738.828911479765
 30
0.0
 10
1427.859392947214
 20
1731.814434708354
 30
0.0
 10
1439.102648426531
 20
1720.755787214357
 30
0.0
 10
1443.923650014295
 20
1709.228399412511
 30
0.0
 10
1446.139880997313
 20
1701.109096378476
 30
0.0
  0
SPLINE
  5
9B
330
1F
100
AcDbEntity
  8
Predefinito
100
AcDbSpline
210
0.0
220
0.0
230
1.0
 70
     8
 71
     3
 72
    21
 73
    17
 74
     0
 42
0.0000000001
 43
0.0000000001
 40
0.2042945865437471
 40
0.2042945865437471
 40
0.2042945865437471
 40
0.2042945865437471
 40
12.31752097295883
 40
22.80689356579525
 40
32.43823775776086
 40
42.06379665353123
 40
63.86059347471924
 40
77.39575745283439
 40
93.2353663555791
 40
126.6156229869963
 40
167.496174409198
 40
212.4662270062812
 40
287.3389168904435
 40
309.1412512286547
 40
329.2279730409916
 40
344.5591117404582
 40
344.5591117404582
 40
344.5591117404582
 40
344.5591117404582
 10
1440.008087341546
 20
1700.020286880776
 30
0.0
 10
1438.914987523709
 20
1703.906538387863
 30
0.0
 10
1436.384371500584
 20
1711.032379886782
 30
0.0
 10
1430.799886922015
 20
1720.295577191679
 30
0.0
 10
1423.569730696336
 20
1727.232741952906
 30
0.0
 10
1411.025111154907
 20
1733.22267490302
 30
0.0
 10
1395.58794780784
 20
1733.07327419683
 30
0.0
 10
1379.097607249971
 20
1729.009246536509
 30
0.0
 10
1359.472430504657
 20
1721.519711117204
 30
0.0
 10
1333.012695607053
 20
1707.254389924428
 30
0.0
 10
1299.891381150541
 20
1685.217833939307
 30
0.0
 10
1257.038267693975
 20
1653.058702911888
 30
0.0
 10
1220.388320405893
 20
1623.274354688508
 30
0.0
 10
1189.695225375216
 20
1599.345713861042
 30
0.0
 10
1174.321604150443
 20
1588.049314228057
 30
0.0
 10
1164.439727958131
 20
1581.577074167478
 30
0.0
 10
1160.015353417004
 20
1579.016981559959
 30
0.0
  0
SPLINE
  5
9C
330
1F
100
AcDbEntity
  8
Predefinito
100
AcDbSpline
210
0.0
220
0.0
230
1.0
 70
    24
 71
     2
 72
     6
 73
     3
 74
     0
 42
0.0000000001
 43
0.0000000001
 40
0.0
 40
0.0
 40
0.0
 40
3.0
 40
3.0
 40
3.0
 10
726.597391973502
 20
1977.100236927246
 30
0.0
 10
726.597391973502
 20
1975.600236927246
 30
0.0
 10
726.597391973502
 20
1974.100236927246
 30
0.0
  0
SPLINE
  5
9D
330
1F
100
AcDbEntity
  8
Predefinito
100
AcDbSpline
210
0.0
220
0.0
230
1.0
 70
    24
 71
     2
 72
     6
 73
     3
 74
     0
 42
0.0000000001
 43
0.0000000001
 40
0.0
 40
0.0
 40
0.0
 40
3.0
 40
3.0
 40
3.0
 10
726.597391973502
 20
2027.100236927246
 30
0.0
 10
726.597391973502
 20
2025.600236927246
 30
0.0
 10
726.597391973502
 20
2024.100236927246
 30
0.0
  0
SPLINE
  5
9E
330
1F
100
AcDbEntity
  8
Predefinito
100
AcDbSpline
210
0.0
220
0.0
230
1.0
 70
    24
 71
     2
 72
     6
 73
     3
 74
     0
 42
0.0000000001
 43
0.0000000001
 40
0.0
 40
0.0
 40
0.0
 40
27.69777169545891
 40
27.69777169545891
 40
27.69777169545891
 10
656.2417442716419
 20
2072.600236927246
 30
0.0
 10
656.1208914776789
 20
2086.448595451838
 30
0.0
 10
656.000038683716
 20
2100.29695397643
 30
0.0
  0
SPLINE
  5
9F
330
1F
100
AcDbEntity
  8
Predefinito
100
AcDbSpline
210
0.0
220
0.0
230
1.0
 70
    24
 71
     2
 72
     6
 73
     3
 74
     0
 42
0.0000000001
 43
0.0000000001
 40
0.0
 40
0.0
 40
0.0
 40
27.69777167901514
 40
27.69777167901514
 40
27.69777167901514
 10
792.5947452652522
 20
2100.296953959987
 30
0.0
 10
792.473892471357
 20
2086.448595443617
 30
0.0
 10
792.3530396774618
 20
2072.600236927246
 30
0.0
  0
SPLINE
  5
A0
330
1F
100
AcDbEntity
  8
Predefinito
100
AcDbSpline
210
0.0
220
0.0
230
1.0
 70
    12
 71
     2
 72
     8
 73
     5
 74
     0
 42
0.0000000001
 43
0.0000000001
 40
0.0
 40
0.0
 40
0.0
 40
0.2504703494535908
 40
0.2504703494535908
 40
0.5009406989071815
 40
0.5009406989071815
 40
0.5009406989071815
 10
792.2947955159234
 20
2100.600236927241
 30
0.0
 41
1.0
 10
792.4286671958997
 20
2100.624526069225
 30
0.0
 41
0.8848497690413191
 10
792.5244530791629
 20
2100.527899707989
 30
0.0
 41
1.0
 10
792.6202389624252
 20
2100.431273346752
 30
0.0
 41
0.8848497690413191
 10
792.5947812370077
 20
2100.297618966597
 30
0.0
 41
1.0
  0
SPLINE
  5
A1
330
1F
100
AcDbEntity
  8
Predefinito
100
AcDbSpline
210
0.0
220
0.0
230
1.0
 70
    12
 71
     2
 72
     8
 73
     5
 74
     0
 42
0.0000000001
 43
0.0000000001
 40
0.0
 40
0.0
 40
0.0
 40
0.2512208316640201
 40
0.2512208316640201
 40
0.5024416633280403
 40
0.5024416633280403
 40
0.5024416633280403
 10
656.0000000007308
 20
2100.297618966597
 30
0.0
 41
1.0
 10
655.9732619375579
 20
2100.431658606577
 30
0.0
 41
0.8828241264741472
 10
656.0694851578701
 20
2100.528728895444
 30
0.0
 41
1.0
 10
656.1657083781824
 20
2100.625799184311
 30
0.0
 41
0.8828241264741472
 10
656.2999772134249
 20
2100.600236927162
 30
0.0
 41
1.0
  0
SPLINE
  5
A2
330
1F
100
AcDbEntity
  8
Predefinito
100
AcDbSpline
210
0.0
220
0.0
230
1.0
 70
    24
 71
     2
 72
     6
 73
     3
 74
     0
 42
0.0000000001
 43
0.0000000001
 40
0.0
 40
0.0
 40
0.0
 40
96.50000000000023
 40
96.50000000000023
 40
96.50000000000023
 10
724.5473919735018
 20
1974.100236927247
 30
0.0
 10
724.5473919735018
 20
1925.850236927246
 30
0.0
 10
724.5473919735018
 20
1877.600236927246
 30
0.0
  0
SPLINE
  5
A3
330
1F
100
AcDbEntity
  8
Predefinito
100
AcDbSpline
210
0.0
220
0.0
230
1.0
 70
    24
 71
     2
 72
     6
 73
     3
 74
     0
 42
0.0000000001
 43
0.0000000001
 40
0.0
 40
0.0
 40
0.0
 40
47.00000000000023
 40
47.00000000000023
 40
47.00000000000023
 10
724.5473919735018
 20
2024.100236927247
 30
0.0
 10
724.5473919735018
 20
2000.600236927247
 30
0.0
 10
724.5473919735018
 20
1977.100236927247
 30
0.0
  0
SPLINE
  5
A4
330
1F
100
AcDbEntity
  8
Predefinito
100
AcDbSpline
210
0.0
220
0.0
230
1.0
 70
    24
 71
     2
 72
     6
 73
     3
 74
     0
 42
0.0000000001
 43
0.0000000001
 40
0.0
 40
0.0
 40
0.0
 40
45.50000000000023
 40
45.50000000000023
 40
45.50000000000023
 10
724.5473919735018
 20
2072.600236927246
 30
0.0
 10
724.5473919735018
 20
2049.850236927246
 30
0.0
 10
724.5473919735018
 20
2027.100236927246
 30
0.0
  0
SPLINE
  5
A5
330
1F
100
AcDbEntity
  8
Predefinito
100
AcDbSpline
210
0.0
220
0.0
230
1.0
 70
    24
 71
     2
 72
     6
 73
     3
 74
     0
 42
0.0000000001
 43
0.0000000001
 40
0.0
 40
0.0
 40
0.0
 40
45.50000000000023
 40
45.50000000000023
 40
45.50000000000023
 10
723.7473919735021
 20
2027.100236927246
 30
0.0
 10
723.7473919735021
 20
2049.850236927246
 30
0.0
 10
723.7473919735021
 20
2072.600236927246
 30
0.0
  0
SPLINE
  5
A6
330
1F
100
AcDbEntity
  8
Predefinito
100
AcDbSpline
210
0.0
220
0.0
230
1.0
 70
    24
 71
     2
 72
     6
 73
     3
 74
     0
 42
0.0000000001
 43
0.0000000001
 40
0.0
 40
0.0
 40
0.0
 40
47.00000000000023
 40
47.00000000000023
 40
47.00000000000023
 10
723.7473919735021
 20
1977.100236927246
 30
0.0
 10
723.7473919735021
 20
2000.600236927246
 30
0.0
 10
723.7473919735021
 20
2024.100236927246
 30
0.0
  0
SPLINE
  5
A7
330
1F
100
AcDbEntity
  8
Predefinito
100
AcDbSpline
210
0.0
220
0.0
230
1.0
 70
    24
 71
     2
 72
     6
 73
     3
 74
     0
 42
0.0000000001
 43
0.0000000001
 40
0.0
 40
0.0
 40
0.0
 40
96.50000000000023
 40
96.50000000000023
 40
96.50000000000023
 10
723.7473919735021
 20
1877.600236927246
 30
0.0
 10
723.7473919735021
 20
1925.850236927246
 30
0.0
 10
723.7473919735021
 20
1974.100236927247
 30
0.0
  0
SPLINE
  5
A8
330
1F
100
AcDbEntity
  8
Predefinito
100
AcDbSpline
210
0.0
220
0.0
230
1.0
 70
    12
 71
     2
 72
     6
 73
     3
 74
     0
 42
0.0000000001
 43
0.0000000001
 40
0.0
 40
0.0
 40
0.0
 40
13.51983830656354
 40
13.51983830656354
 40
13.51983830656354
 10
1160.015344496438
 20
1579.016976406382
 30
0.0
 41
1.0
 10
1154.161506070258
 20
1575.636283708998
 30
0.0
 41
0.9999999922029212
 10
1148.306823488045
 20
1572.257053131554
 30
0.0
 41
1.0
  0
SPLINE
  5
A9
330
1F
100
AcDbEntity
  8
Predefinito
100
AcDbSpline
210
0.0
220
0.0
230
1.0
 70
    12
 71
     2
 72
     6
 73
     3
 74
     0
 42
0.0000000001
 43
0.0000000001
 40
0.0
 40
0.0
 40
0.0
 40
13.51340780779282
 40
13.51340780779282
 40
13.51340780779282
 10
1145.209485225529
 20
1577.627947321306
 30
0.0
 41
1.0
 10
1151.062106899796
 20
1581.004316773929
 30
0.0
 41
0.9999999425375186
 10
1156.912438011045
 20
1584.384653596122
 30
0.0
 41
1.0
  0
SPLINE
  5
AA
330
1F
100
AcDbEntity
  8
Predefinito
100
AcDbSpline
210
0.0
220
0.0
230
1.0
 70
     8
 71
     3
 72
    16
 73
    12
 74
     0
 42
0.0000000001
 43
0.0000000001
 40
0.0
 40
0.0
 40
0.0
 40
0.0
 40
92.57077151750838
 40
174.2796178133252
 40
246.7946937520387
 40
318.1227138781962
 40
396.4340050748762
 40
483.2589343246028
 40
578.2564974365207
 40
627.2857822681418
 40
675.6606146852416
 40
675.6606146852416
 40
675.6606146852416
 40
675.6606146852416
 10
1148.306823080173
 20
1572.257052896286
 30
0.0
 10
1121.582590810433
 20
1556.841337861782
 30
0.0
 10
1069.091286511809
 20
1531.384868466432
 30
0.0
 10
988.420372308854
 20
1512.198942034291
 30
0.0
 10
912.3364306674034
 20
1517.008098589348
 30
0.0
 10
843.5648804120424
 20
1547.604149985353
 30
0.0
 10
786.0287218822045
 20
1602.949439111003
 30
0.0
 10
742.2267431422433
 20
1678.496655871683
 30
0.0
 10
718.7487784923519
 20
1752.188098937628
 30
0.0
 10
708.2106999129396
 20
1815.516285658634
 30
0.0
 10
706.2409012170074
 20
1847.980341391533
 30
0.0
 10
706.2321840842797
 20
1864.104450336942
 30
0.0
  0
SPLINE
  5
AB
330
1F
100
AcDbEntity
  8
Predefinito
100
AcDbSpline
210
0.0
220
0.0
230
1.0
 70
     8
 71
     3
 72
    16
 73
    12
 74
     0
 42
0.0000000001
 43
0.0000000001
 40
0.0
 40
0.0
 40
0.0
 40
0.0
 40
46.2785142915
 40
94.9700205504335
 40
189.6183034334719
 40
275.4113639788392
 40
351.3269854820749
 40
420.6079620735456
 40
490.9214198191561
 40
569.9193283387497
 40
662.68086466565
 40
662.68086466565
 40
662.68086466565
 40
662.68086466565
 10
712.4321840408252
 20
1864.10681153869
 30
0.0
 10
712.4407229677381
 20
1848.681761380095
 30
0.0
 10
714.307649746022
 20
1817.027275129817
 30
0.0
 10
724.5377073507925
 20
1754.590184129564
 30
0.0
 10
747.7233011105027
 20
1681.400833248807
 30
0.0
 10
790.878458805159
 20
1606.938166914448
 30
0.0
 10
847.0741704651255
 20
1552.875201280962
 30
0.0
 10
913.7831851168271
 20
1523.170244153717
 30
0.0
 10
987.5070774651244
 20
1518.487746836469
 30
0.0
 10
1066.669559764689
 20
1537.128593824704
 30
0.0
 10
1118.43144919221
 20
1562.17727535493
 30
0.0
 10
1145.209484726796
 20
1577.627947033624
 30
0.0
  0
SPLINE
  5
AC
330
1F
100
AcDbEntity
  8
Predefinito
100
AcDbSpline
210
0.0
220
0.0
230
1.0
 70
    12
 71
     2
 72
     6
 73
     3
 74
     0
 42
0.0000000001
 43
0.0000000001
 40
0.0
 40
0.0
 40
0.0
 40
0.4924392123680599
 40
0.4924392123680599
 40
0.4924392123680599
 10
706.232184081593
 20
1864.104459461578
 30
0.0
 41
1.0
 10
706.2321118078579
 20
1864.350679057298
 30
0.0
 41
0.9999999991266408
 10
706.2320601150095
 20
1864.596898658199
 30
0.0
 41
1.0
  0
SPLINE
  5
AD
330
1F
100
AcDbEntity
  8
Predefinito
100
AcDbSpline
210
0.0
220
0.0
230
1.0
 70
    12
 71
     2
 72
     6
 73
     3
 74
     0
 42
0.0000000001
 43
0.0000000001
 40
0.0
 40
0.0
 40
0.0
 40
0.2888508908325645
 40
0.2888508908325645
 40
0.2888508908325645
 10
712.4321072081084
 20
1864.395671670337
 30
0.0
 41
1.0
 10
712.4321419225547
 20
1864.251246229062
 30
0.0
 41
0.99999999967174
 10
712.432184038124
 20
1864.106820789754
 30
0.0
 41
1.0
  0
SPLINE
  5
AE
330
1F
100
AcDbEntity
  8
Predefinito
100
AcDbSpline
210
0.0
220
0.0
230
1.0
 70
     8
 71
     3
 72
    12
 73
     8
 74
     0
 42
0.0000000001
 43
0.0000000001
 40
0.0
 40
0.0
 40
0.0
 40
0.0
 40
7.872938542633548
 40
16.58259055967978
 40
50.48234039430287
 40
66.87183918493564
 40
98.59260433787016
 40
98.59260433787016
 40
98.59260433787016
 40
98.59260433787016
 10
706.2372305453455
 20
1876.603569335168
 30
0.0
 10
706.2737022011206
 20
1879.226955686688
 30
0.0
 10
706.5078588848196
 20
1884.753802526999
 30
0.0
 10
708.3386028156556
 20
1901.487472504338
 30
0.0
 10
711.8092554772165
 20
1920.857684511868
 30
0.0
 10
715.1180882561689
 20
1947.998966118075
 30
0.0
 10
716.012346457414
 20
1964.027869731854
 30
0.0
 10
715.9974330004834
 20
1974.603413309982
 30
0.0
  0
SPLINE
  5
AF
330
1F
100
AcDbEntity
  8
Predefinito
100
AcDbSpline
210
0.0
220
0.0
230
1.0
 70
     8
 71
     3
 72
    14
 73
    10
 74
     0
 42
0.0000000001
 43
0.0000000001
 40
0.0
 40
0.0
 40
0.0
 40
0.0
 40
8.488089031899317
 40
16.16656477336547
 40
31.77851830379899
 40
48.15650868618003
 40
73.67578563939448
 40
81.84820884572015
 40
97.89466478189858
 40
97.89466478189858
 40
97.89466478189858
 40
97.89466478189858
 10
722.1968487827885
 20
1974.100104607295
 30
0.0
 10
722.1934226326848
 20
1971.270595271803
 30
0.0
 10
722.10700262713
 20
1965.882431307588
 30
0.0
 10
721.6808286716359
 20
1955.296648807348
 30
0.0
 10
720.6430978149142
 20
1942.111397373359
 30
0.0
 10
718.3164997538929
 20
1923.079327023471
 30
0.0
 10
715.5706542435291
 20
1906.612723482724
 30
0.0
 10
713.2533412825933
 20
1890.197757083217
 30
0.0
 10
712.5138203105644
 20
1882.148822347064
 30
0.0
 10
712.4396900674933
 20
1876.798227839034
 30
0.0
  0
SPLINE
  5
B0
330
1F
100
AcDbEntity
  8
Predefinito
100
AcDbSpline
210
0.0
220
0.0
230
1.0
 70
    12
 71
     2
 72
     6
 73
     3
 74
     0
 42
0.0000000001
 43
0.0000000001
 40
0.0
 40
0.0
 40
0.0
 40
4.881998453227078
 40
4.881998453227078
 40
4.881998453227078
 10
715.9974330023688
 20
1974.603417883558
 30
0.0
 41
1.0
 10
715.9979035127171
 20
1977.04441709765
 30
0.0
 41
0.9999999798289324
 10
715.9973934564996
 20
1979.485416303799
 30
0.0
 41
1.0
  0
SPLINE
  5
B1
330
1F
100
AcDbEntity
  8
Predefinito
100
AcDbSpline
210
0.0
220
0.0
230
1.0
 70
    12
 71
     2
 72
     6
 73
     3
 74
     0
 42
0.0000000001
 43
0.0000000001
 40
0.0
 40
0.0
 40
0.0
 40
2.385136226039432
 40
2.385136226039432
 40
2.385136226039432
 10
722.1973934999987
 20
1979.485383776531
 30
0.0
 41
1.0
 10
722.1974440873585
 20
1978.292815662764
 30
0.0
 41
0.9999999977100055
 10
722.1976560902822
 20
1977.100247566767
 30
0.0
 41
1.0
  0
SPLINE
  5
B2
330
1F
100
AcDbEntity
  8
Predefinito
100
AcDbSpline
210
0.0
220
0.0
230
1.0
 70
    12
 71
     2
 72
     6
 73
     3
 74
     0
 42
0.0000000001
 43
0.0000000001
 40
0.0
 40
0.0
 40
0.0
 40
15.36020551541328
 40
15.36020551541328
 40
15.36020551541328
 10
722.197398966382
 20
2006.655149969554
 30
0.0
 41
1.0
 10
722.1973854159867
 20
1998.975047211857
 30
0.0
 41
0.9999999999997286
 10
722.1973831832829
 20
1991.29494445415
 30
0.0
 41
1.0
  0
SPLINE
  5
B3
330
1F
100
AcDbEntity
  8
Predefinito
100
AcDbSpline
210
0.0
220
0.0
230
1.0
 70
    12
 71
     3
 72
     8
 73
     4
 74
     0
 42
0.0000000001
 43
0.0000000001
 40
0.0
 40
0.0
 40
0.0
 40
0.0
 40
9.311029305837925
 40
9.311029305837925
 40
9.311029305837925
 40
9.311029305837925
 10
715.9974041380915
 20
1981.762184244101
 30
0.0
 41
1.0
 10
715.997415873599
 20
1984.865860679359
 30
0.0
 41
1.0
 10
715.9973718068145
 20
1987.969676572066
 30
0.0
 41
1.0
 10
715.997383542322
 20
1991.073353007323
 30
0.0
 41
1.0
  0
SPLINE
  5
B4
330
1F
100
AcDbEntity
  8
Predefinito
100
AcDbSpline
210
0.0
220
0.0
230
1.0
 70
    12
 71
     2
 72
     6
 73
     3
 74
     0
 42
0.0000000001
 43
0.0000000001
 40
0.0
 40
0.0
 40
0.0
 40
2.276767798987025
 40
2.276767798987025
 40
2.276767798987025
 10
715.9973934564914
 20
1979.485416445144
 30
0.0
 41
1.0
 10
715.9974025993414
 20
1980.623800344604
 30
0.0
 41
0.9999999999944226
 10
715.9974041380588
 20
1981.762184244101
 30
0.0
 41
1.0
  0
SPLINE
  5
B5
330
1F
100
AcDbEntity
  8
Predefinito
100
AcDbSpline
210
0.0
220
0.0
230
1.0
 70
    12
 71
     3
 72
     8
 73
     4
 74
     0
 42
0.0000000001
 43
0.0000000001
 40
0.0
 40
0.0
 40
0.0
 40
0.0
 40
2.56
 40
2.56
 40
2.56
 40
2.56
 10
722.1974044399362
 20
1982.045410264299
 30
0.0
 41
1.0
 10
722.197395209912
 20
1981.192076931016
 30
0.0
 41
1.0
 10
722.1974027300266
 20
1980.338717262556
 30
0.0
 41
1.0
 10
722.1973935000019
 20
1979.485383929272
 30
0.0
 41
1.0
  0
SPLINE
  5
B6
330
1F
100
AcDbEntity
  8
Predefinito
100
AcDbSpline
210
0.0
220
0.0
230
1.0
 70
    12
 71
     3
 72
     8
 73
     4
 74
     0
 42
0.0000000001
 43
0.0000000001
 40
0.0
 40
0.0
 40
0.0
 40
0.0
 40
1.28
 40
1.28
 40
1.28
 40
1.28
 10
715.997387367885
 20
2023.319491785277
 30
0.0
 41
1.0
 10
715.9973934274635
 20
2023.7461584519
 30
0.0
 41
1.0
 10
715.9973865110478
 20
2024.174541021872
 30
0.0
 41
1.0
 10
715.9973925706267
 20
2024.601207688496
 30
0.0
 41
1.0
  0
SPLINE
  5
B7
330
1F
100
AcDbEntity
  8
Predefinito
100
AcDbSpline
210
0.0
220
0.0
230
1.0
 70
    12
 71
     2
 72
     6
 73
     3
 74
     0
 42
0.0000000001
 43
0.0000000001
 40
0.0
 40
0.0
 40
0.0
 40
4.610226733248431
 40
4.610226733248431
 40
4.610226733248431
 10
722.1973868155328
 20
2024.100236399849
 30
0.0
 41
1.0
 10
722.1973981951437
 20
2021.79512303324
 30
0.0
 41
0.9999999999916929
 10
722.1973907832248
 20
2019.490009666615
 30
0.0
 41
1.0
  0
SPLINE
  5
B8
330
1F
100
AcDbEntity
  8
Predefinito
100
AcDbSpline
210
0.0
220
0.0
230
1.0
 70
     8
 71
     3
 72
    14
 73
    10
 74
     0
 42
0.0000000001
 43
0.0000000001
 40
0.0
 40
0.0
 40
0.0
 40
0.0
 40
4.600270939171499
 40
8.74049993934222
 40
16.81733789819839
 40
24.36694302956585
 40
35.45879494271826
 40
39.02389629918754
 40
46.33123010949808
 40
46.33123010949808
 40
46.33123010949808
 40
46.33123010949808
 10
715.9973977703044
 20
2027.099672235633
 30
0.0
 10
715.9990486345077
 20
2028.633710489105
 30
0.0
 10
715.936950887296
 20
2031.545562991605
 30
0.0
 10
715.6093071946807
 20
2037.14504761395
 30
0.0
 10
714.7864768445279
 20
2043.68626255744
 30
0.0
 10
712.9352499896486
 20
2052.408193221571
 30
0.0
 10
710.7102065536578
 20
2059.474785118225
 30
0.0
 10
708.8638692203008
 20
2066.558782539523
 30
0.0
 10
708.3439099753073
 20
2070.162672742163
 30
0.0
 10
708.3016627227021
 20
2072.599624225501
 30
0.0
  0
SPLINE
  5
B9
330
1F
100
AcDbEntity
  8
Predefinito
100
AcDbSpline
210
0.0
220
0.0
230
1.0
 70
     8
 71
     3
 72
    13
 73
     9
 74
     0
 42
0.0000000001
 43
0.0000000001
 40
0.0
 40
0.0
 40
0.0
 40
0.0
 40
2.849538936584801
 40
6.150257390520949
 40
9.30563294093156
 40
20.42495717508811
 40
28.68686228739021
 40
46.32890862151645
 40
46.32890862151645
 40
46.32890862151645
 40
46.32890862151645
 10
714.5027374054448
 20
2072.600236594682
 30
0.0
 10
714.520112153808
 20
2071.649704321751
 30
0.0
 10
714.7013243996503
 20
2069.606496547297
 30
0.0
 10
715.2659242584132
 20
2066.551576518647
 30
0.0
 10
716.7646611543855
 20
2060.887871181902
 30
0.0
 10
719.0078074135822
 20
2053.713685233298
 30
0.0
 10
721.5628844240682
 20
2041.622900629782
 30
0.0
 10
722.207736023584
 20
2032.983265568319
 30
0.0
 10
722.1973975983669
 20
2027.102561215259
 30
0.0
  0
SPLINE
  5
BA
330
1F
100
AcDbEntity
  8
Predefinito
100
AcDbSpline
210
0.0
220
0.0
230
1.0
 70
    24
 71
     2
 72
     6
 73
     3
 74
     0
 42
0.0000000001
 43
0.0000000001
 40
0.0
 40
0.0
 40
0.0
 40
2.0
 40
2.0
 40
2.0
 10
1552.847391973502
 20
2100.600236927246
 30
0.0
 10
1552.847391973502
 20
2099.600236927246
 30
0.0
 10
1552.847391973502
 20
2098.600236927246
 30
0.0
  0
SPLINE
  5
BB
330
1F
100
AcDbEntity
  8
Predefinito
100
AcDbSpline
210
0.0
220
0.0
230
1.0
 70
    24
 71
     2
 72
     6
 73
     3
 74
     0
 42
0.0000000001
 43
0.0000000001
 40
0.0
 40
0.0
 40
0.0
 40
2.0
 40
2.0
 40
2.0
 10
1536.847391973502
 20
2098.600236927246
 30
0.0
 10
1536.847391973502
 20
2099.600236927246
 30
0.0
 10
1536.847391973502
 20
2100.600236927246
 30
0.0
  0
SPLINE
  5
BC
330
1F
100
AcDbEntity
  8
Predefinito
100
AcDbSpline
210
0.0
220
0.0
230
1.0
 70
    24
 71
     2
 72
     6
 73
     3
 74
     0
 42
0.0000000001
 43
0.0000000001
 40
0.0
 40
0.0
 40
0.0
 40
10.0
 40
10.0
 40
10.0
 10
1547.847391973502
 20
2069.600236927246
 30
0.0
 10
1547.847391973502
 20
2064.600236927246
 30
0.0
 10
1547.847391973502
 20
2059.600236927246
 30
0.0
  0
SPLINE
  5
BD
330
1F
100
AcDbEntity
  8
Predefinito
100
AcDbSpline
210
0.0
220
0.0
230
1.0
 70
    24
 71
     2
 72
     6
 73
     3
 74
     0
 42
0.0000000001
 43
0.0000000001
 40
0.0
 40
0.0
 40
0.0
 40
10.0
 40
10.0
 40
10.0
 10
1541.847391973502
 20
2059.600236927246
 30
0.0
 10
1541.847391973502
 20
2064.600236927246
 30
0.0
 10
1541.847391973502
 20
2069.600236927246
 30
0.0
  0
SPLINE
  5
BE
330
1F
100
AcDbEntity
  8
Predefinito
100
AcDbSpline
210
0.0
220
0.0
230
1.0
 70
    24
 71
     2
 72
     6
 73
     3
 74
     0
 42
0.0000000001
 43
0.0000000001
 40
0.0
 40
0.0
 40
0.0
 40
2.0
 40
2.0
 40
2.0
 10
1550.847391973502
 20
2071.600236927246
 30
0.0
 10
1550.847391973502
 20
2070.600236927246
 30
0.0
 10
1550.847391973502
 20
2069.600236927246
 30
0.0
  0
SPLINE
  5
BF
330
1F
100
AcDbEntity
  8
Predefinito
100
AcDbSpline
210
0.0
220
0.0
230
1.0
 70
    24
 71
     2
 72
     6
 73
     3
 74
     0
 42
0.0000000001
 43
0.0000000001
 40
0.0
 40
0.0
 40
0.0
 40
2.0
 40
2.0
 40
2.0
 10
1538.847391973502
 20
2069.600236927246
 30
0.0
 10
1538.847391973502
 20
2070.600236927246
 30
0.0
 10
1538.847391973502
 20
2071.600236927246
 30
0.0
  0
SPLINE
  5
C0
330
1F
100
AcDbEntity
  8
Predefinito
100
AcDbSpline
210
0.0
220
0.0
230
1.0
 70
    24
 71
     2
 72
     6
 73
     3
 74
     0
 42
0.0000000001
 43
0.0000000001
 40
0.0
 40
0.0
 40
0.0
 40
0.2000000000000455
 40
0.2000000000000455
 40
0.2000000000000455
 10
1550.547391973502
 20
2071.800236927246
 30
0.0
 10
1550.547391973502
 20
2071.700236927246
 30
0.0
 10
1550.547391973502
 20
2071.600236927246
 30
0.0
  0
SPLINE
  5
C1
330
1F
100
AcDbEntity
  8
Predefinito
100
AcDbSpline
210
0.0
220
0.0
230
1.0
 70
    24
 71
     2
 72
     6
 73
     3
 74
     0
 42
0.0000000001
 43
0.0000000001
 40
0.0
 40
0.0
 40
0.0
 40
0.2000000000000455
 40
0.2000000000000455
 40
0.2000000000000455
 10
1539.147391973502
 20
2071.600236927246
 30
0.0
 10
1539.147391973502
 20
2071.700236927246
 30
0.0
 10
1539.147391973502
 20
2071.800236927246
 30
0.0
  0
SPLINE
  5
C2
330
1F
100
AcDbEntity
  8
Predefinito
100
AcDbSpline
210
0.0
220
0.0
230
1.0
 70
    24
 71
     2
 72
     6
 73
     3
 74
     0
 42
0.0000000001
 43
0.0000000001
 40
0.0
 40
0.0
 40
0.0
 40
26.79999999999995
 40
26.79999999999995
 40
26.79999999999995
 10
1538.84739153712
 20
2071.800236927246
 30
0.0
 10
1538.84739153712
 20
2085.200236927246
 30
0.0
 10
1538.84739153712
 20
2098.600236927246
 30
0.0
  0
SPLINE
  5
C3
330
1F
100
AcDbEntity
  8
Predefinito
100
AcDbSpline
210
0.0
220
0.0
230
1.0
 70
    24
 71
     2
 72
     6
 73
     3
 74
     0
 42
0.0000000001
 43
0.0000000001
 40
0.0
 40
0.0
 40
0.0
 40
26.80000000000018
 40
26.80000000000018
 40
26.80000000000018
 10
1550.847392419163
 20
2098.600236927246
 30
0.0
 10
1550.847392419163
 20
2085.200236927246
 30
0.0
 10
1550.847392419163
 20
2071.800236927246
 30
0.0
  0
SPLINE
  5
C4
330
1F
100
AcDbEntity
  8
Predefinito
100
AcDbSpline
210
0.0
220
0.0
230
1.0
 70
    24
 71
     2
 72
     6
 73
     3
 74
     0
 42
0.0000000001
 43
0.0000000001
 40
0.0
 40
0.0
 40
0.0
 40
182.0000000274026
 40
182.0000000274026
 40
182.0000000274026
 10
1545.247391973502
 20
2059.600236927246
 30
0.0
 10
1545.247391973502
 20
1968.600236913545
 30
0.0
 10
1545.247391973502
 20
1877.600236899844
 30
0.0
  0
SPLINE
  5
C5
330
1F
100
AcDbEntity
  8
Predefinito
100
AcDbSpline
210
0.0
220
0.0
230
1.0
 70
    24
 71
     2
 72
     6
 73
     3
 74
     0
 42
0.0000000001
 43
0.0000000001
 40
0.0
 40
0.0
 40
0.0
 40
181.9999998940964
 40
181.9999998940964
 40
181.9999998940964
 10
1544.447391973502
 20
1877.60023703315
 30
0.0
 10
1544.447391973502
 20
1968.600236980198
 30
0.0
 10
1544.447391973502
 20
2059.600236927246
 30
0.0
  0
SPLINE
  5
C6
330
1F
100
AcDbEntity
  8
Predefinito
100
AcDbSpline
210
0.0
220
0.0
230
1.0
 70
    24
 71
     2
 72
     6
 73
     3
 74
     0
 42
0.0000000001
 43
0.0000000001
 40
0.0
 40
0.0
 40
0.0
 40
0.2002085020604241
 40
0.2002085020604241
 40
0.2002085020604241
 10
722.53896076296
 20
1863.658668137788
 30
0.0
 10
722.4681763682311
 20
1863.729452532517
 30
0.0
 10
722.3973919735022
 20
1863.800236927246
 30
0.0
  0
SPLINE
  5
C7
330
1F
100
AcDbEntity
  8
Predefinito
100
AcDbSpline
210
0.0
220
0.0
230
1.0
 70
    24
 71
     2
 72
     6
 73
     3
 74
     0
 42
0.0000000001
 43
0.0000000001
 40
0.0
 40
0.0
 40
0.0
 40
0.2002085020600724
 40
0.2002085020600724
 40
0.2002085020600724
 10
722.3973919735022
 20
1863.800236927246
 30
0.0
 10
722.3266075787728
 20
1863.729452532518
 30
0.0
 10
722.255823184044
 20
1863.658668137789
 30
0.0
  0
SPLINE
  5
C8
330
1F
100
AcDbEntity
  8
Predefinito
100
AcDbSpline
210
0.0
220
0.0
230
1.0
 70
    24
 71
     2
 72
     6
 73
     3
 74
     0
 42
0.0000000001
 43
0.0000000001
 40
0.0
 40
0.0
 40
0.0
 40
7.700131838625914
 40
7.700131838625914
 40
7.700131838625914
 10
722.1973919735019
 20
1863.600236927246
 30
0.0
 10
718.3473260541891
 20
1863.600236927246
 30
0.0
 10
714.4972601348759
 20
1863.600236927246
 30
0.0
  0
SPLINE
  5
C9
330
1F
100
AcDbEntity
  8
Predefinito
100
AcDbSpline
210
0.0
220
0.0
230
1.0
 70
    24
 71
     2
 72
     6
 73
     3
 74
     0
 42
0.0000000001
 43
0.0000000001
 40
0.0
 40
0.0
 40
0.0
 40
0.2002085020603337
 40
0.2002085020603337
 40
0.2002085020603337
 10
1557.397391973502
 20
1863.800236927246
 30
0.0
 10
1557.326607578773
 20
1863.729452532517
 30
0.0
 10
1557.255823184044
 20
1863.658668137788
 30
0.0
  0
SPLINE
  5
CA
330
1F
100
AcDbEntity
  8
Predefinito
100
AcDbSpline
210
0.0
220
0.0
230
1.0
 70
    24
 71
     2
 72
     6
 73
     3
 74
     0
 42
0.0000000001
 43
0.0000000001
 40
0.0
 40
0.0
 40
0.0
 40
2.799999999999955
 40
2.799999999999955
 40
2.799999999999955
 10
1557.597391973502
 20
1877.600236927246
 30
0.0
 10
1558.997391973502
 20
1877.600236927246
 30
0.0
 10
1560.397391973502
 20
1877.600236927246
 30
0.0
  0
SPLINE
  5
CB
330
1F
100
AcDbEntity
  8
Predefinito
100
AcDbSpline
210
0.0
220
0.0
230
1.0
 70
    24
 71
     2
 72
     6
 73
     3
 74
     0
 42
0.0000000001
 43
0.0000000001
 40
0.0
 40
0.0
 40
0.0
 40
0.6244725707720371
 40
0.6244725707720371
 40
0.6244725707720371
 10
1560.897391973502
 20
1864.100236927246
 30
0.0
 10
1560.676607578773
 20
1863.879452532517
 30
0.0
 10
1560.455823184044
 20
1863.658668137789
 30
0.0
  0
SPLINE
  5
CC
330
1F
100
AcDbEntity
  8
Predefinito
100
AcDbSpline
210
0.0
220
0.0
230
1.0
 70
    24
 71
     2
 72
     6
 73
     3
 74
     0
 42
0.0000000001
 43
0.0000000001
 40
0.0
 40
0.0
 40
0.0
 40
0.2002085020603337
 40
0.2002085020603337
 40
0.2002085020603337
 10
1557.397391973502
 20
1877.400236927246
 30
0.0
 10
1557.468176368231
 20
1877.471021321976
 30
0.0
 10
1557.53896076296
 20
1877.541805716705
 30
0.0
  0
SPLINE
  5
CD
330
1F
100
AcDbEntity
  8
Predefinito
100
AcDbSpline
210
0.0
220
0.0
230
1.0
 70
    24
 71
     2
 72
     6
 73
     3
 74
     0
 42
0.0000000001
 43
0.0000000001
 40
0.0
 40
0.0
 40
0.0
 40
3.0
 40
3.0
 40
3.0
 10
716.7038526405381
 20
1974.100236927246
 30
0.0
 10
716.7038526405381
 20
1975.600236927246
 30
0.0
 10
716.7038526405381
 20
1977.100236927246
 30
0.0
  0
SPLINE
  5
CE
330
1F
100
AcDbEntity
  8
Predefinito
100
AcDbSpline
210
0.0
220
0.0
230
1.0
 70
    24
 71
     2
 72
     6
 73
     3
 74
     0
 42
0.0000000001
 43
0.0000000001
 40
0.0
 40
0.0
 40
0.0
 40
3.0
 40
3.0
 40
3.0
 10
723.6206977586257
 20
1977.100236927246
 30
0.0
 10
723.6206977586257
 20
1975.600236927246
 30
0.0
 10
723.6206977586257
 20
1974.100236927246
 30
0.0
  0
SPLINE
  5
CF
330
1F
100
AcDbEntity
  8
Predefinito
100
AcDbSpline
210
0.0
220
0.0
230
1.0
 70
    24
 71
     2
 72
     6
 73
     3
 74
     0
 42
0.0000000001
 43
0.0000000001
 40
0.0
 40
0.0
 40
0.0
 40
3.0
 40
3.0
 40
3.0
 10
722.6048990757745
 20
1974.100236927246
 30
0.0
 10
722.6048990757745
 20
1975.600236927246
 30
0.0
 10
722.6048990757745
 20
1977.100236927246
 30
0.0
  0
SPLINE
  5
D0
330
1F
100
AcDbEntity
  8
Predefinito
100
AcDbSpline
210
0.0
220
0.0
230
1.0
 70
    24
 71
     2
 72
     6
 73
     3
 74
     0
 42
0.0000000001
 43
0.0000000001
 40
0.0
 40
0.0
 40
0.0
 40
5.901046435236481
 40
5.901046435236481
 40
5.901046435236481
 10
722.6048990757745
 20
1974.100236927246
 30
0.0
 10
719.6543758581565
 20
1974.100236927246
 30
0.0
 10
716.7038526405381
 20
1974.100236927246
 30
0.0
  0
SPLINE
  5
D1
330
1F
100
AcDbEntity
  8
Predefinito
100
AcDbSpline
210
0.0
220
0.0
230
1.0
 70
    24
 71
     2
 72
     6
 73
     3
 74
     0
 42
0.0000000001
 43
0.0000000001
 40
0.0
 40
0.0
 40
0.0
 40
1.015798682851312
 40
1.015798682851312
 40
1.015798682851312
 10
723.6206977586257
 20
1974.100236927246
 30
0.0
 10
723.1127984172003
 20
1974.100236927246
 30
0.0
 10
722.6048990757745
 20
1974.100236927246
 30
0.0
  0
SPLINE
  5
D2
330
1F
100
AcDbEntity
  8
Predefinito
100
AcDbSpline
210
0.0
220
0.0
230
1.0
 70
    12
 71
     2
 72
    10
 73
     7
 74
     0
 42
0.0000000001
 43
0.0000000001
 40
0.0
 40
0.0
 40
0.0
 40
0.0650008391982198
 40
0.0650008391982198
 40
2.145991804632231
 40
2.145991804632231
 40
4.226982770066241
 40
4.226982770066241
 40
4.226982770066241
 10
726.5323911343039
 20
1974.10023699521
 30
0.0
 41
1.0
 10
726.5648915539027
 20
1974.10023699521
 30
0.0
 41
1.0
 10
726.597391973502
 20
1974.100236995209
 30
0.0
 41
1.0
 10
726.5973919735017
 20
1974.100236927246
 30
0.0
 41
0.867696055287007
 10
725.6089777509446
 20
1974.100236927246
 30
0.0
 41
1.0
 10
724.6205635283869
 20
1974.100236927246
 30
0.0
 41
0.867696055287007
 10
723.6206977586257
 20
1974.100236927246
 30
0.0
 41
1.0
  0
SPLINE
  5
D3
330
1F
100
AcDbEntity
  8
Predefinito
100
AcDbSpline
210
0.0
220
0.0
230
1.0
 70
    24
 71
     2
 72
     6
 73
     3
 74
     0
 42
0.0000000001
 43
0.0000000001
 40
0.0
 40
0.0
 40
0.0
 40
5.901046435236481
 40
5.901046435236481
 40
5.901046435236481
 10
722.6048990757745
 20
1977.100236927246
 30
0.0
 10
719.6543758581565
 20
1977.100236927246
 30
0.0
 10
716.7038526405381
 20
1977.100236927246
 30
0.0
  0
SPLINE
  5
D4
330
1F
100
AcDbEntity
  8
Predefinito
100
AcDbSpline
210
0.0
220
0.0
230
1.0
 70
    24
 71
     2
 72
     6
 73
     3
 74
     0
 42
0.0000000001
 43
0.0000000001
 40
0.0
 40
0.0
 40
0.0
 40
1.015798682851312
 40
1.015798682851312
 40
1.015798682851312
 10
723.6206977586257
 20
1977.100236927246
 30
0.0
 10
723.1127984172003
 20
1977.100236927246
 30
0.0
 10
722.6048990757745
 20
1977.100236927246
 30
0.0
  0
SPLINE
  5
D5
330
1F
100
AcDbEntity
  8
Predefinito
100
AcDbSpline
210
0.0
220
0.0
230
1.0
 70
    12
 71
     2
 72
    10
 73
     7
 74
     0
 42
0.0000000001
 43
0.0000000001
 40
0.0
 40
0.0
 40
0.0
 40
0.0650008391982198
 40
0.0650008391982198
 40
2.145991804632231
 40
2.145991804632231
 40
4.226982770066241
 40
4.226982770066241
 40
4.226982770066241
 10
726.5323911343039
 20
1977.10023699521
 30
0.0
 41
1.0
 10
726.5648915539027
 20
1977.10023699521
 30
0.0
 41
1.0
 10
726.597391973502
 20
1977.100236995209
 30
0.0
 41
1.0
 10
726.5973919735017
 20
1977.100236927246
 30
0.0
 41
0.867696055287007
 10
725.6089777509446
 20
1977.100236927246
 30
0.0
 41
1.0
 10
724.6205635283869
 20
1977.100236927246
 30
0.0
 41
0.867696055287007
 10
723.6206977586257
 20
1977.100236927246
 30
0.0
 41
1.0
  0
SPLINE
  5
D6
330
1F
100
AcDbEntity
  8
Predefinito
100
AcDbSpline
210
0.0
220
0.0
230
1.0
 70
    24
 71
     2
 72
     6
 73
     3
 74
     0
 42
0.0000000001
 43
0.0000000001
 40
0.0
 40
0.0
 40
0.0
 40
2.999803527807217
 40
2.999803527807217
 40
2.999803527807217
 10
716.7038526405381
 20
2024.100236927246
 30
0.0
 10
716.7038526405381
 20
2025.60013869115
 30
0.0
 10
716.7038526405381
 20
2027.100040455054
 30
0.0
  0
SPLINE
  5
D7
330
1F
100
AcDbEntity
  8
Predefinito
100
AcDbSpline
210
0.0
220
0.0
230
1.0
 70
    24
 71
     2
 72
     6
 73
     3
 74
     0
 42
0.0000000001
 43
0.0000000001
 40
0.0
 40
0.0
 40
0.0
 40
3.0
 40
3.0
 40
3.0
 10
723.6206977586257
 20
2027.100236927246
 30
0.0
 10
723.6206977586257
 20
2025.600236927246
 30
0.0
 10
723.6206977586257
 20
2024.100236927246
 30
0.0
  0
SPLINE
  5
D8
330
1F
100
AcDbEntity
  8
Predefinito
100
AcDbSpline
210
0.0
220
0.0
230
1.0
 70
    24
 71
     2
 72
     6
 73
     3
 74
     0
 42
0.0000000001
 43
0.0000000001
 40
0.0
 40
0.0
 40
0.0
 40
3.0
 40
3.0
 40
3.0
 10
722.6048990757745
 20
2024.100236927246
 30
0.0
 10
722.6048990757745
 20
2025.600236927246
 30
0.0
 10
722.6048990757745
 20
2027.100236927246
 30
0.0
  0
SPLINE
  5
D9
330
1F
100
AcDbEntity
  8
Predefinito
100
AcDbSpline
210
0.0
220
0.0
230
1.0
 70
    24
 71
     2
 72
     6
 73
     3
 74
     0
 42
0.0000000001
 43
0.0000000001
 40
0.0
 40
0.0
 40
0.0
 40
5.901046435236481
 40
5.901046435236481
 40
5.901046435236481
 10
722.6048990757745
 20
2024.100236927246
 30
0.0
 10
719.6543758581565
 20
2024.100236927246
 30
0.0
 10
716.7038526405381
 20
2024.100236927246
 30
0.0
  0
SPLINE
  5
DA
330
1F
100
AcDbEntity
  8
Predefinito
100
AcDbSpline
210
0.0
220
0.0
230
1.0
 70
    24
 71
     2
 72
     6
 73
     3
 74
     0
 42
0.0000000001
 43
0.0000000001
 40
0.0
 40
0.0
 40
0.0
 40
1.015798682851312
 40
1.015798682851312
 40
1.015798682851312
 10
723.6206977586257
 20
2024.100236927246
 30
0.0
 10
723.1127984172003
 20
2024.100236927246
 30
0.0
 10
722.6048990757745
 20
2024.100236927246
 30
0.0
  0
SPLINE
  5
DB
330
1F
100
AcDbEntity
  8
Predefinito
100
AcDbSpline
210
0.0
220
0.0
230
1.0
 70
    12
 71
     2
 72
    10
 73
     7
 74
     0
 42
0.0000000001
 43
0.0000000001
 40
0.0
 40
0.0
 40
0.0
 40
0.0650008391982198
 40
0.0650008391982198
 40
2.145991804632231
 40
2.145991804632231
 40
4.226982770066241
 40
4.226982770066241
 40
4.226982770066241
 10
726.5323911343039
 20
2024.10023699521
 30
0.0
 41
1.0
 10
726.5648915539027
 20
2024.10023699521
 30
0.0
 41
1.0
 10
726.597391973502
 20
2024.100236995209
 30
0.0
 41
1.0
 10
726.5973919735017
 20
2024.100236927246
 30
0.0
 41
0.867696055287007
 10
725.6089777509446
 20
2024.100236927246
 30
0.0
 41
1.0
 10
724.6205635283869
 20
2024.100236927246
 30
0.0
 41
0.867696055287007
 10
723.6206977586257
 20
2024.100236927246
 30
0.0
 41
1.0
  0
SPLINE
  5
DC
330
1F
100
AcDbEntity
  8
Predefinito
100
AcDbSpline
210
0.0
220
0.0
230
1.0
 70
    24
 71
     2
 72
     6
 73
     3
 74
     0
 42
0.0000000001
 43
0.0000000001
 40
0.0
 40
0.0
 40
0.0
 40
5.806912873889317
 40
5.806912873889317
 40
5.806912873889317
 10
722.6048990757745
 20
2027.100236927246
 30
0.0
 10
719.70144263883
 20
2027.100236927246
 30
0.0
 10
716.7979862018851
 20
2027.100236927246
 30
0.0
  0
SPLINE
  5
DD
330
1F
100
AcDbEntity
  8
Predefinito
100
AcDbSpline
210
0.0
220
0.0
230
1.0
 70
    24
 71
     2
 72
     6
 73
     3
 74
     0
 42
0.0000000001
 43
0.0000000001
 40
0.0
 40
0.0
 40
0.0
 40
1.015798682851312
 40
1.015798682851312
 40
1.015798682851312
 10
723.6206977586257
 20
2027.100236927246
 30
0.0
 10
723.1127984172003
 20
2027.100236927246
 30
0.0
 10
722.6048990757745
 20
2027.100236927246
 30
0.0
  0
SPLINE
  5
DE
330
1F
100
AcDbEntity
  8
Predefinito
100
AcDbSpline
210
0.0
220
0.0
230
1.0
 70
    12
 71
     2
 72
    10
 73
     7
 74
     0
 42
0.0000000001
 43
0.0000000001
 40
0.0
 40
0.0
 40
0.0
 40
0.0650008391982198
 40
0.0650008391982198
 40
2.145991804632231
 40
2.145991804632231
 40
4.226982770066241
 40
4.226982770066241
 40
4.226982770066241
 10
726.5323911343039
 20
2027.10023699521
 30
0.0
 41
1.0
 10
726.5648915539027
 20
2027.10023699521
 30
0.0
 41
1.0
 10
726.597391973502
 20
2027.100236995209
 30
0.0
 41
1.0
 10
726.5973919735017
 20
2027.100236927246
 30
0.0
 41
0.867696055287007
 10
725.6089777509446
 20
2027.100236927246
 30
0.0
 41
1.0
 10
724.6205635283869
 20
2027.100236927246
 30
0.0
 41
0.867696055287007
 10
723.6206977586257
 20
2027.100236927246
 30
0.0
 41
1.0
  0
SPLINE
  5
DF
330
1F
100
AcDbEntity
  8
Predefinito
100
AcDbSpline
210
0.0
220
0.0
230
1.0
 70
    24
 71
     2
 72
     6
 73
     3
 74
     0
 42
0.0000000001
 43
0.0000000001
 40
0.0
 40
0.0
 40
0.0
 40
67.98798723327225
 40
67.98798723327225
 40
67.98798723327225
 10
724.2973919735018
 20
2072.600236927246
 30
0.0
 10
690.3033983568662
 20
2072.600236927246
 30
0.0
 10
656.3094047402296
 20
2072.600236927246
 30
0.0
  0
SPLINE
  5
E0
330
1F
100
AcDbEntity
  8
Predefinito
100
AcDbSpline
210
0.0
220
0.0
230
1.0
 70
    28
 71
     2
 72
     8
 73
     5
 74
     0
 42
0.0000000001
 43
0.0000000001
 40
-324.045358077798
 40
-324.045358077798
 40
-324.045358077798
 40
-320.7046842831816
 40
-320.7046842831816
 40
-213.8031228554544
 40
-213.8031228554544
 40
-213.8031228554544
 10
792.2853792067743
 20
2072.600236927246
 30
0.0
 41
0.9822662308921544
 10
792.3530396753605
 20
2072.600236927246
 30
0.0
 41
0.9908470869120797
 10
792.3530396753608
 20
2072.600236927246
 30
0.0
 41
1.0
 10
792.3530396753608
 20
2072.600236927246
 30
0.0
 41
0.7071067811865476
 10
724.2973919735018
 20
2072.600236927246
 30
0.0
 41
1.0
  0
SPLINE
  5
E1
330
1F
100
AcDbEntity
  8
Predefinito
100
AcDbSpline
210
0.0
220
0.0
230
1.0
 70
    28
 71
     3
 72
    13
 73
     9
 74
     0
 42
0.0000000001
 43
0.0000000001
 40
318.6158879385297
 40
318.6158879385297
 40
318.6158879385297
 40
318.6158879385297
 40
321.8339414200424
 40
348.6534546784784
 40
375.4729679369144
 40
403.3667593539137
 40
416.2397832812741
 40
429.1128072086345
 40
429.1128072086345
 40
429.1128072086345
 40
429.1128072086345
 10
656.0762390092609
 20
2100.297618966597
 30
0.0
 41
1.0
 10
656.0253948863137
 20
2100.297618966597
 30
0.0
 41
1.0
 10
655.78749633591
 20
2100.297618966597
 30
0.0
 41
1.0
 10
659.5556635206067
 20
2100.297618966597
 30
0.0
 41
1.0
 10
674.9497531164411
 20
2100.297618966597
 30
0.0
 41
1.0
 10
694.1736238558237
 20
2100.297618966597
 30
0.0
 41
1.0
 10
711.4255094511432
 20
2100.297618966597
 30
0.0
 41
1.0
 10
720.0066393001243
 20
2100.297618966597
 30
0.0
 41
1.0
 10
724.2973919735018
 20
2100.297618966597
 30
0.0
 41
1.0
  0
SPLINE
  5
E2
330
1F
100
AcDbEntity
  8
Predefinito
100
AcDbSpline
210
0.0
220
0.0
230
1.0
 70
    24
 71
     2
 72
     6
 73
     3
 74
     0
 42
0.0000000001
 43
0.0000000001
 40
0.0
 40
0.0
 40
0.0
 40
68.2211510819123
 40
68.2211510819123
 40
68.2211510819123
 10
724.2973919735018
 20
2100.297618966597
 30
0.0
 10
758.407967514458
 20
2100.297618966597
 30
0.0
 10
792.5185430554143
 20
2100.297618966597
 30
0.0
  0
SPLINE
  5
E3
330
1F
100
AcDbEntity
  8
Predefinito
100
AcDbSpline
210
0.0
220
0.0
230
1.0
 70
    28
 71
     3
 72
    13
 73
     9
 74
     0
 42
0.0000000001
 43
0.0000000001
 40
-110.6313160800411
 40
-110.6313160800411
 40
-110.6313160800411
 40
-110.6313160800411
 40
-107.2788741837997
 40
-81.5344272042084
 40
-53.64045189236845
 40
-26.82022594618422
 40
-12.87302392736041
 40
0.0
 40
0.0
 40
0.0
 40
0.0
 10
792.2118497029855
 20
2100.600236927246
 30
0.0
 41
1.0
 10
792.2669623205538
 20
2100.600236927246
 30
0.0
 41
1.0
 10
792.5076745881561
 20
2100.600236927246
 30
0.0
 41
1.0
 10
788.9012352966997
 20
2100.600236927246
 30
0.0
 41
1.0
 10
773.9342135020984
 20
2100.600236927246
 30
0.0
 41
1.0
 10
754.6168455369302
 20
2100.600236927246
 30
0.0
 41
1.0
 10
737.4701270105475
 20
2100.600236927246
 30
0.0
 41
1.0
 10
728.5693497997167
 20
2100.600236927246
 30
0.0
 41
1.0
 10
724.2973919735018
 20
2100.600236927246
 30
0.0
 41
1.0
  0
SPLINE
  5
E4
330
1F
100
AcDbEntity
  8
Predefinito
100
AcDbSpline
210
0.0
220
0.0
230
1.0
 70
    24
 71
     2
 72
     6
 73
     3
 74
     0
 42
0.0000000001
 43
0.0000000001
 40
0.0
 40
0.0
 40
0.0
 40
67.91445871349146
 40
67.91445871349146
 40
67.91445871349146
 10
724.2973919735018
 20
2100.600236927246
 30
0.0
 10
690.3401626167565
 20
2100.600236927246
 30
0.0
 10
656.3829332600103
 20
2100.600236927246
 30
0.0
  0
SPLINE
  5
E5
330
1F
100
AcDbEntity
  8
Predefinito
100
AcDbSpline
210
0.0
220
0.0
230
1.0
 70
    12
 71
     2
 72
     6
 73
     3
 74
     0
 42
0.0000000001
 43
0.0000000001
 40
0.0
 40
0.0
 40
0.0
 40
0.400039162626314
 40
0.400039162626314
 40
0.400039162626314
 10
1219.447570135273
 20
1877.600225949258
 30
0.0
 41
1.0
 10
1219.647318307005
 20
1877.588818045081
 30
0.0
 41
0.9995945530098281
 10
1219.847391973502
 20
1877.588799011109
 30
0.0
 41
1.0
  0
SPLINE
  5
E6
330
1F
100
AcDbEntity
  8
Predefinito
100
AcDbSpline
210
0.0
220
0.0
230
1.0
 70
    12
 71
     2
 72
     6
 73
     3
 74
     0
 42
0.0000000001
 43
0.0000000001
 40
0.0
 40
0.0
 40
0.0
 40
0.4000420436827733
 40
0.4000420436827733
 40
0.4000420436827733
 10
1219.847391973502
 20
1877.588799011109
 30
0.0
 41
1.0
 10
1220.047467157777
 20
1877.58881386384
 30
0.0
 41
0.9995939797263264
 10
1220.247216623627
 20
1877.600225720661
 30
0.0
 41
1.0
  0
SPLINE
  5
E7
330
1F
100
AcDbEntity
  8
Predefinito
100
AcDbSpline
210
0.0
220
0.0
230
1.0
 70
    12
 71
     2
 72
     6
 73
     3
 74
     0
 42
0.0000000001
 43
0.0000000001
 40
0.0
 40
0.0
 40
0.0
 40
0.4002179001747442
 40
0.4002179001747442
 40
0.4002179001747442
 10
724.1473919735022
 20
1877.588799011109
 30
0.0
 41
1.0
 10
724.3475553446654
 20
1877.588804650009
 30
0.0
 41
0.9995922243581792
 10
724.5473919735018
 20
1877.600236927246
 30
0.0
 41
1.0
  0
SPLINE
  5
E8
330
1F
100
AcDbEntity
  8
Predefinito
100
AcDbSpline
210
0.0
220
0.0
230
1.0
 70
    12
 71
     2
 72
     6
 73
     3
 74
     0
 42
0.0000000001
 43
0.0000000001
 40
0.0
 40
0.0
 40
0.0
 40
0.4001273673903888
 40
0.4001273673903888
 40
0.4001273673903888
 10
723.7473919735021
 20
1877.600236927246
 30
0.0
 41
1.0
 10
723.9471833704298
 20
1877.588807171587
 30
0.0
 41
0.9995923995822543
 10
724.1473014394151
 20
1877.588799011749
 30
0.0
 41
1.0
  0
SPLINE
  5
E9
330
1F
100
AcDbEntity
  8
Predefinito
100
AcDbSpline
210
0.0
220
0.0
230
1.0
 70
    24
 71
     2
 72
     6
 73
     3
 74
     0
 42
0.0000000001
 43
0.0000000001
 40
0.0
 40
0.0
 40
0.0
 40
8.0
 40
8.0
 40
8.0
 10
1544.847391973502
 20
2098.600236927246
 30
0.0
 10
1548.847391973502
 20
2098.600236927246
 30
0.0
 10
1552.847391973502
 20
2098.600236927246
 30
0.0
  0
SPLINE
  5
EA
330
1F
100
AcDbEntity
  8
Predefinito
100
AcDbSpline
210
0.0
220
0.0
230
1.0
 70
    24
 71
     2
 72
     6
 73
     3
 74
     0
 42
0.0000000001
 43
0.0000000001
 40
0.0
 40
0.0
 40
0.0
 40
8.0
 40
8.0
 40
8.0
 10
1536.847391973502
 20
2098.600236927246
 30
0.0
 10
1540.847391973502
 20
2098.600236927246
 30
0.0
 10
1544.847391973502
 20
2098.600236927246
 30
0.0
  0
SPLINE
  5
EB
330
1F
100
AcDbEntity
  8
Predefinito
100
AcDbSpline
210
0.0
220
0.0
230
1.0
 70
    24
 71
     2
 72
     6
 73
     3
 74
     0
 42
0.0000000001
 43
0.0000000001
 40
0.0
 40
0.0
 40
0.0
 40
8.0
 40
8.0
 40
8.0
 10
1544.847391973502
 20
2100.600236927246
 30
0.0
 10
1540.847391973502
 20
2100.600236927246
 30
0.0
 10
1536.847391973502
 20
2100.600236927246
 30
0.0
  0
SPLINE
  5
EC
330
1F
100
AcDbEntity
  8
Predefinito
100
AcDbSpline
210
0.0
220
0.0
230
1.0
 70
    24
 71
     2
 72
     6
 73
     3
 74
     0
 42
0.0000000001
 43
0.0000000001
 40
0.0
 40
0.0
 40
0.0
 40
8.0
 40
8.0
 40
8.0
 10
1552.847391973502
 20
2100.600236927246
 30
0.0
 10
1548.847391973502
 20
2100.600236927246
 30
0.0
 10
1544.847391973502
 20
2100.600236927246
 30
0.0
  0
SPLINE
  5
ED
330
1F
100
AcDbEntity
  8
Predefinito
100
AcDbSpline
210
0.0
220
0.0
230
1.0
 70
    24
 71
     2
 72
     6
 73
     3
 74
     0
 42
0.0000000001
 43
0.0000000001
 40
0.0
 40
0.0
 40
0.0
 40
2.949916105249827
 40
2.949916105249827
 40
2.949916105249827
 10
1544.847391973502
 20
2059.600236927246
 30
0.0
 10
1546.322350026127
 20
2059.600236927246
 30
0.0
 10
1547.797308078752
 20
2059.600236927246
 30
0.0
  0
SPLINE
  5
EE
330
1F
100
AcDbEntity
  8
Predefinito
100
AcDbSpline
210
0.0
220
0.0
230
1.0
 70
    12
 71
     2
 72
     8
 73
     5
 74
     0
 42
0.0000000001
 43
0.0000000001
 40
0.0
 40
0.0
 40
0.0
 40
0.0500838947502871
 40
0.0500838947502871
 40
4.762472875134977
 40
4.762472875134977
 40
4.762472875134977
 10
1541.897475868252
 20
2059.600236876001
 30
0.0
 41
1.0
 10
1541.872433920877
 20
2059.600236876
 30
0.0
 41
1.0
 10
1541.847391973502
 20
2059.600236876
 30
0.0
 41
1.0
 10
1541.847391973502
 20
2059.600236927246
 30
0.0
 41
0.7071067811865476
 10
1544.847391973502
 20
2059.600236927246
 30
0.0
 41
1.0
  0
SPLINE
  5
EF
330
1F
100
AcDbEntity
  8
Predefinito
100
AcDbSpline
210
0.0
220
0.0
230
1.0
 70
    24
 71
     2
 72
     6
 73
     3
 74
     0
 42
0.0000000001
 43
0.0000000001
 40
0.0
 40
0.0
 40
0.0
 40
6.0
 40
6.0
 40
6.0
 10
1544.847391973502
 20
2069.600236927246
 30
0.0
 10
1547.847391973502
 20
2069.600236927246
 30
0.0
 10
1550.847391973502
 20
2069.600236927246
 30
0.0
  0
SPLINE
  5
F0
330
1F
100
AcDbEntity
  8
Predefinito
100
AcDbSpline
210
0.0
220
0.0
230
1.0
 70
    24
 71
     2
 72
     6
 73
     3
 74
     0
 42
0.0000000001
 43
0.0000000001
 40
0.0
 40
0.0
 40
0.0
 40
6.0
 40
6.0
 40
6.0
 10
1538.847391973502
 20
2069.600236927246
 30
0.0
 10
1541.847391973502
 20
2069.600236927246
 30
0.0
 10
1544.847391973502
 20
2069.600236927246
 30
0.0
  0
SPLINE
  5
F1
330
1F
100
AcDbEntity
  8
Predefinito
100
AcDbSpline
210
0.0
220
0.0
230
1.0
 70
    24
 71
     2
 72
     6
 73
     3
 74
     0
 42
0.0000000001
 43
0.0000000001
 40
0.0
 40
0.0
 40
0.0
 40
6.0
 40
6.0
 40
6.0
 10
1544.847391973502
 20
2071.600236927246
 30
0.0
 10
1541.847391973502
 20
2071.600236927246
 30
0.0
 10
1538.847391973502
 20
2071.600236927246
 30
0.0
  0
SPLINE
  5
F2
330
1F
100
AcDbEntity
  8
Predefinito
100
AcDbSpline
210
0.0
220
0.0
230
1.0
 70
    24
 71
     2
 72
     6
 73
     3
 74
     0
 42
0.0000000001
 43
0.0000000001
 40
0.0
 40
0.0
 40
0.0
 40
6.0
 40
6.0
 40
6.0
 10
1550.847391973502
 20
2071.600236927246
 30
0.0
 10
1547.847391973502
 20
2071.600236927246
 30
0.0
 10
1544.847391973502
 20
2071.600236927246
 30
0.0
  0
SPLINE
  5
F3
330
1F
100
AcDbEntity
  8
Predefinito
100
AcDbSpline
210
0.0
220
0.0
230
1.0
 70
    24
 71
     2
 72
     6
 73
     3
 74
     0
 42
0.0000000001
 43
0.0000000001
 40
0.0
 40
0.0
 40
0.0
 40
6.0
 40
6.0
 40
6.0
 10
1544.847391973502
 20
2071.800236927246
 30
0.0
 10
1547.847391973502
 20
2071.800236927246
 30
0.0
 10
1550.847391973502
 20
2071.800236927246
 30
0.0
  0
SPLINE
  5
F4
330
1F
100
AcDbEntity
  8
Predefinito
100
AcDbSpline
210
0.0
220
0.0
230
1.0
 70
    24
 71
     2
 72
     6
 73
     3
 74
     0
 42
0.0000000001
 43
0.0000000001
 40
0.0
 40
0.0
 40
0.0
 40
6.0
 40
6.0
 40
6.0
 10
1538.847391973502
 20
2071.800236927246
 30
0.0
 10
1541.847391973502
 20
2071.800236927246
 30
0.0
 10
1544.847391973502
 20
2071.800236927246
 30
0.0
  0
SPLINE
  5
F5
330
1F
100
AcDbEntity
  8
Predefinito
100
AcDbSpline
210
0.0
220
0.0
230
1.0
 70
    12
 71
     2
 72
     6
 73
     3
 74
     0
 42
0.0000000001
 43
0.0000000001
 40
0.0
 40
0.0
 40
0.0
 40
0.4000392363147158
 40
0.4000392363147158
 40
0.4000392363147158
 10
1544.44757006176
 20
1877.600225953858
 30
0.0
 41
1.0
 10
1544.647318270086
 20
1877.58881804291
 30
0.0
 41
0.9995945525227251
 10
1544.847391973502
 20
1877.588799011109
 30
0.0
 41
1.0
  0
SPLINE
  5
F6
330
1F
100
AcDbEntity
  8
Predefinito
100
AcDbSpline
210
0.0
220
0.0
230
1.0
 70
    12
 71
     2
 72
     6
 73
     3
 74
     0
 42
0.0000000001
 43
0.0000000001
 40
0.0
 40
0.0
 40
0.0
 40
0.4000420436827735
 40
0.4000420436827735
 40
0.4000420436827735
 10
1544.847391973502
 20
1877.588799011109
 30
0.0
 41
1.0
 10
1545.047467157778
 20
1877.588813863841
 30
0.0
 41
0.9995939797263257
 10
1545.247216623627
 20
1877.600225720661
 30
0.0
 41
1.0
  0
SPLINE
  5
F7
330
1F
100
AcDbEntity
  8
Predefinito
100
AcDbSpline
210
0.0
220
0.0
230
1.0
 70
    24
 71
     2
 72
     6
 73
     3
 74
     0
 42
0.0000000001
 43
0.0000000001
 40
0.0
 40
0.0
 40
0.0
 40
509.6
 40
509.6
 40
509.6
 10
1232.197391973502
 20
1863.600236927246
 30
0.0
 10
977.3973919735022
 20
1863.600236927246
 30
0.0
 10
722.597391973502
 20
1863.600236927246
 30
0.0
  0
SPLINE
  5
F8
330
1F
100
AcDbEntity
  8
Predefinito
100
AcDbSpline
210
0.0
220
0.0
230
1.0
 70
    24
 71
     2
 72
     6
 73
     3
 74
     0
 42
0.0000000001
 43
0.0000000001
 40
0.0
 40
0.0
 40
0.0
 40
11.94999874653377
 40
11.94999874653377
 40
11.94999874653377
 10
1220.247393226968
 20
1877.600236927246
 30
0.0
 10
1226.222392600235
 20
1877.600236927246
 30
0.0
 10
1232.197391973502
 20
1877.600236927246
 30
0.0
  0
SPLINE
  5
F9
330
1F
100
AcDbEntity
  8
Predefinito
100
AcDbSpline
210
0.0
220
0.0
230
1.0
 70
    24
 71
     2
 72
     6
 73
     3
 74
     0
 42
0.0000000001
 43
0.0000000001
 40
0.0
 40
0.0
 40
0.0
 40
494.8999999972745
 40
494.8999999972745
 40
494.8999999972745
 10
724.5473919735018
 20
1877.600236927246
 30
0.0
 10
971.9973919721392
 20
1877.600236927246
 30
0.0
 10
1219.447391970777
 20
1877.600236927246
 30
0.0
  0
SPLINE
  5
FA
330
1F
100
AcDbEntity
  8
Predefinito
100
AcDbSpline
210
0.0
220
0.0
230
1.0
 70
    24
 71
     2
 72
     6
 73
     3
 74
     0
 42
0.0000000001
 43
0.0000000001
 40
0.0
 40
0.0
 40
0.0
 40
1.149988399303822
 40
1.149988399303822
 40
1.149988399303822
 10
722.597391973502
 20
1877.600236927246
 30
0.0
 10
723.1723861731539
 20
1877.600236927246
 30
0.0
 10
723.7473803728058
 20
1877.600236927246
 30
0.0
  0
SPLINE
  5
FB
330
1F
100
AcDbEntity
  8
Predefinito
100
AcDbSpline
210
0.0
220
0.0
230
1.0
 70
    24
 71
     2
 72
     6
 73
     3
 74
     0
 42
0.0000000001
 43
0.0000000001
 40
0.0
 40
0.0
 40
0.0
 40
14.0
 40
14.0
 40
14.0
 10
722.597391973502
 20
1877.600236927246
 30
0.0
 10
722.597391973502
 20
1870.600236927246
 30
0.0
 10
722.597391973502
 20
1863.600236927246
 30
0.0
  0
SPLINE
  5
FC
330
1F
100
AcDbEntity
  8
Predefinito
100
AcDbSpline
210
0.0
220
0.0
230
1.0
 70
    24
 71
     2
 72
     6
 73
     3
 74
     0
 42
0.0000000001
 43
0.0000000001
 40
0.0
 40
0.0
 40
0.0
 40
0.2002085020602232
 40
0.2002085020602232
 40
0.2002085020602232
 10
722.3973919735022
 20
1877.400236927246
 30
0.0
 10
722.4681763682311
 20
1877.471021321976
 30
0.0
 10
722.53896076296
 20
1877.541805716704
 30
0.0
  0
SPLINE
  5
FD
330
1F
100
AcDbEntity
  8
Predefinito
100
AcDbSpline
210
0.0
220
0.0
230
1.0
 70
    24
 71
     2
 72
     6
 73
     3
 74
     0
 42
0.0000000001
 43
0.0000000001
 40
0.0
 40
0.0
 40
0.0
 40
13.59999999999991
 40
13.59999999999991
 40
13.59999999999991
 10
722.3973919735022
 20
1877.400236927246
 30
0.0
 10
722.3973919735022
 20
1870.600236927246
 30
0.0
 10
722.3973919735022
 20
1863.800236927246
 30
0.0
  0
SPLINE
  5
FE
330
1F
100
AcDbEntity
  8
Predefinito
100
AcDbSpline
210
0.0
220
0.0
230
1.0
 70
    24
 71
     2
 72
     6
 73
     3
 74
     0
 42
0.0000000001
 43
0.0000000001
 40
0.0
 40
0.0
 40
0.0
 40
0.2002085020602835
 40
0.2002085020602835
 40
0.2002085020602835
 10
722.3973919735022
 20
1877.400236927246
 30
0.0
 10
722.3266075787728
 20
1877.471021321976
 30
0.0
 10
722.255823184044
 20
1877.541805716704
 30
0.0
  0
SPLINE
  5
FF
330
1F
100
AcDbEntity
  8
Predefinito
100
AcDbSpline
210
0.0
220
0.0
230
1.0
 70
    12
 71
     2
 72
     6
 73
     3
 74
     0
 42
0.0000000001
 43
0.0000000001
 40
0.0
 40
0.0
 40
0.0
 40
0.3236832558705351
 40
0.3236832558705351
 40
0.3236832558705351
 10
686.105333486807
 20
1876.260314607448
 30
0.0
 41
1.0
 10
686.0009558674913
 20
1876.13662866229
 30
0.0
 41
0.9999946194137945
 10
685.8973919735022
 20
1876.012260578341
 30
0.0
 41
1.0
  0
SPLINE
  5
100
330
1F
100
AcDbEntity
  8
Predefinito
100
AcDbSpline
210
0.0
220
0.0
230
1.0
 70
    12
 71
     2
 72
     6
 73
     3
 74
     0
 42
0.0000000001
 43
0.0000000001
 40
0.0
 40
0.0
 40
0.0
 40
0.4506455470536664
 40
0.4506455470536664
 40
0.4506455470536664
 10
686.3939073482329
 20
1876.606442238451
 30
0.0
 41
1.0
 10
686.2506067294701
 20
1876.432556114002
 30
0.0
 41
0.9999837603948168
 10
686.105333486807
 20
1876.260314607448
 30
0.0
 41
1.0
  0
SPLINE
  5
101
330
1F
100
AcDbEntity
  8
Predefinito
100
AcDbSpline
210
0.0
220
0.0
230
1.0
 70
    12
 71
     2
 72
     6
 73
     3
 74
     0
 42
0.0000000001
 43
0.0000000001
 40
0.0
 40
0.0
 40
0.0
 40
0.456123800492809
 40
0.456123800492809
 40
0.456123800492809
 10
686.105333486807
 20
1864.940159247045
 30
0.0
 41
1.0
 10
686.2523718971646
 20
1864.76582311488
 30
0.0
 41
0.9999834068353548
 10
686.3973919735022
 20
1864.589804483599
 30
0.0
 41
1.0
  0
SPLINE
  5
102
330
1F
100
AcDbEntity
  8
Predefinito
100
AcDbSpline
210
0.0
220
0.0
230
1.0
 70
    12
 71
     2
 72
     6
 73
     3
 74
     0
 42
0.0000000001
 43
0.0000000001
 40
0.0
 40
0.0
 40
0.0
 40
0.3236832558705315
 40
0.3236832558705315
 40
0.3236832558705315
 10
685.8973919735022
 20
1865.188213276152
 30
0.0
 41
1.0
 10
686.0009558674913
 20
1865.063845192203
 30
0.0
 41
0.9999946194137945
 10
686.105333486807
 20
1864.940159247045
 30
0.0
 41
1.0
  0
SPLINE
  5
103
330
1F
100
AcDbEntity
  8
Predefinito
100
AcDbSpline
210
0.0
220
0.0
230
1.0
 70
    24
 71
     2
 72
     6
 73
     3
 74
     0
 42
0.0000000001
 43
0.0000000001
 40
0.0
 40
0.0
 40
0.0
 40
10.82404730218832
 40
10.82404730218832
 40
10.82404730218832
 10
685.8973919735022
 20
1876.012260578341
 30
0.0
 10
685.8973919735022
 20
1870.600236927246
 30
0.0
 10
685.8973919735022
 20
1865.188213276152
 30
0.0
  0
SPLINE
  5
104
330
1F
100
AcDbEntity
  8
Predefinito
100
AcDbSpline
210
0.0
220
0.0
230
1.0
 70
    12
 71
     2
 72
     6
 73
     3
 74
     0
 42
0.0000000001
 43
0.0000000001
 40
0.0
 40
0.0
 40
0.0
 40
3.713957355495745
 40
3.713957355495745
 40
3.713957355495745
 10
710.8973919735022
 20
1864.596904519325
 30
0.0
 41
1.0
 10
712.7897717811342
 20
1864.543882475059
 30
0.0
 41
0.9716062750407838
 10
714.445898029488
 20
1863.626735527713
 30
0.0
 41
1.0
  0
SPLINE
  5
105
330
1F
100
AcDbEntity
  8
Predefinito
100
AcDbSpline
210
0.0
220
0.0
230
1.0
 70
    24
 71
     2
 72
     6
 73
     3
 74
     0
 42
0.0000000001
 43
0.0000000001
 40
0.0
 40
0.0
 40
0.0
 40
18.5
 40
18.5
 40
18.5
 10
692.3973919735022
 20
1864.596904519325
 30
0.0
 10
701.6473919735022
 20
1864.596904519325
 30
0.0
 10
710.8973919735022
 20
1864.596904519325
 30
0.0
  0
SPLINE
  5
106
330
1F
100
AcDbEntity
  8
Predefinito
100
AcDbSpline
210
0.0
220
0.0
230
1.0
 70
    12
 71
     2
 72
     6
 73
     3
 74
     0
 42
0.0000000001
 43
0.0000000001
 40
0.0
 40
0.0
 40
0.0
 40
0.2921736697668705
 40
0.2921736697668705
 40
0.2921736697668705
 10
692.105333486807
 20
1864.589804483599
 30
0.0
 41
1.0
 10
692.251276237369
 20
1864.596912364133
 30
0.0
 41
0.9997033287928424
 10
692.3973919735022
 20
1864.596904519325
 30
0.0
 41
1.0
  0
SPLINE
  5
107
330
1F
100
AcDbEntity
  8
Predefinito
100
AcDbSpline
210
0.0
220
0.0
230
1.0
 70
    24
 71
     2
 72
     6
 73
     3
 74
     0
 42
0.0000000001
 43
0.0000000001
 40
0.0
 40
0.0
 40
0.0
 40
5.707941513305002
 40
5.707941513305002
 40
5.707941513305002
 10
686.3973919735022
 20
1864.589804483599
 30
0.0
 10
689.2513627301546
 20
1864.589804483599
 30
0.0
 10
692.105333486807
 20
1864.589804483599
 30
0.0
  0
SPLINE
  5
108
330
1F
100
AcDbEntity
  8
Predefinito
100
AcDbSpline
210
0.0
220
0.0
230
1.0
 70
    24
 71
     2
 72
     6
 73
     3
 74
     0
 42
0.0000000001
 43
0.0000000001
 40
0.0
 40
0.0
 40
0.0
 40
12.01376485156925
 40
12.01376485156925
 40
12.01376485156925
 10
686.3973919735022
 20
1876.603569335168
 30
0.0
 10
686.3973919735022
 20
1870.596686909383
 30
0.0
 10
686.3973919735022
 20
1864.589804483599
 30
0.0
  0
SPLINE
  5
109
330
1F
100
AcDbEntity
  8
Predefinito
100
AcDbSpline
210
0.0
220
0.0
230
1.0
 70
    24
 71
     2
 72
     6
 73
     3
 74
     0
 42
0.0000000001
 43
0.0000000001
 40
0.0
 40
0.0
 40
0.0
 40
24.5
 40
24.5
 40
24.5
 10
710.8973919735022
 20
1876.603569335168
 30
0.0
 10
698.6473919735022
 20
1876.603569335168
 30
0.0
 10
686.3973919735022
 20
1876.603569335168
 30
0.0
  0
SPLINE
  5
10A
330
1F
100
AcDbEntity
  8
Predefinito
100
AcDbSpline
210
0.0
220
0.0
230
1.0
 70
    12
 71
     2
 72
     6
 73
     3
 74
     0
 42
0.0000000001
 43
0.0000000001
 40
0.0
 40
0.0
 40
0.0
 40
3.77159416174079
 40
3.77159416174079
 40
3.77159416174079
 10
714.4972335286566
 20
1877.600236927246
 30
0.0
 41
1.0
 10
712.8196604912721
 20
1876.659998043869
 30
0.0
 41
0.9711590045335681
 10
710.8973919735022
 20
1876.603569335168
 30
0.0
 41
1.0
  0
SPLINE
  5
10B
330
1F
100
AcDbEntity
  8
Predefinito
100
AcDbSpline
210
0.0
220
0.0
230
1.0
 70
    24
 71
     2
 72
     6
 73
     3
 74
     0
 42
0.0000000001
 43
0.0000000001
 40
0.0
 40
0.0
 40
0.0
 40
7.700158444845329
 40
7.700158444845329
 40
7.700158444845329
 10
714.4972335286566
 20
1877.600236927246
 30
0.0
 10
718.3473127510792
 20
1877.600236927246
 30
0.0
 10
722.1973919735019
 20
1877.600236927246
 30
0.0
  0
SPLINE
  5
10C
330
1F
100
AcDbEntity
  8
Predefinito
100
AcDbSpline
210
0.0
220
0.0
230
1.0
 70
    24
 71
     2
 72
     6
 73
     3
 74
     0
 42
0.0000000001
 43
0.0000000001
 40
0.0
 40
0.0
 40
0.0
 40
14.0
 40
14.0
 40
14.0
 10
722.1973919735019
 20
1863.600236927246
 30
0.0
 10
722.1973919735019
 20
1870.600236927246
 30
0.0
 10
722.1973919735019
 20
1877.600236927246
 30
0.0
  0
SPLINE
  5
10D
330
1F
100
AcDbEntity
  8
Predefinito
100
AcDbSpline
210
0.0
220
0.0
230
1.0
 70
    24
 71
     2
 72
     6
 73
     3
 74
     0
 42
0.0000000001
 43
0.0000000001
 40
0.0
 40
0.0
 40
0.0
 40
0.2002085020605749
 40
0.2002085020605749
 40
0.2002085020605749
 10
1557.397391973502
 20
1877.400236927246
 30
0.0
 10
1557.326607578773
 20
1877.471021321976
 30
0.0
 10
1557.255823184044
 20
1877.541805716705
 30
0.0
  0
SPLINE
  5
10E
330
1F
100
AcDbEntity
  8
Predefinito
100
AcDbSpline
210
0.0
220
0.0
230
1.0
 70
    24
 71
     2
 72
     6
 73
     3
 74
     0
 42
0.0000000001
 43
0.0000000001
 40
0.0
 40
0.0
 40
0.0
 40
2.799999999999955
 40
2.799999999999955
 40
2.799999999999955
 10
1560.397391973502
 20
1863.600236927246
 30
0.0
 10
1558.997391973502
 20
1863.600236927246
 30
0.0
 10
1557.597391973502
 20
1863.600236927246
 30
0.0
  0
SPLINE
  5
10F
330
1F
100
AcDbEntity
  8
Predefinito
100
AcDbSpline
210
0.0
220
0.0
230
1.0
 70
    24
 71
     2
 72
     6
 73
     3
 74
     0
 42
0.0000000001
 43
0.0000000001
 40
0.0
 40
0.0
 40
0.0
 40
13.91235318471058
 40
13.91235318471058
 40
13.91235318471058
 10
1560.397391973502
 20
1863.600236927246
 30
0.0
 10
1560.397391973502
 20
1870.556413519602
 30
0.0
 10
1560.397391973502
 20
1877.512590111957
 30
0.0
  0
SPLINE
  5
110
330
1F
100
AcDbEntity
  8
Predefinito
100
AcDbSpline
210
0.0
220
0.0
230
1.0
 70
    24
 71
     2
 72
     6
 73
     3
 74
     0
 42
0.0000000001
 43
0.0000000001
 40
0.0
 40
0.0
 40
0.0
 40
0.7071067811865476
 40
0.7071067811865476
 40
0.7071067811865476
 10
1560.897391973502
 20
1877.100236927246
 30
0.0
 10
1560.647391973502
 20
1877.350236927246
 30
0.0
 10
1560.397391973502
 20
1877.600236927246
 30
0.0
  0
SPLINE
  5
111
330
1F
100
AcDbEntity
  8
Predefinito
100
AcDbSpline
210
0.0
220
0.0
230
1.0
 70
    24
 71
     2
 72
     6
 73
     3
 74
     0
 42
0.0000000001
 43
0.0000000001
 40
0.0
 40
0.0
 40
0.0
 40
13.0
 40
13.0
 40
13.0
 10
1560.897391973502
 20
1864.100236927246
 30
0.0
 10
1560.897391973502
 20
1870.600236927246
 30
0.0
 10
1560.897391973502
 20
1877.100236927246
 30
0.0
  0
SPLINE
  5
112
330
1F
100
AcDbEntity
  8
Predefinito
100
AcDbSpline
210
0.0
220
0.0
230
1.0
 70
    24
 71
     2
 72
     6
 73
     3
 74
     0
 42
0.0000000001
 43
0.0000000001
 40
0.0
 40
0.0
 40
0.0
 40
13.59999999999991
 40
13.59999999999991
 40
13.59999999999991
 10
1557.397391973502
 20
1877.400236927246
 30
0.0
 10
1557.397391973502
 20
1870.600236927246
 30
0.0
 10
1557.397391973502
 20
1863.800236927246
 30
0.0
  0
SPLINE
  5
113
330
1F
100
AcDbEntity
  8
Predefinito
100
AcDbSpline
210
0.0
220
0.0
230
1.0
 70
    24
 71
     2
 72
     6
 73
     3
 74
     0
 42
0.0000000001
 43
0.0000000001
 40
0.0
 40
0.0
 40
0.0
 40
0.2002085020603337
 40
0.2002085020603337
 40
0.2002085020603337
 10
1557.397391973502
 20
1863.800236927246
 30
0.0
 10
1557.468176368231
 20
1863.729452532517
 30
0.0
 10
1557.53896076296
 20
1863.658668137788
 30
0.0
  0
SPLINE
  5
114
330
1F
100
AcDbEntity
  8
Predefinito
100
AcDbSpline
210
0.0
220
0.0
230
1.0
 70
    24
 71
     2
 72
     6
 73
     3
 74
     0
 42
0.0000000001
 43
0.0000000001
 40
0.0
 40
0.0
 40
0.0
 40
14.0
 40
14.0
 40
14.0
 10
1557.597391973502
 20
1877.600236927246
 30
0.0
 10
1557.597391973502
 20
1870.600236927246
 30
0.0
 10
1557.597391973502
 20
1863.600236927246
 30
0.0
  0
SPLINE
  5
115
330
1F
100
AcDbEntity
  8
Predefinito
100
AcDbSpline
210
0.0
220
0.0
230
1.0
 70
    24
 71
     2
 72
     6
 73
     3
 74
     0
 42
0.0000000001
 43
0.0000000001
 40
0.0
 40
0.0
 40
0.0
 40
14.0
 40
14.0
 40
14.0
 10
1557.197391973502
 20
1877.600236927247
 30
0.0
 10
1557.197391973502
 20
1870.600236927247
 30
0.0
 10
1557.197391973502
 20
1863.600236927247
 30
0.0
  0
SPLINE
  5
116
330
1F
100
AcDbEntity
  8
Predefinito
100
AcDbSpline
210
0.0
220
0.0
230
1.0
 70
    24
 71
     2
 72
     6
 73
     3
 74
     0
 42
0.0000000001
 43
0.0000000001
 40
0.0
 40
0.0
 40
0.0
 40
225.1999999999998
 40
225.1999999999998
 40
225.1999999999998
 10
1457.397391973502
 20
1877.600236927247
 30
0.0
 10
1344.797391973502
 20
1877.600236927246
 30
0.0
 10
1232.197391973502
 20
1877.600236927246
 30
0.0
  0
SPLINE
  5
117
330
1F
100
AcDbEntity
  8
Predefinito
100
AcDbSpline
210
0.0
220
0.0
230
1.0
 70
    24
 71
     2
 72
     6
 73
     3
 74
     0
 42
0.0000000001
 43
0.0000000001
 40
0.0
 40
0.0
 40
0.0
 40
79.04999997799473
 40
79.04999997799473
 40
79.04999997799473
 10
1544.447391951497
 20
1877.600236927247
 30
0.0
 10
1504.922391962499
 20
1877.600236927247
 30
0.0
 10
1465.397391973502
 20
1877.600236927247
 30
0.0
  0
SPLINE
  5
118
330
1F
100
AcDbEntity
  8
Predefinito
100
AcDbSpline
210
0.0
220
0.0
230
1.0
 70
    24
 71
     2
 72
     6
 73
     3
 74
     0
 42
0.0000000001
 43
0.0000000001
 40
0.0
 40
0.0
 40
0.0
 40
11.94999874653365
 40
11.94999874653365
 40
11.94999874653365
 10
1557.197391973502
 20
1877.600236927247
 30
0.0
 10
1551.222392600235
 20
1877.600236927247
 30
0.0
 10
1545.247393226968
 20
1877.600236927247
 30
0.0
  0
SPLINE
  5
119
330
1F
100
AcDbEntity
  8
Predefinito
100
AcDbSpline
210
0.0
220
0.0
230
1.0
 70
    24
 71
     2
 72
     6
 73
     3
 74
     0
 42
0.0000000001
 43
0.0000000001
 40
0.0
 40
0.0
 40
0.0
 40
91.80000000000007
 40
91.80000000000007
 40
91.80000000000007
 10
1465.397391973502
 20
1863.600236927247
 30
0.0
 10
1511.297391973502
 20
1863.600236927247
 30
0.0
 10
1557.197391973502
 20
1863.600236927247
 30
0.0
  0
SPLINE
  5
11A
330
1F
100
AcDbEntity
  8
Predefinito
100
AcDbSpline
210
0.0
220
0.0
230
1.0
 70
    24
 71
     2
 72
     6
 73
     3
 74
     0
 42
0.0000000001
 43
0.0000000001
 40
0.0
 40
0.0
 40
0.0
 40
225.1999999999999
 40
225.1999999999999
 40
225.1999999999999
 10
1232.197391973502
 20
1863.600236927246
 30
0.0
 10
1344.797391973502
 20
1863.600236927246
 30
0.0
 10
1457.397391973502
 20
1863.600236927247
 30
0.0
  0
POLYLINE
  5
11B
330
1F
100
AcDbEntity
  8
Predefinito
100
AcDb2dPolyline
 66
     1
 10
0.0
 20
0.0
 30
0.0
  0
VERTEX
  5
11C
330
11B
100
AcDbEntity
  8
Predefinito
100
AcDbVertex
100
AcDb2dVertex
 10
715.997387367885
 20
2023.319491785277
 30
0.0
  0
VERTEX
  5
11D
330
11B
100
AcDbEntity
  8
Predefinito
100
AcDbVertex
100
AcDb2dVertex
 10
715.997383542322
 20
1991.073353007323
 30
0.0
  0
SEQEND
  5
11E
330
11B
100
AcDbEntity
  8
Predefinito
  0
POLYLINE
  5
11F
330
1F
100
AcDbEntity
  8
Predefinito
100
AcDb2dPolyline
 66
     1
 10
0.0
 20
0.0
 30
0.0
  0
VERTEX
  5
120
330
11F
100
AcDbEntity
  8
Predefinito
100
AcDbVertex
100
AcDb2dVertex
 10
722.1973907832248
 20
2019.490009666615
 30
0.0
  0
VERTEX
  5
121
330
11F
100
AcDbEntity
  8
Predefinito
100
AcDbVertex
100
AcDb2dVertex
 10
722.197398966382
 20
2006.655149969554
 30
0.0
  0
SEQEND
  5
122
330
11F
100
AcDbEntity
  8
Predefinito
  0
POLYLINE
  5
123
330
1F
100
AcDbEntity
  8
Predefinito
100
AcDb2dPolyline
 66
     1
 10
0.0
 20
0.0
 30
0.0
  0
VERTEX
  5
124
330
123
100
AcDbEntity
  8
Predefinito
100
AcDbVertex
100
AcDb2dVertex
 10
722.1973831832829
 20
1991.29494445415
 30
0.0
  0
VERTEX
  5
125
330
123
100
AcDbEntity
  8
Predefinito
100
AcDbVertex
100
AcDb2dVertex
 10
722.1974044399362
 20
1982.045410264299
 30
0.0
  0
SEQEND
  5
126
330
123
100
AcDbEntity
  8
Predefinito
  0
POLYLINE
  5
127
330
1F
100
AcDbEntity
  8
Predefinito
100
AcDb2dPolyline
 66
     1
 10
0.0
 20
0.0
 30
0.0
  0
VERTEX
  5
128
330
127
100
AcDbEntity
  8
Predefinito
100
AcDbVertex
100
AcDb2dVertex
 10
715.9973977703044
 20
2027.099672235633
 30
0.0
  0
VERTEX
  5
129
330
127
100
AcDbEntity
  8
Predefinito
100
AcDbVertex
100
AcDb2dVertex
 10
715.9973925706267
 20
2024.601207688496
 30
0.0
  0
SEQEND
  5
12A
330
127
100
AcDbEntity
  8
Predefinito
  0
SPLINE
  5
12B
330
1F
100
AcDbEntity
  8
Predefinito
100
AcDbSpline
210
0.0
220
0.0
230
1.0
 70
    12
 71
     2
 72
     6
 73
     3
 74
     0
 42
0.0000000001
 43
0.0000000001
 40
0.0
 40
0.0
 40
0.0
 40
1.710508655760716
 40
1.710508655760716
 40
1.710508655760716
 10
1526.730987093716
 20
1681.390237527879
 30
0.0
 41
1.0
 10
1527.558251303762
 20
1681.14221724128
 30
0.0
 41
0.985492900342113
 10
1528.254893854121
 20
1680.63175735763
 30
0.0
 41
1.0
  0
SPLINE
  5
12C
330
1F
100
AcDbEntity
  8
Predefinito
100
AcDbSpline
210
0.0
220
0.0
230
1.0
 70
    12
 71
     2
 72
     6
 73
     3
 74
     0
 42
0.0000000001
 43
0.0000000001
 40
0.0
 40
0.0
 40
0.0
 40
0.1405963755070895
 40
0.1405963755070895
 40
0.1405963755070895
 10
1526.536337654711
 20
1681.444295253138
 30
0.0
 41
1.0
 10
1526.60444467099
 20
1681.426861736637
 30
0.0
 41
0.9999001569615658
 10
1526.672031842897
 20
1681.407510577565
 30
0.0
 41
1.0
  0
SPLINE
  5
12D
330
1F
100
AcDbEntity
  8
Predefinito
100
AcDbSpline
210
0.0
220
0.0
230
1.0
 70
    12
 71
     2
 72
     6
 73
     3
 74
     0
 42
0.0000000001
 43
0.0000000001
 40
0.0
 40
0.0
 40
0.0
 40
0.1517560476849679
 40
0.1517560476849679
 40
0.1517560476849679
 10
1397.923872686559
 20
1681.407824757699
 30
0.0
 41
1.0
 10
1397.996829889599
 20
1681.428696133764
 30
0.0
 41
0.9998836499000784
 10
1398.070389813096
 20
1681.447332267203
 30
0.0
 41
1.0
  0
SPLINE
  5
12E
330
1F
100
AcDbEntity
  8
Predefinito
100
AcDbSpline
210
0.0
220
0.0
230
1.0
 70
    12
 71
     2
 72
     6
 73
     3
 74
     0
 42
0.0000000001
 43
0.0000000001
 40
0.0
 40
0.0
 40
0.0
 40
1.711661745879637
 40
1.711661745879637
 40
1.711661745879637
 10
1396.339890213703
 20
1680.631757361504
 30
0.0
 41
1.0
 10
1397.037019074324
 20
1681.142555918513
 30
0.0
 41
0.9854754407058561
 10
1397.864905898566
 20
1681.390562411169
 30
0.0
 41
1.0
  0
SPLINE
  5
12F
330
1F
100
AcDbEntity
  8
Predefinito
100
AcDbSpline
210
0.0
220
0.0
230
1.0
 70
    12
 71
     2
 72
     8
 73
     5
 74
     0
 42
0.0000000001
 43
0.0000000001
 40
0.0
 40
0.0
 40
0.0
 40
137.395031968615
 40
137.395031968615
 40
274.7900639372301
 40
274.7900639372301
 40
274.7900639372301
 10
1528.297391973502
 20
1680.600236927246
 30
0.0
 41
1.0
 10
1591.724198986399
 20
1633.030127044066
 30
0.0
 41
0.8112421988147727
 10
1566.652551250063
 20
1557.815183835059
 30
0.0
 41
1.0
 10
1541.580903513727
 20
1482.600240626052
 30
0.0
 41
0.8112421988147727
 10
1462.297391973502
 20
1482.600236927247
 30
0.0
 41
1.0
  0
SPLINE
  5
130
330
1F
100
AcDbEntity
  8
Predefinito
100
AcDbSpline
210
0.0
220
0.0
230
1.0
 70
    12
 71
     2
 72
     8
 73
     5
 74
     0
 42
0.0000000001
 43
0.0000000001
 40
0.0
 40
0.0
 40
0.0
 40
137.3950511196066
 40
137.3950511196066
 40
274.7901022392131
 40
274.7901022392131
 40
274.7901022392131
 10
1462.297391973502
 20
1482.600236927246
 30
0.0
 41
1.0
 10
1383.013863387448
 20
1482.600216976226
 30
0.0
 41
0.8112421116068909
 10
1357.942210260748
 20
1557.815176356328
 30
0.0
 41
1.0
 10
1332.870557134047
 20
1633.03013573643
 30
0.0
 41
0.8112421116068909
 10
1396.297391973502
 20
1680.600236927246
 30
0.0
 41
1.0
  0
SPLINE
  5
131
330
1F
100
AcDbEntity
  8
Predefinito
100
AcDbSpline
210
0.0
220
0.0
230
1.0
 70
    12
 71
     2
 72
     6
 73
     3
 74
     0
 42
0.0000000001
 43
0.0000000001
 40
0.0
 40
0.0
 40
0.0
 40
58.51904345351357
 40
58.51904345351357
 40
58.51904345351357
 10
1472.532817286365
 20
1701.825152596925
 30
0.0
 41
1.0
 10
1502.372485719065
 20
1699.036570134535
 30
0.0
 41
0.9648320120906655
 10
1526.673864597833
 20
1681.497328733792
 30
0.0
 41
1.0
  0
SPLINE
  5
132
330
1F
100
AcDbEntity
  8
Predefinito
100
AcDbSpline
210
0.0
220
0.0
230
1.0
 70
    24
 71
     2
 72
     6
 73
     3
 74
     0
 42
0.0000000001
 43
0.0000000001
 40
0.0
 40
0.0
 40
0.0
 40
29.4999992100079
 40
29.4999992100079
 40
29.4999992100079
 10
1472.247996584667
 20
1731.302330234422
 30
0.0
 10
1472.247996584667
 20
1716.552330629418
 30
0.0
 10
1472.247996584667
 20
1701.802331024414
 30
0.0
  0
SPLINE
  5
133
330
1F
100
AcDbEntity
  8
Predefinito
100
AcDbSpline
210
0.0
220
0.0
230
1.0
 70
    24
 71
     2
 72
     6
 73
     3
 74
     0
 42
0.0000000001
 43
0.0000000001
 40
0.0
 40
0.0
 40
0.0
 40
0.7071067811865476
 40
0.7071067811865476
 40
0.7071067811865476
 10
1452.347996584667
 20
1731.302331024414
 30
0.0
 10
1452.597996584667
 20
1731.552331024414
 30
0.0
 10
1452.847996584667
 20
1731.802331024414
 30
0.0
  0
SPLINE
  5
134
330
1F
100
AcDbEntity
  8
Predefinito
100
AcDbSpline
210
0.0
220
0.0
230
1.0
 70
    24
 71
     2
 72
     6
 73
     3
 74
     0
 42
0.0000000001
 43
0.0000000001
 40
0.0
 40
0.0
 40
0.0
 40
0.6598872323781181
 40
0.6598872323781181
 40
0.6598872323781181
 10
1464.897391973502
 20
1758.380384887483
 30
0.0
 10
1465.130697341918
 20
1758.147079519067
 30
0.0
 10
1465.364002710335
 20
1757.91377415065
 30
0.0
  0
SPLINE
  5
135
330
1F
100
AcDbEntity
  8
Predefinito
100
AcDbSpline
210
0.0
220
0.0
230
1.0
 70
    24
 71
     2
 72
     6
 73
     3
 74
     0
 42
0.0000000001
 43
0.0000000001
 40
0.0
 40
0.0
 40
0.0
 40
0.6598872323781181
 40
0.6598872323781181
 40
0.6598872323781181
 10
1457.897391973502
 20
1775.380384887483
 30
0.0
 10
1457.664086605085
 20
1775.6136902559
 30
0.0
 10
1457.430781236669
 20
1775.846995624316
 30
0.0
  0
SPLINE
  5
136
330
1F
100
AcDbEntity
  8
Predefinito
100
AcDbSpline
210
0.0
220
0.0
230
1.0
 70
    24
 71
     2
 72
     6
 73
     3
 74
     0
 42
0.0000000001
 43
0.0000000001
 40
0.0
 40
0.0
 40
0.0
 40
17.5
 40
17.5
 40
17.5
 10
1465.397391973502
 20
1757.880384887483
 30
0.0
 10
1465.397391973502
 20
1749.130384887483
 30
0.0
 10
1465.397391973502
 20
1740.380384887483
 30
0.0
  0
SPLINE
  5
137
330
1F
100
AcDbEntity
  8
Predefinito
100
AcDbSpline
210
0.0
220
0.0
230
1.0
 70
    24
 71
     2
 72
     6
 73
     3
 74
     0
 42
0.0000000001
 43
0.0000000001
 40
0.0
 40
0.0
 40
0.0
 40
20.99999993957067
 40
20.99999993957067
 40
20.99999993957067
 10
1465.397391973502
 20
1740.380384887483
 30
0.0
 10
1465.397391973502
 20
1729.880384917698
 30
0.0
 10
1465.397391973502
 20
1719.380384947913
 30
0.0
  0
SPLINE
  5
138
330
1F
100
AcDbEntity
  8
Predefinito
100
AcDbSpline
210
0.0
220
0.0
230
1.0
 70
    24
 71
     2
 72
     6
 73
     3
 74
     0
 42
0.0000000001
 43
0.0000000001
 40
0.0
 40
0.0
 40
0.0
 40
20.99999993955726
 40
20.99999993955726
 40
20.99999993955726
 10
1457.397391973502
 20
1719.380384947926
 30
0.0
 10
1457.397391973502
 20
1729.880384917705
 30
0.0
 10
1457.397391973502
 20
1740.380384887483
 30
0.0
  0
SPLINE
  5
139
330
1F
100
AcDbEntity
  8
Predefinito
100
AcDbSpline
210
0.0
220
0.0
230
1.0
 70
    24
 71
     2
 72
     6
 73
     3
 74
     0
 42
0.0000000001
 43
0.0000000001
 40
0.0
 40
0.0
 40
0.0
 40
17.9999999795657
 40
17.9999999795657
 40
17.9999999795657
 10
1465.397391973502
 20
1775.880384847182
 30
0.0
 10
1465.397391973502
 20
1766.880384857399
 30
0.0
 10
1465.397391973502
 20
1757.880384867617
 30
0.0
  0
SPLINE
  5
13A
330
1F
100
AcDbEntity
  8
Predefinito
100
AcDbSpline
210
0.0
220
0.0
230
1.0
 70
    24
 71
     2
 72
     6
 73
     3
 74
     0
 42
0.0000000001
 43
0.0000000001
 40
0.0
 40
0.0
 40
0.0
 40
20.99964915583814
 40
20.99964915583814
 40
20.99964915583814
 10
1465.397391973502
 20
1881.380034043322
 30
0.0
 10
1465.397391973502
 20
1870.880209465402
 30
0.0
 10
1465.397391973502
 20
1860.380384887483
 30
0.0
  0
SPLINE
  5
13B
330
1F
100
AcDbEntity
  8
Predefinito
100
AcDbSpline
210
0.0
220
0.0
230
1.0
 70
    24
 71
     2
 72
     6
 73
     3
 74
     0
 42
0.0000000001
 43
0.0000000001
 40
0.0
 40
0.0
 40
0.0
 40
20.99998231858808
 40
20.99998231858808
 40
20.99998231858808
 10
1457.397391973502
 20
1860.380384887483
 30
0.0
 10
1457.397391973502
 20
1870.880376046777
 30
0.0
 10
1457.397391973502
 20
1881.380367206071
 30
0.0
  0
SPLINE
  5
13C
330
1F
100
AcDbEntity
  8
Predefinito
100
AcDbSpline
210
0.0
220
0.0
230
1.0
 70
    12
 71
     2
 72
     6
 73
     3
 74
     0
 42
0.0000000001
 43
0.0000000001
 40
0.0
 40
0.0
 40
0.0
 40
6.283167342037522
 40
6.283167342037522
 40
6.283167342037522
 10
1457.397398716268
 20
1881.380368193241
 30
0.0
 41
1.0
 10
1457.397447064933
 20
1885.380313102161
 30
0.0
 41
0.7071173996976884
 10
1461.397391973502
 20
1885.380384887484
 30
0.0
 41
1.0
  0
SPLINE
  5
13D
330
1F
100
AcDbEntity
  8
Predefinito
100
AcDbSpline
210
0.0
220
0.0
230
1.0
 70
    12
 71
     2
 72
     8
 73
     5
 74
     0
 42
0.0000000001
 43
0.0000000001
 40
0.0
 40
0.0
 40
0.0
 40
3.14175237355626
 40
3.14175237355626
 40
6.283504747112521
 40
6.283504747112521
 40
6.283504747112521
 10
1461.397391973502
 20
1885.380384887483
 30
0.0
 41
1.0
 10
1463.054336792797
 20
1885.380355000789
 30
0.0
 41
0.923874343324557
 10
1464.225920802215
 20
1884.208665176662
 30
0.0
 41
1.0
 10
1465.397504811633
 20
1883.036975352536
 30
0.0
 41
0.923874343324557
 10
1465.397385053732
 20
1881.380030537299
 30
0.0
 41
1.0
  0
SPLINE
  5
13E
330
1F
100
AcDbEntity
  8
Predefinito
100
AcDbSpline
210
0.0
220
0.0
230
1.0
 70
    24
 71
     2
 72
     6
 73
     3
 74
     0
 42
0.0000000001
 43
0.0000000001
 40
0.0
 40
0.0
 40
0.0
 40
84.5
 40
84.5
 40
84.5
 10
1457.397391973502
 20
1775.880384887483
 30
0.0
 10
1457.397391973502
 20
1818.130384887483
 30
0.0
 10
1457.397391973502
 20
1860.380384887483
 30
0.0
  0
SPLINE
  5
13F
330
1F
100
AcDbEntity
  8
Predefinito
100
AcDbSpline
210
0.0
220
0.0
230
1.0
 70
    24
 71
     2
 72
     6
 73
     3
 74
     0
 42
0.0000000001
 43
0.0000000001
 40
0.0
 40
0.0
 40
0.0
 40
84.5
 40
84.5
 40
84.5
 10
1465.397391973502
 20
1860.380384887483
 30
0.0
 10
1465.397391973502
 20
1818.130384887483
 30
0.0
 10
1465.397391973502
 20
1775.880384887483
 30
0.0
  0
SPLINE
  5
140
330
1F
100
AcDbEntity
  8
Predefinito
100
AcDbSpline
210
0.0
220
0.0
230
1.0
 70
    24
 71
     2
 72
     6
 73
     3
 74
     0
 42
0.0000000001
 43
0.0000000001
 40
0.0
 40
0.0
 40
0.0
 40
2.0
 40
2.0
 40
2.0
 10
1552.847391973502
 20
2100.600236927246
 30
0.0
 10
1552.847391973502
 20
2099.600236927246
 30
0.0
 10
1552.847391973502
 20
2098.600236927246
 30
0.0
  0
SPLINE
  5
141
330
1F
100
AcDbEntity
  8
Predefinito
100
AcDbSpline
210
0.0
220
0.0
230
1.0
 70
    24
 71
     2
 72
     6
 73
     3
 74
     0
 42
0.0000000001
 43
0.0000000001
 40
0.0
 40
0.0
 40
0.0
 40
66.0
 40
66.0
 40
66.0
 10
1462.297391973502
 20
1680.600236927246
 30
0.0
 10
1429.297391973502
 20
1680.600236927246
 30
0.0
 10
1396.297391973502
 20
1680.600236927246
 30
0.0
  0
SPLINE
  5
142
330
1F
100
AcDbEntity
  8
Predefinito
100
AcDbSpline
210
0.0
220
0.0
230
1.0
 70
    24
 71
     2
 72
     6
 73
     3
 74
     0
 42
0.0000000001
 43
0.0000000001
 40
0.0
 40
0.0
 40
0.0
 40
66.00000000000011
 40
66.00000000000011
 40
66.00000000000011
 10
1528.297391973502
 20
1680.600236927246
 30
0.0
 10
1495.297391973502
 20
1680.600236927246
 30
0.0
 10
1462.297391973502
 20
1680.600236927246
 30
0.0
  0
SPLINE
  5
143
330
1F
100
AcDbEntity
  8
Predefinito
100
AcDbSpline
210
0.0
220
0.0
230
1.0
 70
    24
 71
     2
 72
     6
 73
     3
 74
     0
 42
0.0000000001
 43
0.0000000001
 40
0.0
 40
0.0
 40
0.0
 40
128.8732295390148
 40
128.8732295390148
 40
128.8732295390148
 10
1526.734611354174
 20
1681.402331024414
 30
0.0
 10
1462.297996584667
 20
1681.402331024414
 30
0.0
 10
1397.861381815159
 20
1681.402331024414
 30
0.0
  0
SPLINE
  5
144
330
1F
100
AcDbEntity
  8
Predefinito
100
AcDbSpline
210
0.0
220
0.0
230
1.0
 70
    24
 71
     2
 72
     6
 73
     3
 74
     0
 42
0.0000000001
 43
0.0000000001
 40
0.0
 40
0.0
 40
0.0
 40
64.35593510811441
 40
64.35593510811441
 40
64.35593510811441
 10
1397.942061476552
 20
1681.483404727781
 30
0.0
 10
1430.120029030609
 20
1681.483404727781
 30
0.0
 10
1462.297996584667
 20
1681.483404727781
 30
0.0
  0
SPLINE
  5
145
330
1F
100
AcDbEntity
  8
Predefinito
100
AcDbSpline
210
0.0
220
0.0
230
1.0
 70
    24
 71
     2
 72
     6
 73
     3
 74
     0
 42
0.0000000001
 43
0.0000000001
 40
0.0
 40
0.0
 40
0.0
 40
64.36581846810702
 40
64.36581846810702
 40
64.36581846810702
 10
1462.297996584667
 20
1681.483404727781
 30
0.0
 10
1494.48090581872
 20
1681.483404727781
 30
0.0
 10
1526.663815052774
 20
1681.483404727781
 30
0.0
  0
SPLINE
  5
146
330
1F
100
AcDbEntity
  8
Predefinito
100
AcDbSpline
210
0.0
220
0.0
230
1.0
 70
    24
 71
     2
 72
     6
 73
     3
 74
     0
 42
0.0000000001
 43
0.0000000001
 40
0.0
 40
0.0
 40
0.0
 40
10.2348207016986
 40
10.2348207016986
 40
10.2348207016986
 10
1472.532817286365
 20
1701.825152596925
 30
0.0
 10
1467.415406935516
 20
1701.825152596925
 30
0.0
 10
1462.297996584667
 20
1701.825152596925
 30
0.0
  0
SPLINE
  5
147
330
1F
100
AcDbEntity
  8
Predefinito
100
AcDbSpline
210
0.0
220
0.0
230
1.0
 70
    24
 71
     2
 72
     6
 73
     3
 74
     0
 42
0.0000000001
 43
0.0000000001
 40
0.0
 40
0.0
 40
0.0
 40
10.19341991662952
 40
10.19341991662952
 40
10.19341991662952
 10
1462.297996584667
 20
1701.825152596926
 30
0.0
 10
1457.201286626352
 20
1701.825152596925
 30
0.0
 10
1452.104576668037
 20
1701.825152596925
 30
0.0
  0
SPLINE
  5
148
330
1F
100
AcDbEntity
  8
Predefinito
100
AcDbSpline
210
0.0
220
0.0
230
1.0
 70
    12
 71
     3
 72
    12
 73
     8
 74
     0
 42
0.0000000001
 43
0.0000000001
 40
0.0000364423737388
 40
0.0000364423737388
 40
0.0000364423737388
 40
0.0000364423737388
 40
0.1248192015271153
 40
0.1248192015271153
 40
0.249313244465465
 40
0.249313244465465
 40
0.3463805702218596
 40
0.3463805702218596
 40
0.3463805702218596
 40
0.3463805702218596
 10
1462.556351627545
 20
1715.560311335377
 30
0.0
 41
1.0
 10
1461.12755744844
 20
1715.498708330708
 30
0.0
 41
1.0
 10
1459.59198922585
 20
1716.020887154071
 30
0.0
 41
1.0
 10
1457.292228938707
 20
1717.93428995246
 30
0.0
 41
1.0
 10
1456.55971873585
 20
1719.339085704067
 30
0.0
 41
1.0
 10
1456.421546608599
 20
1722.292872188123
 30
0.0
 41
1.0
 10
1456.759465387459
 20
1723.470724445606
 30
0.0
 41
1.0
 10
1457.397391973502
 20
1724.436217912796
 30
0.0
 41
1.0
  0
SPLINE
  5
149
330
1F
100
AcDbEntity
  8
Predefinito
100
AcDbSpline
210
0.0
220
0.0
230
1.0
 70
     8
 71
     3
 72
    12
 73
     8
 74
     0
 42
0.0000000001
 43
0.0000000001
 40
0.0
 40
0.0
 40
0.0
 40
0.0
 40
1.814216199762451
 40
3.622606980496638
 40
7.459389587223496
 40
11.08028352739117
 40
14.66897679975239
 40
14.66897679975239
 40
14.66897679975239
 40
14.66897679975239
 10
1465.397391973402
 20
1726.162661032518
 30
0.0
 10
1465.912587205132
 20
1725.853755024774
 30
0.0
 10
1466.873976635486
 20
1725.074473193046
 30
0.0
 10
1468.149591885743
 20
1722.922055124473
 30
0.0
 10
1468.329076892915
 20
1719.644269083077
 30
0.0
 10
1466.131847794078
 20
1716.470803661217
 30
0.0
 10
1463.740619069818
 20
1715.631589217981
 30
0.0
 10
1462.557603423425
 20
1715.560365457589
 30
0.0
  0
SPLINE
  5
14A
330
1F
100
AcDbEntity
  8
Predefinito
100
AcDbSpline
210
0.0
220
0.0
230
1.0
 70
    24
 71
     2
 72
     6
 73
     3
 74
     0
 42
0.0000000001
 43
0.0000000001
 40
0.0
 40
0.0
 40
0.0
 40
29.49999952600479
 40
29.49999952600479
 40
29.49999952600479
 10
1452.347996584667
 20
1701.802331024414
 30
0.0
 10
1452.347996584667
 20
1716.552330787417
 30
0.0
 10
1452.347996584667
 20
1731.302330550419
 30
0.0
  0
SPLINE
  5
14B
330
1F
100
AcDbEntity
  8
Predefinito
100
AcDbSpline
210
0.0
220
0.0
230
1.0
 70
    24
 71
     2
 72
     6
 73
     3
 74
     0
 42
0.0000000001
 43
0.0000000001
 40
0.0
 40
0.0
 40
0.0
 40
5.049395388834911
 40
5.049395388834911
 40
5.049395388834911
 10
1457.397391973502
 20
1731.30233067069
 30
0.0
 10
1454.872694279084
 20
1731.302330610554
 30
0.0
 10
1452.347996584667
 20
1731.302330550419
 30
0.0
  0
SPLINE
  5
14C
330
1F
100
AcDbEntity
  8
Predefinito
100
AcDbSpline
210
0.0
220
0.0
230
1.0
 70
    24
 71
     2
 72
     6
 73
     3
 74
     0
 42
0.0000000001
 43
0.0000000001
 40
0.0
 40
0.0
 40
0.0
 40
6.850604611164842
 40
6.850604611164842
 40
6.850604611164842
 10
1472.247996584667
 20
1731.302331024415
 30
0.0
 10
1468.822694279084
 20
1731.302330942828
 30
0.0
 10
1465.397391973502
 20
1731.302330861241
 30
0.0
  0
SPLINE
  5
14D
330
1F
100
AcDbEntity
  8
Predefinito
100
AcDbSpline
210
0.0
220
0.0
230
1.0
 70
    24
 71
     2
 72
     6
 73
     3
 74
     0
 42
0.0000000001
 43
0.0000000001
 40
0.0
 40
0.0
 40
0.0
 40
0.7071067811865476
 40
0.7071067811865476
 40
0.7071067811865476
 10
1471.747996584667
 20
1731.802331024414
 30
0.0
 10
1471.997996584667
 20
1731.552331024414
 30
0.0
 10
1472.247996584667
 20
1731.302331024414
 30
0.0
  0
SPLINE
  5
14E
330
1F
100
AcDbEntity
  8
Predefinito
100
AcDbSpline
210
0.0
220
0.0
230
1.0
 70
    24
 71
     2
 72
     6
 73
     3
 74
     0
 42
0.0000000001
 43
0.0000000001
 40
0.0
 40
0.0
 40
0.0
 40
4.511169275226848
 40
4.511169275226848
 40
4.511169275226848
 10
1457.397391973502
 20
1731.802331024414
 30
0.0
 10
1455.141807335888
 20
1731.802331024414
 30
0.0
 10
1452.886222698275
 20
1731.802331024415
 30
0.0
  0
SPLINE
  5
14F
330
1F
100
AcDbEntity
  8
Predefinito
100
AcDbSpline
210
0.0
220
0.0
230
1.0
 70
    24
 71
     2
 72
     6
 73
     3
 74
     0
 42
0.0000000001
 43
0.0000000001
 40
0.0
 40
0.0
 40
0.0
 40
6.350604611165068
 40
6.350604611165068
 40
6.350604611165068
 10
1471.747996584667
 20
1731.802331024414
 30
0.0
 10
1468.572694279084
 20
1731.802331024414
 30
0.0
 10
1465.397391973502
 20
1731.802331024414
 30
0.0
  0
SPLINE
  5
150
330
1F
100
AcDbEntity
  8
Predefinito
100
AcDbSpline
210
0.0
220
0.0
230
1.0
 70
    12
 71
     2
 72
     8
 73
     5
 74
     0
 42
0.0000000001
 43
0.0000000001
 40
0.0
 40
0.0
 40
0.0
 40
6.938279790849582
 40
6.938279790849582
 40
13.87655958169916
 40
13.87655958169916
 40
13.87655958169916
 10
1465.397391973479
 20
1725.964458260184
 30
0.0
 41
1.0
 10
1468.717784509045
 20
1723.747373141946
 30
0.0
 41
0.8144717012153423
 10
1467.707242996704
 20
1719.884824907477
 30
0.0
 41
1.0
 10
1466.696701484363
 20
1716.022276673009
 30
0.0
 41
0.8144717012153423
 10
1462.715963919573
 20
1715.71535412247
 30
0.0
 41
1.0
  0
SPLINE
  5
151
330
1F
100
AcDbEntity
  8
Predefinito
100
AcDbSpline
210
0.0
220
0.0
230
1.0
 70
    12
 71
     2
 72
     8
 73
     5
 74
     0
 42
0.0000000001
 43
0.0000000001
 40
0.0
 40
0.0
 40
0.0
 40
5.595467775430897
 40
5.595467775430897
 40
11.19093555086179
 40
11.19093555086179
 40
11.19093555086179
 10
1461.880447779908
 20
1715.715323396734
 30
0.0
 41
1.0
 10
1458.833078123838
 20
1715.947200483706
 30
0.0
 41
0.8778487001917517
 10
1457.378708440684
 20
1718.635143494434
 30
0.0
 41
1.0
 10
1455.92433875753
 20
1721.323086505162
 30
0.0
 41
0.8778487001917517
 10
1457.397391973502
 20
1724.000836125106
 30
0.0
 41
1.0
  0
SPLINE
  5
152
330
1F
100
AcDbEntity
  8
Predefinito
100
AcDbSpline
210
0.0
220
0.0
230
1.0
 70
    12
 71
     2
 72
     8
 73
     5
 74
     0
 42
0.0000000001
 43
0.0000000001
 40
0.0
 40
0.0
 40
0.0
 40
0.000837219707702
 40
0.000837219707702
 40
0.1689677380697982
 40
0.1689677380697982
 40
0.1689677380697982
 10
1462.715963919573
 20
1715.71535412247
 30
0.0
 41
1.0
 10
1462.715546453917
 20
1715.715323192934
 30
0.0
 41
0.9999999972035332
 10
1462.715128983639
 20
1715.715292325839
 30
0.0
 41
1.0
 10
1462.631287249477
 20
1715.709070906109
 30
0.0
 41
0.999875357520341
 10
1462.547290887272
 20
1715.705499689644
 30
0.0
 41
1.0
  0
SPLINE
  5
153
330
1F
100
AcDbEntity
  8
Predefinito
100
AcDbSpline
210
0.0
220
0.0
230
1.0
 70
    12
 71
     2
 72
     6
 73
     3
 74
     0
 42
0.0000000001
 43
0.0000000001
 40
0.0
 40
0.0
 40
0.0
 40
0.4987525241169114
 40
0.4987525241169114
 40
0.4987525241169114
 10
1462.547290887272
 20
1715.705499689644
 30
0.0
 41
1.0
 10
1462.297996607747
 20
1715.694512096892
 30
0.0
 41
0.9990382658271405
 10
1462.048698271094
 20
1715.705407249019
 30
0.0
 41
1.0
  0
SPLINE
  5
154
330
1F
100
AcDbEntity
  8
Predefinito
100
AcDbSpline
210
0.0
220
0.0
230
1.0
 70
    12
 71
     2
 72
     6
 73
     3
 74
     0
 42
0.0000000001
 43
0.0000000001
 40
0.0
 40
0.0
 40
0.0
 40
0.168547140179061
 40
0.168547140179061
 40
0.168547140179061
 10
1462.048698271094
 20
1715.705407249019
 30
0.0
 41
1.0
 10
1461.964508962844
 20
1715.709278351021
 30
0.0
 41
0.9999165359340496
 10
1461.880447779908
 20
1715.715323396734
 30
0.0
 41
1.0
  0
SPLINE
  5
155
330
1F
100
AcDbEntity
  8
Predefinito
100
AcDbSpline
210
0.0
220
0.0
230
1.0
 70
    24
 71
     2
 72
     6
 73
     3
 74
     0
 42
0.0000000001
 43
0.0000000001
 40
0.0
 40
0.0
 40
0.0
 40
0.6598872323783592
 40
0.6598872323783592
 40
0.6598872323783592
 10
1457.897391973502
 20
1758.380384887483
 30
0.0
 10
1457.664086605085
 20
1758.147079519067
 30
0.0
 10
1457.430781236669
 20
1757.91377415065
 30
0.0
  0
SPLINE
  5
156
330
1F
100
AcDbEntity
  8
Predefinito
100
AcDbSpline
210
0.0
220
0.0
230
1.0
 70
    24
 71
     2
 72
     6
 73
     3
 74
     0
 42
0.0000000001
 43
0.0000000001
 40
0.0
 40
0.0
 40
0.0
 40
4.0
 40
4.0
 40
4.0
 10
1465.397391973502
 20
1775.880384887483
 30
0.0
 10
1463.397391973502
 20
1775.880384887483
 30
0.0
 10
1461.397391973502
 20
1775.880384887483
 30
0.0
  0
SPLINE
  5
157
330
1F
100
AcDbEntity
  8
Predefinito
100
AcDbSpline
210
0.0
220
0.0
230
1.0
 70
    24
 71
     2
 72
     6
 73
     3
 74
     0
 42
0.0000000001
 43
0.0000000001
 40
0.0
 40
0.0
 40
0.0
 40
3.5
 40
3.5
 40
3.5
 10
1461.397391973502
 20
1775.380384887483
 30
0.0
 10
1463.147391973502
 20
1775.380384887483
 30
0.0
 10
1464.897391973502
 20
1775.380384887483
 30
0.0
  0
SPLINE
  5
158
330
1F
100
AcDbEntity
  8
Predefinito
100
AcDbSpline
210
0.0
220
0.0
230
1.0
 70
    24
 71
     2
 72
     6
 73
     3
 74
     0
 42
0.0000000001
 43
0.0000000001
 40
0.0
 40
0.0
 40
0.0
 40
0.6598872323783592
 40
0.6598872323783592
 40
0.6598872323783592
 10
1464.897391973502
 20
1775.380384887483
 30
0.0
 10
1465.130697341918
 20
1775.6136902559
 30
0.0
 10
1465.364002710335
 20
1775.846995624317
 30
0.0
  0
SPLINE
  5
159
330
1F
100
AcDbEntity
  8
Predefinito
100
AcDbSpline
210
0.0
220
0.0
230
1.0
 70
    24
 71
     2
 72
     6
 73
     3
 74
     0
 42
0.0000000001
 43
0.0000000001
 40
0.0
 40
0.0
 40
0.0
 40
7.0
 40
7.0
 40
7.0
 10
1464.897391973502
 20
1758.380384887483
 30
0.0
 10
1461.397391973502
 20
1758.380384887483
 30
0.0
 10
1457.897391973502
 20
1758.380384887483
 30
0.0
  0
SPLINE
  5
15A
330
1F
100
AcDbEntity
  8
Predefinito
100
AcDbSpline
210
0.0
220
0.0
230
1.0
 70
    24
 71
     2
 72
     6
 73
     3
 74
     0
 42
0.0000000001
 43
0.0000000001
 40
0.0
 40
0.0
 40
0.0
 40
3.5
 40
3.5
 40
3.5
 10
1461.397391973502
 20
1775.380384887483
 30
0.0
 10
1459.647391973502
 20
1775.380384887483
 30
0.0
 10
1457.897391973502
 20
1775.380384887483
 30
0.0
  0
SPLINE
  5
15B
330
1F
100
AcDbEntity
  8
Predefinito
100
AcDbSpline
210
0.0
220
0.0
230
1.0
 70
    24
 71
     2
 72
     6
 73
     3
 74
     0
 42
0.0000000001
 43
0.0000000001
 40
0.0
 40
0.0
 40
0.0
 40
4.0
 40
4.0
 40
4.0
 10
1461.397391973502
 20
1740.380384887483
 30
0.0
 10
1463.397391973502
 20
1740.380384887483
 30
0.0
 10
1465.397391973502
 20
1740.380384887483
 30
0.0
  0
SPLINE
  5
15C
330
1F
100
AcDbEntity
  8
Predefinito
100
AcDbSpline
210
0.0
220
0.0
230
1.0
 70
    24
 71
     2
 72
     6
 73
     3
 74
     0
 42
0.0000000001
 43
0.0000000001
 40
0.0
 40
0.0
 40
0.0
 40
17.5
 40
17.5
 40
17.5
 10
1457.397391973502
 20
1740.380384887483
 30
0.0
 10
1457.397391973502
 20
1749.130384887483
 30
0.0
 10
1457.397391973502
 20
1757.880384887483
 30
0.0
  0
SPLINE
  5
15D
330
1F
100
AcDbEntity
  8
Predefinito
100
AcDbSpline
210
0.0
220
0.0
230
1.0
 70
    24
 71
     2
 72
     6
 73
     3
 74
     0
 42
0.0000000001
 43
0.0000000001
 40
0.0
 40
0.0
 40
0.0
 40
8.0
 40
8.0
 40
8.0
 10
1465.397391973502
 20
1757.880384887483
 30
0.0
 10
1461.397391973502
 20
1757.880384887483
 30
0.0
 10
1457.397391973502
 20
1757.880384887483
 30
0.0
  0
SPLINE
  5
15E
330
1F
100
AcDbEntity
  8
Predefinito
100
AcDbSpline
210
0.0
220
0.0
230
1.0
 70
    24
 71
     2
 72
     6
 73
     3
 74
     0
 42
0.0000000001
 43
0.0000000001
 40
0.0
 40
0.0
 40
0.0
 40
4.0
 40
4.0
 40
4.0
 10
1461.397391973502
 20
1740.380384887483
 30
0.0
 10
1459.397391973502
 20
1740.380384887483
 30
0.0
 10
1457.397391973502
 20
1740.380384887483
 30
0.0
  0
SPLINE
  5
15F
330
1F
100
AcDbEntity
  8
Predefinito
100
AcDbSpline
210
0.0
220
0.0
230
1.0
 70
    12
 71
     2
 72
     6
 73
     3
 74
     0
 42
0.0000000001
 43
0.0000000001
 40
0.0
 40
0.0
 40
0.0
 40
1.007631523861152
 40
1.007631523861152
 40
1.007631523861152
 10
1457.397391973502
 20
1719.380384887483
 30
0.0
 41
1.0
 10
1457.397391973502
 20
1718.873887865534
 30
0.0
 41
0.9920782835209498
 10
1457.523637408431
 20
1718.383376577791
 30
0.0
 41
1.0
  0
SPLINE
  5
160
330
1F
100
AcDbEntity
  8
Predefinito
100
AcDbSpline
210
0.0
220
0.0
230
1.0
 70
    12
 71
     2
 72
     6
 73
     3
 74
     0
 42
0.0000000001
 43
0.0000000001
 40
0.0
 40
0.0
 40
0.0
 40
4.537373053818233
 40
4.537373053818233
 40
4.537373053818233
 10
1463.088302756039
 20
1715.755357890964
 30
0.0
 41
1.0
 10
1465.397391973502
 20
1716.832443346989
 30
0.0
 41
0.8434238838313877
 10
1465.397391973502
 20
1719.380384887483
 30
0.0
 41
1.0
  0
SPLINE
  5
161
330
1F
100
AcDbEntity
  8
Predefinito
100
AcDbSpline
210
0.0
220
0.0
230
1.0
 70
    24
 71
     2
 72
     6
 73
     3
 74
     0
 42
0.0000000001
 43
0.0000000001
 40
0.0
 40
0.0
 40
0.0
 40
18.0
 40
18.0
 40
18.0
 10
1457.397391973502
 20
1757.880384887483
 30
0.0
 10
1457.397391973502
 20
1766.880384887483
 30
0.0
 10
1457.397391973502
 20
1775.880384887483
 30
0.0
  0
SPLINE
  5
162
330
1F
100
AcDbEntity
  8
Predefinito
100
AcDbSpline
210
0.0
220
0.0
230
1.0
 70
    12
 71
     2
 72
     8
 73
     5
 74
     0
 42
0.0000000001
 43
0.0000000001
 40
0.0
 40
0.0
 40
0.0
 40
0.3004386747733179
 40
0.3004386747733179
 40
5.012827655158008
 40
5.012827655158008
 40
5.012827655158008
 10
1465.39334877832
 20
1860.380386352539
 30
0.0
 41
1.0
 10
1465.243129440934
 20
1860.380386352538
 30
0.0
 41
1.0
 10
1465.092910103547
 20
1860.380386352538
 30
0.0
 41
1.0
 10
1464.070106525179
 20
1860.380384887484
 30
0.0
 41
0.8314696123025452
 10
1461.397391973502
 20
1860.380384887483
 30
0.0
 41
1.0
  0
SPLINE
  5
163
330
1F
100
AcDbEntity
  8
Predefinito
100
AcDbSpline
210
0.0
220
0.0
230
1.0
 70
    24
 71
     2
 72
     6
 73
     3
 74
     0
 42
0.0000000001
 43
0.0000000001
 40
0.0
 40
0.0
 40
0.0
 40
4.0
 40
4.0
 40
4.0
 10
1461.397391973502
 20
1860.380384887483
 30
0.0
 10
1459.397391973502
 20
1860.380384887483
 30
0.0
 10
1457.397391973502
 20
1860.380384887483
 30
0.0
  0
SPLINE
  5
164
330
1F
100
AcDbEntity
  8
Predefinito
100
AcDbSpline
210
0.0
220
0.0
230
1.0
 70
    24
 71
     2
 72
     6
 73
     3
 74
     0
 42
0.0000000001
 43
0.0000000001
 40
0.0
 40
0.0
 40
0.0
 40
4.0
 40
4.0
 40
4.0
 10
1457.397391973502
 20
1775.880384887483
 30
0.0
 10
1459.397391973502
 20
1775.880384887483
 30
0.0
 10
1461.397391973502
 20
1775.880384887483
 30
0.0
  0
SPLINE
  5
165
330
1F
100
AcDbEntity
  8
Predefinito
100
AcDbSpline
210
0.0
220
0.0
230
1.0
 70
    12
 71
     2
 72
     6
 73
     3
 74
     0
 42
0.0000000001
 43
0.0000000001
 40
0.0
 40
0.0
 40
0.0
 40
1.967995883593045
 40
1.967995883593045
 40
1.967995883593045
 10
2182.642787354296
 20
1680.631757361504
 30
0.0
 41
1.0
 10
2183.446859738688
 20
1681.220940163391
 30
0.0
 41
0.9808030247601124
 10
2184.415153183394
 20
1681.457745100674
 30
0.0
 41
1.0
  0
SPLINE
  5
166
330
1F
100
AcDbEntity
  8
Predefinito
100
AcDbSpline
210
0.0
220
0.0
230
1.0
 70
    12
 71
     2
 72
     8
 73
     5
 74
     0
 42
0.0000000001
 43
0.0000000001
 40
0.0
 40
0.0
 40
0.0
 40
137.3950511196065
 40
137.3950511196065
 40
274.790102239213
 40
274.790102239213
 40
274.790102239213
 10
2248.600289114094
 20
1482.600236927246
 30
0.0
 41
1.0
 10
2169.316760528041
 20
1482.600216976227
 30
0.0
 41
0.811242111606891
 10
2144.24510740134
 20
1557.815176356328
 30
0.0
 41
1.0
 10
2119.17345427464
 20
1633.03013573643
 30
0.0
 41
0.811242111606891
 10
2182.600289114094
 20
1680.600236927246
 30
0.0
 41
1.0
  0
SPLINE
  5
167
330
1F
100
AcDbEntity
  8
Predefinito
100
AcDbSpline
210
0.0
220
0.0
230
1.0
 70
    12
 71
     2
 72
     6
 73
     3
 74
     0
 42
0.0000000001
 43
0.0000000001
 40
0.0
 40
0.0
 40
0.0
 40
0.1555377627118459
 40
0.1555377627118459
 40
0.1555377627118459
 10
2184.458519730236
 20
1681.302331024419
 30
0.0
 41
1.0
 10
2184.362092668605
 20
1681.305903929864
 30
0.0
 41
0.7328011579786831
 10
2184.358520651725
 20
1681.402331024414
 30
0.0
 41
1.0
  0
SPLINE
  5
168
330
1F
100
AcDbEntity
  8
Predefinito
100
AcDbSpline
210
0.0
220
0.0
230
1.0
 70
    12
 71
     2
 72
     6
 73
     3
 74
     0
 42
0.0000000001
 43
0.0000000001
 40
0.0
 40
0.0
 40
0.0
 40
0.0315139700236854
 40
0.0315139700236854
 40
0.0315139700236854
 10
2313.222192630795
 20
1681.361832000268
 30
0.0
 41
1.0
 10
2313.215249928464
 20
1681.347559678573
 30
0.0
 41
0.9892247788247026
 10
2313.204470810953
 20
1681.335910176101
 30
0.0
 41
1.0
  0
SPLINE
  5
169
330
1F
100
AcDbEntity
  8
Predefinito
100
AcDbSpline
210
0.0
220
0.0
230
1.0
 70
    12
 71
     2
 72
     6
 73
     3
 74
     0
 42
0.0000000001
 43
0.0000000001
 40
0.0
 40
0.0
 40
0.0
 40
58.49005783554178
 40
58.49005783554178
 40
58.49005783554178
 10
2184.442785553154
 20
1681.51429804337
 30
0.0
 41
1.0
 10
2208.73612273429
 20
1699.038105498021
 30
0.0
 41
0.9648658777629665
 10
2238.560314719533
 20
1701.825152596925
 30
0.0
 41
1.0
  0
SPLINE
  5
16A
330
1F
100
AcDbEntity
  8
Predefinito
100
AcDbSpline
210
0.0
220
0.0
230
1.0
 70
    12
 71
     2
 72
     6
 73
     3
 74
     0
 42
0.0000000001
 43
0.0000000001
 40
0.0
 40
0.0
 40
0.0
 40
0.0272842373801915
 40
0.0272842373801915
 40
0.0272842373801915
 10
2238.601402801589
 20
1701.828822847355
 30
0.0
 41
1.0
 10
2238.614995706371
 20
1701.829980974343
 30
0.0
 41
0.9999963079236351
 10
2238.628594704521
 20
1701.831065210399
 30
0.0
 41
1.0
  0
SPLINE
  5
16B
330
1F
100
AcDbEntity
  8
Predefinito
100
AcDbSpline
210
0.0
220
0.0
230
1.0
 70
    24
 71
     2
 72
     6
 73
     3
 74
     0
 42
0.0000000001
 43
0.0000000001
 40
0.0
 40
0.0
 40
0.0
 40
13.75317775083522
 40
13.75317775083522
 40
13.75317775083522
 10
2258.745135421232
 20
1715.55550877525
 30
0.0
 10
2258.745135421232
 20
1708.678919899832
 30
0.0
 10
2258.745135421232
 20
1701.802331024414
 30
0.0
  0
SPLINE
  5
16C
330
1F
100
AcDbEntity
  8
Predefinito
100
AcDbSpline
210
0.0
220
0.0
230
1.0
 70
    24
 71
     2
 72
     6
 73
     3
 74
     0
 42
0.0000000001
 43
0.0000000001
 40
0.0
 40
0.0
 40
0.0
 40
4.25311537986795
 40
4.25311537986795
 40
4.25311537986795
 10
2258.745135421232
 20
1731.302330234422
 30
0.0
 10
2258.745135421232
 20
1729.175772544488
 30
0.0
 10
2258.745135421232
 20
1727.049214854554
 30
0.0
  0
SPLINE
  5
16D
330
1F
100
AcDbEntity
  8
Predefinito
100
AcDbSpline
210
0.0
220
0.0
230
1.0
 70
    24
 71
     2
 72
     6
 73
     3
 74
     0
 42
0.0000000001
 43
0.0000000001
 40
0.0
 40
0.0
 40
0.0
 40
4.253115379728115
 40
4.253115379728115
 40
4.253115379728115
 10
2238.845135421232
 20
1727.049214854694
 30
0.0
 10
2238.845135421232
 20
1729.175772544558
 30
0.0
 10
2238.845135421232
 20
1731.302330234422
 30
0.0
  0
SPLINE
  5
16E
330
1F
100
AcDbEntity
  8
Predefinito
100
AcDbSpline
210
0.0
220
0.0
230
1.0
 70
    24
 71
     2
 72
     6
 73
     3
 74
     0
 42
0.0000000001
 43
0.0000000001
 40
0.0
 40
0.0
 40
0.0
 40
13.75317775083522
 40
13.75317775083522
 40
13.75317775083522
 10
2238.845135421232
 20
1701.802331024414
 30
0.0
 10
2238.845135421232
 20
1708.678919899832
 30
0.0
 10
2238.845135421232
 20
1715.55550877525
 30
0.0
  0
SPLINE
  5
16F
330
1F
100
AcDbEntity
  8
Predefinito
100
AcDbSpline
210
0.0
220
0.0
230
1.0
 70
    24
 71
     2
 72
     6
 73
     3
 74
     0
 42
0.0000000001
 43
0.0000000001
 40
0.0
 40
0.0
 40
0.0
 40
0.6786468337854821
 40
0.6786468337854821
 40
0.6786468337854821
 10
2258.245135421232
 20
1731.802331024414
 30
0.0
 10
2258.485073310332
 20
1731.562393135314
 30
0.0
 10
2258.725011199433
 20
1731.322455246214
 30
0.0
  0
SPLINE
  5
170
330
1F
100
AcDbEntity
  8
Predefinito
100
AcDbSpline
210
0.0
220
0.0
230
1.0
 70
    24
 71
     2
 72
     6
 73
     3
 74
     0
 42
0.0000000001
 43
0.0000000001
 40
0.0
 40
0.0
 40
0.0
 40
0.6786468639013526
 40
0.6786468639013526
 40
0.6786468639013526
 10
2238.865259621736
 20
1731.322455224919
 30
0.0
 10
2239.105197521484
 20
1731.562393124666
 30
0.0
 10
2239.345135421232
 20
1731.802331024414
 30
0.0
  0
SPLINE
  5
171
330
1F
100
AcDbEntity
  8
Predefinito
100
AcDbSpline
210
0.0
220
0.0
230
1.0
 70
    24
 71
     2
 72
     6
 73
     3
 74
     0
 42
0.0000000001
 43
0.0000000001
 40
0.0
 40
0.0
 40
0.0
 40
0.6598872323781181
 40
0.6598872323781181
 40
0.6598872323781181
 10
2265.640654351971
 20
1757.91377415065
 30
0.0
 10
2265.873959720387
 20
1758.147079519067
 30
0.0
 10
2266.107265088804
 20
1758.380384887483
 30
0.0
  0
SPLINE
  5
172
330
1F
100
AcDbEntity
  8
Predefinito
100
AcDbSpline
210
0.0
220
0.0
230
1.0
 70
    24
 71
     2
 72
     6
 73
     3
 74
     0
 42
0.0000000001
 43
0.0000000001
 40
0.0
 40
0.0
 40
0.0
 40
0.6598872323781181
 40
0.6598872323781181
 40
0.6598872323781181
 10
2273.107265088804
 20
1758.380384887483
 30
0.0
 10
2273.34057045722
 20
1758.147079519067
 30
0.0
 10
2273.573875825637
 20
1757.91377415065
 30
0.0
  0
SPLINE
  5
173
330
1F
100
AcDbEntity
  8
Predefinito
100
AcDbSpline
210
0.0
220
0.0
230
1.0
 70
    24
 71
     2
 72
     6
 73
     3
 74
     0
 42
0.0000000001
 43
0.0000000001
 40
0.0
 40
0.0
 40
0.0
 40
0.6598872323781181
 40
0.6598872323781181
 40
0.6598872323781181
 10
2266.107265088804
 20
1775.380384887483
 30
0.0
 10
2265.873959720387
 20
1775.6136902559
 30
0.0
 10
2265.640654351971
 20
1775.846995624316
 30
0.0
  0
SPLINE
  5
174
330
1F
100
AcDbEntity
  8
Predefinito
100
AcDbSpline
210
0.0
220
0.0
230
1.0
 70
    24
 71
     2
 72
     6
 73
     3
 74
     0
 42
0.0000000001
 43
0.0000000001
 40
0.0
 40
0.0
 40
0.0
 40
0.6598872323781181
 40
0.6598872323781181
 40
0.6598872323781181
 10
2273.573875825637
 20
1775.846995624316
 30
0.0
 10
2273.34057045722
 20
1775.6136902559
 30
0.0
 10
2273.107265088804
 20
1775.380384887483
 30
0.0
  0
SPLINE
  5
175
330
1F
100
AcDbEntity
  8
Predefinito
100
AcDbSpline
210
0.0
220
0.0
230
1.0
 70
    24
 71
     2
 72
     6
 73
     3
 74
     0
 42
0.0000000001
 43
0.0000000001
 40
0.0
 40
0.0
 40
0.0
 40
17.5
 40
17.5
 40
17.5
 10
2273.607265088804
 20
1757.880384887483
 30
0.0
 10
2273.607265088804
 20
1749.130384887483
 30
0.0
 10
2273.607265088804
 20
1740.380384887483
 30
0.0
  0
SPLINE
  5
176
330
1F
100
AcDbEntity
  8
Predefinito
100
AcDbSpline
210
0.0
220
0.0
230
1.0
 70
    24
 71
     2
 72
     6
 73
     3
 74
     0
 42
0.0000000001
 43
0.0000000001
 40
0.0
 40
0.0
 40
0.0
 40
17.5
 40
17.5
 40
17.5
 10
2265.607265088804
 20
1740.380384887483
 30
0.0
 10
2265.607265088804
 20
1749.130384887483
 30
0.0
 10
2265.607265088804
 20
1757.880384887483
 30
0.0
  0
SPLINE
  5
177
330
1F
100
AcDbEntity
  8
Predefinito
100
AcDbSpline
210
0.0
220
0.0
230
1.0
 70
    12
 71
     2
 72
     6
 73
     3
 74
     0
 42
0.0000000001
 43
0.0000000001
 40
0.0
 40
0.0
 40
0.0
 40
16.23375821682739
 40
16.23375821682739
 40
16.23375821682739
 10
2258.427525370213
 20
1726.503897228991
 30
0.0
 41
1.0
 10
2265.60741491357
 20
1731.584653230587
 30
0.0
 41
0.8881511439946802
 10
2265.607265088804
 20
1740.380384887483
 30
0.0
 41
1.0
  0
SPLINE
  5
178
330
1F
100
AcDbEntity
  8
Predefinito
100
AcDbSpline
210
0.0
220
0.0
230
1.0
 70
    12
 71
     2
 72
     6
 73
     3
 74
     0
 42
0.0000000001
 43
0.0000000001
 40
0.0
 40
0.0
 40
0.0
 40
16.93801617936626
 40
16.93801617936626
 40
16.93801617936626
 10
2231.607265088804
 20
1740.380384887483
 30
0.0
 41
1.0
 10
2231.607255342862
 20
1731.133411821717
 30
0.0
 41
0.8784507018174105
 10
2239.370134308269
 20
1726.109049071324
 30
0.0
 41
1.0
  0
SPLINE
  5
179
330
1F
100
AcDbEntity
  8
Predefinito
100
AcDbSpline
210
0.0
220
0.0
230
1.0
 70
    24
 71
     2
 72
     6
 73
     3
 74
     0
 42
0.0000000001
 43
0.0000000001
 40
0.0
 40
0.0
 40
0.0
 40
120.0
 40
120.0
 40
120.0
 10
2231.607265088804
 20
1860.380384887483
 30
0.0
 10
2231.607265088804
 20
1800.380384887483
 30
0.0
 10
2231.607265088804
 20
1740.380384887483
 30
0.0
  0
SPLINE
  5
17A
330
1F
100
AcDbEntity
  8
Predefinito
100
AcDbSpline
210
0.0
220
0.0
230
1.0
 70
    24
 71
     2
 72
     6
 73
     3
 74
     0
 42
0.0000000001
 43
0.0000000001
 40
0.0
 40
0.0
 40
0.0
 40
120.0
 40
120.0
 40
120.0
 10
2223.607265088804
 20
1740.380384887483
 30
0.0
 10
2223.607265088804
 20
1800.380384887483
 30
0.0
 10
2223.607265088804
 20
1860.380384887483
 30
0.0
  0
SPLINE
  5
17B
330
1F
100
AcDbEntity
  8
Predefinito
100
AcDbSpline
210
0.0
220
0.0
230
1.0
 70
    12
 71
     2
 72
     6
 73
     3
 74
     0
 42
0.0000000001
 43
0.0000000001
 40
0.0
 40
0.0
 40
0.0
 40
23.46163706175323
 40
23.46163706175323
 40
23.46163706175323
 10
2245.385360739481
 20
1877.07217806173
 30
0.0
 41
1.0
 10
2231.608074331123
 20
1874.412118165176
 30
0.0
 41
0.7712428938287269
 10
2231.607265088804
 20
1860.380384887483
 30
0.0
 41
1.0
  0
SPLINE
  5
17C
330
1F
100
AcDbEntity
  8
Predefinito
100
AcDbSpline
210
0.0
220
0.0
230
1.0
 70
    12
 71
     2
 72
     6
 73
     3
 74
     0
 42
0.0000000001
 43
0.0000000001
 40
0.0
 40
0.0
 40
0.0
 40
23.70985580054859
 40
23.70985580054859
 40
23.70985580054859
 10
2265.607265088804
 20
1860.380384887483
 30
0.0
 41
1.0
 10
2265.606938604094
 20
1874.622248059063
 30
0.0
 41
0.7665597617756225
 10
2251.585369361075
 20
1877.117496076365
 30
0.0
 41
1.0
  0
SPLINE
  5
17D
330
1F
100
AcDbEntity
  8
Predefinito
100
AcDbSpline
210
0.0
220
0.0
230
1.0
 70
    24
 71
     2
 72
     6
 73
     3
 74
     0
 42
0.0000000001
 43
0.0000000001
 40
0.0
 40
0.0
 40
0.0
 40
84.5
 40
84.5
 40
84.5
 10
2265.607265088804
 20
1775.880384887483
 30
0.0
 10
2265.607265088804
 20
1818.130384887483
 30
0.0
 10
2265.607265088804
 20
1860.380384887483
 30
0.0
  0
SPLINE
  5
17E
330
1F
100
AcDbEntity
  8
Predefinito
100
AcDbSpline
210
0.0
220
0.0
230
1.0
 70
    24
 71
     2
 72
     6
 73
     3
 74
     0
 42
0.0000000001
 43
0.0000000001
 40
0.0
 40
0.0
 40
0.0
 40
27.69843671094723
 40
27.69843671094723
 40
27.69843671094723
 10
2316.897648207244
 20
2100.297618966596
 30
0.0
 10
2316.77679251164
 20
2086.448927946922
 30
0.0
 10
2316.655936816036
 20
2072.600236927246
 30
0.0
  0
SPLINE
  5
17F
330
1F
100
AcDbEntity
  8
Predefinito
100
AcDbSpline
210
0.0
220
0.0
230
1.0
 70
    24
 71
     2
 72
     6
 73
     3
 74
     0
 42
0.0000000001
 43
0.0000000001
 40
0.0
 40
0.0
 40
0.0
 40
27.69843671094726
 40
27.69843671094726
 40
27.69843671094726
 10
2180.544641411549
 20
2072.600236927246
 30
0.0
 10
2180.423785715944
 20
2086.448927946922
 30
0.0
 10
2180.302930020339
 20
2100.297618966596
 30
0.0
  0
SPLINE
  5
180
330
1F
100
AcDbEntity
  8
Predefinito
100
AcDbSpline
210
0.0
220
0.0
230
1.0
 70
    12
 71
     2
 72
     8
 73
     5
 74
     0
 42
0.0000000001
 43
0.0000000001
 40
0.0
 40
0.0
 40
0.0
 40
0.249800824211712
 40
0.249800824211712
 40
0.4996016484234239
 40
0.4996016484234239
 40
0.4996016484234239
 10
2180.302900045492
 20
2100.297618966597
 30
0.0
 41
1.0
 10
2180.278581111417
 20
2100.430922367019
 30
0.0
 41
0.8866542208750184
 10
2180.373976744147
 20
2100.527155835079
 30
0.0
 41
1.0
 10
2180.469372376876
 20
2100.623389303139
 30
0.0
 41
0.8866542208750184
 10
2180.602883330016
 20
2100.600236927227
 30
0.0
 41
1.0
  0
SPLINE
  5
181
330
1F
100
AcDbEntity
  8
Predefinito
100
AcDbSpline
210
0.0
220
0.0
230
1.0
 70
    12
 71
     2
 72
     6
 73
     3
 74
     0
 42
0.0000000001
 43
0.0000000001
 40
0.0
 40
0.0
 40
0.0
 40
4.494746759552123
 40
4.494746759552123
 40
4.494746759552123
 10
2245.385217406292
 20
1864.105490361948
 30
0.0
 41
1.0
 10
2245.385169344146
 20
1866.352863741394
 30
0.0
 41
0.9999999998776669
 10
2245.385191587991
 20
1868.600237121243
 30
0.0
 41
1.0
  0
SPLINE
  5
182
330
1F
100
AcDbEntity
  8
Predefinito
100
AcDbSpline
210
0.0
220
0.0
230
1.0
 70
    24
 71
     2
 72
     6
 73
     3
 74
     0
 42
0.0000000001
 43
0.0000000001
 40
0.0
 40
0.0
 40
0.0
 40
4.0
 40
4.0
 40
4.0
 10
2250.956253953004
 20
1868.600236927246
 30
0.0
 10
2250.956253953004
 20
1870.600236927246
 30
0.0
 10
2250.956253953004
 20
1872.600236927246
 30
0.0
  0
SPLINE
  5
183
330
1F
100
AcDbEntity
  8
Predefinito
100
AcDbSpline
210
0.0
220
0.0
230
1.0
 70
    24
 71
     2
 72
     6
 73
     3
 74
     0
 42
0.0000000001
 43
0.0000000001
 40
0.0
 40
0.0
 40
0.0
 40
4.0
 40
4.0
 40
4.0
 10
2246.244324275185
 20
1872.600236927246
 30
0.0
 10
2246.244324275185
 20
1870.600236927246
 30
0.0
 10
2246.244324275185
 20
1868.600236927246
 30
0.0
  0
SPLINE
  5
184
330
1F
100
AcDbEntity
  8
Predefinito
100
AcDbSpline
210
0.0
220
0.0
230
1.0
 70
    12
 71
     2
 72
     6
 73
     3
 74
     0
 42
0.0000000001
 43
0.0000000001
 40
0.0
 40
0.0
 40
0.0
 40
0.3284670475481128
 40
0.3284670475481128
 40
0.3284670475481128
 10
2312.99308927256
 20
1681.402331024469
 30
0.0
 41
1.0
 10
2312.835299554703
 20
1681.44809638008
 30
0.0
 41
0.9994605954932076
 10
2312.674845874726
 20
1681.483404727781
 30
0.0
 41
1.0
  0
SPLINE
  5
185
330
1F
100
AcDbEntity
  8
Predefinito
100
AcDbSpline
210
0.0
220
0.0
230
1.0
 70
    12
 71
     2
 72
     6
 73
     3
 74
     0
 42
0.0000000001
 43
0.0000000001
 40
0.0
 40
0.0
 40
0.0
 40
1.531535619075393
 40
1.531535619075393
 40
1.531535619075393
 10
2314.557795513893
 20
1680.631757223009
 30
0.0
 41
1.0
 10
2313.935480518719
 20
1681.088284896417
 30
0.0
 41
0.9882948996783332
 10
2313.204470811121
 20
1681.335910172195
 30
0.0
 41
1.0
  0
SPLINE
  5
186
330
1F
100
AcDbEntity
  8
Predefinito
100
AcDbSpline
210
0.0
220
0.0
230
1.0
 70
    24
 71
     2
 72
     6
 73
     3
 74
     0
 42
0.0000000001
 43
0.0000000001
 40
0.0
 40
0.0
 40
0.0
 40
64.01436678619461
 40
64.01436678619461
 40
64.01436678619461
 10
2246.614655900289
 20
1680.600236927246
 30
0.0
 10
2214.607472507191
 20
1680.600236927246
 30
0.0
 10
2182.600289114094
 20
1680.600236927246
 30
0.0
  0
SPLINE
  5
187
330
1F
100
AcDbEntity
  8
Predefinito
100
AcDbSpline
210
0.0
220
0.0
230
1.0
 70
    24
 71
     2
 72
     6
 73
     3
 74
     0
 42
0.0000000001
 43
0.0000000001
 40
0.0
 40
0.0
 40
0.0
 40
59.89537572778818
 40
59.89537572778818
 40
59.89537572778818
 10
2314.600289114094
 20
1680.600236927246
 30
0.0
 10
2284.6526012502
 20
1680.600236927246
 30
0.0
 10
2254.704913386306
 20
1680.600236927246
 30
0.0
  0
SPLINE
  5
188
330
1F
100
AcDbEntity
  8
Predefinito
100
AcDbSpline
210
0.0
220
0.0
230
1.0
 70
    12
 71
     2
 72
     8
 73
     5
 74
     0
 42
0.0000000001
 43
0.0000000001
 40
0.0
 40
0.0
 40
0.0
 40
137.3950349638088
 40
137.3950349638088
 40
274.7900699276175
 40
274.7900699276175
 40
274.7900699276175
 10
2248.600289114092
 20
1482.600236927246
 30
0.0
 41
1.0
 10
2327.883803320266
 20
1482.600236927244
 30
0.0
 41
0.8112421851755596
 10
2352.955451899651
 20
1557.815182665392
 30
0.0
 41
1.0
 10
2378.027100479035
 20
1633.03012840354
 30
0.0
 41
0.8112421851755571
 10
2314.600289114096
 20
1680.600236927245
 30
0.0
 41
1.0
  0
SPLINE
  5
189
330
1F
100
AcDbEntity
  8
Predefinito
100
AcDbSpline
210
0.0
220
0.0
230
1.0
 70
    24
 71
     2
 72
     6
 73
     3
 74
     0
 42
0.0000000001
 43
0.0000000001
 40
0.0
 40
0.0
 40
0.0
 40
58.55150657491436
 40
58.55150657491436
 40
58.55150657491436
 10
2313.231750190739
 20
1681.402331024414
 30
0.0
 10
2283.955996903282
 20
1681.402331024414
 30
0.0
 10
2254.680243615825
 20
1681.402331024414
 30
0.0
  0
SPLINE
  5
18A
330
1F
100
AcDbEntity
  8
Predefinito
100
AcDbSpline
210
0.0
220
0.0
230
1.0
 70
    24
 71
     2
 72
     6
 73
     3
 74
     0
 42
0.0000000001
 43
0.0000000001
 40
0.0
 40
0.0
 40
0.0
 40
45.10719806848101
 40
45.10719806848101
 40
45.10719806848101
 10
2246.60519148647
 20
1681.402331024414
 30
0.0
 10
2224.051592452229
 20
1681.402331024414
 30
0.0
 10
2201.497993417989
 20
1681.402331024414
 30
0.0
  0
SPLINE
  5
18B
330
1F
100
AcDbEntity
  8
Predefinito
100
AcDbSpline
210
0.0
220
0.0
230
1.0
 70
    24
 71
     2
 72
     6
 73
     3
 74
     0
 42
0.0000000001
 43
0.0000000001
 40
0.0
 40
0.0
 40
0.0
 40
58.51254800285506
 40
58.51254800285506
 40
58.51254800285506
 10
2254.67774323863
 20
1681.483404727781
 30
0.0
 10
2283.934017240057
 20
1681.483404727781
 30
0.0
 10
2313.190291241484
 20
1681.483404727781
 30
0.0
  0
SPLINE
  5
18C
330
1F
100
AcDbEntity
  8
Predefinito
100
AcDbSpline
210
0.0
220
0.0
230
1.0
 70
    28
 71
     2
 72
     8
 73
     5
 74
     0
 42
0.0000000001
 43
0.0000000001
 40
302.6647752226263
 40
302.6647752226263
 40
302.6647752226263
 40
328.7429412339753
 40
328.7429412339753
 40
402.2950354711505
 40
402.2950354711505
 40
402.2950354711505
 10
2184.401706102547
 20
1681.483404727781
 30
0.0
 41
0.9239638289880624
 10
2184.306114059003
 20
1681.483404727781
 30
0.0
 41
0.9420676792289999
 10
2189.301768966025
 20
1681.483404727781
 30
0.0
 41
1.0
 10
2205.167939109668
 20
1681.483404727781
 30
0.0
 41
0.8366049393629719
 10
2246.604236669341
 20
1681.483404727781
 30
0.0
 41
0.990042305273329
  0
SPLINE
  5
18D
330
1F
100
AcDbEntity
  8
Predefinito
100
AcDbSpline
210
0.0
220
0.0
230
1.0
 70
    12
 71
     2
 72
     6
 73
     3
 74
     0
 42
0.0000000001
 43
0.0000000001
 40
0.0
 40
0.0
 40
0.0
 40
58.54284749282289
 40
58.54284749282289
 40
58.54284749282289
 10
2313.190291241489
 20
1681.483404727778
 30
0.0
 41
1.0
 10
2288.882379052346
 20
1699.035467380573
 30
0.0
 41
0.964802803830088
 10
2259.029956122936
 20
1701.825152596925
 30
0.0
 41
1.0
  0
SPLINE
  5
18E
330
1F
100
AcDbEntity
  8
Predefinito
100
AcDbSpline
210
0.0
220
0.0
230
1.0
 70
    24
 71
     2
 72
     6
 73
     3
 74
     0
 42
0.0000000001
 43
0.0000000001
 40
0.0
 40
0.0
 40
0.0
 40
5.025914233174262
 40
5.025914233174262
 40
5.025914233174262
 10
2259.02995612293
 20
1701.825152596926
 30
0.0
 10
2256.516999006343
 20
1701.825152596926
 30
0.0
 10
2254.004041889756
 20
1701.825152596925
 30
0.0
  0
SPLINE
  5
18F
330
1F
100
AcDbEntity
  8
Predefinito
100
AcDbSpline
210
0.0
220
0.0
230
1.0
 70
    28
 71
     2
 72
     8
 73
     5
 74
     0
 42
0.0000000001
 43
0.0000000001
 40
15.07201759090549
 40
15.07201759090549
 40
15.07201759090549
 40
16.07681876363253
 40
16.07681876363253
 40
28.31777696195816
 40
28.31777696195816
 40
28.31777696195816
 10
2238.601715504602
 20
1701.825152596925
 30
0.0
 41
0.9656765759202985
 10
2238.560314719533
 20
1701.825152596925
 30
0.0
 41
0.9816941738241592
 10
2238.560314719533
 20
1701.825152596925
 30
0.0
 41
1.0
 10
2238.560314719533
 20
1701.825152596926
 30
0.0
 41
0.7769898572111275
 10
2245.20044634935
 20
1701.825152596925
 30
0.0
 41
0.893581457256658
  0
SPLINE
  5
190
330
1F
100
AcDbEntity
  8
Predefinito
100
AcDbSpline
210
0.0
220
0.0
230
1.0
 70
     8
 71
     3
 72
    12
 73
     8
 74
     0
 42
0.0000000001
 43
0.0000000001
 40
0.0
 40
0.0
 40
0.0
 40
0.0
 40
1.754726732476767
 40
3.24752316225922
 40
6.077150966705599
 40
8.903204616815126
 40
12.21946521122252
 40
12.21946521122252
 40
12.21946521122252
 40
12.21946521122252
 10
2238.852981287898
 20
1727.034353913001
 30
0.0
 10
2239.146851955443
 20
1726.529634480535
 30
0.0
 10
2239.67272154093
 20
1725.578909179415
 30
0.0
 10
2240.44118616816
 20
1723.706763666349
 30
0.0
 10
2240.90724139372
 20
1721.331281150778
 30
0.0
 10
2240.344680762656
 20
1718.345824629567
 30
0.0
 10
2239.409428772549
 20
1716.512533256979
 30
0.0
 10
2238.848522717007
 20
1715.560365457589
 30
0.0
  0
SPLINE
  5
191
330
1F
100
AcDbEntity
  8
Predefinito
100
AcDbSpline
210
0.0
220
0.0
230
1.0
 70
     8
 71
     3
 72
    12
 73
     8
 74
     0
 42
0.0000000001
 43
0.0000000001
 40
0.0
 40
0.0
 40
0.0
 40
0.0
 40
1.945658547446232
 40
3.288080540979138
 40
6.061927978235383
 40
8.815482190827948
 40
12.23206573460978
 40
12.23206573460978
 40
12.23206573460978
 40
12.23206573460978
 10
2258.739033535453
 20
1715.564222850599
 30
0.0
 10
2258.411413918119
 20
1716.122854973458
 30
0.0
 10
2257.878281076499
 20
1717.084764567386
 30
0.0
 10
2257.110333937711
 20
1718.953699066258
 30
0.0
 10
2256.702920989436
 20
1721.24185431976
 30
0.0
 10
2257.213114153844
 20
1724.219497755691
 30
0.0
 10
2258.161629759978
 20
1726.065865268095
 30
0.0
 10
2258.741227269909
 20
1727.043471695535
 30
0.0
  0
SPLINE
  5
192
330
1F
100
AcDbEntity
  8
Predefinito
100
AcDbSpline
210
0.0
220
0.0
230
1.0
 70
    12
 71
     2
 72
     8
 73
     5
 74
     0
 42
0.0000000001
 43
0.0000000001
 40
0.0
 40
0.0
 40
0.0
 40
0.0402486593018329
 40
0.0402486593018329
 40
6.118467926261261
 40
6.118467926261261
 40
6.118467926261261
 10
2258.70488676193
 20
1731.30233080871
 30
0.0
 41
1.0
 10
2258.725011091581
 20
1731.302330812442
 30
0.0
 41
0.9999999999997446
 10
2258.745135421232
 20
1731.302330787417
 30
0.0
 41
1.0
 10
2255.706025787752
 20
1731.302330491909
 30
0.0
 41
0.9999999999999981
 10
2252.666916154272
 20
1731.302330564436
 30
0.0
 41
1.0
  0
SPLINE
  5
193
330
1F
100
AcDbEntity
  8
Predefinito
100
AcDbSpline
210
0.0
220
0.0
230
1.0
 70
    12
 71
     2
 72
     6
 73
     3
 74
     0
 42
0.0000000001
 43
0.0000000001
 40
0.0
 40
0.0
 40
0.0
 40
6.600675668800709
 40
6.600675668800709
 40
6.600675668800709
 10
2245.486059749334
 20
1731.302330568433
 30
0.0
 41
1.0
 10
2242.185721914934
 20
1731.302330523819
 30
0.0
 41
0.999999999999999
 10
2238.885384080534
 20
1731.302330777979
 30
0.0
 41
1.0
  0
SPLINE
  5
194
330
1F
100
AcDbEntity
  8
Predefinito
100
AcDbSpline
210
0.0
220
0.0
230
1.0
 70
    24
 71
     2
 72
     6
 73
     3
 74
     0
 42
0.0000000001
 43
0.0000000001
 40
0.0
 40
0.0
 40
0.0
 40
6.120532490950836
 40
6.120532490950836
 40
6.120532490950836
 10
2245.503894025791
 20
1731.802331024414
 30
0.0
 10
2242.443627780316
 20
1731.802331024414
 30
0.0
 10
2239.38336153484
 20
1731.802331024414
 30
0.0
  0
SPLINE
  5
195
330
1F
100
AcDbEntity
  8
Predefinito
100
AcDbSpline
210
0.0
220
0.0
230
1.0
 70
    12
 71
     2
 72
     8
 73
     5
 74
     0
 42
0.0000000001
 43
0.0000000001
 40
0.0
 40
0.0
 40
0.0
 40
0.0382261136082889
 40
0.0382261136082889
 40
10.78918895283493
 40
10.78918895283493
 40
10.78918895283493
 10
2258.206909307623
 20
1731.802330970764
 30
0.0
 41
1.0
 10
2258.226022364428
 20
1731.802330970764
 30
0.0
 41
1.0
 10
2258.245135421232
 20
1731.802330970764
 30
0.0
 41
1.0
 10
2258.245135421232
 20
1731.802331024414
 30
0.0
 41
0.787868583474756
 10
2252.631356885868
 20
1731.802331024414
 30
0.0
 41
0.8830145976753322
  0
SPLINE
  5
196
330
1F
100
AcDbEntity
  8
Predefinito
100
AcDbSpline
210
0.0
220
0.0
230
1.0
 70
    24
 71
     2
 72
     6
 73
     3
 74
     0
 42
0.0000000001
 43
0.0000000001
 40
0.0
 40
0.0
 40
0.0
 40
4.0
 40
4.0
 40
4.0
 10
2269.607265088804
 20
1775.880384887483
 30
0.0
 10
2267.607265088804
 20
1775.880384887483
 30
0.0
 10
2265.607265088804
 20
1775.880384887483
 30
0.0
  0
SPLINE
  5
197
330
1F
100
AcDbEntity
  8
Predefinito
100
AcDbSpline
210
0.0
220
0.0
230
1.0
 70
    24
 71
     2
 72
     6
 73
     3
 74
     0
 42
0.0000000001
 43
0.0000000001
 40
0.0
 40
0.0
 40
0.0
 40
3.5
 40
3.5
 40
3.5
 10
2269.607265088804
 20
1758.380384887483
 30
0.0
 10
2267.857265088804
 20
1758.380384887483
 30
0.0
 10
2266.107265088804
 20
1758.380384887483
 30
0.0
  0
SPLINE
  5
198
330
1F
100
AcDbEntity
  8
Predefinito
100
AcDbSpline
210
0.0
220
0.0
230
1.0
 70
    24
 71
     2
 72
     6
 73
     3
 74
     0
 42
0.0000000001
 43
0.0000000001
 40
0.0
 40
0.0
 40
0.0
 40
3.5
 40
3.5
 40
3.5
 10
2273.107265088804
 20
1758.380384887483
 30
0.0
 10
2271.357265088804
 20
1758.380384887483
 30
0.0
 10
2269.607265088804
 20
1758.380384887483
 30
0.0
  0
SPLINE
  5
199
330
1F
100
AcDbEntity
  8
Predefinito
100
AcDbSpline
210
0.0
220
0.0
230
1.0
 70
    24
 71
     2
 72
     6
 73
     3
 74
     0
 42
0.0000000001
 43
0.0000000001
 40
0.0
 40
0.0
 40
0.0
 40
7.0
 40
7.0
 40
7.0
 10
2273.107265088804
 20
1775.380384887483
 30
0.0
 10
2269.607265088804
 20
1775.380384887483
 30
0.0
 10
2266.107265088804
 20
1775.380384887483
 30
0.0
  0
SPLINE
  5
19A
330
1F
100
AcDbEntity
  8
Predefinito
100
AcDbSpline
210
0.0
220
0.0
230
1.0
 70
    24
 71
     2
 72
     6
 73
     3
 74
     0
 42
0.0000000001
 43
0.0000000001
 40
0.0
 40
0.0
 40
0.0
 40
4.0
 40
4.0
 40
4.0
 10
2265.607265088804
 20
1740.380384887483
 30
0.0
 10
2267.607265088804
 20
1740.380384887483
 30
0.0
 10
2269.607265088804
 20
1740.380384887483
 30
0.0
  0
SPLINE
  5
19B
330
1F
100
AcDbEntity
  8
Predefinito
100
AcDbSpline
210
0.0
220
0.0
230
1.0
 70
    24
 71
     2
 72
     6
 73
     3
 74
     0
 42
0.0000000001
 43
0.0000000001
 40
0.0
 40
0.0
 40
0.0
 40
4.0
 40
4.0
 40
4.0
 10
2273.607265088804
 20
1757.880384887483
 30
0.0
 10
2271.607265088804
 20
1757.880384887483
 30
0.0
 10
2269.607265088804
 20
1757.880384887483
 30
0.0
  0
SPLINE
  5
19C
330
1F
100
AcDbEntity
  8
Predefinito
100
AcDbSpline
210
0.0
220
0.0
230
1.0
 70
    24
 71
     2
 72
     6
 73
     3
 74
     0
 42
0.0000000001
 43
0.0000000001
 40
0.0
 40
0.0
 40
0.0
 40
4.0
 40
4.0
 40
4.0
 10
2269.607265088804
 20
1757.880384887483
 30
0.0
 10
2267.607265088804
 20
1757.880384887483
 30
0.0
 10
2265.607265088804
 20
1757.880384887483
 30
0.0
  0
SPLINE
  5
19D
330
1F
100
AcDbEntity
  8
Predefinito
100
AcDbSpline
210
0.0
220
0.0
230
1.0
 70
    24
 71
     2
 72
     6
 73
     3
 74
     0
 42
0.0000000001
 43
0.0000000001
 40
0.0
 40
0.0
 40
0.0
 40
3.999999999999773
 40
3.999999999999773
 40
3.999999999999773
 10
2273.607265088804
 20
1740.380384887483
 30
0.0
 10
2271.607265088804
 20
1740.380384887483
 30
0.0
 10
2269.607265088804
 20
1740.380384887483
 30
0.0
  0
SPLINE
  5
19E
330
1F
100
AcDbEntity
  8
Predefinito
100
AcDbSpline
210
0.0
220
0.0
230
1.0
 70
    12
 71
     2
 72
     6
 73
     3
 74
     0
 42
0.0000000001
 43
0.0000000001
 40
0.0
 40
0.0
 40
0.0
 40
29.77429384651027
 40
29.77429384651027
 40
29.77429384651027
 10
2273.607265088804
 20
1740.380384887483
 30
0.0
 41
1.0
 10
2273.607265088803
 20
1723.442128916584
 30
0.0
 41
0.8278760628241819
 10
2257.876203858666
 20
1717.162142618083
 30
0.0
 41
1.0
  0
SPLINE
  5
19F
330
1F
100
AcDbEntity
  8
Predefinito
100
AcDbSpline
210
0.0
220
0.0
230
1.0
 70
    12
 71
     2
 72
     6
 73
     3
 74
     0
 42
0.0000000001
 43
0.0000000001
 40
0.0
 40
0.0
 40
0.0
 40
30.10409080661503
 40
30.10409080661503
 40
30.10409080661503
 10
2239.645416168889
 20
1717.041891706975
 30
0.0
 41
1.0
 10
2223.607265088803
 20
1723.200450694602
 30
0.0
 41
0.8241583454641894
 10
2223.607265088804
 20
1740.380384887483
 30
0.0
 41
1.0
  0
SPLINE
  5
1A0
330
1F
100
AcDbEntity
  8
Predefinito
100
AcDbSpline
210
0.0
220
0.0
230
1.0
 70
    24
 71
     2
 72
     6
 73
     3
 74
     0
 42
0.0000000001
 43
0.0000000001
 40
0.0
 40
0.0
 40
0.0
 40
4.0
 40
4.0
 40
4.0
 10
2227.607265088804
 20
1740.380384887483
 30
0.0
 10
2225.607265088804
 20
1740.380384887483
 30
0.0
 10
2223.607265088804
 20
1740.380384887483
 30
0.0
  0
SPLINE
  5
1A1
330
1F
100
AcDbEntity
  8
Predefinito
100
AcDbSpline
210
0.0
220
0.0
230
1.0
 70
    24
 71
     2
 72
     6
 73
     3
 74
     0
 42
0.0000000001
 43
0.0000000001
 40
0.0
 40
0.0
 40
0.0
 40
4.0
 40
4.0
 40
4.0
 10
2231.607265088804
 20
1860.380384887483
 30
0.0
 10
2229.607265088804
 20
1860.380384887483
 30
0.0
 10
2227.607265088804
 20
1860.380384887483
 30
0.0
  0
SPLINE
  5
1A2
330
1F
100
AcDbEntity
  8
Predefinito
100
AcDbSpline
210
0.0
220
0.0
230
1.0
 70
    24
 71
     2
 72
     6
 73
     3
 74
     0
 42
0.0000000001
 43
0.0000000001
 40
0.0
 40
0.0
 40
0.0
 40
4.0
 40
4.0
 40
4.0
 10
2227.607265088804
 20
1740.380384887483
 30
0.0
 10
2229.607265088804
 20
1740.380384887483
 30
0.0
 10
2231.607265088804
 20
1740.380384887483
 30
0.0
  0
SPLINE
  5
1A3
330
1F
100
AcDbEntity
  8
Predefinito
100
AcDbSpline
210
0.0
220
0.0
230
1.0
 70
    24
 71
     2
 72
     6
 73
     3
 74
     0
 42
0.0000000001
 43
0.0000000001
 40
0.0
 40
0.0
 40
0.0
 40
4.0
 40
4.0
 40
4.0
 10
2223.607265088804
 20
1860.380384887483
 30
0.0
 10
2225.607265088804
 20
1860.380384887483
 30
0.0
 10
2227.607265088804
 20
1860.380384887483
 30
0.0
  0
SPLINE
  5
1A4
330
1F
100
AcDbEntity
  8
Predefinito
100
AcDbSpline
210
0.0
220
0.0
230
1.0
 70
    12
 71
     2
 72
     6
 73
     3
 74
     0
 42
0.0000000001
 43
0.0000000001
 40
0.0
 40
0.0
 40
0.0
 40
36.27985897047932
 40
36.27985897047932
 40
36.27985897047932
 10
2251.590190793437
 20
1885.201790049976
 30
0.0
 41
1.0
 10
2273.607265088803
 20
1882.55587631437
 30
0.0
 41
0.7481032776914505
 10
2273.607265088804
 20
1860.380384887483
 30
0.0
 41
1.0
  0
SPLINE
  5
1A5
330
1F
100
AcDbEntity
  8
Predefinito
100
AcDbSpline
210
0.0
220
0.0
230
1.0
 70
    12
 71
     2
 72
     6
 73
     3
 74
     0
 42
0.0000000001
 43
0.0000000001
 40
0.0
 40
0.0
 40
0.0
 40
36.04386179994299
 40
36.04386179994299
 40
36.04386179994299
 10
2223.607265088804
 20
1860.380384887483
 30
0.0
 41
1.0
 10
2223.607265088803
 20
1882.34591347391
 30
0.0
 41
0.7512270039703265
 10
2245.390164514091
 20
1885.172526059479
 30
0.0
 41
1.0
  0
SPLINE
  5
1A6
330
1F
100
AcDbEntity
  8
Predefinito
100
AcDbSpline
210
0.0
220
0.0
230
1.0
 70
    24
 71
     2
 72
     6
 73
     3
 74
     0
 42
0.0000000001
 43
0.0000000001
 40
0.0
 40
0.0
 40
0.0
 40
3.978094758534098
 40
3.978094758534098
 40
3.978094758534098
 10
2269.607265088804
 20
1860.380384887483
 30
0.0
 10
2267.618217709537
 20
1860.380384887484
 30
0.0
 10
2265.62917033027
 20
1860.380384887484
 30
0.0
  0
SPLINE
  5
1A7
330
1F
100
AcDbEntity
  8
Predefinito
100
AcDbSpline
210
0.0
220
0.0
230
1.0
 70
    24
 71
     2
 72
     6
 73
     3
 74
     0
 42
0.0000000001
 43
0.0000000001
 40
0.0
 40
0.0
 40
0.0
 40
4.0
 40
4.0
 40
4.0
 10
2273.607265088804
 20
1860.380384887483
 30
0.0
 10
2271.607265088804
 20
1860.380384887483
 30
0.0
 10
2269.607265088804
 20
1860.380384887483
 30
0.0
  0
SPLINE
  5
1A8
330
1F
100
AcDbEntity
  8
Predefinito
100
AcDbSpline
210
0.0
220
0.0
230
1.0
 70
    24
 71
     2
 72
     6
 73
     3
 74
     0
 42
0.0000000001
 43
0.0000000001
 40
0.0
 40
0.0
 40
0.0
 40
84.5
 40
84.5
 40
84.5
 10
2273.607265088804
 20
1860.380384887483
 30
0.0
 10
2273.607265088804
 20
1818.130384887483
 30
0.0
 10
2273.607265088804
 20
1775.880384887483
 30
0.0
  0
SPLINE
  5
1A9
330
1F
100
AcDbEntity
  8
Predefinito
100
AcDbSpline
210
0.0
220
0.0
230
1.0
 70
    24
 71
     2
 72
     6
 73
     3
 74
     0
 42
0.0000000001
 43
0.0000000001
 40
0.0
 40
0.0
 40
0.0
 40
4.0
 40
4.0
 40
4.0
 10
2269.607265088804
 20
1775.880384887483
 30
0.0
 10
2271.607265088804
 20
1775.880384887483
 30
0.0
 10
2273.607265088804
 20
1775.880384887483
 30
0.0
  0
SPLINE
  5
1AA
330
1F
100
AcDbEntity
  8
Predefinito
100
AcDbSpline
210
0.0
220
0.0
230
1.0
 70
    24
 71
     2
 72
     6
 73
     3
 74
     0
 42
0.0000000001
 43
0.0000000001
 40
0.0
 40
0.0
 40
0.0
 40
136.1112954037176
 40
136.1112954037176
 40
136.1112954037176
 10
2316.655936815953
 20
2072.600236927246
 30
0.0
 10
2248.600289114095
 20
2072.600236927246
 30
0.0
 10
2180.544641412236
 20
2072.600236927246
 30
0.0
  0
SPLINE
  5
1AB
330
1F
100
AcDbEntity
  8
Predefinito
100
AcDbSpline
210
0.0
220
0.0
230
1.0
 70
    12
 71
     2
 72
     8
 73
     5
 74
     0
 42
0.0000000001
 43
0.0000000001
 40
0.0
 40
0.0
 40
0.0
 40
0.2509938844029397
 40
0.2509938844029397
 40
0.5019877688058795
 40
0.5019877688058795
 40
0.5019877688058795
 10
2316.897648207161
 20
2100.297618966597
 30
0.0
 41
1.0
 10
2316.923992006851
 20
2100.431543412205
 30
0.0
 41
0.883445409160634
 10
2316.827900436686
 20
2100.528477219811
 30
0.0
 41
1.0
 10
2316.731808866521
 20
2100.625411027417
 30
0.0
 41
0.883445409160634
 10
2316.597659630242
 20
2100.600236927247
 30
0.0
 41
1.0
  0
SPLINE
  5
1AC
330
1F
100
AcDbEntity
  8
Predefinito
100
AcDbSpline
210
0.0
220
0.0
230
1.0
 70
    24
 71
     2
 72
     6
 73
     3
 74
     0
 42
0.0000000001
 43
0.0000000001
 40
0.0
 40
0.0
 40
0.0
 40
136.5947479327072
 40
136.5947479327072
 40
136.5947479327072
 10
2180.302900274454
 20
2100.297618966597
 30
0.0
 10
2248.600274240807
 20
2100.297618966597
 30
0.0
 10
2316.897648207161
 20
2100.297618966597
 30
0.0
  0
SPLINE
  5
1AD
330
1F
100
AcDbEntity
  8
Predefinito
100
AcDbSpline
210
0.0
220
0.0
230
1.0
 70
    24
 71
     2
 72
     6
 73
     3
 74
     0
 42
0.0000000001
 43
0.0000000001
 40
0.0
 40
0.0
 40
0.0
 40
135.994770725737
 40
135.994770725737
 40
135.994770725737
 10
2316.597659630242
 20
2100.600236927246
 30
0.0
 10
2248.600274267373
 20
2100.600236927246
 30
0.0
 10
2180.602888904505
 20
2100.600236927246
 30
0.0
  0
SPLINE
  5
1AE
330
1F
100
AcDbEntity
  8
Predefinito
100
AcDbSpline
210
0.0
220
0.0
230
1.0
 70
    12
 71
     2
 72
    10
 73
     7
 74
     0
 42
0.0000000001
 43
0.0000000001
 40
0.0
 40
0.0
 40
0.0
 40
0.5603387546168053
 40
0.5603387546168053
 40
2.861761126713517
 40
2.861761126713517
 40
4.494608883523963
 40
4.494608883523963
 40
4.494608883523963
 10
2251.574848856435
 20
1864.105628043781
 30
0.0
 41
1.0
 10
2251.574846642285
 20
1864.385797421098
 30
0.0
 41
0.9999999999119649
 10
2251.574851863355
 20
1864.665966798374
 30
0.0
 41
1.0
 10
2251.57486110854
 20
1865.816677984414
 30
0.0
 41
0.9999999999627135
 10
2251.574850479649
 20
1866.967389170441
 30
0.0
 41
1.0
 10
2251.574846744064
 20
1867.783813048839
 30
0.0
 41
0.999999999996937
 10
2251.574847049859
 20
1868.600236927246
 30
0.0
 41
1.0
  0
SPLINE
  5
1AF
330
1F
100
AcDbEntity
  8
Predefinito
100
AcDbSpline
210
0.0
220
0.0
230
1.0
 70
    28
 71
     2
 72
     6
 73
     3
 74
     0
 42
0.0000000001
 43
0.0000000001
 40
0.0
 40
0.0
 40
0.0
 40
0.2704424263235978
 40
0.2704424263235978
 40
0.2704424263235978
 10
2250.956253953005
 20
1872.600234985352
 30
0.0
 41
1.0
 10
2251.091475166167
 20
1872.600234985352
 30
0.0
 41
1.0
 10
2251.226696379328
 20
1872.600234985352
 30
0.0
 41
1.0
  0
SPLINE
  5
1B0
330
1F
100
AcDbEntity
  8
Predefinito
100
AcDbSpline
210
0.0
220
0.0
230
1.0
 70
    24
 71
     2
 72
     6
 73
     3
 74
     0
 42
0.0000000001
 43
0.0000000001
 40
0.0
 40
0.0
 40
0.0
 40
4.0
 40
4.0
 40
4.0
 10
2251.226696379328
 20
1868.600236927246
 30
0.0
 10
2251.226696379328
 20
1870.600236927246
 30
0.0
 10
2251.226696379328
 20
1872.600236927246
 30
0.0
  0
SPLINE
  5
1B1
330
1F
100
AcDbEntity
  8
Predefinito
100
AcDbSpline
210
0.0
220
0.0
230
1.0
 70
    24
 71
     2
 72
     6
 73
     3
 74
     0
 42
0.0000000001
 43
0.0000000001
 40
0.0
 40
0.0
 40
0.0
 40
0.9617262105930422
 40
0.9617262105930422
 40
0.9617262105930422
 10
2251.226696379328
 20
1872.600236927246
 30
0.0
 10
2251.707559484625
 20
1872.600236927246
 30
0.0
 10
2252.188422589921
 20
1872.600236927246
 30
0.0
  0
SPLINE
  5
1B2
330
1F
100
AcDbEntity
  8
Predefinito
100
AcDbSpline
210
0.0
220
0.0
230
1.0
 70
    24
 71
     2
 72
     6
 73
     3
 74
     0
 42
0.0000000001
 43
0.0000000001
 40
0.0
 40
0.0
 40
0.0
 40
0.2704424263235978
 40
0.2704424263235978
 40
0.2704424263235978
 10
2245.973881848861
 20
1872.600236927246
 30
0.0
 10
2246.109103062023
 20
1872.600236927246
 30
0.0
 10
2246.244324275185
 20
1872.600236927247
 30
0.0
  0
SPLINE
  5
1B3
330
1F
100
AcDbEntity
  8
Predefinito
100
AcDbSpline
210
0.0
220
0.0
230
1.0
 70
    24
 71
     2
 72
     6
 73
     3
 74
     0
 42
0.0000000001
 43
0.0000000001
 40
0.0
 40
0.0
 40
0.0
 40
0.2704424263235978
 40
0.2704424263235978
 40
0.2704424263235978
 10
2251.226696379328
 20
1868.600236927246
 30
0.0
 10
2251.091475166167
 20
1868.600236927246
 30
0.0
 10
2250.956253953005
 20
1868.600236927246
 30
0.0
  0
SPLINE
  5
1B4
330
1F
100
AcDbEntity
  8
Predefinito
100
AcDbSpline
210
0.0
220
0.0
230
1.0
 70
    24
 71
     2
 72
     6
 73
     3
 74
     0
 42
0.0000000001
 43
0.0000000001
 40
0.0
 40
0.0
 40
0.0
 40
0.9617262105930422
 40
0.9617262105930422
 40
0.9617262105930422
 10
2252.188422589921
 20
1868.600236927246
 30
0.0
 10
2251.707559484625
 20
1868.600236927246
 30
0.0
 10
2251.226696379328
 20
1868.600236927246
 30
0.0
  0
SPLINE
  5
1B5
330
1F
100
AcDbEntity
  8
Predefinito
100
AcDbSpline
210
0.0
220
0.0
230
1.0
 70
    24
 71
     2
 72
     6
 73
     3
 74
     0
 42
0.0000000001
 43
0.0000000001
 40
0.0
 40
0.0
 40
0.0
 40
0.2704424263238252
 40
0.2704424263238252
 40
0.2704424263238252
 10
2246.244324275185
 20
1868.600236927246
 30
0.0
 10
2246.109103062023
 20
1868.600236927246
 30
0.0
 10
2245.973881848861
 20
1868.600236927246
 30
0.0
  0
SPLINE
  5
1B6
330
1F
100
AcDbEntity
  8
Predefinito
100
AcDbSpline
210
0.0
220
0.0
230
1.0
 70
    24
 71
     2
 72
     6
 73
     3
 74
     0
 42
0.0000000001
 43
0.0000000001
 40
0.0
 40
0.0
 40
0.0
 40
4.0
 40
4.0
 40
4.0
 10
2245.973881848861
 20
1872.600236927246
 30
0.0
 10
2245.973881848861
 20
1870.600236927246
 30
0.0
 10
2245.973881848861
 20
1868.600236927246
 30
0.0
  0
SPLINE
  5
1B7
330
1F
100
AcDbEntity
  8
Predefinito
100
AcDbSpline
210
0.0
220
0.0
230
1.0
 70
    24
 71
     2
 72
     6
 73
     3
 74
     0
 42
0.0000000001
 43
0.0000000001
 40
0.0
 40
0.0
 40
0.0
 40
0.9617262105930422
 40
0.9617262105930422
 40
0.9617262105930422
 10
2245.012155638268
 20
1872.600236927246
 30
0.0
 10
2245.493018743565
 20
1872.600236927246
 30
0.0
 10
2245.973881848861
 20
1872.600236927246
 30
0.0
  0
SPLINE
  5
1B8
330
1F
100
AcDbEntity
  8
Predefinito
100
AcDbSpline
210
0.0
220
0.0
230
1.0
 70
    24
 71
     2
 72
     6
 73
     3
 74
     0
 42
0.0000000001
 43
0.0000000001
 40
0.0
 40
0.0
 40
0.0
 40
0.911101260431451
 40
0.911101260431451
 40
0.911101260431451
 10
2245.973881848861
 20
1868.600236927246
 30
0.0
 10
2245.518331218645
 20
1868.600236927246
 30
0.0
 10
2245.06278058843
 20
1868.600236927246
 30
0.0
  0
SPLINE
  5
1B9
330
1F
100
AcDbEntity
  8
Predefinito
100
AcDbSpline
210
0.0
220
0.0
230
1.0
 70
    24
 71
     2
 72
     6
 73
     3
 74
     0
 42
0.0000000001
 43
0.0000000001
 40
0.0
 40
0.0
 40
0.0
 40
10.82206632191173
 40
10.82206632191173
 40
10.82206632191173
 10
2252.200289114095
 20
1865.189203766291
 30
0.0
 10
2252.200289114095
 20
1870.600236927246
 30
0.0
 10
2252.200289114095
 20
1876.011270088202
 30
0.0
  0
SPLINE
  5
1BA
330
1F
100
AcDbEntity
  8
Predefinito
100
AcDbSpline
210
0.0
220
0.0
230
1.0
 70
    12
 71
     2
 72
     6
 73
     3
 74
     0
 42
0.0000000001
 43
0.0000000001
 40
0.0
 40
0.0
 40
0.0
 40
0.3392168933601523
 40
0.3392168933601523
 40
0.3392168933601523
 10
2245.000289114095
 20
1876.260314607448
 30
0.0
 41
1.0
 10
2245.000347660199
 20
1876.429982541663
 30
0.0
 41
0.999474076421684
 10
2245.011404255284
 20
1876.599289845208
 30
0.0
 41
1.0
  0
SPLINE
  5
1BB
330
1F
100
AcDbEntity
  8
Predefinito
100
AcDbSpline
210
0.0
220
0.0
230
1.0
 70
    24
 71
     2
 72
     6
 73
     3
 74
     0
 42
0.0000000001
 43
0.0000000001
 40
0.0
 40
0.0
 40
0.0
 40
0.2480540291076068
 40
0.2480540291076068
 40
0.2480540291076068
 10
2245.000289114095
 20
1876.012260578341
 30
0.0
 10
2245.000289114095
 20
1876.136287592894
 30
0.0
 10
2245.000289114095
 20
1876.260314607448
 30
0.0
  0
SPLINE
  5
1BC
330
1F
100
AcDbEntity
  8
Predefinito
100
AcDbSpline
210
0.0
220
0.0
230
1.0
 70
    24
 71
     2
 72
     6
 73
     3
 74
     0
 42
0.0000000001
 43
0.0000000001
 40
0.0
 40
0.0
 40
0.0
 40
0.2480540291076068
 40
0.2480540291076068
 40
0.2480540291076068
 10
2245.000289114095
 20
1864.940159247045
 30
0.0
 10
2245.000289114095
 20
1865.064186261598
 30
0.0
 10
2245.000289114095
 20
1865.188213276152
 30
0.0
  0
SPLINE
  5
1BD
330
1F
100
AcDbEntity
  8
Predefinito
100
AcDbSpline
210
0.0
220
0.0
230
1.0
 70
    12
 71
     2
 72
     6
 73
     3
 74
     0
 42
0.0000000001
 43
0.0000000001
 40
0.0
 40
0.0
 40
0.0
 40
0.3506212006150907
 40
0.3506212006150907
 40
0.3506212006150907
 10
2245.012155638268
 20
1864.589804483599
 30
0.0
 41
1.0
 10
2245.000353621726
 20
1864.764783090469
 30
0.0
 41
0.9994392872521625
 10
2245.000289114095
 20
1864.940159247045
 30
0.0
 41
1.0
  0
SPLINE
  5
1BE
330
1F
100
AcDbEntity
  8
Predefinito
100
AcDbSpline
210
0.0
220
0.0
230
1.0
 70
    24
 71
     2
 72
     6
 73
     3
 74
     0
 42
0.0000000001
 43
0.0000000001
 40
0.0
 40
0.0
 40
0.0
 40
0.2480540291076068
 40
0.2480540291076068
 40
0.2480540291076068
 10
2252.200289114095
 20
1876.260314607448
 30
0.0
 10
2252.200289114095
 20
1876.136287592894
 30
0.0
 10
2252.200289114095
 20
1876.012260578341
 30
0.0
  0
SPLINE
  5
1BF
330
1F
100
AcDbEntity
  8
Predefinito
100
AcDbSpline
210
0.0
220
0.0
230
1.0
 70
    12
 71
     2
 72
     6
 73
     3
 74
     0
 42
0.0000000001
 43
0.0000000001
 40
0.0
 40
0.0
 40
0.0
 40
0.3506212006150907
 40
0.3506212006150907
 40
0.3506212006150907
 10
2252.188422589921
 20
1876.610669370894
 30
0.0
 41
1.0
 10
2252.200224606463
 20
1876.435690764024
 30
0.0
 41
0.9994392872521627
 10
2252.200289114095
 20
1876.260314607448
 30
0.0
 41
1.0
  0
SPLINE
  5
1C0
330
1F
100
AcDbEntity
  8
Predefinito
100
AcDbSpline
210
0.0
220
0.0
230
1.0
 70
    12
 71
     2
 72
     6
 73
     3
 74
     0
 42
0.0000000001
 43
0.0000000001
 40
0.0
 40
0.0
 40
0.0
 40
0.3470113589516299
 40
0.3470113589516299
 40
0.3470113589516299
 10
2252.200289114095
 20
1864.940159247045
 30
0.0
 41
1.0
 10
2252.200226534278
 20
1864.766589973961
 30
0.0
 41
0.9994504119615228
 10
2252.188663027301
 20
1864.593406309081
 30
0.0
 41
1.0
  0
SPLINE
  5
1C1
330
1F
100
AcDbEntity
  8
Predefinito
100
AcDbSpline
210
0.0
220
0.0
230
1.0
 70
    24
 71
     2
 72
     6
 73
     3
 74
     0
 42
0.0000000001
 43
0.0000000001
 40
0.0
 40
0.0
 40
0.0
 40
0.2480540291076068
 40
0.2480540291076068
 40
0.2480540291076068
 10
2252.200289114095
 20
1865.188213276152
 30
0.0
 10
2252.200289114095
 20
1865.064186261598
 30
0.0
 10
2252.200289114095
 20
1864.940159247045
 30
0.0
  0
SPLINE
  5
1C2
330
1F
100
AcDbEntity
  8
Predefinito
100
AcDbSpline
210
0.0
220
0.0
230
1.0
 70
    12
 71
     2
 72
     8
 73
     5
 74
     0
 42
0.0000000001
 43
0.0000000001
 40
0.0
 40
0.0
 40
0.0
 40
6.394828723899496
 40
6.394828723899496
 40
12.78965744779893
 40
12.78965744779893
 40
12.78965744779893
 10
2252.200289114095
 20
1876.012260578341
 30
0.0
 41
1.0
 10
2255.100289114095
 20
1874.083222445278
 30
0.0
 41
0.8814324006542424
 10
2255.100289114095
 20
1870.600236927246
 30
0.0
 41
1.0
 10
2255.100289114095
 20
1867.117251409216
 30
0.0
 41
0.8814324006542493
 10
2252.200289114095
 20
1865.188213276152
 30
0.0
 41
1.0
  0
SPLINE
  5
1C3
330
1F
100
AcDbEntity
  8
Predefinito
100
AcDbSpline
210
0.0
220
0.0
230
1.0
 70
    12
 71
     2
 72
     6
 73
     3
 74
     0
 42
0.0000000001
 43
0.0000000001
 40
0.0
 40
0.0
 40
0.0
 40
0.4412788732374025
 40
0.4412788732374025
 40
0.4412788732374025
 10
2245.000289114095
 20
1876.603569335168
 30
0.0
 41
1.0
 10
2245.186987335171
 20
1876.721554024273
 30
0.0
 41
0.9985414692314434
 10
2245.385318566067
 20
1876.818720558981
 30
0.0
 41
1.0
  0
SPLINE
  5
1C4
330
1F
100
AcDbEntity
  8
Predefinito
100
AcDbSpline
210
0.0
220
0.0
230
1.0
 70
    12
 71
     2
 72
     8
 73
     5
 74
     0
 42
0.0000000001
 43
0.0000000001
 40
0.0
 40
0.0
 40
0.0
 40
7.214352295418451
 40
7.214352295418451
 40
14.42865294926334
 40
14.42865294926334
 40
14.42865294926334
 10
2245.000289114095
 20
1864.596904519325
 30
0.0
 41
1.0
 10
2241.600289114095
 20
1866.635772129563
 30
0.0
 41
0.8701395618766273
 10
2241.600289114095
 20
1870.600236927246
 30
0.0
 41
1.0
 10
2241.600289114095
 20
1874.564667622076
 30
0.0
 41
0.8701413796739499
 10
2245.000244825403
 20
1876.603542776481
 30
0.0
 41
1.0
  0
SPLINE
  5
1C5
330
1F
100
AcDbEntity
  8
Predefinito
100
AcDbSpline
210
0.0
220
0.0
230
1.0
 70
    12
 71
     2
 72
     6
 73
     3
 74
     0
 42
0.0000000001
 43
0.0000000001
 40
0.0
 40
0.0
 40
0.0
 40
0.4075217350050162
 40
0.4075217350050162
 40
0.4075217350050162
 10
2245.385211039962
 20
1864.381804307999
 30
0.0
 41
1.0
 10
2245.202847499298
 20
1864.472957196465
 30
0.0
 41
0.9991551806942014
 10
2245.028585760863
 20
1864.578778539099
 30
0.0
 41
1.0
  0
SPLINE
  5
1C6
330
1F
100
AcDbEntity
  8
Predefinito
100
AcDbSpline
210
0.0
220
0.0
230
1.0
 70
    12
 71
     2
 72
     6
 73
     3
 74
     0
 42
0.0000000001
 43
0.0000000001
 40
0.0
 40
0.0
 40
0.0
 40
0.695593049407429
 40
0.695593049407429
 40
0.695593049407429
 10
2252.18887289179
 20
1864.589444943755
 30
0.0
 41
1.0
 10
2251.89145488334
 20
1864.408380639198
 30
0.0
 41
0.9982719585549464
 10
2251.574847889789
 20
1864.263460779382
 30
0.0
 41
1.0
  0
SPLINE
  5
1C7
330
1F
100
AcDbEntity
  8
Predefinito
100
AcDbSpline
210
0.0
220
0.0
230
1.0
 70
    12
 71
     2
 72
     8
 73
     5
 74
     0
 42
0.0000000001
 43
0.0000000001
 40
0.0
 40
0.0
 40
0.0
 40
7.221266501183758
 40
7.221266501183758
 40
14.44248904668347
 40
14.44248904668347
 40
14.44248904668347
 10
2252.200289114095
 20
1876.603569335168
 30
0.0
 41
1.0
 10
2255.604206085062
 20
1874.56235284692
 30
0.0
 41
0.8698960730688151
 10
2255.600285699364
 20
1870.593322722606
 30
0.0
 41
1.0
 10
2255.596365342352
 20
1866.624321641816
 30
0.0
 41
0.8698976216704983
 10
2252.18846033166
 20
1864.589827014983
 30
0.0
 41
1.0
  0
SPLINE
  5
1C8
330
1F
100
AcDbEntity
  8
Predefinito
100
AcDbSpline
210
0.0
220
0.0
230
1.0
 70
    12
 71
     2
 72
     6
 73
     3
 74
     0
 42
0.0000000001
 43
0.0000000001
 40
0.0
 40
0.0
 40
0.0
 40
0.6640176374716917
 40
0.6640176374716917
 40
0.6640176374716917
 10
2251.585336773775
 20
1876.932052030422
 30
0.0
 41
1.0
 10
2251.886916192584
 20
1876.792455703772
 30
0.0
 41
0.9985912751526772
 10
2252.172004078403
 20
1876.621686334086
 30
0.0
 41
1.0
  0
SPLINE
  5
1C9
330
1F
100
AcDbEntity
  8
Predefinito
100
AcDbSpline
210
0.0
220
0.0
230
1.0
 70
    12
 71
     2
 72
     8
 73
     5
 74
     0
 42
0.0000000001
 43
0.0000000001
 40
0.0
 40
0.0
 40
0.0
 40
6.394828723899318
 40
6.394828723899318
 40
12.78965744779863
 40
12.78965744779863
 40
12.78965744779863
 10
2245.000289114095
 20
1865.188213276152
 30
0.0
 41
1.0
 10
2242.100289114095
 20
1867.117251409216
 30
0.0
 41
0.8814324006542736
 10
2242.100289114094
 20
1870.600236927246
 30
0.0
 41
1.0
 10
2242.100289114095
 20
1874.083222445277
 30
0.0
 41
0.8814324006542457
 10
2245.000289114095
 20
1876.012260578341
 30
0.0
 41
1.0
  0
SPLINE
  5
1CA
330
1F
100
AcDbEntity
  8
Predefinito
100
AcDbSpline
210
0.0
220
0.0
230
1.0
 70
    24
 71
     2
 72
     6
 73
     3
 74
     0
 42
0.0000000001
 43
0.0000000001
 40
0.0
 40
0.0
 40
0.0
 40
10.82206632191173
 40
10.82206632191173
 40
10.82206632191173
 10
2245.000289114095
 20
1876.011270088202
 30
0.0
 10
2245.000289114095
 20
1870.600236927246
 30
0.0
 10
2245.000289114095
 20
1865.189203766291
 30
0.0
  0
SPLINE
  5
1CB
330
1F
100
AcDbEntity
  8
Predefinito
100
AcDbSpline
210
0.0
220
0.0
230
1.0
 70
    12
 71
     2
 72
    12
 73
     9
 74
     0
 42
0.0000000001
 43
0.0000000001
 40
0.0
 40
0.0
 40
0.0
 40
127.8394079302945
 40
127.8394079302945
 40
255.6788158605889
 40
255.6788158605889
 40
383.5182237908834
 40
383.5182237908834
 40
511.3576317211779
 40
511.3576317211779
 40
511.3576317211779
 10
2241.600314754389
 20
696.5202384872023
 30
0.0
 41
1.0
 10
2169.506987605529
 20
701.1173574642539
 30
0.0
 41
0.8358656024633383
 10
2145.079876504191
 20
769.1018966296019
 30
0.0
 41
1.0
 10
2120.652765402854
 20
837.0864357949499
 30
0.0
 41
0.8358656024633383
 10
2173.334228354917
 20
886.5156253848285
 30
0.0
 41
1.0
 10
2226.015691306981
 20
935.9448149747071
 30
0.0
 41
0.8358656024633383
 10
2292.307982464672
 20
907.2409222884224
 30
0.0
 41
1.0
 10
2358.600273622363
 20
878.537029602138
 30
0.0
 41
0.8358656024633383
 10
2358.600314754388
 20
806.2972806942123
 30
0.0
 41
1.0
  0
SPLINE
  5
1CC
330
1F
100
AcDbEntity
  8
Predefinito
100
AcDbSpline
210
0.0
220
0.0
230
1.0
 70
    12
 71
     2
 72
     6
 73
     3
 74
     0
 42
0.0000000001
 43
0.0000000001
 40
0.0
 40
0.0
 40
0.0
 40
165.7828240800106
 40
165.7828240800106
 40
165.7828240800106
 10
2358.600314754389
 20
806.2972806942123
 30
0.0
 41
1.0
 10
2358.600200315818
 20
703.0881978685214
 30
0.0
 41
0.7292594586110569
 10
2255.600314754389
 20
696.520218569991
 30
0.0
 41
1.0
  0
SPLINE
  5
1CD
330
1F
100
AcDbEntity
  8
Predefinito
100
AcDbSpline
210
0.0
220
0.0
230
1.0
 70
    24
 71
     2
 72
     6
 73
     3
 74
     0
 42
0.0000000001
 43
0.0000000001
 40
0.0
 40
0.0
 40
0.0
 40
41.99999988804348
 40
41.99999988804348
 40
41.99999988804348
 10
2269.607290687968
 20
801.3972806942124
 30
0.0
 10
2248.607290743946
 20
801.3972806942124
 30
0.0
 10
2227.607290799924
 20
801.3972806942124
 30
0.0
  0
SPLINE
  5
1CE
330
1F
100
AcDbEntity
  8
Predefinito
100
AcDbSpline
210
0.0
220
0.0
230
1.0
 70
    24
 71
     2
 72
     6
 73
     3
 74
     0
 42
0.0000000001
 43
0.0000000001
 40
0.0
 40
0.0
 40
0.0
 40
41.99985947263986
 40
41.99985947263986
 40
41.99985947263986
 10
2227.607290731817
 20
809.3972806942124
 30
0.0
 10
2248.607220468136
 20
809.3972806942124
 30
0.0
 10
2269.607150204456
 20
809.3972806942124
 30
0.0
  0
SPLINE
  5
1CF
330
1F
100
AcDbEntity
  8
Predefinito
100
AcDbSpline
210
0.0
220
0.0
230
1.0
 70
    15
 71
     2
 72
    12
 73
     9
 74
     0
 42
0.0000000001
 43
0.0000000001
 40
0.0
 40
0.0
 40
0.0
 40
107.2810746385808
 40
107.2810746385808
 40
214.5621492771617
 40
214.5621492771617
 40
321.8432239157426
 40
321.8432239157426
 40
429.1242985543234
 40
429.1242985543234
 40
429.1242985543234
 10
2316.897673848014
 20
68.2972806942123
 30
0.0
 41
1.0
 10
2316.897701081417
 20
0.0000273784549105
 30
0.0
 41
0.7071067811865476
 10
2248.60044776566
 20
0.0000001450523825
 30
0.0
 41
1.0
 10
2180.303194449903
 20
-0.0000270883501305
 30
0.0
 41
0.7071067811865476
 10
2180.3031672165
 20
68.29722622740728
 30
0.0
 41
1.0
 10
2180.303139983097
 20
136.5944795431647
 30
0.0
 41
0.7071067811865476
 10
2248.600393298854
 20
136.5945067765672
 30
0.0
 41
1.0
 10
2316.897646614612
 20
136.5945340099697
 30
0.0
 41
0.7071067811865476
 10
2316.897673848014
 20
68.2972806942123
 30
0.0
 41
1.0
  0
SPLINE
  5
1D0
330
1F
100
AcDbEntity
  8
Predefinito
100
AcDbSpline
210
0.0
220
0.0
230
1.0
 70
    24
 71
     2
 72
     6
 73
     3
 74
     0
 42
0.0000000001
 43
0.0000000001
 40
0.0
 40
0.0
 40
0.0
 40
439.9653973334285
 40
439.9653973334285
 40
439.9653973334285
 10
2241.60031475439
 20
136.2318833607839
 30
0.0
 10
2241.60031475439
 20
356.2145820274982
 30
0.0
 10
2241.60031475439
 20
576.1972806942124
 30
0.0
  0
SPLINE
  5
1D1
330
1F
100
AcDbEntity
  8
Predefinito
100
AcDbSpline
210
0.0
220
0.0
230
1.0
 70
    24
 71
     2
 72
     6
 73
     3
 74
     0
 42
0.0000000001
 43
0.0000000001
 40
0.0
 40
0.0
 40
0.0
 40
439.9639799751356
 40
439.9639799751356
 40
439.9639799751356
 10
2255.60031475439
 20
576.1972806942124
 30
0.0
 10
2255.60031475439
 20
356.2152907066446
 30
0.0
 10
2255.60031475439
 20
136.2333007190768
 30
0.0
  0
SPLINE
  5
1D2
330
1F
100
AcDbEntity
  8
Predefinito
100
AcDbSpline
210
0.0
220
0.0
230
1.0
 70
    24
 71
     2
 72
     6
 73
     3
 74
     0
 42
0.0000000001
 43
0.0000000001
 40
0.0
 40
0.0
 40
0.0
 40
0.262820531622066
 40
0.262820531622066
 40
0.262820531622066
 10
2241.614472574244
 20
901.2114385140675
 30
0.0
 10
2241.707393664317
 20
901.30435960414
 30
0.0
 10
2241.80031475439
 20
901.3972806942124
 30
0.0
  0
SPLINE
  5
1D3
330
1F
100
AcDbEntity
  8
Predefinito
100
AcDbSpline
210
0.0
220
0.0
230
1.0
 70
    24
 71
     2
 72
     6
 73
     3
 74
     0
 42
0.0000000001
 43
0.0000000001
 40
0.0
 40
0.0
 40
0.0
 40
0.262820531622066
 40
0.262820531622066
 40
0.262820531622066
 10
2255.400314754389
 20
901.3972806942124
 30
0.0
 10
2255.493235844462
 20
901.30435960414
 30
0.0
 10
2255.586156934534
 20
901.2114385140675
 30
0.0
  0
SPLINE
  5
1D4
330
1F
100
AcDbEntity
  8
Predefinito
100
AcDbSpline
210
0.0
220
0.0
230
1.0
 70
    24
 71
     2
 72
     6
 73
     3
 74
     0
 42
0.0000000001
 43
0.0000000001
 40
0.0
 40
0.0
 40
0.0
 40
2.800000000000068
 40
2.800000000000068
 40
2.800000000000068
 10
2255.60031475439
 20
904.3972806942124
 30
0.0
 10
2255.60031475439
 20
902.9972806942123
 30
0.0
 10
2255.60031475439
 20
901.5972806942124
 30
0.0
  0
SPLINE
  5
1D5
330
1F
100
AcDbEntity
  8
Predefinito
100
AcDbSpline
210
0.0
220
0.0
230
1.0
 70
    24
 71
     2
 72
     6
 73
     3
 74
     0
 42
0.0000000001
 43
0.0000000001
 40
0.0
 40
0.0
 40
0.0
 40
2.800000000000068
 40
2.800000000000068
 40
2.800000000000068
 10
2241.60031475439
 20
901.5972806942124
 30
0.0
 10
2241.60031475439
 20
902.9972806942123
 30
0.0
 10
2241.60031475439
 20
904.3972806942124
 30
0.0
  0
SPLINE
  5
1D6
330
1F
100
AcDbEntity
  8
Predefinito
100
AcDbSpline
210
0.0
220
0.0
230
1.0
 70
    24
 71
     2
 72
     6
 73
     3
 74
     0
 42
0.0000000001
 43
0.0000000001
 40
0.0
 40
0.0
 40
0.0
 40
0.6870846003340106
 40
0.6870846003340106
 40
0.6870846003340106
 10
2241.614472574244
 20
904.4114385140674
 30
0.0
 10
2241.857393664317
 20
904.6543596041399
 30
0.0
 10
2242.10031475439
 20
904.8972806942124
 30
0.0
  0
SPLINE
  5
1D7
330
1F
100
AcDbEntity
  8
Predefinito
100
AcDbSpline
210
0.0
220
0.0
230
1.0
 70
    24
 71
     2
 72
     6
 73
     3
 74
     0
 42
0.0000000001
 43
0.0000000001
 40
0.0
 40
0.0
 40
0.0
 40
0.6870846003340106
 40
0.6870846003340106
 40
0.6870846003340106
 10
2255.10031475439
 20
904.8972806942124
 30
0.0
 10
2255.343235844462
 20
904.6543596041399
 30
0.0
 10
2255.586156934534
 20
904.4114385140674
 30
0.0
  0
SPLINE
  5
1D8
330
1F
100
AcDbEntity
  8
Predefinito
100
AcDbSpline
210
0.0
220
0.0
230
1.0
 70
    24
 71
     2
 72
     6
 73
     3
 74
     0
 42
0.0000000001
 43
0.0000000001
 40
0.0
 40
0.0
 40
0.0
 40
0.2628205316221464
 40
0.2628205316221464
 40
0.2628205316221464
 10
2241.80031475439
 20
901.3972806942124
 30
0.0
 10
2241.707393664317
 20
901.490201784285
 30
0.0
 10
2241.614472574244
 20
901.5831228743575
 30
0.0
  0
SPLINE
  5
1D9
330
1F
100
AcDbEntity
  8
Predefinito
100
AcDbSpline
210
0.0
220
0.0
230
1.0
 70
    24
 71
     2
 72
     6
 73
     3
 74
     0
 42
0.0000000001
 43
0.0000000001
 40
0.0
 40
0.0
 40
0.0
 40
0.2628205316221464
 40
0.2628205316221464
 40
0.2628205316221464
 10
2255.586156934534
 20
901.5831228743575
 30
0.0
 10
2255.493235844462
 20
901.490201784285
 30
0.0
 10
2255.400314754389
 20
901.3972806942124
 30
0.0
  0
SPLINE
  5
1DA
330
1F
100
AcDbEntity
  8
Predefinito
100
AcDbSpline
210
0.0
220
0.0
230
1.0
 70
    24
 71
     2
 72
     6
 73
     3
 74
     0
 42
0.0000000001
 43
0.0000000001
 40
0.0
 40
0.0
 40
0.0
 40
225.1999999999997
 40
225.1999999999997
 40
225.1999999999997
 10
2255.60031475439
 20
801.3972806942121
 30
0.0
 10
2255.60031475439
 20
688.7972806942123
 30
0.0
 10
2255.60031475439
 20
576.1972806942124
 30
0.0
  0
SPLINE
  5
1DB
330
1F
100
AcDbEntity
  8
Predefinito
100
AcDbSpline
210
0.0
220
0.0
230
1.0
 70
    24
 71
     2
 72
     6
 73
     3
 74
     0
 42
0.0000000001
 43
0.0000000001
 40
0.0
 40
0.0
 40
0.0
 40
75.57701665379273
 40
75.57701665379273
 40
75.57701665379273
 10
2255.60031475439
 20
884.974297348005
 30
0.0
 10
2255.60031475439
 20
847.1857890211087
 30
0.0
 10
2255.60031475439
 20
809.3972806942123
 30
0.0
  0
SPLINE
  5
1DC
330
1F
100
AcDbEntity
  8
Predefinito
100
AcDbSpline
210
0.0
220
0.0
230
1.0
 70
    24
 71
     2
 72
     6
 73
     3
 74
     0
 42
0.0000000001
 43
0.0000000001
 40
0.0
 40
0.0
 40
0.0
 40
8.477016653792703
 40
8.477016653792703
 40
8.477016653792703
 10
2255.60031475439
 20
901.1972806942124
 30
0.0
 10
2255.60031475439
 20
896.958772367316
 30
0.0
 10
2255.60031475439
 20
892.7202640404197
 30
0.0
  0
SPLINE
  5
1DD
330
1F
100
AcDbEntity
  8
Predefinito
100
AcDbSpline
210
0.0
220
0.0
230
1.0
 70
    24
 71
     2
 72
     6
 73
     3
 74
     0
 42
0.0000000001
 43
0.0000000001
 40
0.0
 40
0.0
 40
0.0
 40
8.477016653792361
 40
8.477016653792361
 40
8.477016653792361
 10
2241.60031475439
 20
892.72026404042
 30
0.0
 10
2241.60031475439
 20
896.9587723673162
 30
0.0
 10
2241.60031475439
 20
901.1972806942124
 30
0.0
  0
SPLINE
  5
1DE
330
1F
100
AcDbEntity
  8
Predefinito
100
AcDbSpline
210
0.0
220
0.0
230
1.0
 70
    24
 71
     2
 72
     6
 73
     3
 74
     0
 42
0.0000000001
 43
0.0000000001
 40
0.0
 40
0.0
 40
0.0
 40
75.57701665379295
 40
75.57701665379295
 40
75.57701665379295
 10
2241.60031475439
 20
809.3972806942121
 30
0.0
 10
2241.60031475439
 20
847.1857890211086
 30
0.0
 10
2241.60031475439
 20
884.974297348005
 30
0.0
  0
SPLINE
  5
1DF
330
1F
100
AcDbEntity
  8
Predefinito
100
AcDbSpline
210
0.0
220
0.0
230
1.0
 70
    24
 71
     2
 72
     6
 73
     3
 74
     0
 42
0.0000000001
 43
0.0000000001
 40
0.0
 40
0.0
 40
0.0
 40
225.2
 40
225.2
 40
225.2
 10
2241.60031475439
 20
576.1972806942124
 30
0.0
 10
2241.60031475439
 20
688.7972806942124
 30
0.0
 10
2241.60031475439
 20
801.3972806942124
 30
0.0
  0
SPLINE
  5
1E0
330
1F
100
AcDbEntity
  8
Predefinito
100
AcDbSpline
210
0.0
220
0.0
230
1.0
 70
    12
 71
     2
 72
     6
 73
     3
 74
     0
 42
0.0000000001
 43
0.0000000001
 40
0.0
 40
0.0
 40
0.0
 40
96.65936702761188
 40
96.65936702761188
 40
96.65936702761188
 10
2241.600314754387
 20
740.6695426560933
 30
0.0
 41
1.0
 10
2182.600314754388
 20
746.9626134268736
 30
0.0
 41
0.7436600722307983
 10
2182.600314754389
 20
806.2972806942123
 30
0.0
 41
1.0
  0
SPLINE
  5
1E1
330
1F
100
AcDbEntity
  8
Predefinito
100
AcDbSpline
210
0.0
220
0.0
230
1.0
 70
    12
 71
     2
 72
     6
 73
     3
 74
     0
 42
0.0000000001
 43
0.0000000001
 40
0.0
 40
0.0
 40
0.0
 40
96.65936702761071
 40
96.65936702761071
 40
96.65936702761071
 10
2314.600314754389
 20
806.2972806942123
 30
0.0
 41
1.0
 10
2314.600314754389
 20
746.9626134268747
 30
0.0
 41
0.7436600722308085
 10
2255.600314754392
 20
740.6695426560934
 30
0.0
 41
1.0
  0
SPLINE
  5
1E2
330
1F
100
AcDbEntity
  8
Predefinito
100
AcDbSpline
210
0.0
220
0.0
230
1.0
 70
    12
 71
     2
 72
     6
 73
     3
 74
     0
 42
0.0000000001
 43
0.0000000001
 40
0.0
 40
0.0
 40
0.0
 40
96.65936702761105
 40
96.65936702761105
 40
96.65936702761105
 10
2255.600314754392
 20
871.9250187323313
 30
0.0
 41
1.0
 10
2314.600314754389
 20
865.6319479615503
 30
0.0
 41
0.7436600722308051
 10
2314.600314754389
 20
806.2972806942123
 30
0.0
 41
1.0
  0
SPLINE
  5
1E3
330
1F
100
AcDbEntity
  8
Predefinito
100
AcDbSpline
210
0.0
220
0.0
230
1.0
 70
    12
 71
     2
 72
     6
 73
     3
 74
     0
 42
0.0000000001
 43
0.0000000001
 40
0.0
 40
0.0
 40
0.0
 40
96.65936702761216
 40
96.65936702761216
 40
96.65936702761216
 10
2182.600314754389
 20
806.2972806942123
 30
0.0
 41
1.0
 10
2182.600314754388
 20
865.6319479615514
 30
0.0
 41
0.7436600722307978
 10
2241.600314754387
 20
871.9250187323316
 30
0.0
 41
1.0
  0
SPLINE
  5
1E4
330
1F
100
AcDbEntity
  8
Predefinito
100
AcDbSpline
210
0.0
220
0.0
230
1.0
 70
    12
 71
     2
 72
     6
 73
     3
 74
     0
 42
0.0000000001
 43
0.0000000001
 40
0.0
 40
0.0
 40
0.0
 40
94.33378996417693
 40
94.33378996417693
 40
94.33378996417693
 10
2255.600314754392
 20
742.2633167011373
 30
0.0
 41
1.0
 10
2313.190316881779
 20
748.3835861773248
 30
0.0
 41
0.7435314510899316
 10
2313.190316881779
 20
806.2978853053775
 30
0.0
 41
1.0
  0
SPLINE
  5
1E5
330
1F
100
AcDbEntity
  8
Predefinito
100
AcDbSpline
210
0.0
220
0.0
230
1.0
 70
    12
 71
     2
 72
    10
 73
     7
 74
     0
 42
0.0000000001
 43
0.0000000001
 40
0.0
 40
0.0
 40
0.0
 40
43.3659365963325
 40
43.3659365963325
 40
119.2296922657113
 40
119.2296922657113
 40
187.8835474185025
 40
187.8835474185025
 40
187.8835474185025
 10
2241.60031475439
 20
870.2898401101131
 30
0.0
 41
1.0
 10
2219.20007319458
 20
867.7713001505613
 30
0.0
 41
0.9438442948470609
 10
2203.260909705461
 20
851.8321366614426
 30
0.0
 41
1.0
 10
2172.835895655691
 20
821.407122611672
 30
0.0
 41
0.8314696123025436
 10
2189.30179460632
 20
781.6549260483982
 30
0.0
 41
1.0
 10
2203.842230673215
 20
746.5512080928793
 30
0.0
 41
0.8612525832715195
 10
2241.600314754389
 20
742.3059305006418
 30
0.0
 41
1.0
  0
SPLINE
  5
1E6
330
1F
100
AcDbEntity
  8
Predefinito
100
AcDbSpline
210
0.0
220
0.0
230
1.0
 70
    12
 71
     2
 72
     8
 73
     5
 74
     0
 42
0.0000000001
 43
0.0000000001
 40
0.0
 40
0.0
 40
0.0
 40
75.86375566937832
 40
75.86375566937832
 40
94.40933473165505
 40
94.40933473165505
 40
94.40933473165505
 10
2313.190316881779
 20
806.2978853053775
 30
0.0
 41
1.0
 10
2313.190316881778
 20
849.3253528099546
 30
0.0
 41
0.831469612302553
 10
2273.438120318506
 20
865.791251760584
 30
0.0
 41
1.0
 10
2264.811471327604
 20
869.3645267704475
 30
0.0
 41
0.98965015513372
 10
2255.525188341894
 20
870.3403932662635
 30
0.0
 41
1.0
  0
SPLINE
  5
1E7
330
1F
100
AcDbEntity
  8
Predefinito
100
AcDbSpline
210
0.0
220
0.0
230
1.0
 70
    12
 71
     2
 72
     6
 73
     3
 74
     0
 42
0.0000000001
 43
0.0000000001
 40
0.0
 40
0.0
 40
0.0
 40
5.483555768302466
 40
5.483555768302466
 40
5.483555768302466
 10
2255.600314754009
 20
813.9425853006435
 30
0.0
 41
1.0
 10
2257.698669286191
 20
812.0746735314871
 30
0.0
 41
0.9643322840647345
 10
2258.549406445952
 20
809.3972806942128
 30
0.0
 41
1.0
  0
SPLINE
  5
1E8
330
1F
100
AcDbEntity
  8
Predefinito
100
AcDbSpline
210
0.0
220
0.0
230
1.0
 70
    12
 71
     2
 72
     6
 73
     3
 74
     0
 42
0.0000000001
 43
0.0000000001
 40
0.0
 40
0.0
 40
0.0
 40
3.522078785684713
 40
3.522078785684713
 40
3.522078785684713
 10
2257.78046179333
 20
801.3972806942128
 30
0.0
 41
1.0
 10
2256.928825346939
 20
799.8357979401139
 30
0.0
 41
0.9852335556843601
 10
2255.600314754008
 20
798.6531853101114
 30
0.0
 41
1.0
  0
SPLINE
  5
1E9
330
1F
100
AcDbEntity
  8
Predefinito
100
AcDbSpline
210
0.0
220
0.0
230
1.0
 70
    12
 71
     2
 72
     6
 73
     3
 74
     0
 42
0.0000000001
 43
0.0000000001
 40
0.0
 40
0.0
 40
0.0
 40
2.987694818941829
 40
2.987694818941829
 40
2.987694818941829
 10
2239.809860329723
 20
801.3972806942135
 30
0.0
 41
1.0
 10
2240.530262630391
 20
800.0764168757701
 30
0.0
 41
0.9893671211642626
 10
2241.60031475786
 20
799.0187547623431
 30
0.0
 41
1.0
  0
SPLINE
  5
1EA
330
1F
100
AcDbEntity
  8
Predefinito
100
AcDbSpline
210
0.0
220
0.0
230
1.0
 70
    12
 71
     2
 72
     6
 73
     3
 74
     0
 42
0.0000000001
 43
0.0000000001
 40
0.0
 40
0.0
 40
0.0
 40
4.949171801559492
 40
4.949171801559492
 40
4.949171801559492
 10
2241.60031475786
 20
813.577015848412
 30
0.0
 41
1.0
 10
2239.805242881288
 20
811.8027289085625
 30
0.0
 41
0.9709130694090027
 10
2239.040915677101
 20
809.3972806942124
 30
0.0
 41
1.0
  0
SPLINE
  5
1EB
330
1F
100
AcDbEntity
  8
Predefinito
100
AcDbSpline
210
0.0
220
0.0
230
1.0
 70
    12
 71
     2
 72
     6
 73
     3
 74
     0
 42
0.0000000001
 43
0.0000000001
 40
0.0
 40
0.0
 40
0.0
 40
3.011535784323516
 40
3.011535784323516
 40
3.011535784323516
 10
2257.454639939902
 20
801.3972806942121
 30
0.0
 41
1.0
 10
2256.707300633384
 20
800.076715283767
 30
0.0
 41
0.9885709296763131
 10
2255.600314753632
 20
799.0389333681603
 30
0.0
 41
1.0
  0
SPLINE
  5
1EC
330
1F
100
AcDbEntity
  8
Predefinito
100
AcDbSpline
210
0.0
220
0.0
230
1.0
 70
    12
 71
     2
 72
     6
 73
     3
 74
     0
 42
0.0000000001
 43
0.0000000001
 40
0.0
 40
0.0
 40
0.0
 40
4.983809277390073
 40
4.983809277390073
 40
4.983809277390073
 10
2255.600314753632
 20
813.5568372425946
 30
0.0
 41
1.0
 10
2257.457252757722
 20
811.8159869623003
 30
0.0
 41
0.9688028066729056
 10
2258.250119983883
 20
809.3972806942473
 30
0.0
 41
1.0
  0
SPLINE
  5
1ED
330
1F
100
AcDbEntity
  8
Predefinito
100
AcDbSpline
210
0.0
220
0.0
230
1.0
 70
    12
 71
     2
 72
     6
 73
     3
 74
     0
 42
0.0000000001
 43
0.0000000001
 40
0.0
 40
0.0
 40
0.0
 40
4.435196045472475
 40
4.435196045472475
 40
4.435196045472475
 10
2239.340202139158
 20
809.3972806942123
 30
0.0
 41
1.0
 10
2240.042646843732
 20
811.5401456706869
 30
0.0
 41
0.9752661895945022
 10
2241.60031475694
 20
813.1707803761155
 30
0.0
 41
1.0
  0
SPLINE
  5
1EE
330
1F
100
AcDbEntity
  8
Predefinito
100
AcDbSpline
210
0.0
220
0.0
230
1.0
 70
    12
 71
     2
 72
     6
 73
     3
 74
     0
 42
0.0000000001
 43
0.0000000001
 40
0.0
 40
0.0
 40
0.0
 40
2.462922552370504
 40
2.462922552370504
 40
2.462922552370504
 10
2241.60031475694
 20
799.4249902346392
 30
0.0
 41
1.0
 10
2240.745321231751
 20
800.320034745262
 30
0.0
 41
0.9923508897022965
 10
2240.13568218315
 20
801.3972806942132
 30
0.0
 41
1.0
  0
SPLINE
  5
1EF
330
1F
100
AcDbEntity
  8
Predefinito
100
AcDbSpline
210
0.0
220
0.0
230
1.0
 70
    12
 71
     2
 72
     6
 73
     3
 74
     0
 42
0.0000000001
 43
0.0000000001
 40
0.0
 40
0.0
 40
0.0
 40
3.508088226625926
 40
3.508088226625926
 40
3.508088226625926
 10
2239.867885540761
 20
809.3972806942127
 30
0.0
 41
1.0
 10
2240.449873022835
 20
811.0735955718927
 30
0.0
 41
0.9828232820624536
 10
2241.600314758358
 20
812.4246043844428
 30
0.0
 41
1.0
  0
SPLINE
  5
1F0
330
1F
100
AcDbEntity
  8
Predefinito
100
AcDbSpline
210
0.0
220
0.0
230
1.0
 70
    12
 71
     2
 72
     6
 73
     3
 74
     0
 42
0.0000000001
 43
0.0000000001
 40
0.0
 40
0.0
 40
0.0
 40
1.513859245605438
 40
1.513859245605438
 40
1.513859245605438
 10
2241.600314758358
 20
800.1711662263122
 30
0.0
 41
1.0
 10
2241.108522340547
 20
800.7486973344896
 30
0.0
 41
0.9967938400486756
 10
2240.715150266629
 20
801.3972806942764
 30
0.0
 41
1.0
  0
SPLINE
  5
1F1
330
1F
100
AcDbEntity
  8
Predefinito
100
AcDbSpline
210
0.0
220
0.0
230
1.0
 70
    12
 71
     2
 72
     6
 73
     3
 74
     0
 42
0.0000000001
 43
0.0000000001
 40
0.0
 40
0.0
 40
0.0
 40
2.094363807944076
 40
2.094363807944076
 40
2.094363807944076
 10
2256.875171856495
 20
801.3972806943947
 30
0.0
 41
1.0
 10
2256.329887881084
 20
800.4982282799684
 30
0.0
 41
0.9938665307915625
 10
2255.600314750379
 20
799.7410275769303
 30
0.0
 41
1.0
  0
SPLINE
  5
1F2
330
1F
100
AcDbEntity
  8
Predefinito
100
AcDbSpline
210
0.0
220
0.0
230
1.0
 70
    12
 71
     2
 72
     6
 73
     3
 74
     0
 42
0.0000000001
 43
0.0000000001
 40
0.0
 40
0.0
 40
0.0
 40
4.088592788826134
 40
4.088592788826134
 40
4.088592788826134
 10
2255.600314750379
 20
812.8547430338245
 30
0.0
 41
1.0
 10
2257.041293022726
 20
811.3591976046363
 30
0.0
 41
0.9766922802262226
 10
2257.722436582292
 20
809.3972806942129
 30
0.0
 41
1.0
  0
SPLINE
  5
1F3
330
1F
100
AcDbEntity
  8
Predefinito
100
AcDbSpline
210
0.0
220
0.0
230
1.0
 70
    12
 71
     2
 72
     6
 73
     3
 74
     0
 42
0.0000000001
 43
0.0000000001
 40
0.0
 40
0.0
 40
0.0
 40
6.283185307179375
 40
6.283185307179375
 40
6.283185307179375
 10
2223.607290729098
 20
805.3972806942124
 30
0.0
 41
1.0
 10
2223.607290729099
 20
809.397280694212
 30
0.0
 41
0.7071067811865978
 10
2227.607290729098
 20
809.3972806942123
 30
0.0
 41
1.0
  0
SPLINE
  5
1F4
330
1F
100
AcDbEntity
  8
Predefinito
100
AcDbSpline
210
0.0
220
0.0
230
1.0
 70
    12
 71
     2
 72
     6
 73
     3
 74
     0
 42
0.0000000001
 43
0.0000000001
 40
0.0
 40
0.0
 40
0.0
 40
6.283185307179602
 40
6.283185307179602
 40
6.283185307179602
 10
2223.607290729098
 20
805.3972806942124
 30
0.0
 41
1.0
 10
2223.607290729098
 20
801.3972806942126
 30
0.0
 41
0.7071067811865777
 10
2227.607290729098
 20
801.3972806942123
 30
0.0
 41
1.0
  0
SPLINE
  5
1F5
330
1F
100
AcDbEntity
  8
Predefinito
100
AcDbSpline
210
0.0
220
0.0
230
1.0
 70
    12
 71
     2
 72
     8
 73
     5
 74
     0
 42
0.0000000001
 43
0.0000000001
 40
0.0
 40
0.0
 40
0.0
 40
1.570937006941891
 40
1.570937006941891
 40
6.283325987326523
 40
6.283325987326523
 40
6.283325987326523
 10
2269.607150048952
 20
809.3972806917386
 30
0.0
 41
1.0
 10
2270.402872641391
 20
809.3973086773314
 30
0.0
 41
0.9807818495846914
 10
2271.138024458559
 20
809.0927988242576
 30
0.0
 41
1.0
 10
2273.607290729098
 20
808.0699952458895
 30
0.0
 41
0.8314696123026402
 10
2273.607290729098
 20
805.3972806942124
 30
0.0
 41
1.0
  0
SPLINE
  5
1F6
330
1F
100
AcDbEntity
  8
Predefinito
100
AcDbSpline
210
0.0
220
0.0
230
1.0
 70
    12
 71
     2
 72
     6
 73
     3
 74
     0
 42
0.0000000001
 43
0.0000000001
 40
0.0
 40
0.0
 40
0.0
 40
6.283185307179602
 40
6.283185307179602
 40
6.283185307179602
 10
2273.607290729098
 20
805.3972806942124
 30
0.0
 41
1.0
 10
2273.607290729098
 20
801.3972806942126
 30
0.0
 41
0.7071067811865777
 10
2269.607290729099
 20
801.3972806942123
 30
0.0
 41
1.0
  0
SPLINE
  5
1F7
330
1F
100
AcDbEntity
  8
Predefinito
100
AcDbSpline
210
0.0
220
0.0
230
1.0
 70
    15
 71
     2
 72
    12
 73
     9
 74
     0
 42
0.0000000001
 43
0.0000000001
 40
0.0
 40
0.0
 40
0.0
 40
106.8100431602585
 40
106.8100431602585
 40
213.620086320517
 40
213.620086320517
 40
320.4301294807755
 40
320.4301294807755
 40
427.2401726410341
 40
427.2401726410341
 40
427.2401726410341
 10
2316.597685270537
 20
68.29728069421242
 30
0.0
 41
1.0
 10
2316.597703034243
 20
0.2998953309594295
 30
0.0
 41
0.7071067811865476
 10
2248.600317670989
 20
0.2998775672536595
 30
0.0
 41
1.0
 10
2180.602932307737
 20
0.2998598035478822
 30
0.0
 41
0.7071067811865476
 10
2180.602914544031
 20
68.29724516680086
 30
0.0
 41
1.0
 10
2180.602896780325
 20
136.2946305300539
 30
0.0
 41
0.7071067811865476
 10
2248.600282143578
 20
136.2946482937596
 30
0.0
 41
1.0
 10
2316.597667506831
 20
136.2946660574654
 30
0.0
 41
0.7071067811865476
 10
2316.597685270537
 20
68.29728069421242
 30
0.0
 41
1.0
  0
SPLINE
  5
1F8
330
1F
100
AcDbEntity
  8
Predefinito
100
AcDbSpline
210
0.0
220
0.0
230
1.0
 70
    12
 71
     2
 72
     8
 73
     5
 74
     0
 42
0.0000000001
 43
0.0000000001
 40
0.0
 40
0.0
 40
0.0
 40
12.56637061435927
 40
12.56637061435927
 40
25.13274122871802
 40
25.13274122871802
 40
25.13274122871802
 10
2256.60031475439
 20
888.8472806942125
 30
0.0
 41
1.0
 10
2256.60031475439
 20
880.847280694212
 30
0.0
 41
0.7071067811865275
 10
2248.60031475439
 20
880.8472806942125
 30
0.0
 41
1.0
 10
2240.60031475439
 20
880.847280694213
 30
0.0
 41
0.7071067811865978
 10
2240.60031475439
 20
888.8472806942125
 30
0.0
 41
1.0
  0
SPLINE
  5
1F9
330
1F
100
AcDbEntity
  8
Predefinito
100
AcDbSpline
210
0.0
220
0.0
230
1.0
 70
    12
 71
     2
 72
     8
 73
     5
 74
     0
 42
0.0000000001
 43
0.0000000001
 40
0.0
 40
0.0
 40
0.0
 40
12.56637061435916
 40
12.56637061435916
 40
25.13274122871843
 40
25.13274122871843
 40
25.13274122871843
 10
2240.60031475439
 20
888.8472806942125
 30
0.0
 41
1.0
 10
2240.600314754389
 20
896.8472806942124
 30
0.0
 41
0.7071067811865325
 10
2248.600314754389
 20
896.8472806942124
 30
0.0
 41
1.0
 10
2256.60031475439
 20
896.8472806942126
 30
0.0
 41
0.7071067811865275
 10
2256.60031475439
 20
888.8472806942125
 30
0.0
 41
1.0
  0
SPLINE
  5
1FA
330
1F
100
AcDbEntity
  8
Predefinito
100
AcDbSpline
210
0.0
220
0.0
230
1.0
 70
    24
 71
     2
 72
     6
 73
     3
 74
     0
 42
0.0000000001
 43
0.0000000001
 40
0.0
 40
0.0
 40
0.0
 40
6.971684360290055
 40
6.971684360290055
 40
6.971684360290055
 10
2248.60031475439
 20
904.3972806942124
 30
0.0
 10
2245.114472574245
 20
904.3972806942124
 30
0.0
 10
2241.6286303941
 20
904.3972806942124
 30
0.0
  0
SPLINE
  5
1FB
330
1F
100
AcDbEntity
  8
Predefinito
100
AcDbSpline
210
0.0
220
0.0
230
1.0
 70
    12
 71
     2
 72
     8
 73
     5
 74
     0
 42
0.0000000001
 43
0.0000000001
 40
0.0
 40
0.0
 40
0.0
 40
0.0283156397099447
 40
0.0283156397099447
 40
11.02388992727422
 40
11.02388992727422
 40
11.02388992727422
 10
2255.57199911468
 20
904.3972806930542
 30
0.0
 41
1.0
 10
2255.586156934534
 20
904.3972806930539
 30
0.0
 41
1.0
 10
2255.60031475439
 20
904.3972806930536
 30
0.0
 41
1.0
 10
2255.60031475439
 20
904.3972806942124
 30
0.0
 41
0.7071067811865476
 10
2248.60031475439
 20
904.3972806942124
 30
0.0
 41
1.0
  0
SPLINE
  5
1FC
330
1F
100
AcDbEntity
  8
Predefinito
100
AcDbSpline
210
0.0
220
0.0
230
1.0
 70
    28
 71
     2
 72
     8
 73
     5
 74
     0
 42
0.0000000001
 43
0.0000000001
 40
-10.84831213192725
 40
-10.84831213192725
 40
-10.84831213192725
 40
-10.21017612416683
 40
-10.21017612416683
 40
0.0
 40
0.0
 40
0.0
 10
2255.074021660373
 20
904.8972806942123
 30
0.0
 41
0.9656765759202985
 10
2255.10031475439
 20
904.8972806942124
 30
0.0
 41
0.9816941738241592
 10
2255.10031475439
 20
904.8972806942124
 30
0.0
 41
1.0
 10
2255.100314754389
 20
904.8972806942123
 30
0.0
 41
0.7071067811865476
 10
2248.60031475439
 20
904.8972806942124
 30
0.0
 41
1.0
  0
SPLINE
  5
1FD
330
1F
100
AcDbEntity
  8
Predefinito
100
AcDbSpline
210
0.0
220
0.0
230
1.0
 70
    24
 71
     2
 72
     6
 73
     3
 74
     0
 42
0.0000000001
 43
0.0000000001
 40
0.0
 40
0.0
 40
0.0
 40
6.473706905983818
 40
6.473706905983818
 40
6.473706905983818
 10
2248.60031475439
 20
904.8972806942124
 30
0.0
 10
2245.363461301398
 20
904.8972806942124
 30
0.0
 10
2242.126607848406
 20
904.8972806942124
 30
0.0
  0
SPLINE
  5
1FE
330
1F
100
AcDbEntity
  8
Predefinito
100
AcDbSpline
210
0.0
220
0.0
230
1.0
 70
    24
 71
     2
 72
     6
 73
     3
 74
     0
 42
0.0000000001
 43
0.0000000001
 40
0.0
 40
0.0
 40
0.0
 40
6.77249337856756
 40
6.77249337856756
 40
6.77249337856756
 10
2248.60031475439
 20
901.3972806942124
 30
0.0
 10
2251.986561443674
 20
901.3972806942124
 30
0.0
 10
2255.372808132957
 20
901.3972806942124
 30
0.0
  0
SPLINE
  5
1FF
330
1F
100
AcDbEntity
  8
Predefinito
100
AcDbSpline
210
0.0
220
0.0
230
1.0
 70
    28
 71
     2
 72
     8
 73
     5
 74
     0
 42
0.0000000001
 43
0.0000000001
 40
10.01382658331747
 40
10.01382658331747
 40
10.01382658331747
 40
10.6814150222053
 40
10.6814150222053
 40
21.36283004441059
 40
21.36283004441059
 40
21.36283004441059
 10
2241.827821375822
 20
901.3972806942123
 30
0.0
 41
0.9656765759202985
 10
2241.80031475439
 20
901.3972806942124
 30
0.0
 41
0.9816941738241592
 10
2241.80031475439
 20
901.3972806942124
 30
0.0
 41
1.0
 10
2241.80031475439
 20
901.3972806942124
 30
0.0
 41
0.7071067811865476
 10
2248.60031475439
 20
901.3972806942124
 30
0.0
 41
1.0
  0
SPLINE
  5
200
330
1F
100
AcDbEntity
  8
Predefinito
100
AcDbSpline
210
0.0
220
0.0
230
1.0
 70
    28
 71
     2
 72
     8
 73
     5
 74
     0
 42
0.0000000001
 43
0.0000000001
 40
10.30835089459151
 40
10.30835089459151
 40
10.30835089459151
 40
10.99557428756428
 40
10.99557428756428
 40
21.99114857512855
 40
21.99114857512855
 40
21.99114857512855
 10
2241.628630394099
 20
901.5972806942124
 30
0.0
 41
0.9656765759202985
 10
2241.600314754389
 20
901.5972806942125
 30
0.0
 41
0.9816941738241592
 10
2241.60031475439
 20
901.5972806942125
 30
0.0
 41
1.0
 10
2241.600314754389
 20
901.5972806942124
 30
0.0
 41
0.7071067811865476
 10
2248.60031475439
 20
901.5972806942125
 30
0.0
 41
1.0
  0
SPLINE
  5
201
330
1F
100
AcDbEntity
  8
Predefinito
100
AcDbSpline
210
0.0
220
0.0
230
1.0
 70
    24
 71
     2
 72
     6
 73
     3
 74
     0
 42
0.0000000001
 43
0.0000000001
 40
0.0
 40
0.0
 40
0.0
 40
6.971684360290055
 40
6.971684360290055
 40
6.971684360290055
 10
2248.60031475439
 20
901.5972806942125
 30
0.0
 10
2252.086156934535
 20
901.5972806942125
 30
0.0
 10
2255.57199911468
 20
901.5972806942125
 30
0.0
  0
SPLINE
  5
202
330
1F
100
AcDbEntity
  8
Predefinito
100
AcDbSpline
210
0.0
220
0.0
230
1.0
 70
    24
 71
     2
 72
     6
 73
     3
 74
     0
 42
0.0000000001
 43
0.0000000001
 40
0.0
 40
0.0
 40
0.0
 40
6.971684360290055
 40
6.971684360290055
 40
6.971684360290055
 10
2248.60031475439
 20
901.1972806942124
 30
0.0
 10
2252.086156934535
 20
901.1972806942124
 30
0.0
 10
2255.57199911468
 20
901.1972806942125
 30
0.0
  0
SPLINE
  5
203
330
1F
100
AcDbEntity
  8
Predefinito
100
AcDbSpline
210
0.0
220
0.0
230
1.0
 70
    12
 71
     2
 72
     8
 73
     5
 74
     0
 42
0.0000000001
 43
0.0000000001
 40
0.0
 40
0.0
 40
0.0
 40
0.0283156397099447
 40
0.0283156397099447
 40
11.02388992727422
 40
11.02388992727422
 40
11.02388992727422
 10
2241.6286303941
 20
901.1972808837891
 30
0.0
 41
1.0
 10
2241.614472574244
 20
901.197280883789
 30
0.0
 41
1.0
 10
2241.60031475439
 20
901.1972808837888
 30
0.0
 41
1.0
 10
2241.600314754389
 20
901.1972806942123
 30
0.0
 41
0.7071067811865476
 10
2248.60031475439
 20
901.1972806942124
 30
0.0
 41
1.0
  0
ENDSEC
  0
SECTION
  2
OBJECTS
  0
DICTIONARY
  5
C
330
0
100
AcDbDictionary
281
     1
  3
ACAD_GROUP
350
D
  3
ACAD_LAYOUT
350
1A
  3
ACAD_MLEADERSTYLE
350
205
  3
ACAD_MLINESTYLE
350
17
  3
ACAD_PLOTSETTINGS
350
19
  3
ACAD_PLOTSTYLENAME
350
E
  3
ACAD_TABLESTYLE
350
204
  3
ACAD_VISUALSTYLE
350
2A
  0
DICTIONARY
  5
D
102
{ACAD_REACTORS
330
C
102
}
330
C
100
AcDbDictionary
281
     1
  0
DICTIONARY
  5
1A
102
{ACAD_REACTORS
330
C
102
}
330
C
100
AcDbDictionary
281
     1
  3
Layout1
350
1E
  3
Layout2
350
26
  3
Model
350
22
  0
DICTIONARY
  5
205
102
{ACAD_REACTORS
330
C
102
}
330
C
100
AcDbDictionary
281
     1
  0
DICTIONARY
  5
17
102
{ACAD_REACTORS
330
C
102
}
330
C
100
AcDbDictionary
281
     1
  3
Standard
350
18
  0
DICTIONARY
  5
19
102
{ACAD_REACTORS
330
C
102
}
330
C
100
AcDbDictionary
281
     1
  0
ACDBDICTIONARYWDFLT
  5
E
102
{ACAD_REACTORS
330
C
102
}
330
C
100
AcDbDictionary
281
     1
  3
Normal
350
F
100
AcDbDictionaryWithDefault
340
F
  0
DICTIONARY
  5
204
102
{ACAD_REACTORS
330
C
102
}
330
C
100
AcDbDictionary
281
     1
  0
DICTIONARY
  5
2A
102
{ACAD_REACTORS
330
C
102
}
330
C
100
AcDbDictionary
281
     1
  3
2dWireframe
350
2F
  3
3D Hidden
350
31
  3
3dWireframe
350
30
  3
Basic
350
32
  3
Brighten
350
36
  3
ColorChange
350
3A
  3
Conceptual
350
34
  3
Dim
350
35
  3
Facepattern
350
39
  3
Flat
350
2B
  3
FlatWithEdges
350
2C
  3
Gouraud
350
2D
  3
GouraudWithEdges
350
2E
  3
Linepattern
350
38
  3
Realistic
350
33
  3
Thicken
350
37
  0
LAYOUT
  5
1E
102
{ACAD_REACTORS
330
1A
102
}
330
1A
100
AcDbPlotSettings
  1

  2
none_device
  4

  6

 40
0.0
 41
0.0
 42
0.0
 43
0.0
 44
0.0
 45
0.0
 46
0.0
 47
0.0
 48
0.0
 49
0.0
140
0.0
141
0.0
142
1.0
143
1.0
 70
   688
 72
     0
 73
     0
 74
     5
  7

 75
    16
 76
     0
 77
     2
 78
   300
147
1.0
148
0.0
149
0.0
100
AcDbLayout
  1
Layout1
 70
     1
 71
     1
 10
0.0
 20
0.0
 11
12.0
 21
9.0
 12
0.0
 22
0.0
 32
0.0
 14
1.000000000000000E+20
 24
1.000000000000000E+20
 34
1.000000000000000E+20
 15
-1.000000000000000E+20
 25
-1.000000000000000E+20
 35
-1.000000000000000E+20
146
0.0
 13
0.0
 23
0.0
 33
0.0
 16
1.0
 26
0.0
 36
0.0
 17
0.0
 27
1.0
 37
0.0
 76
     0
330
1B
  0
LAYOUT
  5
26
102
{ACAD_REACTORS
330
1A
102
}
330
1A
100
AcDbPlotSettings
  1

  2
none_device
  4

  6

 40
0.0
 41
0.0
 42
0.0
 43
0.0
 44
0.0
 45
0.0
 46
0.0
 47
0.0
 48
0.0
 49
0.0
140
0.0
141
0.0
142
1.0
143
1.0
 70
   688
 72
     0
 73
     0
 74
     5
  7

 75
    16
 76
     0
 77
     2
 78
   300
147
1.0
148
0.0
149
0.0
100
AcDbLayout
  1
Layout2
 70
     1
 71
     2
 10
0.0
 20
0.0
 11
0.0
 21
0.0
 12
0.0
 22
0.0
 32
0.0
 14
0.0
 24
0.0
 34
0.0
 15
0.0
 25
0.0
 35
0.0
146
0.0
 13
0.0
 23
0.0
 33
0.0
 16
1.0
 26
0.0
 36
0.0
 17
0.0
 27
1.0
 37
0.0
 76
     0
330
23
  0
LAYOUT
  5
22
102
{ACAD_REACTORS
330
1A
102
}
330
1A
100
AcDbPlotSettings
  1

  2
none_device
  4

  6

 40
0.0
 41
0.0
 42
0.0
 43
0.0
 44
0.0
 45
0.0
 46
0.0
 47
0.0
 48
0.0
 49
0.0
140
0.0
141
0.0
142
1.0
143
1.0
 70
  1712
 72
     0
 73
     0
 74
     0
  7

 75
     0
 76
     0
 77
     2
 78
   300
147
1.0
148
0.0
149
0.0
100
AcDbLayout
  1
Model
 70
     1
 71
     0
 10
0.0
 20
0.0
 11
12.0
 21
9.0
 12
0.0
 22
0.0
 32
0.0
 14
655.9952837068837
 24
0.0000001450523825
 34
0.0
 15
2358.600314754389
 25
2100.604413828711
 35
0.0
146
0.0
 13
0.0
 23
0.0
 33
0.0
 16
1.0
 26
0.0
 36
0.0
 17
0.0
 27
1.0
 37
0.0
 76
     0
330
1F
331
29
  0
MLINESTYLE
  5
18
102
{ACAD_REACTORS
330
17
102
}
330
17
100
AcDbMlineStyle
  2
Standard
 70
     0
  3

 62
   256
 51
90.0
 52
90.0
 71
     2
 49
0.5
 62
   256
  6
BYLAYER
 49
-0.5
 62
   256
  6
BYLAYER
  0
ACDBPLACEHOLDER
  5
F
102
{ACAD_REACTORS
330
E
102
}
330
E
  0
VISUALSTYLE
  5
2F
102
{ACAD_REACTORS
330
2A
102
}
330
2A
100
AcDbVisualStyle
  2
2dWireframe
 70
     4
 71
     0
 72
     2
 73
     0
 90
        0
 40
-0.6
 41
-30.0
 62
     5
 63
     7
421
 16777215
 74
     1
 91
        4
 64
     7
 65
   257
 75
     1
175
     1
 42
1.0
 92
        0
 66
   257
 43
1.0
 76
     1
 77
     6
 78
     2
 67
     7
 79
     5
170
     0
171
     0
290
     0
174
     0
 93
        1
 44
0.0
173
     0
291
     0
 45
0.0
1001
ACAD
1000
AcDbSavedByObjectVersion
1070
     0
  0
VISUALSTYLE
  5
31
102
{ACAD_REACTORS
330
2A
102
}
330
2A
100
AcDbVisualStyle
  2
3D Hidden
 70
     6
 71
     1
 72
     2
 73
     2
 90
        0
 40
-0.6
 41
-30.0
 62
     5
 63
     7
421
 16777215
 74
     2
 91
        2
 64
     7
 65
   257
 75
     2
175
     1
 42
40.0
 92
        0
 66
   257
 43
1.0
 76
     1
 77
     6
 78
     2
 67
     7
 79
     3
170
     0
171
     0
290
     0
174
     0
 93
        1
 44
0.0
173
     0
291
     0
 45
0.0
1001
ACAD
1000
AcDbSavedByObjectVersion
1070
     0
  0
VISUALSTYLE
  5
30
102
{ACAD_REACTORS
330
2A
102
}
330
2A
100
AcDbVisualStyle
  2
3dWireframe
 70
     5
 71
     0
 72
     2
 73
     0
 90
        0
 40
-0.6
 41
-30.0
 62
     5
 63
     7
421
 16777215
 74
     1
 91
        4
 64
     7
 65
   257
 75
     1
175
     1
 42
1.0
 92
        0
 66
   257
 43
1.0
 76
     1
 77
     6
 78
     2
 67
     7
 79
     5
170
     0
171
     0
290
     0
174
     0
 93
        1
 44
0.0
173
     0
291
     0
 45
0.0
1001
ACAD
1000
AcDbSavedByObjectVersion
1070
     0
  0
VISUALSTYLE
  5
32
102
{ACAD_REACTORS
330
2A
102
}
330
2A
100
AcDbVisualStyle
  2
Basic
 70
     7
 71
     1
 72
     0
 73
     1
 90
        0
 40
-0.6
 41
-30.0
 62
     5
 63
     7
421
 16777215
 74
     0
 91
        4
 64
     7
 65
   257
 75
     1
175
     1
 42
1.0
 92
        8
 66
     7
 43
1.0
 76
     1
 77
     6
 78
     2
 67
     7
 79
     5
170
     0
171
     0
290
     0
174
     0
 93
        1
 44
0.0
173
     0
291
     1
 45
0.0
1001
ACAD
1000
AcDbSavedByObjectVersion
1070
     0
  0
VISUALSTYLE
  5
36
102
{ACAD_REACTORS
330
2A
102
}
330
2A
100
AcDbVisualStyle
  2
Brighten
 70
    12
 71
     2
 72
     2
 73
     0
 90
        0
 40
-0.6
 41
-30.0
 62
     5
 63
     7
421
 16777215
 74
     1
 91
        4
 64
     7
 65
   257
 75
     1
175
     1
 42
1.0
 92
        8
 66
     7
 43
1.0
 76
     1
 77
     6
 78
     2
 67
     7
 79
     5
170
     0
171
     0
290
     0
174
     0
 93
        1
 44
50.0
173
     0
291
     1
 45
0.0
1001
ACAD
1000
AcDbSavedByObjectVersion
1070
     0
  0
VISUALSTYLE
  5
3A
102
{ACAD_REACTORS
330
2A
102
}
330
2A
100
AcDbVisualStyle
  2
ColorChange
 70
    16
 71
     2
 72
     2
 73
     3
 90
        0
 40
-0.6
 41
-30.0
 62
     5
 63
     8
421
  8421504
 74
     1
 91
        4
 64
     7
 65
   257
 75
     1
175
     1
 42
1.0
 92
        8
 66
     8
424
  8421504
 43
1.0
 76
     1
 77
     6
 78
     2
 67
     7
 79
     5
170
     0
171
     0
290
     0
174
     0
 93
        1
 44
0.0
173
     0
291
     1
 45
0.0
1001
ACAD
1000
AcDbSavedByObjectVersion
1070
     0
  0
VISUALSTYLE
  5
34
102
{ACAD_REACTORS
330
2A
102
}
330
2A
100
AcDbVisualStyle
  2
Conceptual
 70
     9
 71
     3
 72
     2
 73
     0
 90
        0
 40
-0.6
 41
-30.0
 62
     5
 63
     7
421
 16777215
 74
     2
 91
        2
 64
     7
 65
   257
 75
     1
175
     1
 42
40.0
 92
        8
 66
     7
 43
1.0
 76
     1
 77
     6
 78
     2
 67
     7
 79
     3
170
     0
171
     0
290
     0
174
     0
 93
        1
 44
0.0
173
     0
291
     0
 45
0.0
1001
ACAD
1000
AcDbSavedByObjectVersion
1070
     0
  0
VISUALSTYLE
  5
35
102
{ACAD_REACTORS
330
2A
102
}
330
2A
100
AcDbVisualStyle
  2
Dim
 70
    11
 71
     2
 72
     2
 73
     0
 90
        0
 40
-0.6
 41
-30.0
 62
     5
 63
     7
421
 16777215
 74
     1
 91
        4
 64
     7
 65
   257
 75
     1
175
     1
 42
1.0
 92
        8
 66
     7
 43
1.0
 76
     1
 77
     6
 78
     2
 67
     7
 79
     5
170
     0
171
     0
290
     0
174
     0
 93
        1
 44
-50.0
173
     0
291
     1
 45
0.0
1001
ACAD
1000
AcDbSavedByObjectVersion
1070
     0
  0
VISUALSTYLE
  5
39
102
{ACAD_REACTORS
330
2A
102
}
330
2A
100
AcDbVisualStyle
  2
Facepattern
 70
    15
 71
     2
 72
     2
 73
     0
 90
        0
 40
-0.6
 41
-30.0
 62
     5
 63
     7
421
 16777215
 74
     1
 91
        4
 64
     7
 65
   257
 75
     1
175
     1
 42
1.0
 92
        8
 66
     7
 43
1.0
 76
     1
 77
     6
 78
     2
 67
     7
 79
     5
170
     0
171
     0
290
     0
174
     0
 93
        1
 44
0.0
173
     0
291
     1
 45
0.0
1001
ACAD
1000
AcDbSavedByObjectVersion
1070
     0
  0
VISUALSTYLE
  5
2B
102
{ACAD_REACTORS
330
2A
102
}
330
2A
100
AcDbVisualStyle
  2
Flat
 70
     0
 71
     2
 72
     1
 73
     1
 90
        2
 40
-0.6
 41
30.0
 62
     5
 63
     7
421
 16777215
 74
     0
 91
        4
 64
     7
 65
   257
 75
     1
175
     1
 42
1.0
 92
        8
 66
     7
 43
1.0
 76
     1
 77
     6
 78
     2
 67
     7
 79
     5
170
     0
171
     0
290
     0
174
     0
 93
       13
 44
0.0
173
     0
291
     1
 45
0.0
1001
ACAD
1000
AcDbSavedByObjectVersion
1070
     0
  0
VISUALSTYLE
  5
2C
102
{ACAD_REACTORS
330
2A
102
}
330
2A
100
AcDbVisualStyle
  2
FlatWithEdges
 70
     1
 71
     2
 72
     1
 73
     1
 90
        2
 40
-0.6
 41
30.0
 62
     5
 63
     7
421
 16777215
 74
     1
 91
        4
 64
     7
 65
   257
 75
     1
175
     1
 42
1.0
 92
        0
 66
   257
 43
1.0
 76
     1
 77
     6
 78
     2
 67
     7
 79
     5
170
     0
171
     0
290
     0
174
     0
 93
       13
 44
0.0
173
     0
291
     1
 45
0.0
1001
ACAD
1000
AcDbSavedByObjectVersion
1070
     0
  0
VISUALSTYLE
  5
2D
102
{ACAD_REACTORS
330
2A
102
}
330
2A
100
AcDbVisualStyle
  2
Gouraud
 70
     2
 71
     2
 72
     2
 73
     1
 90
        2
 40
-0.6
 41
30.0
 62
     5
 63
     7
421
 16777215
 74
     0
 91
        4
 64
     7
 65
   257
 75
     1
175
     1
 42
1.0
 92
        0
 66
     7
 43
1.0
 76
     1
 77
     6
 78
     2
 67
     7
 79
     5
170
     0
171
     0
290
     0
174
     0
 93
       13
 44
0.0
173
     0
291
     1
 45
0.0
1001
ACAD
1000
AcDbSavedByObjectVersion
1070
     0
  0
VISUALSTYLE
  5
2E
102
{ACAD_REACTORS
330
2A
102
}
330
2A
100
AcDbVisualStyle
  2
GouraudWithEdges
 70
     3
 71
     2
 72
     2
 73
     1
 90
        2
 40
-0.6
 41
30.0
 62
     5
 63
     7
421
 16777215
 74
     1
 91
        4
 64
     7
 65
   257
 75
     1
175
     1
 42
1.0
 92
        0
 66
   257
 43
1.0
 76
     1
 77
     6
 78
     2
 67
     7
 79
     5
170
     0
171
     0
290
     0
174
     0
 93
       13
 44
0.0
173
     0
291
     1
 45
0.0
1001
ACAD
1000
AcDbSavedByObjectVersion
1070
     0
  0
VISUALSTYLE
  5
38
102
{ACAD_REACTORS
330
2A
102
}
330
2A
100
AcDbVisualStyle
  2
Linepattern
 70
    14
 71
     2
 72
     2
 73
     0
 90
        0
 40
-0.6
 41
-30.0
 62
     5
 63
     7
421
 16777215
 74
     1
 91
        4
 64
     7
 65
   257
 75
     7
175
     7
 42
1.0
 92
        8
 66
     7
 43
1.0
 76
     1
 77
     6
 78
     2
 67
     7
 79
     5
170
     0
171
     0
290
     0
174
     0
 93
        1
 44
0.0
173
     0
291
     1
 45
0.0
1001
ACAD
1000
AcDbSavedByObjectVersion
1070
     0
  0
VISUALSTYLE
  5
33
102
{ACAD_REACTORS
330
2A
102
}
330
2A
100
AcDbVisualStyle
  2
Realistic
 70
     8
 71
     2
 72
     2
 73
     0
 90
        0
 40
-0.6
 41
-30.0
 62
     5
 63
     7
421
 16777215
 74
     1
 91
        0
 64
     7
 65
   257
 75
     1
175
     1
 42
1.0
 92
        8
 66
     8
424
  7895160
 43
1.0
 76
     1
 77
     6
 78
     2
 67
     7
 79
     5
170
     0
171
     0
290
     0
174
     0
 93
       13
 44
0.0
173
     0
291
     0
 45
0.0
1001
ACAD
1000
AcDbSavedByObjectVersion
1070
     0
  0
VISUALSTYLE
  5
37
102
{ACAD_REACTORS
330
2A
102
}
330
2A
100
AcDbVisualStyle
  2
Thicken
 70
    13
 71
     2
 72
     2
 73
     0
 90
        0
 40
-0.6
 41
-30.0
 62
     5
 63
     7
421
 16777215
 74
     1
 91
        4
 64
     7
 65
   257
 75
     1
175
     1
 42
1.0
 92
       12
 66
     7
 43
1.0
 76
     1
 77
     6
 78
     2
 67
     7
 79
     5
170
     0
171
     0
290
     0
174
     0
 93
        1
 44
0.0
173
     0
291
     1
 45
0.0
1001
ACAD
1000
AcDbSavedByObjectVersion
1070
     0
  0
ENDSEC
  0
EOF
