  0
SECTION
  2
HEADER
  9
$ACADVER
  1
AC1018
  9
$ACADMAINTVER
 70
     0
  9
$DWGCODEPAGE
  3
ANSI_1252
  9
$INSBASE
 10
0.0
 20
0.0
 30
0.0
  9
$EXTMIN
 10
0.0039726783789966
 20
0.0013916439287793
 30
0.0
  9
$EXTMAX
 10
1450.441917444514
 20
1861.203181787732
 30
0.0
  9
$LIMMIN
 10
0.0
 20
0.0
  9
$LIMMAX
 10
12.0
 20
9.0
  9
$ORTHOMODE
 70
     0
  9
$REGENMODE
 70
     1
  9
$FILLMODE
 70
     1
  9
$QTEXTMODE
 70
     0
  9
$MIRRTEXT
 70
     1
  9
$LTSCALE
 40
1.0
  9
$ATTMODE
 70
     1
  9
$TEXTSIZE
 40
0.2
  9
$TRACEWID
 40
0.05
  9
$TEXTSTYLE
  7
Standard
  9
$CLAYER
  8
PREDEFINITO
  9
$CELTYPE
  6
ByLayer
  9
$CECOLOR
 62
   256
  9
$CELTSCALE
 40
1.0
  9
$DISPSILH
 70
     0
  9
$DIMSCALE
 40
1.0
  9
$DIMASZ
 40
0.18
  9
$DIMEXO
 40
0.0625
  9
$DIMDLI
 40
0.38
  9
$DIMRND
 40
0.0
  9
$DIMDLE
 40
0.0
  9
$DIMEXE
 40
0.18
  9
$DIMTP
 40
0.0
  9
$DIMTM
 40
0.0
  9
$DIMTXT
 40
0.18
  9
$DIMCEN
 40
0.09
  9
$DIMTSZ
 40
0.0
  9
$DIMTOL
 70
     0
  9
$DIMLIM
 70
     0
  9
$DIMTIH
 70
     1
  9
$DIMTOH
 70
     1
  9
$DIMSE1
 70
     0
  9
$DIMSE2
 70
     0
  9
$DIMTAD
 70
     0
  9
$DIMZIN
 70
     0
  9
$DIMBLK
  1

  9
$DIMASO
 70
     1
  9
$DIMSHO
 70
     1
  9
$DIMPOST
  1

  9
$DIMAPOST
  1

  9
$DIMALT
 70
     0
  9
$DIMALTD
 70
     2
  9
$DIMALTF
 40
25.4
  9
$DIMLFAC
 40
1.0
  9
$DIMTOFL
 70
     0
  9
$DIMTVP
 40
0.0
  9
$DIMTIX
 70
     0
  9
$DIMSOXD
 70
     0
  9
$DIMSAH
 70
     0
  9
$DIMBLK1
  1

  9
$DIMBLK2
  1

  9
$DIMSTYLE
  2
Standard
  9
$DIMCLRD
 70
     0
  9
$DIMCLRE
 70
     0
  9
$DIMCLRT
 70
     0
  9
$DIMTFAC
 40
1.0
  9
$DIMGAP
 40
0.09
  9
$DIMJUST
 70
     0
  9
$DIMSD1
 70
     0
  9
$DIMSD2
 70
     0
  9
$DIMTOLJ
 70
     1
  9
$DIMTZIN
 70
     0
  9
$DIMALTZ
 70
     0
  9
$DIMALTTZ
 70
     0
  9
$DIMUPT
 70
     0
  9
$DIMDEC
 70
     4
  9
$DIMTDEC
 70
     4
  9
$DIMALTU
 70
     2
  9
$DIMALTTD
 70
     2
  9
$DIMTXSTY
  7
Standard
  9
$DIMAUNIT
 70
     0
  9
$DIMADEC
 70
     0
  9
$DIMALTRND
 40
0.0
  9
$DIMAZIN
 70
     0
  9
$DIMDSEP
 70
    46
  9
$DIMATFIT
 70
     3
  9
$DIMFRAC
 70
     0
  9
$DIMLDRBLK
  1

  9
$DIMLUNIT
 70
     2
  9
$DIMLWD
 70
    -2
  9
$DIMLWE
 70
    -2
  9
$DIMTMOVE
 70
     0
  9
$LUNITS
 70
     2
  9
$LUPREC
 70
     3
  9
$SKETCHINC
 40
0.1
  9
$FILLETRAD
 40
0.5
  9
$AUNITS
 70
     0
  9
$AUPREC
 70
     0
  9
$MENU
  1
.
  9
$ELEVATION
 40
0.0
  9
$PELEVATION
 40
0.0
  9
$THICKNESS
 40
0.0
  9
$LIMCHECK
 70
     0
  9
$CHAMFERA
 40
0.5
  9
$CHAMFERB
 40
0.5
  9
$CHAMFERC
 40
1.0
  9
$CHAMFERD
 40
0.0
  9
$SKPOLY
 70
     0
  9
$TDCREATE
 40
2455873.449415197
  9
$TDUCREATE
 40
2455873.40774853
  9
$TDUPDATE
 40
2455873.449415208
  9
$TDUUPDATE
 40
2455873.407748542
  9
$TDINDWG
 40
0.0000000116
  9
$TDUSRTIMER
 40
0.0000000116
  9
$USRTIMER
 70
     1
  9
$ANGBASE
 50
0.0
  9
$ANGDIR
 70
     0
  9
$PDMODE
 70
     0
  9
$PDSIZE
 40
0.0
  9
$PLINEWID
 40
0.0
  9
$SPLFRAME
 70
     0
  9
$SPLINETYPE
 70
     6
  9
$SPLINESEGS
 70
     8
  9
$HANDSEED
  5
283
  9
$SURFTAB1
 70
     6
  9
$SURFTAB2
 70
     6
  9
$SURFTYPE
 70
     6
  9
$SURFU
 70
     6
  9
$SURFV
 70
     6
  9
$UCSBASE
  2

  9
$UCSNAME
  2

  9
$UCSORG
 10
0.0
 20
0.0
 30
0.0
  9
$UCSXDIR
 10
1.0
 20
0.0
 30
0.0
  9
$UCSYDIR
 10
0.0
 20
1.0
 30
0.0
  9
$UCSORTHOREF
  2

  9
$UCSORTHOVIEW
 70
     0
  9
$UCSORGTOP
 10
0.0
 20
0.0
 30
0.0
  9
$UCSORGBOTTOM
 10
0.0
 20
0.0
 30
0.0
  9
$UCSORGLEFT
 10
0.0
 20
0.0
 30
0.0
  9
$UCSORGRIGHT
 10
0.0
 20
0.0
 30
0.0
  9
$UCSORGFRONT
 10
0.0
 20
0.0
 30
0.0
  9
$UCSORGBACK
 10
0.0
 20
0.0
 30
0.0
  9
$PUCSBASE
  2

  9
$PUCSNAME
  2

  9
$PUCSORG
 10
0.0
 20
0.0
 30
0.0
  9
$PUCSXDIR
 10
1.0
 20
0.0
 30
0.0
  9
$PUCSYDIR
 10
0.0
 20
1.0
 30
0.0
  9
$PUCSORTHOREF
  2

  9
$PUCSORTHOVIEW
 70
     0
  9
$PUCSORGTOP
 10
0.0
 20
0.0
 30
0.0
  9
$PUCSORGBOTTOM
 10
0.0
 20
0.0
 30
0.0
  9
$PUCSORGLEFT
 10
0.0
 20
0.0
 30
0.0
  9
$PUCSORGRIGHT
 10
0.0
 20
0.0
 30
0.0
  9
$PUCSORGFRONT
 10
0.0
 20
0.0
 30
0.0
  9
$PUCSORGBACK
 10
0.0
 20
0.0
 30
0.0
  9
$USERI1
 70
     0
  9
$USERI2
 70
     0
  9
$USERI3
 70
     0
  9
$USERI4
 70
     0
  9
$USERI5
 70
     0
  9
$USERR1
 40
0.0
  9
$USERR2
 40
0.0
  9
$USERR3
 40
0.0
  9
$USERR4
 40
0.0
  9
$USERR5
 40
0.0
  9
$WORLDVIEW
 70
     1
  9
$SHADEDGE
 70
     3
  9
$SHADEDIF
 70
    70
  9
$TILEMODE
 70
     1
  9
$MAXACTVP
 70
    64
  9
$PINSBASE
 10
0.0
 20
0.0
 30
0.0
  9
$PLIMCHECK
 70
     0
  9
$PEXTMIN
 10
1.000000000000000E+20
 20
1.000000000000000E+20
 30
1.000000000000000E+20
  9
$PEXTMAX
 10
-1.000000000000000E+20
 20
-1.000000000000000E+20
 30
-1.000000000000000E+20
  9
$PLIMMIN
 10
0.0
 20
0.0
  9
$PLIMMAX
 10
12.0
 20
9.0
  9
$UNITMODE
 70
     0
  9
$VISRETAIN
 70
     1
  9
$PLINEGEN
 70
     0
  9
$PSLTSCALE
 70
     1
  9
$TREEDEPTH
 70
  3020
  9
$CMLSTYLE
  2
Standard
  9
$CMLJUST
 70
     0
  9
$CMLSCALE
 40
1.0
  9
$PROXYGRAPHICS
 70
     1
  9
$MEASUREMENT
 70
     0
  9
$CELWEIGHT
370
    -1
  9
$ENDCAPS
280
     0
  9
$JOINSTYLE
280
     0
  9
$LWDISPLAY
290
     0
  9
$INSUNITS
 70
     4
  9
$HYPERLINKBASE
  1

  9
$STYLESHEET
  1

  9
$XEDIT
290
     1
  9
$CEPSNTYPE
380
     0
  9
$PSTYLEMODE
290
     1
  9
$FINGERPRINTGUID
  2
{37B1F4E8-E1FE-497A-A316-E4080A5574B7}
  9
$VERSIONGUID
  2
{FAEB1C32-E019-11D5-929B-00C0DF256EC4}
  9
$EXTNAMES
290
     1
  9
$PSVPSCALE
 40
0.0
  9
$OLESTARTUP
290
     0
  9
$SORTENTS
280
   127
  9
$INDEXCTL
280
     0
  9
$HIDETEXT
280
     1
  9
$XCLIPFRAME
290
     0
  9
$HALOGAP
280
     0
  9
$OBSCOLOR
 70
   257
  9
$OBSLTYPE
280
     0
  9
$INTERSECTIONDISPLAY
280
     0
  9
$INTERSECTIONCOLOR
 70
   257
  9
$DIMASSOC
280
     2
  9
$PROJECTNAME
  1

  0
ENDSEC
  0
SECTION
  2
CLASSES
  0
CLASS
  1
ACDBDICTIONARYWDFLT
  2
AcDbDictionaryWithDefault
  3
ObjectDBX Classes
 90
        0
 91
        3
280
     0
281
     0
  0
CLASS
  1
VISUALSTYLE
  2
AcDbVisualStyle
  3
ObjectDBX Classes
 90
     4095
 91
        3
280
     0
281
     0
  0
CLASS
  1
SCALE
  2
AcDbScale
  3
ObjectDBX Classes
 90
     1153
 91
        3
280
     0
281
     0
  0
ENDSEC
  0
SECTION
  2
TABLES
  0
TABLE
  2
VPORT
  5
8
330
0
100
AcDbSymbolTable
 70
     1
  0
VPORT
  5
29
330
8
100
AcDbSymbolTableRecord
100
AcDbViewportTableRecord
  2
*Active
 70
     0
 10
0.0
 20
0.0
 11
1.0
 21
1.0
 12
0.0
 22
0.0
 13
0.0
 23
0.0
 14
0.5
 24
0.5
 15
0.5
 25
0.5
 16
0.0
 26
0.0
 36
1.0
 17
725.2229450614466
 27
930.6022867158304
 37
0.0
 40
1898.425825946679
 41
0.7793018212464051
 42
50.0
 43
0.0
 44
0.0
 50
0.0
 51
0.0
 71
     0
 72
   100
 73
     1
 74
     3
 75
     0
 76
     0
 77
     0
 78
     0
281
     0
 65
     1
110
0.0
120
0.0
130
0.0
111
1.0
121
0.0
131
0.0
112
0.0
122
1.0
132
0.0
 79
     0
146
0.0
  0
ENDTAB
  0
TABLE
  2
LTYPE
  5
5
330
0
100
AcDbSymbolTable
 70
     1
  0
LTYPE
  5
14
330
5
100
AcDbSymbolTableRecord
100
AcDbLinetypeTableRecord
  2
ByBlock
 70
     0
  3

 72
    65
 73
     0
 40
0.0
  0
LTYPE
  5
15
330
5
100
AcDbSymbolTableRecord
100
AcDbLinetypeTableRecord
  2
ByLayer
 70
     0
  3

 72
    65
 73
     0
 40
0.0
  0
LTYPE
  5
16
330
5
100
AcDbSymbolTableRecord
100
AcDbLinetypeTableRecord
  2
Continuous
 70
     0
  3
Solid line
 72
    65
 73
     0
 40
0.0
  0
ENDTAB
  0
TABLE
  2
LAYER
  5
2
330
0
100
AcDbSymbolTable
 70
     3
  0
LAYER
  5
10
330
2
100
AcDbSymbolTableRecord
100
AcDbLayerTableRecord
  2
0
 70
     0
 62
     7
  6
Continuous
370
    -3
390
F
  0
LAYER
  5
5D
330
2
100
AcDbSymbolTableRecord
100
AcDbLayerTableRecord
  2
LINEE VISIBILI 2D
 70
     0
 62
     7
  6
Continuous
370
    -3
390
F
  0
LAYER
  5
78
330
2
100
AcDbSymbolTableRecord
100
AcDbLayerTableRecord
  2
PREDEFINITO
 70
     0
 62
     7
  6
Continuous
370
    -3
390
F
  0
ENDTAB
  0
TABLE
  2
STYLE
  5
3
330
0
100
AcDbSymbolTable
 70
     1
  0
STYLE
  5
11
330
3
100
AcDbSymbolTableRecord
100
AcDbTextStyleTableRecord
  2
Standard
 70
     0
 40
0.0
 41
1.0
 50
0.0
 71
     0
 42
0.2
  3
txt
  4

  0
ENDTAB
  0
TABLE
  2
VIEW
  5
6
330
0
100
AcDbSymbolTable
 70
     0
  0
ENDTAB
  0
TABLE
  2
UCS
  5
7
330
0
100
AcDbSymbolTable
 70
     0
  0
ENDTAB
  0
TABLE
  2
APPID
  5
9
330
0
100
AcDbSymbolTable
 70
     1
  0
APPID
  5
12
330
9
100
AcDbSymbolTableRecord
100
AcDbRegAppTableRecord
  2
ACAD
 70
     0
  0
ENDTAB
  0
TABLE
  2
DIMSTYLE
  5
A
330
0
100
AcDbSymbolTable
 70
     1
100
AcDbDimStyleTable
  0
DIMSTYLE
105
27
330
A
100
AcDbSymbolTableRecord
100
AcDbDimStyleTableRecord
  2
Standard
 70
     0
340
11
  0
ENDTAB
  0
TABLE
  2
BLOCK_RECORD
  5
1
330
0
100
AcDbSymbolTable
 70
     1
  0
BLOCK_RECORD
  5
1F
330
1
100
AcDbSymbolTableRecord
100
AcDbBlockTableRecord
  2
*Model_Space
340
22
  0
BLOCK_RECORD
  5
1B
330
1
100
AcDbSymbolTableRecord
100
AcDbBlockTableRecord
  2
*Paper_Space
340
1E
  0
BLOCK_RECORD
  5
23
330
1
100
AcDbSymbolTableRecord
100
AcDbBlockTableRecord
  2
*Paper_Space0
340
26
  0
ENDTAB
  0
ENDSEC
  0
SECTION
  2
BLOCKS
  0
BLOCK
  5
20
330
1F
100
AcDbEntity
  8
0
100
AcDbBlockBegin
  2
*Model_Space
 70
     0
 10
0.0
 20
0.0
 30
0.0
  3
*Model_Space
  1

  0
ENDBLK
  5
21
330
1F
100
AcDbEntity
  8
0
100
AcDbBlockEnd
  0
BLOCK
  5
1C
330
1B
100
AcDbEntity
 67
     1
  8
0
100
AcDbBlockBegin
  2
*Paper_Space
 70
     0
 10
0.0
 20
0.0
 30
0.0
  3
*Paper_Space
  1

  0
ENDBLK
  5
1D
330
1B
100
AcDbEntity
 67
     1
  8
0
100
AcDbBlockEnd
  0
BLOCK
  5
24
330
23
100
AcDbEntity
  8
0
100
AcDbBlockBegin
  2
*Paper_Space0
 70
     0
 10
0.0
 20
0.0
 30
0.0
  3
*Paper_Space0
  1

  0
ENDBLK
  5
25
330
23
100
AcDbEntity
  8
0
100
AcDbBlockEnd
  0
ENDSEC
  0
SECTION
  2
ENTITIES
  0
SPLINE
  5
5E
330
1F
100
AcDbEntity
  8
LINEE VISIBILI 2D
100
AcDbSpline
210
0.0
220
0.0
230
1.0
 70
    12
 71
     2
 72
     6
 73
     3
 74
     0
 42
0.0000000001
 43
0.0000000001
 40
0.0
 40
0.0
 40
0.0
 40
2.370064414218112
 40
2.370064414218112
 40
2.370064414218112
 10
1180.695323443622
 20
370.2994881518575
 30
0.0
 41
1.0
 10
1179.513804913578
 20
370.3914979517792
 30
0.0
 41
0.9999196259531352
 10
1178.330333336794
 20
370.4535210689633
 30
0.0
 41
1.0
  0
SPLINE
  5
5F
330
1F
100
AcDbEntity
  8
LINEE VISIBILI 2D
100
AcDbSpline
210
0.0
220
0.0
230
1.0
 70
    12
 71
     2
 72
     6
 73
     3
 74
     0
 42
0.0000000001
 43
0.0000000001
 40
0.0
 40
0.0
 40
0.0
 40
0.8330752958547296
 40
0.8330752958547296
 40
0.8330752958547296
 10
1247.141143472288
 20
1509.898746819249
 30
0.0
 41
1.0
 10
1247.500349433134
 20
1509.687854598788
 30
0.0
 41
0.9999963740795075
 10
1247.858414355783
 20
1509.475030816923
 30
0.0
 41
1.0
  0
SPLINE
  5
60
330
1F
100
AcDbEntity
  8
LINEE VISIBILI 2D
100
AcDbSpline
210
0.0
220
0.0
230
1.0
 70
    24
 71
     2
 72
     6
 73
     3
 74
     0
 42
0.0000000001
 43
0.0000000001
 40
0.0
 40
0.0
 40
0.0
 40
309.4351004571988
 40
309.4351004571988
 40
309.4351004571988
 10
1091.42767501718
 20
1509.475030816923
 30
0.0
 10
1107.046788434054
 20
1663.402168271012
 30
0.0
 10
1122.665901850928
 20
1817.329305725101
 30
0.0
  0
SPLINE
  5
61
330
1F
100
AcDbEntity
  8
LINEE VISIBILI 2D
100
AcDbSpline
210
0.0
220
0.0
230
1.0
 70
    12
 71
     2
 72
     6
 73
     3
 74
     0
 42
0.0000000001
 43
0.0000000001
 40
0.0
 40
0.0
 40
0.0
 40
45.63497931510004
 40
45.63497931510004
 40
45.63497931510004
 10
1263.310045039612
 20
1827.505529125724
 30
0.0
 41
1.0
 10
1241.922858182591
 20
1819.377650614955
 30
0.0
 41
0.995935723817258
 10
1219.424504507172
 20
1815.218533805012
 30
0.0
 41
1.0
  0
SPLINE
  5
62
330
1F
100
AcDbEntity
  8
LINEE VISIBILI 2D
100
AcDbSpline
210
0.0
220
0.0
230
1.0
 70
    12
 71
     2
 72
     6
 73
     3
 74
     0
 42
0.0000000001
 43
0.0000000001
 40
0.0
 40
0.0
 40
0.0
 40
39.44293519962302
 40
39.44293519962302
 40
39.44293519962302
 10
1121.367326432917
 20
1816.41856667038
 30
0.0
 41
1.0
 10
1102.028793451826
 20
1820.485320043005
 30
0.0
 41
0.9969632247189985
 10
1083.556274520969
 20
1827.505532661124
 30
0.0
 41
1.0
  0
SPLINE
  5
63
330
1F
100
AcDbEntity
  8
LINEE VISIBILI 2D
100
AcDbSpline
210
0.0
220
0.0
230
1.0
 70
    12
 71
     2
 72
     6
 73
     3
 74
     0
 42
0.0000000001
 43
0.0000000001
 40
0.0
 40
0.0
 40
0.0
 40
8.039986559783168
 40
8.039986559783168
 40
8.039986559783168
 10
1083.249038898729
 20
1509.475030816889
 30
0.0
 41
1.0
 10
1086.872156293659
 20
1511.217871115266
 30
0.0
 41
0.9998085607558239
 10
1090.560688497765
 20
1512.817621765326
 30
0.0
 41
1.0
  0
SPLINE
  5
64
330
1F
100
AcDbEntity
  8
LINEE VISIBILI 2D
100
AcDbSpline
210
0.0
220
0.0
230
1.0
 70
    12
 71
     2
 72
     6
 73
     3
 74
     0
 42
0.0000000001
 43
0.0000000001
 40
0.0
 40
0.0
 40
0.0
 40
76.94372455430945
 40
76.94372455430945
 40
76.94372455430945
 10
1091.821845243979
 20
1513.359597953462
 30
0.0
 41
1.0
 10
1127.638166877414
 20
1528.606129675535
 30
0.0
 41
0.9825759209008209
 10
1166.548711205875
 20
1529.717509432735
 30
0.0
 41
1.0
  0
SPLINE
  5
65
330
1F
100
AcDbEntity
  8
LINEE VISIBILI 2D
100
AcDbSpline
210
0.0
220
0.0
230
1.0
 70
    12
 71
     2
 72
     6
 73
     3
 74
     0
 42
0.0000000001
 43
0.0000000001
 40
0.0
 40
0.0
 40
0.0
 40
18.60816011177514
 40
18.60816011177514
 40
18.60816011177514
 10
1246.517243618342
 20
1516.771476616944
 30
0.0
 41
1.0
 10
1255.238124033538
 20
1513.511006161011
 30
0.0
 41
0.9989745459860635
 10
1263.62831627401
 20
1509.475030816923
 30
0.0
 41
1.0
  0
SPLINE
  5
66
330
1F
100
AcDbEntity
  8
LINEE VISIBILI 2D
100
AcDbSpline
210
0.0
220
0.0
230
1.0
 70
    24
 71
     2
 72
     6
 73
     3
 74
     0
 42
0.0000000001
 43
0.0000000001
 40
0.0
 40
0.0
 40
0.0
 40
309.4675161091703
 40
309.4675161091703
 40
309.4675161091703
 10
1219.201487159846
 20
1817.675238929535
 30
0.0
 10
1233.190547583285
 20
1663.57513487323
 30
0.0
 10
1247.179608006724
 20
1509.475030816924
 30
0.0
  0
SPLINE
  5
67
330
1F
100
AcDbEntity
  8
LINEE VISIBILI 2D
100
AcDbSpline
210
0.0
220
0.0
230
1.0
 70
    24
 71
     2
 72
     6
 73
     3
 74
     0
 42
0.0000000001
 43
0.0000000001
 40
0.0
 40
0.0
 40
0.0
 40
29.39420679233336
 40
29.39420679233336
 40
29.39420679233336
 10
1180.263482260462
 20
1811.90318178774
 30
0.0
 10
1180.420648747456
 20
1797.206918761617
 30
0.0
 10
1180.57781523445
 20
1782.510655735494
 30
0.0
  0
SPLINE
  5
68
330
1F
100
AcDbEntity
  8
LINEE VISIBILI 2D
100
AcDbSpline
210
0.0
220
0.0
230
1.0
 70
    24
 71
     2
 72
     6
 73
     3
 74
     0
 42
0.0000000001
 43
0.0000000001
 40
0.0
 40
0.0
 40
0.0
 40
169.1893340415282
 40
169.1893340415282
 40
169.1893340415282
 10
1180.75187861433
 20
1766.234404590233
 30
0.0
 10
1181.656509021813
 20
1681.644574633082
 30
0.0
 10
1182.561139429295
 20
1597.05474467593
 30
0.0
  0
SPLINE
  5
69
330
1F
100
AcDbEntity
  8
LINEE VISIBILI 2D
100
AcDbSpline
210
0.0
220
0.0
230
1.0
 70
    24
 71
     2
 72
     6
 73
     3
 74
     0
 42
0.0000000001
 43
0.0000000001
 40
0.0
 40
0.0
 40
0.0
 40
54.82270863430392
 40
54.82270863430392
 40
54.82270863430392
 10
1182.696137984154
 20
1584.431352066647
 30
0.0
 10
1182.989266918859
 20
1557.021565111472
 30
0.0
 10
1183.282395853565
 20
1529.611778156297
 30
0.0
  0
SPLINE
  5
6A
330
1F
100
AcDbEntity
  8
LINEE VISIBILI 2D
100
AcDbSpline
210
0.0
220
0.0
230
1.0
 70
    12
 71
     2
 72
     6
 73
     3
 74
     0
 42
0.0000000001
 43
0.0000000001
 40
0.0
 40
0.0
 40
0.0
 40
26.06870169133462
 40
26.06870169133462
 40
26.06870169133462
 10
187.4244945009446
 20
1827.529776911167
 30
0.0
 41
1.0
 10
199.6100617092374
 20
1822.870066530329
 30
0.0
 41
0.9986486815312096
 10
212.2134766351285
 20
1819.500366064867
 30
0.0
 41
1.0
  0
SPLINE
  5
6B
330
1F
100
AcDbEntity
  8
LINEE VISIBILI 2D
100
AcDbSpline
210
0.0
220
0.0
230
1.0
 70
    24
 71
     2
 72
     6
 73
     3
 74
     0
 42
0.0000000001
 43
0.0000000001
 40
0.0
 40
0.0
 40
0.0
 40
185.9369941365707
 40
185.9369941365707
 40
185.9369941365707
 10
366.3314664850851
 20
1509.562225926578
 30
0.0
 10
356.1535041367711
 20
1601.971914431475
 30
0.0
 10
345.9755417884571
 20
1694.381602936372
 30
0.0
  0
SPLINE
  5
6C
330
1F
100
AcDbEntity
  8
LINEE VISIBILI 2D
100
AcDbSpline
210
0.0
220
0.0
230
1.0
 70
    12
 71
     2
 72
     6
 73
     3
 74
     0
 42
0.0000000001
 43
0.0000000001
 40
0.0
 40
0.0
 40
0.0
 40
57.99209740058176
 40
57.99209740058176
 40
57.99209740058176
 10
243.1947664338965
 20
1813.273167541723
 30
0.0
 41
1.0
 10
214.3324029231348
 20
1817.165772209802
 30
0.0
 41
0.9934396577843299
 10
187.1093996892947
 20
1827.514515778933
 30
0.0
 41
1.0
  0
SPLINE
  5
6D
330
1F
100
AcDbEntity
  8
LINEE VISIBILI 2D
100
AcDbSpline
210
0.0
220
0.0
230
1.0
 70
    24
 71
     2
 72
     6
 73
     3
 74
     0
 42
0.0000000001
 43
0.0000000001
 40
0.0
 40
0.0
 40
0.0
 40
107.5905085748657
 40
107.5905085748657
 40
107.5905085748657
 10
240.4657337935757
 20
1526.692311024252
 30
0.0
 10
242.9963035345186
 20
1580.428012384109
 30
0.0
 10
245.5268732754616
 20
1634.163713743967
 30
0.0
  0
SPLINE
  5
6E
330
1F
100
AcDbEntity
  8
LINEE VISIBILI 2D
100
AcDbSpline
210
0.0
220
0.0
230
1.0
 70
    24
 71
     2
 72
     6
 73
     3
 74
     0
 42
0.0000000001
 43
0.0000000001
 40
0.0
 40
0.0
 40
0.0
 40
104.8828221648706
 40
104.8828221648706
 40
104.8828221648706
 10
245.8286995090402
 20
1640.572880852758
 30
0.0
 10
248.2955834343117
 20
1692.956237751836
 30
0.0
 10
250.7624673595832
 20
1745.339594650914
 30
0.0
  0
SPLINE
  5
6F
330
1F
100
AcDbEntity
  8
LINEE VISIBILI 2D
100
AcDbSpline
210
0.0
220
0.0
230
1.0
 70
    24
 71
     2
 72
     6
 73
     3
 74
     0
 42
0.0000000001
 43
0.0000000001
 40
0.0
 40
0.0
 40
0.0
 40
26.28067662792755
 40
26.28067662792755
 40
26.28067662792755
 10
251.0074743735521
 20
1750.542226896409
 30
0.0
 10
251.6256058976713
 20
1763.668018469656
 30
0.0
 10
252.2437374217905
 20
1776.793810042902
 30
0.0
  0
SPLINE
  5
70
330
1F
100
AcDbEntity
  8
LINEE VISIBILI 2D
100
AcDbSpline
210
0.0
220
0.0
230
1.0
 70
    24
 71
     2
 72
     6
 73
     3
 74
     0
 42
0.0000000001
 43
0.0000000001
 40
0.0
 40
0.0
 40
0.0
 40
26.27219384875253
 40
26.27219384875253
 40
26.27219384875253
 10
252.668680961097
 20
1785.817327061039
 30
0.0
 10
253.2866129670191
 20
1798.938881940041
 30
0.0
 10
253.9045449729411
 20
1812.060436819043
 30
0.0
  0
SPLINE
  5
71
330
1F
100
AcDbEntity
  8
LINEE VISIBILI 2D
100
AcDbSpline
210
0.0
220
0.0
230
1.0
 70
    24
 71
     2
 72
     6
 73
     3
 74
     0
 42
0.0000000001
 43
0.0000000001
 40
0.0
 40
0.0
 40
0.0
 40
24.41289742844299
 40
24.41289742844299
 40
24.41289742844299
 10
255.1031792662675
 20
1812.003196460675
 30
0.0
 10
254.5289786203234
 20
1799.810260643936
 30
0.0
 10
253.9547779743792
 20
1787.617324827197
 30
0.0
  0
SPLINE
  5
72
330
1F
100
AcDbEntity
  8
LINEE VISIBILI 2D
100
AcDbSpline
210
0.0
220
0.0
230
1.0
 70
    24
 71
     2
 72
     6
 73
     3
 74
     0
 42
0.0000000001
 43
0.0000000001
 40
0.0
 40
0.0
 40
0.0
 40
27.89343452551878
 40
27.89343452551878
 40
27.89343452551878
 10
253.5236136019246
 20
1778.461710745365
 30
0.0
 10
252.8675493977842
 20
1764.530432908519
 30
0.0
 10
252.2114851936438
 20
1750.599155071673
 30
0.0
  0
SPLINE
  5
73
330
1F
100
AcDbEntity
  8
LINEE VISIBILI 2D
100
AcDbSpline
210
0.0
220
0.0
230
1.0
 70
    24
 71
     2
 72
     6
 73
     3
 74
     0
 42
0.0000000001
 43
0.0000000001
 40
0.0
 40
0.0
 40
0.0
 40
104.1251482911841
 40
104.1251482911841
 40
104.1251482911841
 10
251.9663421208771
 20
1745.393633668526
 30
0.0
 10
249.5172789736994
 20
1693.388694322668
 30
0.0
 10
247.0682158265218
 20
1641.383754976809
 30
0.0
  0
SPLINE
  5
74
330
1F
100
AcDbEntity
  8
LINEE VISIBILI 2D
100
AcDbSpline
210
0.0
220
0.0
230
1.0
 70
    24
 71
     2
 72
     6
 73
     3
 74
     0
 42
0.0000000001
 43
0.0000000001
 40
0.0
 40
0.0
 40
0.0
 40
108.2414950835128
 40
108.2414950835128
 40
108.2414950835128
 10
246.7686783636138
 20
1635.023189056615
 30
0.0
 10
244.2227971720392
 20
1580.962354773033
 30
0.0
 10
241.6769159804645
 20
1526.901520489451
 30
0.0
  0
SPLINE
  5
75
330
1F
100
AcDbEntity
  8
LINEE VISIBILI 2D
100
AcDbSpline
210
0.0
220
0.0
230
1.0
 70
    24
 71
     2
 72
     6
 73
     3
 74
     0
 42
0.0000000001
 43
0.0000000001
 40
0.0
 40
0.0
 40
0.0
 40
309.1711553454164
 40
309.1711553454164
 40
309.1711553454164
 10
223.2611948881981
 20
1509.475030806204
 30
0.0
 10
233.3824906654694
 20
1663.728913078884
 30
0.0
 10
243.5037864427406
 20
1817.982795351564
 30
0.0
  0
SPLINE
  5
76
330
1F
100
AcDbEntity
  8
LINEE VISIBILI 2D
100
AcDbSpline
210
0.0
220
0.0
230
1.0
 70
    24
 71
     2
 72
     6
 73
     3
 74
     0
 42
0.0000000001
 43
0.0000000001
 40
0.0
 40
0.0
 40
0.0
 40
308.701112348474
 40
308.701112348474
 40
308.701112348474
 10
244.6755913564005
 20
1817.513760940021
 30
0.0
 10
234.5696833153963
 20
1663.494395878471
 30
0.0
 10
224.4637752743921
 20
1509.475030816921
 30
0.0
  0
SPLINE
  5
77
330
1F
100
AcDbEntity
  8
LINEE VISIBILI 2D
100
AcDbSpline
210
0.0
220
0.0
230
1.0
 70
    24
 71
     2
 72
     6
 73
     3
 74
     0
 42
0.0000000001
 43
0.0000000001
 40
0.0
 40
0.0
 40
0.0
 40
187.4306042977876
 40
187.4306042977876
 40
187.4306042977876
 10
347.0288851465759
 20
1695.779040300062
 30
0.0
 10
357.2886058778987
 20
1602.627035558491
 30
0.0
 10
367.5483266092216
 20
1509.475030816919
 30
0.0
  0
SPLINE
  5
79
330
1F
100
AcDbEntity
  8
PREDEFINITO
100
AcDbSpline
210
0.0
220
0.0
230
1.0
 70
    24
 71
     2
 72
     6
 73
     3
 74
     0
 42
0.0000000001
 43
0.0000000001
 40
0.0
 40
0.0
 40
0.0
 40
169.1893340415282
 40
169.1893340415282
 40
169.1893340415282
 10
1179.577054169471
 20
1763.873882119295
 30
0.0
 10
1180.481684576954
 20
1679.284052162143
 30
0.0
 10
1181.386314984436
 20
1594.694222204992
 30
0.0
  0
SPLINE
  5
7A
330
1F
100
AcDbEntity
  8
PREDEFINITO
100
AcDbSpline
210
0.0
220
0.0
230
1.0
 70
    24
 71
     2
 72
     6
 73
     3
 74
     0
 42
0.0000000001
 43
0.0000000001
 40
3.133847031275327
 40
3.133847031275327
 40
3.133847031275327
 40
54.82270863430392
 40
54.82270863430392
 40
54.82270863430392
 10
1181.529719034748
 20
1581.284851780631
 30
0.0
 10
1181.806091751735
 20
1555.441898745508
 30
0.0
 10
1182.082464468722
 20
1529.598945710385
 30
0.0
  0
SPLINE
  5
7B
330
1F
100
AcDbEntity
  8
PREDEFINITO
100
AcDbSpline
210
0.0
220
0.0
230
1.0
 70
    24
 71
     2
 72
     6
 73
     3
 74
     0
 42
0.0000000001
 43
0.0000000001
 40
0.0
 40
0.0
 40
0.0
 40
24.42462489827605
 40
24.42462489827605
 40
24.42462489827605
 10
1179.063550875619
 20
1811.890349341828
 30
0.0
 10
1179.194145741421
 20
1799.678735184134
 30
0.0
 10
1179.324740607223
 20
1787.467121026439
 30
0.0
  0
SPLINE
  5
7C
330
1F
100
AcDbEntity
  8
LINEE VISIBILI 2D
100
AcDbSpline
210
0.0
220
0.0
230
1.0
 70
    12
 71
     2
 72
     6
 73
     3
 74
     0
 42
0.0000000001
 43
0.0000000001
 40
0.0
 40
0.0
 40
0.0
 40
5.971586681531167
 40
5.971586681531167
 40
5.971586681531167
 10
1180.187662742024
 20
1706.777332083294
 30
0.0
 41
1.0
 10
1177.593319099802
 20
1708.256785079773
 30
0.0
 41
0.9996268007784732
 10
1174.922047090994
 20
1709.592339630395
 30
0.0
 41
1.0
  0
SPLINE
  5
7D
330
1F
100
AcDbEntity
  8
LINEE VISIBILI 2D
100
AcDbSpline
210
0.0
220
0.0
230
1.0
 70
    12
 71
     2
 72
     6
 73
     3
 74
     0
 42
0.0000000001
 43
0.0000000001
 40
0.0
 40
0.0
 40
0.0
 40
7.578480099484143
 40
7.578480099484143
 40
7.578480099484143
 10
1174.922047090994
 20
1709.592339630395
 30
0.0
 41
1.0
 10
1171.531412926211
 20
1711.286805465944
 30
0.0
 41
0.9995158641755285
 10
1168.041953491329
 20
1712.767105219224
 30
0.0
 41
1.0
  0
SPLINE
  5
7E
330
1F
100
AcDbEntity
  8
LINEE VISIBILI 2D
100
AcDbSpline
210
0.0
220
0.0
230
1.0
 70
    12
 71
     2
 72
     6
 73
     3
 74
     0
 42
0.0000000001
 43
0.0000000001
 40
0.0
 40
0.0
 40
0.0
 40
10.11557800789047
 40
10.11557800789047
 40
10.11557800789047
 10
1168.041953491329
 20
1712.767105219224
 30
0.0
 41
1.0
 10
1163.384064469317
 20
1714.742305923745
 30
0.0
 41
0.9995277261681532
 10
1158.61363459453
 20
1716.427638761587
 30
0.0
 41
1.0
  0
SPLINE
  5
7F
330
1F
100
AcDbEntity
  8
LINEE VISIBILI 2D
100
AcDbSpline
210
0.0
220
0.0
230
1.0
 70
    12
 71
     2
 72
     6
 73
     3
 74
     0
 42
0.0000000001
 43
0.0000000001
 40
0.0
 40
0.0
 40
0.0
 40
10.16672070082677
 40
10.16672070082677
 40
10.16672070082677
 10
1158.61363459453
 20
1716.427638761587
 30
0.0
 41
1.0
 10
1153.820213678141
 20
1718.120384224696
 30
0.0
 41
0.9999501155914119
 10
1148.993935561103
 20
1719.717040362219
 30
0.0
 41
1.0
  0
SPLINE
  5
80
330
1F
100
AcDbEntity
  8
LINEE VISIBILI 2D
100
AcDbSpline
210
0.0
220
0.0
230
1.0
 70
    12
 71
     2
 72
     6
 73
     3
 74
     0
 42
0.0000000001
 43
0.0000000001
 40
0.0
 40
0.0
 40
0.0
 40
11.01201652923687
 40
11.01201652923687
 40
11.01201652923687
 10
1148.993935561103
 20
1719.717040362219
 30
0.0
 41
1.0
 10
1143.766552789263
 20
1721.446401678937
 30
0.0
 41
0.99999766963678
 10
1138.53175182797
 20
1723.153176445192
 30
0.0
 41
1.0
  0
SPLINE
  5
81
330
1F
100
AcDbEntity
  8
LINEE VISIBILI 2D
100
AcDbSpline
210
0.0
220
0.0
230
1.0
 70
    12
 71
     2
 72
     6
 73
     3
 74
     0
 42
0.0000000001
 43
0.0000000001
 40
0.0
 40
0.0
 40
0.0
 40
10.8456231303292
 40
10.8456231303292
 40
10.8456231303292
 10
1138.53175182797
 20
1723.153176445192
 30
0.0
 41
1.0
 10
1133.375103281234
 20
1724.832744579506
 30
0.0
 41
0.9998702542915762
 10
1128.275233440898
 20
1726.677548353352
 30
0.0
 41
1.0
  0
SPLINE
  5
82
330
1F
100
AcDbEntity
  8
LINEE VISIBILI 2D
100
AcDbSpline
210
0.0
220
0.0
230
1.0
 70
    12
 71
     2
 72
     6
 73
     3
 74
     0
 42
0.0000000001
 43
0.0000000001
 40
0.0
 40
0.0
 40
0.0
 40
8.552079857266644
 40
8.552079857266644
 40
8.552079857266644
 10
1128.275233440898
 20
1726.677548353352
 30
0.0
 41
1.0
 10
1124.252970012918
 20
1728.13099480947
 30
0.0
 41
0.999729693557839
 10
1120.302620545981
 20
1729.769850743938
 30
0.0
 41
1.0
  0
SPLINE
  5
83
330
1F
100
AcDbEntity
  8
LINEE VISIBILI 2D
100
AcDbSpline
210
0.0
220
0.0
230
1.0
 70
    12
 71
     2
 72
     6
 73
     3
 74
     0
 42
0.0000000001
 43
0.0000000001
 40
0.0
 40
0.0
 40
0.0
 40
6.873408172693071
 40
6.873408172693071
 40
6.873408172693071
 10
1120.302620545981
 20
1729.769850743938
 30
0.0
 41
1.0
 10
1117.123481978843
 20
1731.081403918855
 30
0.0
 41
0.9989752764075428
 10
1114.075965784566
 20
1732.675059717739
 30
0.0
 41
1.0
  0
SPLINE
  5
84
330
1F
100
AcDbEntity
  8
LINEE VISIBILI 2D
100
AcDbSpline
210
0.0
220
0.0
230
1.0
 70
    12
 71
     2
 72
     6
 73
     3
 74
     0
 42
0.0000000001
 43
0.0000000001
 40
0.0
 40
0.0
 40
0.0
 40
1.050895767025193
 40
1.050895767025193
 40
1.050895767025193
 10
1114.640559352171
 20
1738.239157331168
 30
0.0
 41
1.0
 10
1115.094476787461
 20
1737.974416124451
 30
0.0
 41
0.9999091011419484
 10
1115.555367514362
 20
1737.722010335193
 30
0.0
 41
1.0
  0
SPLINE
  5
85
330
1F
100
AcDbEntity
  8
LINEE VISIBILI 2D
100
AcDbSpline
210
0.0
220
0.0
230
1.0
 70
    12
 71
     2
 72
     6
 73
     3
 74
     0
 42
0.0000000001
 43
0.0000000001
 40
0.0
 40
0.0
 40
0.0
 40
7.317102192265753
 40
7.317102192265753
 40
7.317102192265753
 10
1115.555367514362
 20
1737.722010335193
 30
0.0
 41
1.0
 10
1118.775259474529
 20
1735.977702684436
 30
0.0
 41
0.9985840100515833
 10
1122.162249861437
 20
1734.585363094167
 30
0.0
 41
1.0
  0
SPLINE
  5
86
330
1F
100
AcDbEntity
  8
LINEE VISIBILI 2D
100
AcDbSpline
210
0.0
220
0.0
230
1.0
 70
    12
 71
     2
 72
     6
 73
     3
 74
     0
 42
0.0000000001
 43
0.0000000001
 40
0.0
 40
0.0
 40
0.0
 40
8.324493916459014
 40
8.324493916459014
 40
8.324493916459014
 10
1122.162249861437
 20
1734.585363094167
 30
0.0
 41
1.0
 10
1126.007518787653
 20
1732.990230648067
 30
0.0
 41
0.9997299153592254
 10
1129.922755727353
 20
1731.575500871211
 30
0.0
 41
1.0
  0
SPLINE
  5
87
330
1F
100
AcDbEntity
  8
LINEE VISIBILI 2D
100
AcDbSpline
210
0.0
220
0.0
230
1.0
 70
    12
 71
     2
 72
     6
 73
     3
 74
     0
 42
0.0000000001
 43
0.0000000001
 40
0.0
 40
0.0
 40
0.0
 40
10.6884768095927
 40
10.6884768095927
 40
10.6884768095927
 10
1129.922755727353
 20
1731.575500871211
 30
0.0
 41
1.0
 10
1134.948740185582
 20
1729.757450827272
 30
0.0
 41
0.9998702567514143
 10
1140.030679389617
 20
1728.102240972565
 30
0.0
 41
1.0
  0
SPLINE
  5
88
330
1F
100
AcDbEntity
  8
LINEE VISIBILI 2D
100
AcDbSpline
210
0.0
220
0.0
230
1.0
 70
    12
 71
     2
 72
     6
 73
     3
 74
     0
 42
0.0000000001
 43
0.0000000001
 40
0.0
 40
0.0
 40
0.0
 40
11.03304640408512
 40
11.03304640408512
 40
11.03304640408512
 10
1140.030679389617
 20
1728.102240972565
 30
0.0
 41
1.0
 10
1145.275476793773
 20
1726.392205021247
 30
0.0
 41
0.9999976703857696
 10
1150.512843036719
 20
1724.659543022271
 30
0.0
 41
1.0
  0
SPLINE
  5
89
330
1F
100
AcDbEntity
  8
LINEE VISIBILI 2D
100
AcDbSpline
210
0.0
220
0.0
230
1.0
 70
    12
 71
     2
 72
     6
 73
     3
 74
     0
 42
0.0000000001
 43
0.0000000001
 40
0.0
 40
0.0
 40
0.0
 40
10.26406213632205
 40
10.26406213632205
 40
10.26406213632205
 10
1150.512843036719
 20
1724.659543022271
 30
0.0
 41
1.0
 10
1155.385333861461
 20
1723.04760981649
 30
0.0
 41
0.9999500954145776
 10
1160.224646192034
 20
1721.338647656491
 30
0.0
 41
1.0
  0
SPLINE
  5
8A
330
1F
100
AcDbEntity
  8
LINEE VISIBILI 2D
100
AcDbSpline
210
0.0
220
0.0
230
1.0
 70
    12
 71
     2
 72
     6
 73
     3
 74
     0
 42
0.0000000001
 43
0.0000000001
 40
0.0
 40
0.0
 40
0.0
 40
10.41608374366173
 40
10.41608374366173
 40
10.41608374366173
 10
1160.224646192034
 20
1721.338647656491
 30
0.0
 41
1.0
 10
1165.136819774924
 20
1719.603322217747
 30
0.0
 41
0.9995273587517206
 10
1169.933065094546
 20
1717.56940124565
 30
0.0
 41
1.0
  0
SPLINE
  5
8B
330
1F
100
AcDbEntity
  8
LINEE VISIBILI 2D
100
AcDbSpline
210
0.0
220
0.0
230
1.0
 70
    12
 71
     2
 72
     6
 73
     3
 74
     0
 42
0.0000000001
 43
0.0000000001
 40
0.0
 40
0.0
 40
0.0
 40
7.884082307211671
 40
7.884082307211671
 40
7.884082307211671
 10
1169.933065094546
 20
1717.56940124565
 30
0.0
 41
1.0
 10
1173.563250241823
 20
1716.02943981046
 30
0.0
 41
0.9995158854629751
 10
1177.090629329792
 20
1714.266679987016
 30
0.0
 41
1.0
  0
SPLINE
  5
8C
330
1F
100
AcDbEntity
  8
LINEE VISIBILI 2D
100
AcDbSpline
210
0.0
220
0.0
230
1.0
 70
    12
 71
     2
 72
     6
 73
     3
 74
     0
 42
0.0000000001
 43
0.0000000001
 40
0.0
 40
0.0
 40
0.0
 40
3.417895943425103
 40
3.417895943425103
 40
3.417895943425103
 10
1177.090629329792
 20
1714.266679987016
 30
0.0
 41
1.0
 10
1178.619536660816
 20
1713.502873842823
 30
0.0
 41
0.9998833555808356
 10
1180.124401643179
 20
1712.692726425606
 30
0.0
 41
1.0
  0
SPLINE
  5
8D
330
1F
100
AcDbEntity
  8
LINEE VISIBILI 2D
100
AcDbSpline
210
0.0
220
0.0
230
1.0
 70
    12
 71
     2
 72
     6
 73
     3
 74
     0
 42
0.0000000001
 43
0.0000000001
 40
0.0
 40
0.0
 40
0.0
 40
5.436590379865494
 40
5.436590379865494
 40
5.436590379865494
 10
1112.932589199921
 20
1733.293812858398
 30
0.0
 41
1.0
 10
1110.541424885676
 20
1734.599741807273
 30
0.0
 41
0.9965655550091039
 10
1108.398592263978
 20
1736.282413953779
 30
0.0
 41
1.0
  0
SPLINE
  5
8E
330
1F
100
AcDbEntity
  8
LINEE VISIBILI 2D
100
AcDbSpline
210
0.0
220
0.0
230
1.0
 70
    12
 71
     2
 72
     6
 73
     3
 74
     0
 42
0.0000000001
 43
0.0000000001
 40
0.0
 40
0.0
 40
0.0
 40
4.745559125350901
 40
4.745559125350901
 40
4.745559125350901
 10
1108.398592263978
 20
1736.282413953779
 30
0.0
 41
1.0
 10
1106.491495128172
 20
1737.733487130748
 30
0.0
 41
0.9852932472027922
 10
1105.184364193233
 20
1739.741979493003
 30
0.0
 41
1.0
  0
SPLINE
  5
8F
330
1F
100
AcDbEntity
  8
LINEE VISIBILI 2D
100
AcDbSpline
210
0.0
220
0.0
230
1.0
 70
    12
 71
     2
 72
     6
 73
     3
 74
     0
 42
0.0000000001
 43
0.0000000001
 40
0.0
 40
0.0
 40
0.0
 40
4.901673383477939
 40
4.901673383477939
 40
4.901673383477939
 10
1105.184364193233
 20
1739.741979493003
 30
0.0
 41
1.0
 10
1103.75450624224
 20
1741.880070458883
 30
0.0
 41
0.9307352608693873
 10
1104.162541892613
 20
1744.419643975523
 30
0.0
 41
1.0
  0
SPLINE
  5
90
330
1F
100
AcDbEntity
  8
LINEE VISIBILI 2D
100
AcDbSpline
210
0.0
220
0.0
230
1.0
 70
    12
 71
     2
 72
     6
 73
     3
 74
     0
 42
0.0000000001
 43
0.0000000001
 40
0.0
 40
0.0
 40
0.0
 40
1.719200119348044
 40
1.719200119348044
 40
1.719200119348044
 10
1104.162541892613
 20
1744.419643975523
 30
0.0
 41
1.0
 10
1104.328815547721
 20
1745.267642972026
 30
0.0
 41
0.9921268117126482
 10
1104.700603383038
 20
1746.047721834682
 30
0.0
 41
1.0
  0
SPLINE
  5
91
330
1F
100
AcDbEntity
  8
LINEE VISIBILI 2D
100
AcDbSpline
210
0.0
220
0.0
230
1.0
 70
    12
 71
     2
 72
     6
 73
     3
 74
     0
 42
0.0000000001
 43
0.0000000001
 40
0.0
 40
0.0
 40
0.0
 40
2.275447326574668
 40
2.275447326574668
 40
2.275447326574668
 10
1104.700603383038
 20
1746.047721834682
 30
0.0
 41
1.0
 10
1105.197430312331
 20
1747.08331307311
 30
0.0
 41
0.9858541455890785
 10
1106.008574871705
 20
1747.896535499373
 30
0.0
 41
1.0
  0
SPLINE
  5
92
330
1F
100
AcDbEntity
  8
LINEE VISIBILI 2D
100
AcDbSpline
210
0.0
220
0.0
230
1.0
 70
    12
 71
     2
 72
     6
 73
     3
 74
     0
 42
0.0000000001
 43
0.0000000001
 40
0.0
 40
0.0
 40
0.0
 40
3.807657037633079
 40
3.807657037633079
 40
3.807657037633079
 10
1106.008574871705
 20
1747.896535499373
 30
0.0
 41
1.0
 10
1107.381585415181
 20
1749.254980270523
 30
0.0
 41
0.9786799720098777
 10
1109.184881531138
 20
1749.94682798999
 30
0.0
 41
1.0
  0
SPLINE
  5
93
330
1F
100
AcDbEntity
  8
LINEE VISIBILI 2D
100
AcDbSpline
210
0.0
220
0.0
230
1.0
 70
    12
 71
     2
 72
     6
 73
     3
 74
     0
 42
0.0000000001
 43
0.0000000001
 40
0.0
 40
0.0
 40
0.0
 40
3.980120897150918
 40
3.980120897150918
 40
3.980120897150918
 10
1109.184881531138
 20
1749.94682798999
 30
0.0
 41
1.0
 10
1111.054877214514
 20
1750.66655734189
 30
0.0
 41
0.989805589215998
 10
1113.051932538041
 20
1750.829849199024
 30
0.0
 41
1.0
  0
SPLINE
  5
94
330
1F
100
AcDbEntity
  8
LINEE VISIBILI 2D
100
AcDbSpline
210
0.0
220
0.0
230
1.0
 70
    12
 71
     2
 72
     6
 73
     3
 74
     0
 42
0.0000000001
 43
0.0000000001
 40
0.0
 40
0.0
 40
0.0
 40
1.670699036908978
 40
1.670699036908978
 40
1.670699036908978
 10
1113.051932538041
 20
1750.829849199024
 30
0.0
 41
1.0
 10
1113.88438863249
 20
1750.904836054034
 30
0.0
 41
0.9991439571506856
 10
1114.720194351202
 20
1750.910750289148
 30
0.0
 41
1.0
  0
SPLINE
  5
95
330
1F
100
AcDbEntity
  8
LINEE VISIBILI 2D
100
AcDbSpline
210
0.0
220
0.0
230
1.0
 70
    12
 71
     2
 72
     6
 73
     3
 74
     0
 42
0.0000000001
 43
0.0000000001
 40
0.0
 40
0.0
 40
0.0
 40
0.6996550198811596
 40
0.6996550198811596
 40
0.6996550198811596
 10
1114.19235350779
 20
1745.708852583724
 30
0.0
 41
1.0
 10
1113.842757266037
 20
1745.694309687548
 30
0.0
 41
0.9996952813870456
 10
1113.494304834432
 20
1745.662530276194
 30
0.0
 41
1.0
  0
SPLINE
  5
96
330
1F
100
AcDbEntity
  8
LINEE VISIBILI 2D
100
AcDbSpline
210
0.0
220
0.0
230
1.0
 70
    12
 71
     2
 72
     6
 73
     3
 74
     0
 42
0.0000000001
 43
0.0000000001
 40
0.0
 40
0.0
 40
0.0
 40
2.593559817352298
 40
2.593559817352298
 40
2.593559817352298
 10
1113.494304834432
 20
1745.662530276194
 30
0.0
 41
1.0
 10
1112.19250982842
 20
1745.562808326572
 30
0.0
 41
0.9898872202188745
 10
1110.971113938209
 20
1745.101498469431
 30
0.0
 41
1.0
  0
SPLINE
  5
97
330
1F
100
AcDbEntity
  8
LINEE VISIBILI 2D
100
AcDbSpline
210
0.0
220
0.0
230
1.0
 70
    12
 71
     2
 72
     6
 73
     3
 74
     0
 42
0.0000000001
 43
0.0000000001
 40
0.0
 40
0.0
 40
0.0
 40
1.757615274974196
 40
1.757615274974196
 40
1.757615274974196
 10
1110.971113938209
 20
1745.101498469431
 30
0.0
 41
1.0
 10
1110.134498374557
 20
1744.793405002272
 30
0.0
 41
0.9787117371641256
 10
1109.492138668339
 20
1744.175164601075
 30
0.0
 41
1.0
  0
SPLINE
  5
98
330
1F
100
AcDbEntity
  8
LINEE VISIBILI 2D
100
AcDbSpline
210
0.0
220
0.0
230
1.0
 70
    12
 71
     2
 72
     6
 73
     3
 74
     0
 42
0.0000000001
 43
0.0000000001
 40
0.0
 40
0.0
 40
0.0
 40
0.9231718258509184
 40
0.9231718258509184
 40
0.9231718258509184
 10
1109.492138668339
 20
1744.175164601075
 30
0.0
 41
1.0
 10
1109.14850575802
 20
1743.8445397547
 30
0.0
 41
0.9525380096449283
 10
1109.060640627445
 20
1743.375843469775
 30
0.0
 41
0.9999934678321413
  0
SPLINE
  5
99
330
1F
100
AcDbEntity
  8
LINEE VISIBILI 2D
100
AcDbSpline
210
0.0
220
0.0
230
1.0
 70
    12
 71
     2
 72
     6
 73
     3
 74
     0
 42
0.0000000001
 43
0.0000000001
 40
0.0
 40
0.0
 40
0.0
 40
0.9461582575757169
 40
0.9461582575757169
 40
0.9461582575757169
 10
1109.060640627445
 20
1743.375843469775
 30
0.0
 41
1.0
 10
1109.129074749695
 20
1742.897876997097
 30
0.0
 41
0.9701086462673851
 10
1109.41417658665
 20
1742.508261294431
 30
0.0
 41
1.0
  0
SPLINE
  5
9A
330
1F
100
AcDbEntity
  8
LINEE VISIBILI 2D
100
AcDbSpline
210
0.0
220
0.0
230
1.0
 70
    12
 71
     2
 72
     6
 73
     3
 74
     0
 42
0.0000000001
 43
0.0000000001
 40
0.0
 40
0.0
 40
0.0
 40
2.958032466245105
 40
2.958032466245105
 40
2.958032466245105
 10
1109.41417658665
 20
1742.508261294431
 30
0.0
 41
1.0
 10
1110.25801963225
 20
1741.276993268972
 30
0.0
 41
0.9863261289679889
 10
1111.456313286835
 20
1740.386945880621
 30
0.0
 41
1.0
  0
SPLINE
  5
9B
330
1F
100
AcDbEntity
  8
LINEE VISIBILI 2D
100
AcDbSpline
210
0.0
220
0.0
230
1.0
 70
    12
 71
     2
 72
     6
 73
     3
 74
     0
 42
0.0000000001
 43
0.0000000001
 40
0.0
 40
0.0
 40
0.0
 40
2.51373867682971
 40
2.51373867682971
 40
2.51373867682971
 10
1111.456313286835
 20
1740.386945880621
 30
0.0
 41
1.0
 10
1112.441586576238
 20
1739.60466066677
 30
0.0
 41
0.9985721440912068
 10
1113.504696241439
 20
1738.93195608794
 30
0.0
 41
1.0
  0
SPLINE
  5
9C
330
1F
100
AcDbEntity
  8
PREDEFINITO
100
AcDbSpline
210
0.0
220
0.0
230
1.0
 70
    12
 71
     2
 72
     6
 73
     3
 74
     0
 42
0.0000000001
 43
0.0000000001
 40
0.0
 40
0.0
 40
0.0
 40
3.313201714149765
 40
3.313201714149765
 40
3.313201714149765
 10
1181.331517168589
 20
1712.03378703864
 30
0.0
 41
1.0
 10
1182.780885043544
 20
1711.231281789431
 30
0.0
 41
0.9999028539211879
 10
1184.207320424696
 20
1710.388688165344
 30
0.0
 41
1.0
  0
SPLINE
  5
9D
330
1F
100
AcDbEntity
  8
PREDEFINITO
100
AcDbSpline
210
0.0
220
0.0
230
1.0
 70
    12
 71
     2
 72
     6
 73
     3
 74
     0
 42
0.0000000001
 43
0.0000000001
 40
0.0
 40
0.0
 40
0.0
 40
7.64340755434704
 40
7.64340755434704
 40
7.64340755434704
 10
1184.207320424696
 20
1710.388688165344
 30
0.0
 41
1.0
 10
1187.49839752315
 20
1708.444379181365
 30
0.0
 41
0.999686572954037
 10
1190.688027820199
 20
1706.337774220464
 30
0.0
 41
1.0
  0
SPLINE
  5
9E
330
1F
100
AcDbEntity
  8
PREDEFINITO
100
AcDbSpline
210
0.0
220
0.0
230
1.0
 70
    12
 71
     2
 72
     6
 73
     3
 74
     0
 42
0.0000000001
 43
0.0000000001
 40
0.0
 40
0.0
 40
0.0
 40
7.438651252722294
 40
7.438651252722294
 40
7.438651252722294
 10
1190.688027820199
 20
1706.337774220464
 30
0.0
 41
1.0
 10
1193.791846558697
 20
1704.288320909502
 30
0.0
 41
0.9999692863774712
 10
1196.863159818345
 20
1702.190468556169
 30
0.0
 41
1.0
  0
SPLINE
  5
9F
330
1F
100
AcDbEntity
  8
PREDEFINITO
100
AcDbSpline
210
0.0
220
0.0
230
1.0
 70
    12
 71
     2
 72
     6
 73
     3
 74
     0
 42
0.0000000001
 43
0.0000000001
 40
0.0
 40
0.0
 40
0.0
 40
8.72750180155586
 40
8.72750180155586
 40
8.72750180155586
 10
1196.863159818345
 20
1702.190468556169
 30
0.0
 41
1.0
 10
1200.46638754925
 20
1699.728928898124
 30
0.0
 41
0.9999958390995074
 10
1204.055353514679
 20
1697.246641471601
 30
0.0
 41
1.0
  0
SPLINE
  5
A0
330
1F
100
AcDbEntity
  8
PREDEFINITO
100
AcDbSpline
210
0.0
220
0.0
230
1.0
 70
    12
 71
     2
 72
     6
 73
     3
 74
     0
 42
0.0000000001
 43
0.0000000001
 40
0.0
 40
0.0
 40
0.0
 40
7.935874759736932
 40
7.935874759736932
 40
7.935874759736932
 10
1204.055353514679
 20
1697.246641471601
 30
0.0
 41
1.0
 10
1207.318475535076
 20
1694.989083599173
 30
0.0
 41
0.9999997229130384
 10
1210.584955118876
 20
1692.73638654986
 30
0.0
 41
1.0
  0
POLYLINE
  5
A1
330
1F
100
AcDbEntity
  8
PREDEFINITO
100
AcDb2dPolyline
 66
     1
 10
0.0
 20
0.0
 30
0.0
  0
VERTEX
  5
A3
330
A1
100
AcDbEntity
  8
PREDEFINITO
100
AcDbVertex
100
AcDb2dVertex
 10
1210.584955118876
 20
1692.73638654986
 30
0.0
  0
VERTEX
  5
A4
330
A1
100
AcDbEntity
  8
PREDEFINITO
100
AcDbVertex
100
AcDb2dVertex
 10
1210.777428714243
 20
1692.603661916038
 30
0.0
  0
SEQEND
  5
A2
330
A1
100
AcDbEntity
  8
PREDEFINITO
  0
SPLINE
  5
A5
330
1F
100
AcDbEntity
  8
PREDEFINITO
100
AcDbSpline
210
0.0
220
0.0
230
1.0
 70
    12
 71
     2
 72
     6
 73
     3
 74
     0
 42
0.0000000001
 43
0.0000000001
 40
0.0
 40
0.0
 40
0.0
 40
11.57444300701106
 40
11.57444300701106
 40
11.57444300701106
 10
1210.777428714243
 20
1692.603661916038
 30
0.0
 41
1.0
 10
1215.541918675189
 20
1689.318606736065
 30
0.0
 41
0.9999995657289561
 10
1220.300277309011
 20
1686.024676676798
 30
0.0
 41
1.0
  0
SPLINE
  5
A6
330
1F
100
AcDbEntity
  8
PREDEFINITO
100
AcDbSpline
210
0.0
220
0.0
230
1.0
 70
    12
 71
     2
 72
     6
 73
     3
 74
     0
 42
0.0000000001
 43
0.0000000001
 40
0.0
 40
0.0
 40
0.0
 40
10.76255501405855
 40
10.76255501405855
 40
10.76255501405855
 10
1220.300277309011
 20
1686.024676676798
 30
0.0
 41
1.0
 10
1224.725758258671
 20
1682.962846864237
 30
0.0
 41
0.9999602249295106
 10
1229.095920379977
 20
1679.822565591741
 30
0.0
 41
1.0
  0
SPLINE
  5
A7
330
1F
100
AcDbEntity
  8
PREDEFINITO
100
AcDbSpline
210
0.0
220
0.0
230
1.0
 70
    12
 71
     2
 72
     6
 73
     3
 74
     0
 42
0.0000000001
 43
0.0000000001
 40
0.0
 40
0.0
 40
0.0
 40
1.868631464826785
 40
1.868631464826785
 40
1.868631464826785
 10
1229.095920379977
 20
1679.822565591741
 30
0.0
 41
1.0
 10
1229.854499979954
 20
1679.277123374977
 30
0.0
 41
0.9999962768540582
 10
1230.610091502657
 20
1678.727549292484
 30
0.0
 41
1.0
  0
SPLINE
  5
A8
330
1F
100
AcDbEntity
  8
PREDEFINITO
100
AcDbSpline
210
0.0
220
0.0
230
1.0
 70
    12
 71
     2
 72
     6
 73
     3
 74
     0
 42
0.0000000001
 43
0.0000000001
 40
0.0
 40
0.0
 40
0.0
 40
0.6360680920018572
 40
0.6360680920018572
 40
0.6360680920018572
 10
1115.924485960547
 20
1750.892317741336
 30
0.0
 41
1.0
 10
1116.242299319438
 20
1750.880144849982
 30
0.0
 41
0.9999417520947583
 10
1116.559775879884
 20
1750.861114770084
 30
0.0
 41
1.0
  0
SPLINE
  5
A9
330
1F
100
AcDbEntity
  8
PREDEFINITO
100
AcDbSpline
210
0.0
220
0.0
230
1.0
 70
    12
 71
     2
 72
     6
 73
     3
 74
     0
 42
0.0000000001
 43
0.0000000001
 40
0.0
 40
0.0
 40
0.0
 40
4.171017555765685
 40
4.171017555765685
 40
4.171017555765685
 10
1116.559775879884
 20
1750.861114770084
 30
0.0
 41
1.0
 10
1118.641520668012
 20
1750.735823142594
 30
0.0
 41
0.9999978454849366
 10
1120.722727351139
 20
1750.601889961759
 30
0.0
 41
0.9999999999999989
  0
SPLINE
  5
AA
330
1F
100
AcDbEntity
  8
PREDEFINITO
100
AcDbSpline
210
0.0
220
0.0
230
1.0
 70
    12
 71
     2
 72
     6
 73
     3
 74
     0
 42
0.0000000001
 43
0.0000000001
 40
0.0
 40
0.0
 40
0.0
 40
5.24958994651269
 40
5.24958994651269
 40
5.24958994651269
 10
1120.722727351139
 20
1750.601889961759
 30
0.0
 41
0.9999999999998721
 10
1123.343313636047
 20
1750.443568651496
 30
0.0
 41
0.9996747028377845
 10
1125.968563849074
 20
1750.419084238682
 30
0.0
 41
1.0
  0
SPLINE
  5
AB
330
1F
100
AcDbEntity
  8
PREDEFINITO
100
AcDbSpline
210
0.0
220
0.0
230
1.0
 70
    12
 71
     2
 72
     6
 73
     3
 74
     0
 42
0.0000000001
 43
0.0000000001
 40
0.0
 40
0.0
 40
0.0
 40
6.216942226254236
 40
6.216942226254236
 40
6.216942226254236
 10
1125.968563849074
 20
1750.419084238682
 30
0.0
 41
1.0
 10
1129.078458815965
 20
1750.389844187767
 30
0.0
 41
0.9992471384570968
 10
1132.181259122797
 20
1750.60181559662
 30
0.0
 41
1.0
  0
SPLINE
  5
AC
330
1F
100
AcDbEntity
  8
PREDEFINITO
100
AcDbSpline
210
0.0
220
0.0
230
1.0
 70
    12
 71
     2
 72
     6
 73
     3
 74
     0
 42
0.0000000001
 43
0.0000000001
 40
0.0
 40
0.0
 40
0.0
 40
8.169760427580668
 40
8.169760427580668
 40
8.169760427580668
 10
1132.181259122797
 20
1750.60181559662
 30
0.0
 41
1.0
 10
1136.258846765272
 20
1750.877179116178
 30
0.0
 41
0.9992680717359202
 10
1140.303449020963
 20
1751.463471400988
 30
0.0
 41
1.0
  0
SPLINE
  5
AD
330
1F
100
AcDbEntity
  8
PREDEFINITO
100
AcDbSpline
210
0.0
220
0.0
230
1.0
 70
    12
 71
     2
 72
     6
 73
     3
 74
     0
 42
0.0000000001
 43
0.0000000001
 40
0.0
 40
0.0
 40
0.0
 40
8.579867297141263
 40
8.579867297141263
 40
8.579867297141263
 10
1140.303449020963
 20
1751.463471400988
 30
0.0
 41
1.0
 10
1144.551549918232
 20
1752.076585017578
 30
0.0
 41
0.9992370928350416
 10
1148.738839317886
 20
1753.01938776671
 30
0.0
 41
1.0
  0
SPLINE
  5
AE
330
1F
100
AcDbEntity
  8
PREDEFINITO
100
AcDbSpline
210
0.0
220
0.0
230
1.0
 70
    12
 71
     2
 72
     6
 73
     3
 74
     0
 42
0.0000000001
 43
0.0000000001
 40
0.0
 40
0.0
 40
0.0
 40
8.275236252331263
 40
8.275236252331263
 40
8.275236252331263
 10
1148.738839317886
 20
1753.01938776671
 30
0.0
 41
1.0
 10
1152.777730021859
 20
1753.927996674274
 30
0.0
 41
0.9991980638461829
 10
1156.730966513492
 20
1755.156869941441
 30
0.0
 41
1.0
  0
SPLINE
  5
AF
330
1F
100
AcDbEntity
  8
PREDEFINITO
100
AcDbSpline
210
0.0
220
0.0
230
1.0
 70
    12
 71
     2
 72
     6
 73
     3
 74
     0
 42
0.0000000001
 43
0.0000000001
 40
0.0
 40
0.0
 40
0.0
 40
8.210728114407079
 40
8.210728114407079
 40
8.210728114407079
 10
1156.730966513492
 20
1755.156869941441
 30
0.0
 41
1.0
 10
1160.657245667173
 20
1756.377173555612
 30
0.0
 41
0.9977462611431459
 10
1164.38818617405
 20
1758.113795225692
 30
0.0
 41
1.0
  0
SPLINE
  5
B0
330
1F
100
AcDbEntity
  8
PREDEFINITO
100
AcDbSpline
210
0.0
220
0.0
230
1.0
 70
    12
 71
     2
 72
     6
 73
     3
 74
     0
 42
0.0000000001
 43
0.0000000001
 40
0.0
 40
0.0
 40
0.0
 40
6.936470692713082
 40
6.936470692713082
 40
6.936470692713082
 10
1164.38818617405
 20
1758.113795225692
 30
0.0
 41
1.0
 10
1167.544173273256
 20
1759.580492892345
 30
0.0
 41
0.996485913902608
 10
1170.407938245881
 20
1761.551311208146
 30
0.0
 41
1.0
  0
SPLINE
  5
B1
330
1F
100
AcDbEntity
  8
PREDEFINITO
100
AcDbSpline
210
0.0
220
0.0
230
1.0
 70
    12
 71
     2
 72
     6
 73
     3
 74
     0
 42
0.0000000001
 43
0.0000000001
 40
0.0
 40
0.0
 40
0.0
 40
6.083677332373855
 40
6.083677332373855
 40
6.083677332373855
 10
1170.407938245881
 20
1761.551311208146
 30
0.0
 41
1.0
 10
1172.948980696561
 20
1763.277543264069
 30
0.0
 41
0.985369637614298
 10
1174.762607646541
 20
1765.756964796072
 30
0.0
 41
1.0
  0
SPLINE
  5
B2
330
1F
100
AcDbEntity
  8
PREDEFINITO
100
AcDbSpline
210
0.0
220
0.0
230
1.0
 70
    24
 71
     2
 72
     6
 73
     3
 74
     0
 42
0.0000000001
 43
0.0000000001
 40
0.0
 40
0.0
 40
0.0
 40
1.0
 40
1.0
 40
1.0
 10
1174.762607646541
 20
1765.756964796072
 30
0.0
 10
1174.806389562487
 20
1765.81869604032
 30
0.0
 10
1174.850171478433
 20
1765.880427284568
 30
0.0
  0
SPLINE
  5
B3
330
1F
100
AcDbEntity
  8
PREDEFINITO
100
AcDbSpline
210
0.0
220
0.0
230
1.0
 70
    12
 71
     2
 72
     6
 73
     3
 74
     0
 42
0.0000000001
 43
0.0000000001
 40
0.0
 40
0.0
 40
0.0
 40
3.791078977755031
 40
3.791078977755031
 40
3.791078977755031
 10
1174.850171478433
 20
1765.880427284568
 30
0.0
 41
1.0
 10
1175.961726986444
 20
1767.438380677855
 30
0.0
 41
0.9857200674447597
 10
1176.493042132097
 20
1769.27698847699
 30
0.0
 41
1.0
  0
SPLINE
  5
B4
330
1F
100
AcDbEntity
  8
PREDEFINITO
100
AcDbSpline
210
0.0
220
0.0
230
1.0
 70
    12
 71
     2
 72
     6
 73
     3
 74
     0
 42
0.0000000001
 43
0.0000000001
 40
0.0
 40
0.0
 40
0.0
 40
3.863645523552459
 40
3.863645523552459
 40
3.863645523552459
 10
1176.493042132097
 20
1769.27698847699
 30
0.0
 41
1.0
 10
1177.020633895468
 20
1771.148054303251
 30
0.0
 41
0.9906099419834011
 10
1177.021687804105
 20
1773.09208086795
 30
0.0
 41
1.0
  0
SPLINE
  5
B5
330
1F
100
AcDbEntity
  8
PREDEFINITO
100
AcDbSpline
210
0.0
220
0.0
230
1.0
 70
    12
 71
     2
 72
     6
 73
     3
 74
     0
 42
0.0000000001
 43
0.0000000001
 40
0.0
 40
0.0
 40
0.0
 40
4.620312873092123
 40
4.620312873092123
 40
4.620312873092123
 10
1177.021687804105
 20
1773.09208086795
 30
0.0
 41
1.0
 10
1177.016443132456
 20
1775.410375170242
 30
0.0
 41
0.9947390725369539
 10
1176.538830128489
 20
1777.678943519581
 30
0.0
 41
1.0
  0
SPLINE
  5
B6
330
1F
100
AcDbEntity
  8
PREDEFINITO
100
AcDbSpline
210
0.0
220
0.0
230
1.0
 70
    12
 71
     2
 72
     6
 73
     3
 74
     0
 42
0.0000000001
 43
0.0000000001
 40
0.0
 40
0.0
 40
0.0
 40
5.149243196248162
 40
5.149243196248162
 40
5.149243196248162
 10
1176.538830128489
 20
1777.678943519581
 30
0.0
 41
1.0
 10
1176.008568051542
 20
1780.198807049853
 30
0.0
 41
0.9997496822264708
 10
1175.366108834942
 20
1782.692426029578
 30
0.0
 41
1.0
  0
SPLINE
  5
B7
330
1F
100
AcDbEntity
  8
PREDEFINITO
100
AcDbSpline
210
0.0
220
0.0
230
1.0
 70
    12
 71
     2
 72
     6
 73
     3
 74
     0
 42
0.0000000001
 43
0.0000000001
 40
0.0
 40
0.0
 40
0.0
 40
6.892436654754098
 40
6.892436654754098
 40
6.892436654754098
 10
1175.366108834942
 20
1782.692426029578
 30
0.0
 41
1.0
 10
1174.507542019265
 20
1786.03002868299
 30
0.0
 41
0.9999805698201444
 10
1173.690652867629
 20
1789.378075959087
 30
0.0
 41
1.0
  0
SPLINE
  5
B8
330
1F
100
AcDbEntity
  8
PREDEFINITO
100
AcDbSpline
210
0.0
220
0.0
230
1.0
 70
    12
 71
     2
 72
     6
 73
     3
 74
     0
 42
0.0000000001
 43
0.0000000001
 40
0.0
 40
0.0
 40
0.0
 40
7.117562609022178
 40
7.117562609022178
 40
7.117562609022178
 10
1173.690652867629
 20
1789.378075959087
 30
0.0
 41
1.0
 10
1172.845684725495
 20
1792.83696715177
 30
0.0
 41
0.9992324002440588
 10
1172.274099874931
 20
1796.351393165026
 30
0.0
 41
1.0
  0
SPLINE
  5
B9
330
1F
100
AcDbEntity
  8
PREDEFINITO
100
AcDbSpline
210
0.0
220
0.0
230
1.0
 70
    12
 71
     2
 72
     6
 73
     3
 74
     0
 42
0.0000000001
 43
0.0000000001
 40
0.0
 40
0.0
 40
0.0
 40
6.862877038178685
 40
6.862877038178685
 40
6.862877038178685
 10
1172.274099874931
 20
1796.351393165026
 30
0.0
 41
1.0
 10
1171.721973171075
 20
1799.739502954995
 30
0.0
 41
0.9994041740596492
 10
1171.404904969791
 20
1803.157631039447
 30
0.0
 41
0.9999999999999998
  0
SPLINE
  5
BA
330
1F
100
AcDbEntity
  8
PREDEFINITO
100
AcDbSpline
210
0.0
220
0.0
230
1.0
 70
    12
 71
     2
 72
     6
 73
     3
 74
     0
 42
0.0000000001
 43
0.0000000001
 40
0.0
 40
0.0
 40
0.0
 40
6.644874408180246
 40
6.644874408180246
 40
6.644874408180246
 10
1171.404904969791
 20
1803.157631039447
 30
0.0
 41
1.0
 10
1171.099480451918
 20
1806.466384867875
 30
0.0
 41
0.9998269829646744
 10
1170.917339486545
 20
1809.784209562157
 30
0.0
 41
1.0
  0
SPLINE
  5
BB
330
1F
100
AcDbEntity
  8
PREDEFINITO
100
AcDbSpline
210
0.0
220
0.0
230
1.0
 70
    12
 71
     2
 72
     6
 73
     3
 74
     0
 42
0.0000000001
 43
0.0000000001
 40
0.0
 40
0.0
 40
0.0
 40
2.121632819959714
 40
2.121632819959714
 40
2.121632819959714
 10
1170.917339486545
 20
1809.784209562157
 30
0.0
 41
1.0
 10
1170.859286637399
 20
1810.843444277688
 30
0.0
 41
0.999988763341841
 10
1170.81127907889
 20
1811.903181787739
 30
0.0
 41
1.0
  0
SPLINE
  5
BC
330
1F
100
AcDbEntity
  8
PREDEFINITO
100
AcDbSpline
210
0.0
220
0.0
230
1.0
 70
    12
 71
     2
 72
     6
 73
     3
 74
     0
 42
0.0000000001
 43
0.0000000001
 40
0.0
 40
0.0
 40
0.0
 40
6.177828158340445
 40
6.177828158340445
 40
6.177828158340445
 10
1231.229411434826
 20
1671.9052708047
 30
0.0
 41
1.0
 10
1228.756164331023
 20
1673.75595335682
 30
0.0
 41
0.9999538650962618
 10
1226.247821411787
 20
1675.558782506991
 30
0.0
 41
1.0
  0
SPLINE
  5
BD
330
1F
100
AcDbEntity
  8
PREDEFINITO
100
AcDbSpline
210
0.0
220
0.0
230
1.0
 70
    12
 71
     2
 72
     6
 73
     3
 74
     0
 42
0.0000000001
 43
0.0000000001
 40
0.0
 40
0.0
 40
0.0
 40
10.67333990829229
 40
10.67333990829229
 40
10.67333990829229
 10
1226.247821411787
 20
1675.558782506991
 30
0.0
 41
1.0
 10
1221.913875018282
 20
1678.673018382546
 30
0.0
 41
0.9999602312932928
 10
1217.525072947132
 20
1681.709459195511
 30
0.0
 41
1.0
  0
SPLINE
  5
BE
330
1F
100
AcDbEntity
  8
PREDEFINITO
100
AcDbSpline
210
0.0
220
0.0
230
1.0
 70
    12
 71
     2
 72
     6
 73
     3
 74
     0
 42
0.0000000001
 43
0.0000000001
 40
0.0
 40
0.0
 40
0.0
 40
11.57381942274337
 40
11.57381942274337
 40
11.57381942274337
 10
1217.525072947132
 20
1681.709459195511
 30
0.0
 41
1.0
 10
1212.766971386262
 20
1685.00321105204
 30
0.0
 41
0.9999995651048665
 10
1208.002775893344
 20
1688.28814226388
 30
0.0
 41
0.9999999999998483
  0
POLYLINE
  5
BF
330
1F
100
AcDbEntity
  8
PREDEFINITO
100
AcDb2dPolyline
 66
     1
 10
0.0
 20
0.0
 30
0.0
  0
VERTEX
  5
C1
330
BF
100
AcDbEntity
  8
PREDEFINITO
100
AcDbVertex
100
AcDb2dVertex
 10
1208.002775893344
 20
1688.28814226388
 30
0.0
  0
VERTEX
  5
C2
330
BF
100
AcDbEntity
  8
PREDEFINITO
100
AcDbVertex
100
AcDb2dVertex
 10
1207.808874636869
 20
1688.421763183819
 30
0.0
  0
SEQEND
  5
C0
330
BF
100
AcDbEntity
  8
PREDEFINITO
  0
SPLINE
  5
C3
330
1F
100
AcDbEntity
  8
PREDEFINITO
100
AcDbSpline
210
0.0
220
0.0
230
1.0
 70
    12
 71
     2
 72
     6
 73
     3
 74
     0
 42
0.0000000001
 43
0.0000000001
 40
0.0
 40
0.0
 40
0.0
 40
7.93315686807752
 40
7.93315686807752
 40
7.93315686807752
 10
1207.808874636869
 20
1688.421763183819
 30
0.0
 41
1.0
 10
1204.543518058297
 20
1690.673694951482
 30
0.0
 41
0.9999997236172804
 10
1201.281513629853
 20
1692.930479695369
 30
0.0
 41
1.0
  0
SPLINE
  5
C4
330
1F
100
AcDbEntity
  8
PREDEFINITO
100
AcDbSpline
210
0.0
220
0.0
230
1.0
 70
    12
 71
     2
 72
     6
 73
     3
 74
     0
 42
0.0000000001
 43
0.0000000001
 40
0.0
 40
0.0
 40
0.0
 40
8.698634456154197
 40
8.698634456154197
 40
8.698634456154197
 10
1201.281513629853
 20
1692.930479695369
 30
0.0
 41
1.0
 10
1197.70441430973
 20
1695.404550359126
 30
0.0
 41
0.9999958431552077
 10
1194.113107333241
 20
1697.857951956075
 30
0.0
 41
1.0
  0
SPLINE
  5
C5
330
1F
100
AcDbEntity
  8
PREDEFINITO
100
AcDbSpline
210
0.0
220
0.0
230
1.0
 70
    12
 71
     2
 72
     6
 73
     3
 74
     0
 42
0.0000000001
 43
0.0000000001
 40
0.0
 40
0.0
 40
0.0
 40
7.360331314082829
 40
7.360331314082829
 40
7.360331314082829
 10
1194.113107333241
 20
1697.857951956075
 30
0.0
 41
1.0
 10
1191.074130816284
 20
1699.933715872628
 30
0.0
 41
0.9999692758019134
 10
1188.002985583276
 20
1701.96158204716
 30
0.0
 41
1.0
  0
SPLINE
  5
C6
330
1F
100
AcDbEntity
  8
PREDEFINITO
100
AcDbSpline
210
0.0
220
0.0
230
1.0
 70
    12
 71
     2
 72
     6
 73
     3
 74
     0
 42
0.0000000001
 43
0.0000000001
 40
0.0
 40
0.0
 40
0.0
 40
7.394002063247228
 40
7.394002063247228
 40
7.394002063247228
 10
1188.002985583276
 20
1701.96158204716
 30
0.0
 41
1.0
 10
1184.917432528561
 20
1703.999446761492
 30
0.0
 41
0.9996866104245588
 10
1181.733748617196
 20
1705.880320718724
 30
0.0
 41
1.0
  0
SPLINE
  5
C7
330
1F
100
AcDbEntity
  8
PREDEFINITO
100
AcDbSpline
210
0.0
220
0.0
230
1.0
 70
    12
 71
     2
 72
     6
 73
     3
 74
     0
 42
0.0000000001
 43
0.0000000001
 40
0.0
 40
0.0
 40
0.0
 40
0.3927987376494601
 40
0.3927987376494601
 40
0.3927987376494601
 10
1181.733748617196
 20
1705.880320718724
 30
0.0
 41
1.0
 10
1181.564641389839
 20
1705.980198306988
 30
0.0
 41
0.9999985435253137
 10
1181.39519421886
 20
1706.079498071484
 30
0.0
 41
1.0
  0
SPLINE
  5
C8
330
1F
100
AcDbEntity
  8
PREDEFINITO
100
AcDbSpline
210
0.0
220
0.0
230
1.0
 70
    12
 71
     2
 72
     6
 73
     3
 74
     0
 42
0.0000000001
 43
0.0000000001
 40
0.0
 40
0.0
 40
0.0
 40
1.82670682669207
 40
1.82670682669207
 40
1.82670682669207
 10
1175.816939148448
 20
1811.903181787739
 30
0.0
 41
1.0
 10
1175.859284503338
 20
1810.990805175281
 30
0.0
 41
0.99999123043968
 10
1175.909270306906
 20
1810.078815245796
 30
0.0
 41
1.0
  0
SPLINE
  5
C9
330
1F
100
AcDbEntity
  8
PREDEFINITO
100
AcDbSpline
210
0.0
220
0.0
230
1.0
 70
    12
 71
     2
 72
     6
 73
     3
 74
     0
 42
0.0000000001
 43
0.0000000001
 40
0.0
 40
0.0
 40
0.0
 40
6.444811558892522
 40
6.444811558892522
 40
6.444811558892522
 10
1175.909270306906
 20
1810.078815245796
 30
0.0
 41
1.0
 10
1176.085935226816
 20
1806.860883529597
 30
0.0
 41
0.9998269813403041
 10
1176.382172436338
 20
1803.651749917587
 30
0.0
 41
1.0
  0
SPLINE
  5
CA
330
1F
100
AcDbEntity
  8
PREDEFINITO
100
AcDbSpline
210
0.0
220
0.0
230
1.0
 70
    12
 71
     2
 72
     6
 73
     3
 74
     0
 42
0.0000000001
 43
0.0000000001
 40
0.0
 40
0.0
 40
0.0
 40
6.491949868832112
 40
6.491949868832112
 40
6.491949868832112
 10
1176.382172436338
 20
1803.651749917587
 30
0.0
 41
1.0
 10
1176.682202831482
 20
1800.418375180223
 30
0.0
 41
0.9994041581659862
 10
1177.204589288046
 20
1797.213403601528
 30
0.0
 41
1.0
  0
SPLINE
  5
CB
330
1F
100
AcDbEntity
  8
PREDEFINITO
100
AcDbSpline
210
0.0
220
0.0
230
1.0
 70
    12
 71
     2
 72
     6
 73
     3
 74
     0
 42
0.0000000001
 43
0.0000000001
 40
0.0
 40
0.0
 40
0.0
 40
6.697576183844054
 40
6.697576183844054
 40
6.697576183844054
 10
1177.204589288046
 20
1797.213403601528
 30
0.0
 41
1.0
 10
1177.742427186147
 20
1793.906348537525
 30
0.0
 41
0.9992315919540875
 10
1178.537651560642
 20
1790.651582648066
 30
0.0
 41
1.0
  0
SPLINE
  5
CC
330
1F
100
AcDbEntity
  8
PREDEFINITO
100
AcDbSpline
210
0.0
220
0.0
230
1.0
 70
    12
 71
     2
 72
     6
 73
     3
 74
     0
 42
0.0000000001
 43
0.0000000001
 40
0.0
 40
0.0
 40
0.0
 40
6.825779362699365
 40
6.825779362699365
 40
6.825779362699365
 10
1178.537651560642
 20
1790.651582648066
 30
0.0
 41
1.0
 10
1179.34663861089
 20
1787.335914137041
 30
0.0
 41
0.999980571178172
 10
1180.196898822981
 20
1784.030588843789
 30
0.0
 41
1.0
  0
SPLINE
  5
CD
330
1F
100
AcDbEntity
  8
PREDEFINITO
100
AcDbSpline
210
0.0
220
0.0
230
1.0
 70
    12
 71
     2
 72
     6
 73
     3
 74
     0
 42
0.0000000001
 43
0.0000000001
 40
0.0
 40
0.0
 40
0.0
 40
5.388680186407188
 40
5.388680186407188
 40
5.388680186407188
 10
1180.196898822981
 20
1784.030588843789
 30
0.0
 41
1.0
 10
1180.869170606047
 20
1781.421002537448
 30
0.0
 41
0.9997499077838116
 10
1181.424080672574
 20
1778.783965401075
 30
0.0
 41
1.0
  0
SPLINE
  5
CE
330
1F
100
AcDbEntity
  8
PREDEFINITO
100
AcDbSpline
210
0.0
220
0.0
230
1.0
 70
    12
 71
     2
 72
     6
 73
     3
 74
     0
 42
0.0000000001
 43
0.0000000001
 40
0.0
 40
0.0
 40
0.0
 40
5.010201684313125
 40
5.010201684313125
 40
5.010201684313125
 10
1181.424080672574
 20
1778.783965401075
 30
0.0
 41
1.0
 10
1181.941176980711
 20
1776.325917723118
 30
0.0
 41
0.995974885506183
 10
1182.011095116504
 20
1773.815041694063
 30
0.0
 41
1.0
  0
SPLINE
  5
CF
330
1F
100
AcDbEntity
  8
PREDEFINITO
100
AcDbSpline
210
0.0
220
0.0
230
1.0
 70
    24
 71
     2
 72
     6
 73
     3
 74
     0
 42
0.0000000001
 43
0.0000000001
 40
-1.0
 40
-1.0
 40
-1.0
 40
0.0
 40
0.0
 40
0.0
 10
1182.011095116504
 20
1773.815041694063
 30
0.0
 10
1182.016386044499
 20
1773.457398567558
 30
0.0
 10
1182.021676972493
 20
1773.099755441053
 30
0.0
  0
SPLINE
  5
D0
330
1F
100
AcDbEntity
  8
PREDEFINITO
100
AcDbSpline
210
0.0
220
0.0
230
1.0
 70
    12
 71
     2
 72
     6
 73
     3
 74
     0
 42
0.0000000001
 43
0.0000000001
 40
0.0
 40
0.0
 40
0.0
 40
5.334347653453879
 40
5.334347653453879
 40
5.334347653453879
 10
1182.021676972493
 20
1773.099755441053
 30
0.0
 41
0.9999879173494529
 10
1182.022149172654
 20
1770.417453941081
 30
0.0
 41
0.990604732990544
 10
1181.296079407509
 20
1767.835291232059
 30
0.0
 41
1.0
  0
SPLINE
  5
D1
330
1F
100
AcDbEntity
  8
PREDEFINITO
100
AcDbSpline
210
0.0
220
0.0
230
1.0
 70
    12
 71
     2
 72
     6
 73
     3
 74
     0
 42
0.0000000001
 43
0.0000000001
 40
0.0
 40
0.0
 40
0.0
 40
5.683890288778103
 40
5.683890288778103
 40
5.683890288778103
 10
1181.296079407509
 20
1767.835291232059
 30
0.0
 41
1.0
 10
1180.51128076692
 20
1765.085712992782
 30
0.0
 41
0.9852252822241716
 10
1178.846121775964
 20
1762.761205532006
 30
0.0
 41
0.9998877539047752
  0
SPLINE
  5
D2
330
1F
100
AcDbEntity
  8
PREDEFINITO
100
AcDbSpline
210
0.0
220
0.0
230
1.0
 70
    24
 71
     2
 72
     6
 73
     3
 74
     0
 42
0.0000000001
 43
0.0000000001
 40
-1.0
 40
-1.0
 40
-1.0
 40
0.0
 40
0.0
 40
0.0
 10
1178.846121775964
 20
1762.761205532006
 30
0.0
 10
1178.809319806022
 20
1762.709664831722
 30
0.0
 10
1178.77251783608
 20
1762.658124131438
 30
0.0
  0
SPLINE
  5
D3
330
1F
100
AcDbEntity
  8
PREDEFINITO
100
AcDbSpline
210
0.0
220
0.0
230
1.0
 70
    12
 71
     2
 72
     6
 73
     3
 74
     0
 42
0.0000000001
 43
0.0000000001
 40
0.0
 40
0.0
 40
0.0
 40
7.834295634046296
 40
7.834295634046296
 40
7.834295634046296
 10
1178.77251783608
 20
1762.658124131438
 30
0.0
 41
1.0
 10
1176.443237633961
 20
1759.460727219926
 30
0.0
 41
0.9853823286559925
 10
1173.175680247501
 20
1757.23093754466
 30
0.0
 41
1.0
  0
SPLINE
  5
D4
330
1F
100
AcDbEntity
  8
PREDEFINITO
100
AcDbSpline
210
0.0
220
0.0
230
1.0
 70
    12
 71
     2
 72
     6
 73
     3
 74
     0
 42
0.0000000001
 43
0.0000000001
 40
0.0
 40
0.0
 40
0.0
 40
7.762243486471294
 40
7.762243486471294
 40
7.762243486471294
 10
1173.175680247501
 20
1757.23093754466
 30
0.0
 41
1.0
 10
1169.971343674348
 20
1755.02498862167
 30
0.0
 41
0.9964870824661165
 10
1166.441092377449
 20
1753.383554711657
 30
0.0
 41
1.0
  0
SPLINE
  5
D5
330
1F
100
AcDbEntity
  8
PREDEFINITO
100
AcDbSpline
210
0.0
220
0.0
230
1.0
 70
    12
 71
     2
 72
     6
 73
     3
 74
     0
 42
0.0000000001
 43
0.0000000001
 40
0.0
 40
0.0
 40
0.0
 40
8.876007557248379
 40
8.876007557248379
 40
8.876007557248379
 10
1166.441092377449
 20
1753.383554711657
 30
0.0
 41
1.0
 10
1162.409064567168
 20
1751.5062263673
 30
0.0
 41
0.9977424566813443
 10
1158.164646704978
 20
1750.187039209603
 30
0.0
 41
1.0
  0
SPLINE
  5
D6
330
1F
100
AcDbEntity
  8
PREDEFINITO
100
AcDbSpline
210
0.0
220
0.0
230
1.0
 70
    12
 71
     2
 72
     6
 73
     3
 74
     0
 42
0.0000000001
 43
0.0000000001
 40
0.0
 40
0.0
 40
0.0
 40
8.664326603270819
 40
8.664326603270819
 40
8.664326603270819
 10
1158.164646704978
 20
1750.187039209603
 30
0.0
 41
1.0
 10
1154.025520735207
 20
1748.900428992393
 30
0.0
 41
0.999197961465432
 10
1149.7967118285
 20
1747.949164110658
 30
0.0
 41
1.0
  0
SPLINE
  5
D7
330
1F
100
AcDbEntity
  8
PREDEFINITO
100
AcDbSpline
210
0.0
220
0.0
230
1.0
 70
    12
 71
     2
 72
     6
 73
     3
 74
     0
 42
0.0000000001
 43
0.0000000001
 40
0.0
 40
0.0
 40
0.0
 40
8.958152241177373
 40
8.958152241177373
 40
8.958152241177373
 10
1149.7967118285
 20
1747.949164110658
 30
0.0
 41
1.0
 10
1145.424791925449
 20
1746.964847897189
 30
0.0
 41
0.9992366633616597
 10
1140.98936958031
 20
1746.324855188598
 30
0.0
 41
1.0
  0
SPLINE
  5
D8
330
1F
100
AcDbEntity
  8
PREDEFINITO
100
AcDbSpline
210
0.0
220
0.0
230
1.0
 70
    12
 71
     2
 72
     6
 73
     3
 74
     0
 42
0.0000000001
 43
0.0000000001
 40
0.0
 40
0.0
 40
0.0
 40
8.540076939396572
 40
8.540076939396572
 40
8.540076939396572
 10
1140.98936958031
 20
1746.324855188598
 30
0.0
 41
1.0
 10
1136.761407161032
 20
1745.712166080346
 30
0.0
 41
0.9992674642749385
 10
1132.498968795203
 20
1745.424636360653
 30
0.0
 41
1.0
  0
SPLINE
  5
D9
330
1F
100
AcDbEntity
  8
PREDEFINITO
100
AcDbSpline
210
0.0
220
0.0
230
1.0
 70
    12
 71
     2
 72
     6
 73
     3
 74
     0
 42
0.0000000001
 43
0.0000000001
 40
0.0
 40
0.0
 40
0.0
 40
6.592955479258944
 40
6.592955479258944
 40
6.592955479258944
 10
1132.498968795203
 20
1745.424636360653
 30
0.0
 41
1.0
 10
1129.208475928162
 20
1745.200246604579
 30
0.0
 41
0.9992464723375836
 10
1125.910491657394
 20
1745.231771522496
 30
0.0
 41
1.0
  0
SPLINE
  5
DA
330
1F
100
AcDbEntity
  8
PREDEFINITO
100
AcDbSpline
210
0.0
220
0.0
230
1.0
 70
    12
 71
     2
 72
     6
 73
     3
 74
     0
 42
0.0000000001
 43
0.0000000001
 40
0.0
 40
0.0
 40
0.0
 40
5.499836190398927
 40
5.499836190398927
 40
5.499836190398927
 10
1125.910491657394
 20
1745.231771522496
 30
0.0
 41
1.0
 10
1123.160093476091
 20
1745.257560360751
 30
0.0
 41
0.9996722831607411
 10
1120.414620033053
 20
1745.424086014842
 30
0.0
 41
1.0
  0
SPLINE
  5
DB
330
1F
100
AcDbEntity
  8
PREDEFINITO
100
AcDbSpline
210
0.0
220
0.0
230
1.0
 70
    12
 71
     2
 72
     6
 73
     3
 74
     0
 42
0.0000000001
 43
0.0000000001
 40
0.0
 40
0.0
 40
0.0
 40
4.150538290913803
 40
4.150538290913803
 40
4.150538290913803
 10
1120.414620033053
 20
1745.424086014842
 30
0.0
 41
1.0
 10
1118.343632005463
 20
1745.557363846088
 30
0.0
 41
0.9999978467591858
 10
1116.272108658668
 20
1745.68204509731
 30
0.0
 41
1.0
  0
SPLINE
  5
DC
330
1F
100
AcDbEntity
  8
PREDEFINITO
100
AcDbSpline
210
0.0
220
0.0
230
1.0
 70
    12
 71
     2
 72
     6
 73
     3
 74
     0
 42
0.0000000001
 43
0.0000000001
 40
0.0
 40
0.0
 40
0.0
 40
0.873418561483616
 40
0.873418561483616
 40
0.873418561483616
 10
1116.272108658668
 20
1745.68204509731
 30
0.0
 41
1.0
 10
1115.836143317061
 20
1745.708356906866
 30
0.0
 41
0.9998305651347615
 10
1115.399504909099
 20
1745.718603423174
 30
0.0
 41
1.0
  0
SPLINE
  5
DD
330
1F
100
AcDbEntity
  8
PREDEFINITO
100
AcDbSpline
210
0.0
220
0.0
230
1.0
 70
    12
 71
     2
 72
     6
 73
     3
 74
     0
 42
0.0000000001
 43
0.0000000001
 40
0.0
 40
0.0
 40
0.0
 40
7.739296257798876
 40
7.739296257798876
 40
7.739296257798876
 10
1231.900674949456
 20
1677.784059638265
 30
0.0
 41
1.0
 10
1235.020077264758
 20
1675.493817785741
 30
0.0
 41
0.999914767382281
 10
1238.078618632349
 20
1673.122910100804
 30
0.0
 41
1.0
  0
SPLINE
  5
DE
330
1F
100
AcDbEntity
  8
PREDEFINITO
100
AcDbSpline
210
0.0
220
0.0
230
1.0
 70
    12
 71
     2
 72
     6
 73
     3
 74
     0
 42
0.0000000001
 43
0.0000000001
 40
0.0
 40
0.0
 40
0.0
 40
10.28787037048453
 40
10.28787037048453
 40
10.28787037048453
 10
1238.078618632349
 20
1673.122910100804
 30
0.0
 41
1.0
 10
1242.155435346257
 20
1669.978580691673
 30
0.0
 41
0.9986652269920225
 10
1245.886121858653
 20
1666.430451593377
 30
0.0
 41
1.0
  0
SPLINE
  5
DF
330
1F
100
AcDbEntity
  8
PREDEFINITO
100
AcDbSpline
210
0.0
220
0.0
230
1.0
 70
    12
 71
     2
 72
     6
 73
     3
 74
     0
 42
0.0000000001
 43
0.0000000001
 40
0.0
 40
0.0
 40
0.0
 40
6.68159499026961
 40
6.68159499026961
 40
6.68159499026961
 10
1245.886121858653
 20
1666.430451593377
 30
0.0
 41
1.0
 10
1248.310456876688
 20
1664.125171454184
 30
0.0
 41
0.9979365749267637
 10
1250.419381477247
 20
1661.528220582685
 30
0.0
 41
1.0
  0
SPLINE
  5
E0
330
1F
100
AcDbEntity
  8
PREDEFINITO
100
AcDbSpline
210
0.0
220
0.0
230
1.0
 70
    12
 71
     2
 72
     6
 73
     3
 74
     0
 42
0.0000000001
 43
0.0000000001
 40
0.0
 40
0.0
 40
0.0
 40
6.377576305708197
 40
6.377576305708197
 40
6.377576305708197
 10
1250.419381477247
 20
1661.528220582685
 30
0.0
 41
1.0
 10
1252.45864911002
 20
1659.045330611681
 30
0.0
 41
0.9887358483192441
 10
1253.67169016476
 20
1656.070118604831
 30
0.0
 41
1.0
  0
SPLINE
  5
E1
330
1F
100
AcDbEntity
  8
PREDEFINITO
100
AcDbSpline
210
0.0
220
0.0
230
1.0
 70
    12
 71
     2
 72
     6
 73
     3
 74
     0
 42
0.0000000001
 43
0.0000000001
 40
0.0
 40
0.0
 40
0.0
 40
4.342788185944868
 40
4.342788185944868
 40
4.342788185944868
 10
1253.67169016476
 20
1656.070118604831
 30
0.0
 41
1.0
 10
1254.487736540555
 20
1654.036928402659
 30
0.0
 41
0.9867368378444307
 10
1254.609443635452
 20
1651.849468353031
 30
0.0
 41
1.0
  0
SPLINE
  5
E2
330
1F
100
AcDbEntity
  8
PREDEFINITO
100
AcDbSpline
210
0.0
220
0.0
230
1.0
 70
    12
 71
     2
 72
     6
 73
     3
 74
     0
 42
0.0000000001
 43
0.0000000001
 40
0.0
 40
0.0
 40
0.0
 40
1.511506031277782
 40
1.511506031277782
 40
1.511506031277782
 10
1254.609443635452
 20
1651.849468353031
 30
0.0
 41
1.0
 10
1254.649877425099
 20
1651.093945781144
 30
0.0
 41
0.9983142174436296
 10
1254.602484517963
 20
1650.338827803391
 30
0.0
 41
1.0
  0
SPLINE
  5
E3
330
1F
100
AcDbEntity
  8
PREDEFINITO
100
AcDbSpline
210
0.0
220
0.0
230
1.0
 70
    12
 71
     2
 72
     6
 73
     3
 74
     0
 42
0.0000000001
 43
0.0000000001
 40
0.0
 40
0.0
 40
0.0
 40
6.136081407250359
 40
6.136081407250359
 40
6.136081407250359
 10
1254.602484517963
 20
1650.338827803391
 30
0.0
 41
1.0
 10
1254.354866229568
 20
1647.218595429935
 30
0.0
 41
0.9705503108899123
 10
1252.676941140648
 20
1644.576298649276
 30
0.0
 41
1.0
  0
POLYLINE
  5
E4
330
1F
100
AcDbEntity
  8
PREDEFINITO
100
AcDb2dPolyline
 66
     1
 10
0.0
 20
0.0
 30
0.0
  0
VERTEX
  5
E6
330
E4
100
AcDbEntity
  8
PREDEFINITO
100
AcDbVertex
100
AcDb2dVertex
 10
1252.676941140648
 20
1644.576298649276
 30
0.0
  0
VERTEX
  5
E7
330
E4
100
AcDbEntity
  8
PREDEFINITO
100
AcDbVertex
100
AcDb2dVertex
 10
1252.544060572629
 20
1644.36178028421
 30
0.0
  0
SEQEND
  5
E5
330
E4
100
AcDbEntity
  8
PREDEFINITO
  0
SPLINE
  5
E8
330
1F
100
AcDbEntity
  8
PREDEFINITO
100
AcDbSpline
210
0.0
220
0.0
230
1.0
 70
    12
 71
     2
 72
     6
 73
     3
 74
     0
 42
0.0000000001
 43
0.0000000001
 40
0.0
 40
0.0
 40
0.0
 40
6.63209516711035
 40
6.63209516711035
 40
6.63209516711035
 10
1252.544060572629
 20
1644.36178028421
 30
0.0
 41
1.0
 10
1250.721900295509
 20
1641.564300435338
 30
0.0
 41
0.9899040254714024
 10
1248.1879353605
 20
1639.390551763457
 30
0.0
 41
1.0
  0
POLYLINE
  5
E9
330
1F
100
AcDbEntity
  8
PREDEFINITO
100
AcDb2dPolyline
 66
     1
 10
0.0
 20
0.0
 30
0.0
  0
VERTEX
  5
EB
330
E9
100
AcDbEntity
  8
PREDEFINITO
100
AcDbVertex
100
AcDb2dVertex
 10
1248.1879353605
 20
1639.390551763457
 30
0.0
  0
VERTEX
  5
EC
330
E9
100
AcDbEntity
  8
PREDEFINITO
100
AcDbVertex
100
AcDb2dVertex
 10
1248.046052910383
 20
1639.266232895969
 30
0.0
  0
SEQEND
  5
EA
330
E9
100
AcDbEntity
  8
PREDEFINITO
  0
SPLINE
  5
ED
330
1F
100
AcDbEntity
  8
PREDEFINITO
100
AcDbSpline
210
0.0
220
0.0
230
1.0
 70
    12
 71
     2
 72
     6
 73
     3
 74
     0
 42
0.0000000001
 43
0.0000000001
 40
0.0
 40
0.0
 40
0.0
 40
7.629655767084472
 40
7.629655767084472
 40
7.629655767084472
 10
1248.046052910383
 20
1639.266232895969
 30
0.0
 41
1.0
 10
1245.153927179469
 20
1636.769986022336
 30
0.0
 41
0.9978042554520258
 10
1241.957238620373
 20
1634.677900471103
 30
0.0
 41
1.0
  0
SPLINE
  5
EE
330
1F
100
AcDbEntity
  8
PREDEFINITO
100
AcDbSpline
210
0.0
220
0.0
230
1.0
 70
    12
 71
     2
 72
     6
 73
     3
 74
     0
 42
0.0000000001
 43
0.0000000001
 40
0.0
 40
0.0
 40
0.0
 40
6.830478438519542
 40
6.830478438519542
 40
6.830478438519542
 10
1241.957238620373
 20
1634.677900471103
 30
0.0
 41
1.0
 10
1239.104251850138
 20
1632.798516819873
 30
0.0
 41
0.999501507096181
 10
1236.138342997663
 20
1631.102934000174
 30
0.0
 41
1.0
  0
SPLINE
  5
EF
330
1F
100
AcDbEntity
  8
PREDEFINITO
100
AcDbSpline
210
0.0
220
0.0
230
1.0
 70
    12
 71
     2
 72
     6
 73
     3
 74
     0
 42
0.0000000001
 43
0.0000000001
 40
0.0
 40
0.0
 40
0.0
 40
4.310108923888402
 40
4.310108923888402
 40
4.310108923888402
 10
1235.624795859611
 20
1636.760044986387
 30
0.0
 41
1.0
 10
1237.473633903189
 20
1637.867970376201
 30
0.0
 41
0.9997673561942468
 10
1239.272968495212
 20
1639.054602504004
 30
0.0
 41
1.0
  0
SPLINE
  5
F0
330
1F
100
AcDbEntity
  8
PREDEFINITO
100
AcDbSpline
210
0.0
220
0.0
230
1.0
 70
    12
 71
     2
 72
     6
 73
     3
 74
     0
 42
0.0000000001
 43
0.0000000001
 40
0.0
 40
0.0
 40
0.0
 40
6.962676827824465
 40
6.962676827824465
 40
6.962676827824465
 10
1239.272968495212
 20
1639.054602504004
 30
0.0
 41
1.0
 10
1242.190873463799
 20
1640.962758448973
 30
0.0
 41
0.9978087224488095
 10
1244.831623986463
 20
1643.239775533635
 30
0.0
 41
1.0
  0
POLYLINE
  5
F1
330
1F
100
AcDbEntity
  8
PREDEFINITO
100
AcDb2dPolyline
 66
     1
 10
0.0
 20
0.0
 30
0.0
  0
VERTEX
  5
F3
330
F1
100
AcDbEntity
  8
PREDEFINITO
100
AcDbVertex
100
AcDb2dVertex
 10
1244.831623986463
 20
1643.239775533635
 30
0.0
  0
VERTEX
  5
F4
330
F1
100
AcDbEntity
  8
PREDEFINITO
100
AcDbVertex
100
AcDb2dVertex
 10
1244.905273365861
 20
1643.304171996037
 30
0.0
  0
SEQEND
  5
F2
330
F1
100
AcDbEntity
  8
PREDEFINITO
  0
SPLINE
  5
F5
330
1F
100
AcDbEntity
  8
PREDEFINITO
100
AcDbSpline
210
0.0
220
0.0
230
1.0
 70
    12
 71
     2
 72
     6
 73
     3
 74
     0
 42
0.0000000001
 43
0.0000000001
 40
0.0
 40
0.0
 40
0.0
 40
5.223868263719626
 40
5.223868263719626
 40
5.223868263719626
 10
1244.905273365861
 20
1643.304171996037
 30
0.0
 41
1.0
 10
1246.911465795326
 20
1645.004405627745
 30
0.0
 41
0.9898669408962324
 10
1248.358787953331
 20
1647.200051554889
 30
0.0
 41
1.0
  0
POLYLINE
  5
F6
330
1F
100
AcDbEntity
  8
PREDEFINITO
100
AcDb2dPolyline
 66
     1
 10
0.0
 20
0.0
 30
0.0
  0
VERTEX
  5
F8
330
F6
100
AcDbEntity
  8
PREDEFINITO
100
AcDbVertex
100
AcDb2dVertex
 10
1248.358787953331
 20
1647.200051554889
 30
0.0
  0
VERTEX
  5
F9
330
F6
100
AcDbEntity
  8
PREDEFINITO
100
AcDbVertex
100
AcDb2dVertex
 10
1248.372575849314
 20
1647.221992325276
 30
0.0
  0
SEQEND
  5
F7
330
F6
100
AcDbEntity
  8
PREDEFINITO
  0
SPLINE
  5
FA
330
1F
100
AcDbEntity
  8
PREDEFINITO
100
AcDbSpline
210
0.0
220
0.0
230
1.0
 70
    12
 71
     2
 72
     6
 73
     3
 74
     0
 42
0.0000000001
 43
0.0000000001
 40
0.0
 40
0.0
 40
0.0
 40
3.707342758420373
 40
3.707342758420373
 40
3.707342758420373
 10
1248.372575849314
 20
1647.221992325276
 30
0.0
 41
1.0
 10
1249.431756125969
 20
1648.790870930373
 30
0.0
 41
0.9691671030163936
 10
1249.613001378623
 20
1650.675119612044
 30
0.0
 41
1.0
  0
SPLINE
  5
FB
330
1F
100
AcDbEntity
  8
PREDEFINITO
100
AcDbSpline
210
0.0
220
0.0
230
1.0
 70
    12
 71
     2
 72
     6
 73
     3
 74
     0
 42
0.0000000001
 43
0.0000000001
 40
0.0
 40
0.0
 40
0.0
 40
3.491742142263202
 40
3.491742142263202
 40
3.491742142263202
 10
1249.613001378623
 20
1650.675119612044
 30
0.0
 41
1.0
 10
1249.719243285092
 20
1652.447422235802
 30
0.0
 41
0.9751684449017577
 10
1249.049552411769
 20
1654.091763461661
 30
0.0
 41
1.0
  0
SPLINE
  5
FC
330
1F
100
AcDbEntity
  8
PREDEFINITO
100
AcDbSpline
210
0.0
220
0.0
230
1.0
 70
    12
 71
     2
 72
     6
 73
     3
 74
     0
 42
0.0000000001
 43
0.0000000001
 40
0.0
 40
0.0
 40
0.0
 40
4.808503723299841
 40
4.808503723299841
 40
4.808503723299841
 10
1249.049552411769
 20
1654.091763461661
 30
0.0
 41
1.0
 10
1248.127518358917
 20
1656.331884949939
 30
0.0
 41
0.9887661585802024
 10
1246.584541477132
 20
1658.199373482474
 30
0.0
 41
1.0
  0
SPLINE
  5
FD
330
1F
100
AcDbEntity
  8
PREDEFINITO
100
AcDbSpline
210
0.0
220
0.0
230
1.0
 70
    12
 71
     2
 72
     6
 73
     3
 74
     0
 42
0.0000000001
 43
0.0000000001
 40
0.0
 40
0.0
 40
0.0
 40
6.023639446625336
 40
6.023639446625336
 40
6.023639446625336
 10
1246.584541477132
 20
1658.199373482474
 30
0.0
 41
1.0
 10
1244.682322721489
 20
1660.539804999092
 30
0.0
 41
0.9979387033460689
 10
1242.495999905844
 20
1662.61731514927
 30
0.0
 41
1.0
  0
SPLINE
  5
FE
330
1F
100
AcDbEntity
  8
PREDEFINITO
100
AcDbSpline
210
0.0
220
0.0
230
1.0
 70
    12
 71
     2
 72
     6
 73
     3
 74
     0
 42
0.0000000001
 43
0.0000000001
 40
0.0
 40
0.0
 40
0.0
 40
9.764934108916314
 40
9.764934108916314
 40
9.764934108916314
 10
1242.495999905844
 20
1662.61731514927
 30
0.0
 41
1.0
 10
1238.954306655034
 20
1665.984413558382
 30
0.0
 41
0.9986665056795486
 10
1235.084298255291
 20
1668.968366936935
 30
0.0
 41
1.0
  0
SPLINE
  5
FF
330
1F
100
AcDbEntity
  8
PREDEFINITO
100
AcDbSpline
210
0.0
220
0.0
230
1.0
 70
    12
 71
     2
 72
     6
 73
     3
 74
     0
 42
0.0000000001
 43
0.0000000001
 40
0.0
 40
0.0
 40
0.0
 40
3.22731897064649
 40
3.22731897064649
 40
3.22731897064649
 10
1235.084298255291
 20
1668.968366936935
 30
0.0
 41
1.0
 10
1233.809263723009
 20
1669.957428764242
 30
0.0
 41
0.999982885021648
 10
1232.522743442309
 20
1670.931503671062
 30
0.0
 41
1.0
  0
SPLINE
  5
100
330
1F
100
AcDbEntity
  8
LINEE VISIBILI 2D
100
AcDbSpline
210
0.0
220
0.0
230
1.0
 70
    24
 71
     2
 72
     6
 73
     3
 74
     0
 42
0.0000000001
 43
0.0000000001
 40
0.0
 40
0.0
 40
0.0
 40
309.1262378153132
 40
309.1262378153132
 40
309.1262378153132
 10
1218.027406850882
 20
1817.335358212768
 30
0.0
 10
1232.001040250723
 20
1663.405194514845
 30
0.0
 10
1245.974673650564
 20
1509.475030816923
 30
0.0
  0
SPLINE
  5
101
330
1F
100
AcDbEntity
  8
PREDEFINITO
100
AcDbSpline
210
0.0
220
0.0
230
1.0
 70
    12
 71
     2
 72
     6
 73
     3
 74
     0
 42
0.0000000001
 43
0.0000000001
 40
0.0
 40
0.0
 40
0.0
 40
0.9494766578512935
 40
0.9494766578512935
 40
0.9494766578512935
 10
1234.992258393531
 20
1630.454659374537
 30
0.0
 41
1.0
 10
1234.577770060294
 20
1630.223189865132
 30
0.0
 41
0.9999925750869696
 10
1234.161510096366
 20
1629.994921701333
 30
0.0
 41
1.0
  0
POLYLINE
  5
102
330
1F
100
AcDbEntity
  8
PREDEFINITO
100
AcDb2dPolyline
 66
     1
 10
0.0
 20
0.0
 30
0.0
  0
VERTEX
  5
104
330
102
100
AcDbEntity
  8
PREDEFINITO
100
AcDbVertex
100
AcDb2dVertex
 10
1234.161510096366
 20
1629.994921701333
 30
0.0
  0
VERTEX
  5
105
330
102
100
AcDbEntity
  8
PREDEFINITO
100
AcDbVertex
100
AcDb2dVertex
 10
1234.129707426647
 20
1629.977483405785
 30
0.0
  0
SEQEND
  5
103
330
102
100
AcDbEntity
  8
PREDEFINITO
  0
SPLINE
  5
106
330
1F
100
AcDbEntity
  8
PREDEFINITO
100
AcDbSpline
210
0.0
220
0.0
230
1.0
 70
    12
 71
     2
 72
     6
 73
     3
 74
     0
 42
0.0000000001
 43
0.0000000001
 40
0.0
 40
0.0
 40
0.0
 40
9.397026405909514
 40
9.397026405909514
 40
9.397026405909514
 10
1234.129707426647
 20
1629.977483405785
 30
0.0
 41
1.0
 10
1230.009185099484
 20
1627.719199165777
 30
0.0
 41
0.9999142047606917
 10
1225.830919459579
 20
1625.569629860142
 30
0.0
 41
1.0
  0
SPLINE
  5
107
330
1F
100
AcDbEntity
  8
PREDEFINITO
100
AcDbSpline
210
0.0
220
0.0
230
1.0
 70
    12
 71
     2
 72
     6
 73
     3
 74
     0
 42
0.0000000001
 43
0.0000000001
 40
0.0
 40
0.0
 40
0.0
 40
10.57050360727964
 40
10.57050360727964
 40
10.57050360727964
 10
1225.830919459579
 20
1625.569629860142
 30
0.0
 41
1.0
 10
1221.131453121621
 20
1623.151117888015
 30
0.0
 41
0.9999920153447237
 10
1216.412807539283
 20
1620.770242442054
 30
0.0
 41
1.0
  0
SPLINE
  5
108
330
1F
100
AcDbEntity
  8
PREDEFINITO
100
AcDbSpline
210
0.0
220
0.0
230
1.0
 70
    12
 71
     2
 72
     6
 73
     3
 74
     0
 42
0.0000000001
 43
0.0000000001
 40
0.0
 40
0.0
 40
0.0
 40
10.26461542637065
 40
10.26461542637065
 40
10.26461542637065
 10
1216.412807539283
 20
1620.770242442054
 30
0.0
 41
0.9999999999999998
 10
1211.828563138842
 20
1618.459788122919
 30
0.0
 41
0.9996324895736354
 10
1207.376277675206
 20
1615.904274469248
 30
0.0
 41
0.9999999999999998
  0
SPLINE
  5
109
330
1F
100
AcDbEntity
  8
PREDEFINITO
100
AcDbSpline
210
0.0
220
0.0
230
1.0
 70
    12
 71
     2
 72
     6
 73
     3
 74
     0
 42
0.0000000001
 43
0.0000000001
 40
0.0
 40
0.0
 40
0.0
 40
7.65504674959502
 40
7.65504674959502
 40
7.65504674959502
 10
1207.376277675206
 20
1615.904274469248
 30
0.0
 41
0.9999999999999996
 10
1204.053915150119
 20
1613.999317136625
 30
0.0
 41
0.9991296507719306
 10
1200.901897181248
 20
1611.824061310029
 30
0.0
 41
1.0
  0
SPLINE
  5
10A
330
1F
100
AcDbEntity
  8
PREDEFINITO
100
AcDbSpline
210
0.0
220
0.0
230
1.0
 70
    12
 71
     2
 72
     6
 73
     3
 74
     0
 42
0.0000000001
 43
0.0000000001
 40
0.0
 40
0.0
 40
0.0
 40
7.116832932611436
 40
7.116832932611436
 40
7.116832932611436
 10
1200.901897181248
 20
1611.824061310029
 30
0.0
 41
1.0
 10
1197.964760490392
 20
1609.798505918363
 30
0.0
 41
0.9960332069563463
 10
1195.433182656594
 20
1607.284393697939
 30
0.0
 41
1.0
  0
SPLINE
  5
10B
330
1F
100
AcDbEntity
  8
PREDEFINITO
100
AcDbSpline
210
0.0
220
0.0
230
1.0
 70
    12
 71
     2
 72
     6
 73
     3
 74
     0
 42
0.0000000001
 43
0.0000000001
 40
0.0
 40
0.0
 40
0.0
 40
6.785753329118728
 40
6.785753329118728
 40
6.785753329118728
 10
1195.433182656594
 20
1607.284393697939
 30
0.0
 41
1.0
 10
1193.024625771073
 20
1604.878930034854
 30
0.0
 41
0.9950936672313688
 10
1191.136866596191
 20
1602.046304573757
 30
0.0
 41
1.0
  0
SPLINE
  5
10C
330
1F
100
AcDbEntity
  8
PREDEFINITO
100
AcDbSpline
210
0.0
220
0.0
230
1.0
 70
    12
 71
     2
 72
     6
 73
     3
 74
     0
 42
0.0000000001
 43
0.0000000001
 40
0.0
 40
0.0
 40
0.0
 40
7.43091968160068
 40
7.43091968160068
 40
7.43091968160068
 10
1191.136866596191
 20
1602.046304573757
 30
0.0
 41
1.0
 10
1189.079143573242
 20
1598.946068024112
 30
0.0
 41
0.9977762791557063
 10
1187.452058688199
 20
1595.599684083229
 30
0.0
 41
1.0
  0
SPLINE
  5
10D
330
1F
100
AcDbEntity
  8
PREDEFINITO
100
AcDbSpline
210
0.0
220
0.0
230
1.0
 70
    12
 71
     2
 72
     6
 73
     3
 74
     0
 42
0.0000000001
 43
0.0000000001
 40
0.0
 40
0.0
 40
0.0
 40
9.865956137639989
 40
9.865956137639989
 40
9.865956137639989
 10
1187.452058688199
 20
1595.599684083229
 30
0.0
 41
1.0
 10
1185.288926764939
 20
1591.162958264893
 30
0.0
 41
0.9990948420509675
 10
1183.510742005154
 20
1586.55842412292
 30
0.0
 41
1.0
  0
SPLINE
  5
10E
330
1F
100
AcDbEntity
  8
PREDEFINITO
100
AcDbSpline
210
0.0
220
0.0
230
1.0
 70
    12
 71
     2
 72
     6
 73
     3
 74
     0
 42
0.0000000001
 43
0.0000000001
 40
0.0
 40
0.0
 40
0.0
 40
10.62306547555476
 40
10.62306547555476
 40
10.62306547555476
 10
1183.510742005154
 20
1586.55842412292
 30
0.0
 41
1.0
 10
1181.590813464501
 20
1581.605288328449
 30
0.0
 41
0.9998059911781927
 10
1179.867462747764
 20
1576.580376179285
 30
0.0
 41
1.0
  0
SPLINE
  5
10F
330
1F
100
AcDbEntity
  8
PREDEFINITO
100
AcDbSpline
210
0.0
220
0.0
230
1.0
 70
    12
 71
     2
 72
     6
 73
     3
 74
     0
 42
0.0000000001
 43
0.0000000001
 40
0.0
 40
0.0
 40
0.0
 40
10.67177698763683
 40
10.67177698763683
 40
10.67177698763683
 10
1179.867462747764
 20
1576.580376179285
 30
0.0
 41
1.0
 10
1178.135419392952
 20
1571.532574592857
 30
0.0
 41
0.9997743415859585
 10
1176.619351969346
 20
1566.415757749742
 30
0.0
 41
1.0
  0
SPLINE
  5
110
330
1F
100
AcDbEntity
  8
PREDEFINITO
100
AcDbSpline
210
0.0
220
0.0
230
1.0
 70
    12
 71
     2
 72
     6
 73
     3
 74
     0
 42
0.0000000001
 43
0.0000000001
 40
0.0
 40
0.0
 40
0.0
 40
10.69897843034413
 40
10.69897843034413
 40
10.69897843034413
 10
1176.619351969346
 20
1566.415757749742
 30
0.0
 41
1.0
 10
1175.098542683997
 20
1561.284124042923
 30
0.0
 41
0.999227883305267
 10
1173.985352251903
 20
1556.048922762505
 30
0.0
 41
1.0
  0
SPLINE
  5
111
330
1F
100
AcDbEntity
  8
PREDEFINITO
100
AcDbSpline
210
0.0
220
0.0
230
1.0
 70
    12
 71
     2
 72
     6
 73
     3
 74
     0
 42
0.0000000001
 43
0.0000000001
 40
0.0
 40
0.0
 40
0.0
 40
8.48308312135284
 40
8.48308312135284
 40
8.48308312135284
 10
1173.985352251903
 20
1556.048922762505
 30
0.0
 41
1.0
 10
1173.102329441985
 20
1551.897783354239
 30
0.0
 41
0.9991250068107124
 10
1172.569323917951
 20
1547.687368555187
 30
0.0
 41
1.0
  0
SPLINE
  5
112
330
1F
100
AcDbEntity
  8
PREDEFINITO
100
AcDbSpline
210
0.0
220
0.0
230
1.0
 70
    12
 71
     2
 72
     6
 73
     3
 74
     0
 42
0.0000000001
 43
0.0000000001
 40
0.0
 40
0.0
 40
0.0
 40
8.490622924637577
 40
8.490622924637577
 40
8.490622924637577
 10
1172.569323917951
 20
1547.687368555187
 30
0.0
 41
1.0
 10
1172.03552876781
 20
1543.473848649798
 30
0.0
 41
0.9993340064340023
 10
1171.810455758529
 20
1539.232618946527
 30
0.0
 41
1.0
  0
SPLINE
  5
113
330
1F
100
AcDbEntity
  8
PREDEFINITO
100
AcDbSpline
210
0.0
220
0.0
230
1.0
 70
    12
 71
     2
 72
     6
 73
     3
 74
     0
 42
0.0000000001
 43
0.0000000001
 40
0.0
 40
0.0
 40
0.0
 40
6.652041964651578
 40
6.652041964651578
 40
6.652041964651578
 10
1171.810455758529
 20
1539.232618946527
 30
0.0
 41
1.0
 10
1171.63444580897
 20
1535.910869743847
 30
0.0
 41
0.9998250084492405
 10
1171.582817338313
 20
1532.584861360083
 30
0.0
 41
1.0
  0
SPLINE
  5
114
330
1F
100
AcDbEntity
  8
PREDEFINITO
100
AcDbSpline
210
0.0
220
0.0
230
1.0
 70
    12
 71
     2
 72
     6
 73
     3
 74
     0
 42
0.0000000001
 43
0.0000000001
 40
0.0
 40
0.0
 40
0.0
 40
6.71342153969128
 40
6.71342153969128
 40
6.71342153969128
 10
1171.582817338313
 20
1532.584861360083
 30
0.0
 41
1.0
 10
1171.531007355374
 20
1529.228470808702
 30
0.0
 41
0.9999644160022659
 10
1171.535832004959
 20
1525.871683873182
 30
0.0
 41
1.0
  0
SPLINE
  5
115
330
1F
100
AcDbEntity
  8
PREDEFINITO
100
AcDbSpline
210
0.0
220
0.0
230
1.0
 70
    12
 71
     2
 72
     6
 73
     3
 74
     0
 42
0.0000000001
 43
0.0000000001
 40
0.0
 40
0.0
 40
0.0
 40
4.215132294989016
 40
4.215132294989016
 40
4.215132294989016
 10
1171.535832004959
 20
1525.871683873182
 30
0.0
 41
1.0
 10
1171.53880733176
 20
1523.76410649643
 30
0.0
 41
0.9999905132444169
 10
1171.560142949413
 20
1521.656635015489
 30
0.0
 41
1.0
  0
SPLINE
  5
116
330
1F
100
AcDbEntity
  8
PREDEFINITO
100
AcDbSpline
210
0.0
220
0.0
230
1.0
 70
    12
 71
     2
 72
     6
 73
     3
 74
     0
 42
0.0000000001
 43
0.0000000001
 40
0.0
 40
0.0
 40
0.0
 40
4.185569893801015
 40
4.185569893801015
 40
4.185569893801015
 10
1171.560142949413
 20
1521.656635015489
 30
0.0
 41
1.0
 10
1171.581236349789
 20
1519.563939999195
 30
0.0
 41
0.9999882651247133
 10
1171.622604831008
 20
1517.471547585827
 30
0.0
 41
1.0
  0
SPLINE
  5
117
330
1F
100
AcDbEntity
  8
PREDEFINITO
100
AcDbSpline
210
0.0
220
0.0
230
1.0
 70
    12
 71
     2
 72
     6
 73
     3
 74
     0
 42
0.0000000001
 43
0.0000000001
 40
0.0
 40
0.0
 40
0.0
 40
3.128797268172427
 40
3.128797268172427
 40
3.128797268172427
 10
1171.622604831008
 20
1517.471547585827
 30
0.0
 41
1.0
 10
1171.653172995265
 20
1515.907430404559
 30
0.0
 41
0.9999834876296081
 10
1171.701715842847
 20
1514.343767857412
 30
0.0
 41
1.0
  0
SPLINE
  5
118
330
1F
100
AcDbEntity
  8
PREDEFINITO
100
AcDbSpline
210
0.0
220
0.0
230
1.0
 70
    12
 71
     2
 72
     6
 73
     3
 74
     0
 42
0.0000000001
 43
0.0000000001
 40
0.0
 40
0.0
 40
0.0
 40
2.386296702791827
 40
2.386296702791827
 40
2.386296702791827
 10
1171.701715842847
 20
1514.343767857412
 30
0.0
 41
1.0
 10
1171.736925837477
 20
1513.151089555519
 30
0.0
 41
0.9999376875917757
 10
1171.798754026453
 20
1511.959494594731
 30
0.0
 41
1.0
  0
SPLINE
  5
119
330
1F
100
AcDbEntity
  8
PREDEFINITO
100
AcDbSpline
210
0.0
220
0.0
230
1.0
 70
    12
 71
     2
 72
     6
 73
     3
 74
     0
 42
0.0000000001
 43
0.0000000001
 40
0.0
 40
0.0
 40
0.0
 40
1.152375064251723
 40
1.152375064251723
 40
1.152375064251723
 10
1171.798754026453
 20
1511.959494594731
 30
0.0
 41
1.0
 10
1171.825900069448
 20
1511.383830232436
 30
0.0
 41
0.9996967385108982
 10
1171.881357003776
 20
1510.810200653263
 30
0.0
 41
1.0
  0
POLYLINE
  5
11A
330
1F
100
AcDbEntity
  8
PREDEFINITO
100
AcDb2dPolyline
 66
     1
 10
0.0
 20
0.0
 30
0.0
  0
VERTEX
  5
11C
330
11A
100
AcDbEntity
  8
PREDEFINITO
100
AcDbVertex
100
AcDb2dVertex
 10
1171.881357003776
 20
1510.810200653263
 30
0.0
  0
VERTEX
  5
11D
330
11A
100
AcDbEntity
  8
PREDEFINITO
100
AcDbVertex
100
AcDb2dVertex
 10
1172.015608349548
 20
1509.475030816922
 30
0.0
  0
SEQEND
  5
11B
330
11A
100
AcDbEntity
  8
PREDEFINITO
  0
SPLINE
  5
11E
330
1F
100
AcDbEntity
  8
PREDEFINITO
100
AcDbSpline
210
0.0
220
0.0
230
1.0
 70
    12
 71
     2
 72
     6
 73
     3
 74
     0
 42
0.0000000001
 43
0.0000000001
 40
0.0
 40
0.0
 40
0.0
 40
0.5021472659619818
 40
0.5021472659619818
 40
0.5021472659619818
 10
1167.038444370817
 20
1509.47503081691
 30
0.0
 41
1.0
 10
1166.98276617618
 20
1509.719984900864
 30
0.0
 41
0.9992322370477342
 10
1166.946437922274
 20
1509.968546407481
 30
0.0
 41
1.0
  0
SPLINE
  5
11F
330
1F
100
AcDbEntity
  8
PREDEFINITO
100
AcDbSpline
210
0.0
220
0.0
230
1.0
 70
    12
 71
     2
 72
     6
 73
     3
 74
     0
 42
0.0000000001
 43
0.0000000001
 40
0.0
 40
0.0
 40
0.0
 40
1.700456409812413
 40
1.700456409812413
 40
1.700456409812413
 10
1166.946437922274
 20
1509.968546407481
 30
0.0
 41
1.0
 10
1166.842334203899
 20
1510.812846613717
 30
0.0
 41
0.9991787350640123
 10
1166.806937915694
 20
1511.66280398042
 30
0.0
 41
0.9999999999991789
  0
SPLINE
  5
120
330
1F
100
AcDbEntity
  8
PREDEFINITO
100
AcDbSpline
210
0.0
220
0.0
230
1.0
 70
    12
 71
     2
 72
     6
 73
     3
 74
     0
 42
0.0000000001
 43
0.0000000001
 40
0.0
 40
0.0
 40
0.0
 40
2.514004345265255
 40
2.514004345265255
 40
2.514004345265255
 10
1166.806937915694
 20
1511.66280398042
 30
0.0
 41
0.9999999999999567
 10
1166.741443075352
 20
1512.918152448937
 30
0.0
 41
0.9999359771946026
 10
1166.704373087221
 20
1514.174661568484
 30
0.0
 41
1.0
  0
SPLINE
  5
121
330
1F
100
AcDbEntity
  8
PREDEFINITO
100
AcDbSpline
210
0.0
220
0.0
230
1.0
 70
    12
 71
     2
 72
     6
 73
     3
 74
     0
 42
0.0000000001
 43
0.0000000001
 40
0.0
 40
0.0
 40
0.0
 40
3.191188731479262
 40
3.191188731479262
 40
3.191188731479262
 10
1166.704373087221
 20
1514.174661568484
 30
0.0
 41
1.0
 10
1166.654850977614
 20
1515.769504821572
 30
0.0
 41
0.9999834853281792
 10
1166.623663259646
 20
1517.364811929156
 30
0.0
 41
1.0
  0
SPLINE
  5
122
330
1F
100
AcDbEntity
  8
PREDEFINITO
100
AcDbSpline
210
0.0
220
0.0
230
1.0
 70
    12
 71
     2
 72
     6
 73
     3
 74
     0
 42
0.0000000001
 43
0.0000000001
 40
0.0
 40
0.0
 40
0.0
 40
4.23791054007597
 40
4.23791054007597
 40
4.23791054007597
 10
1166.623663259646
 20
1517.364811929156
 30
0.0
 41
1.0
 10
1166.581774139854
 20
1519.483369698133
 30
0.0
 41
0.9999882602775992
 10
1166.560417880289
 20
1521.602233937261
 30
0.0
 41
1.0
  0
SPLINE
  5
123
330
1F
100
AcDbEntity
  8
PREDEFINITO
100
AcDbSpline
210
0.0
220
0.0
230
1.0
 70
    12
 71
     2
 72
     6
 73
     3
 74
     0
 42
0.0000000001
 43
0.0000000001
 40
0.0
 40
0.0
 40
0.0
 40
4.261992797085209
 40
4.261992797085209
 40
4.261992797085209
 10
1166.560417880289
 20
1521.602233937261
 30
0.0
 41
1.0
 10
1166.538853182865
 20
1523.733134684511
 30
0.0
 41
0.9999905291847019
 10
1166.535837288298
 20
1525.86414240546
 30
0.0
 41
1.0
  0
SPLINE
  5
124
330
1F
100
AcDbEntity
  8
PREDEFINITO
100
AcDbSpline
210
0.0
220
0.0
230
1.0
 70
    12
 71
     2
 72
     6
 73
     3
 74
     0
 42
0.0000000001
 43
0.0000000001
 40
0.0
 40
0.0
 40
0.0
 40
6.804197945753125
 40
6.804197945753125
 40
6.804197945753125
 10
1166.535837288298
 20
1525.86414240546
 30
0.0
 41
1.0
 10
1166.530965531172
 20
1529.266318507887
 30
0.0
 41
0.9999644572528281
 10
1166.58346091777
 20
1532.668093072698
 30
0.0
 41
1.0
  0
SPLINE
  5
125
330
1F
100
AcDbEntity
  8
PREDEFINITO
100
AcDbSpline
210
0.0
220
0.0
230
1.0
 70
    12
 71
     2
 72
     6
 73
     3
 74
     0
 42
0.0000000001
 43
0.0000000001
 40
0.0
 40
0.0
 40
0.0
 40
6.85338584190885
 40
6.85338584190885
 40
6.85338584190885
 10
1166.58346091777
 20
1532.668093072698
 30
0.0
 41
1.0
 10
1166.63668371914
 20
1536.094772053502
 30
0.0
 41
0.9998252136350921
 10
1166.817977621462
 20
1539.517065732462
 30
0.0
 41
1.0
  0
SPLINE
  5
126
330
1F
100
AcDbEntity
  8
PREDEFINITO
100
AcDbSpline
210
0.0
220
0.0
230
1.0
 70
    12
 71
     2
 72
     6
 73
     3
 74
     0
 42
0.0000000001
 43
0.0000000001
 40
0.0
 40
0.0
 40
0.0
 40
8.883452010790915
 40
8.883452010790915
 40
8.883452010790915
 10
1166.817977621462
 20
1539.517065732462
 30
0.0
 41
1.0
 10
1167.053325071963
 20
1543.954531313143
 30
0.0
 41
0.9993330572744641
 10
1167.611908442304
 20
1548.362986124135
 30
0.0
 41
0.9999999999994296
  0
SPLINE
  5
127
330
1F
100
AcDbEntity
  8
PREDEFINITO
100
AcDbSpline
210
0.0
220
0.0
230
1.0
 70
    12
 71
     2
 72
     6
 73
     3
 74
     0
 42
0.0000000001
 43
0.0000000001
 40
0.0
 40
0.0
 40
0.0
 40
8.932070667401192
 40
8.932070667401192
 40
8.932070667401192
 10
1167.611908442304
 20
1548.362986124135
 30
0.0
 41
0.9999999999992553
 10
1168.173092723982
 20
1552.796252155975
 30
0.0
 41
0.9991247108399539
 10
1169.102882175832
 20
1557.167094990291
 30
0.0
 41
1.0
  0
SPLINE
  5
128
330
1F
100
AcDbEntity
  8
PREDEFINITO
100
AcDbSpline
210
0.0
220
0.0
230
1.0
 70
    12
 71
     2
 72
     6
 73
     3
 74
     0
 42
0.0000000001
 43
0.0000000001
 40
0.0
 40
0.0
 40
0.0
 40
11.11910960652442
 40
11.11910960652442
 40
11.11910960652442
 10
1169.102882175832
 20
1557.167094990291
 30
0.0
 41
1.0
 10
1170.259829183383
 20
1562.607863998135
 30
0.0
 41
0.9992280750484883
 10
1171.840348587691
 20
1567.941010554119
 30
0.0
 41
1.0
  0
SPLINE
  5
129
330
1F
100
AcDbEntity
  8
PREDEFINITO
100
AcDbSpline
210
0.0
220
0.0
230
1.0
 70
    12
 71
     2
 72
     6
 73
     3
 74
     0
 42
0.0000000001
 43
0.0000000001
 40
0.0
 40
0.0
 40
0.0
 40
10.89823957817744
 40
10.89823957817744
 40
10.89823957817744
 10
1171.840348587691
 20
1567.941010554119
 30
0.0
 41
1.0
 10
1173.388611570078
 20
1573.166402808046
 30
0.0
 41
0.9997743558807174
 10
1175.157426386739
 20
1578.321316639954
 30
0.0
 41
1.0
  0
SPLINE
  5
12A
330
1F
100
AcDbEntity
  8
PREDEFINITO
100
AcDbSpline
210
0.0
220
0.0
230
1.0
 70
    12
 71
     2
 72
     6
 73
     3
 74
     0
 42
0.0000000001
 43
0.0000000001
 40
0.0
 40
0.0
 40
0.0
 40
10.83257789603299
 40
10.83257789603299
 40
10.83257789603299
 10
1175.157426386739
 20
1578.321316639954
 30
0.0
 41
1.0
 10
1176.914805948145
 20
1583.445318319605
 30
0.0
 41
0.9998060010259853
 10
1178.872634694851
 20
1588.49612842636
 30
0.0
 41
1.0
  0
SPLINE
  5
12B
330
1F
100
AcDbEntity
  8
PREDEFINITO
100
AcDbSpline
210
0.0
220
0.0
230
1.0
 70
    12
 71
     2
 72
     6
 73
     3
 74
     0
 42
0.0000000001
 43
0.0000000001
 40
0.0
 40
0.0
 40
0.0
 40
10.3172981789196
 40
10.3172981789196
 40
10.3172981789196
 10
1178.872634694851
 20
1588.49612842636
 30
0.0
 41
1.0
 10
1180.732437102527
 20
1593.311207145445
 30
0.0
 41
0.9990939199332899
 10
1182.994988546334
 20
1597.950680071403
 30
0.0
 41
1.0
  0
SPLINE
  5
12C
330
1F
100
AcDbEntity
  8
PREDEFINITO
100
AcDbSpline
210
0.0
220
0.0
230
1.0
 70
    12
 71
     2
 72
     6
 73
     3
 74
     0
 42
0.0000000001
 43
0.0000000001
 40
0.0
 40
0.0
 40
0.0
 40
8.131250584280155
 40
8.131250584280155
 40
8.131250584280155
 10
1182.994988546334
 20
1597.950680071403
 30
0.0
 41
1.0
 10
1184.776210969533
 20
1601.6120716024
 30
0.0
 41
0.997772605991572
 10
1187.028974138664
 20
1605.003767250297
 30
0.0
 41
1.0
  0
SPLINE
  5
12D
330
1F
100
AcDbEntity
  8
PREDEFINITO
100
AcDbSpline
210
0.0
220
0.0
230
1.0
 70
    12
 71
     2
 72
     6
 73
     3
 74
     0
 42
0.0000000001
 43
0.0000000001
 40
0.0
 40
0.0
 40
0.0
 40
7.804129663847097
 40
7.804129663847097
 40
7.804129663847097
 10
1187.028974138664
 20
1605.003767250297
 30
0.0
 41
1.0
 10
1189.200612876256
 20
1608.261112802914
 30
0.0
 41
0.9950956168047701
 10
1191.971011741655
 20
1611.02719396267
 30
0.0
 41
1.0
  0
SPLINE
  5
12E
330
1F
100
AcDbEntity
  8
PREDEFINITO
100
AcDbSpline
210
0.0
220
0.0
230
1.0
 70
    12
 71
     2
 72
     6
 73
     3
 74
     0
 42
0.0000000001
 43
0.0000000001
 40
0.0
 40
0.0
 40
0.0
 40
8.014609590490796
 40
8.014609590490796
 40
8.014609590490796
 10
1191.971011741655
 20
1611.02719396267
 30
0.0
 41
1.0
 10
1194.821427796377
 20
1613.858977364482
 30
0.0
 41
0.9960330789645923
 10
1198.128670213636
 20
1616.140647041121
 30
0.0
 41
1.0
  0
SPLINE
  5
12F
330
1F
100
AcDbEntity
  8
PREDEFINITO
100
AcDbSpline
210
0.0
220
0.0
230
1.0
 70
    12
 71
     2
 72
     6
 73
     3
 74
     0
 42
0.0000000001
 43
0.0000000001
 40
0.0
 40
0.0
 40
0.0
 40
8.070083236448411
 40
8.070083236448411
 40
8.070083236448411
 10
1198.128670213636
 20
1616.140647041121
 30
0.0
 41
1.0
 10
1201.451435589126
 20
1618.434054447227
 30
0.0
 41
0.999129153604754
 10
1204.953847449619
 20
1620.442436490164
 30
0.0
 41
0.9999999999999996
  0
SPLINE
  5
130
330
1F
100
AcDbEntity
  8
PREDEFINITO
100
AcDbSpline
210
0.0
220
0.0
230
1.0
 70
    12
 71
     2
 72
     6
 73
     3
 74
     0
 42
0.0000000001
 43
0.0000000001
 40
0.0
 40
0.0
 40
0.0
 40
10.53240371994147
 40
10.53240371994147
 40
10.53240371994147
 10
1204.953847449619
 20
1620.442436490164
 30
0.0
 41
0.9999999999999998
 10
1209.52224682897
 20
1623.064688915331
 30
0.0
 41
0.9996324180472849
 10
1214.226064077354
 20
1625.435465995605
 30
0.0
 41
0.9999999999999998
  0
SPLINE
  5
131
330
1F
100
AcDbEntity
  8
PREDEFINITO
100
AcDbSpline
210
0.0
220
0.0
230
1.0
 70
    12
 71
     2
 72
     6
 73
     3
 74
     0
 42
0.0000000001
 43
0.0000000001
 40
0.0
 40
0.0
 40
0.0
 40
10.53110880344964
 40
10.53110880344964
 40
10.53110880344964
 10
1214.226064077354
 20
1625.435465995605
 30
0.0
 41
1.0
 10
1218.927124093522
 20
1627.807467906868
 30
0.0
 41
0.9999920152183275
 10
1223.609076194002
 20
1630.21696637574
 30
0.0
 41
1.0
  0
SPLINE
  5
132
330
1F
100
AcDbEntity
  8
PREDEFINITO
100
AcDbSpline
210
0.0
220
0.0
230
1.0
 70
    12
 71
     2
 72
     6
 73
     3
 74
     0
 42
0.0000000001
 43
0.0000000001
 40
0.0
 40
0.0
 40
0.0
 40
9.302497692872914
 40
9.302497692872914
 40
9.302497692872914
 10
1223.609076194002
 20
1630.21696637574
 30
0.0
 41
1.0
 10
1227.745311425832
 20
1632.344915348557
 30
0.0
 41
0.9999135874414857
 10
1231.824173774937
 20
1634.580869431489
 30
0.0
 41
1.0
  0
POLYLINE
  5
133
330
1F
100
AcDbEntity
  8
PREDEFINITO
100
AcDb2dPolyline
 66
     1
 10
0.0
 20
0.0
 30
0.0
  0
VERTEX
  5
135
330
133
100
AcDbEntity
  8
PREDEFINITO
100
AcDbVertex
100
AcDb2dVertex
 10
1231.824173774937
 20
1634.580869431489
 30
0.0
  0
VERTEX
  5
136
330
133
100
AcDbEntity
  8
PREDEFINITO
100
AcDbVertex
100
AcDb2dVertex
 10
1232.039988068472
 20
1634.699508968253
 30
0.0
  0
SEQEND
  5
134
330
133
100
AcDbEntity
  8
PREDEFINITO
  0
SPLINE
  5
137
330
1F
100
AcDbEntity
  8
PREDEFINITO
100
AcDbSpline
210
0.0
220
0.0
230
1.0
 70
    12
 71
     2
 72
     6
 73
     3
 74
     0
 42
0.0000000001
 43
0.0000000001
 40
0.0
 40
0.0
 40
0.0
 40
2.806399000481242
 40
2.806399000481242
 40
2.806399000481242
 10
1232.039988068472
 20
1634.699508968253
 30
0.0
 41
1.0
 10
1233.269090509439
 20
1635.376614743899
 30
0.0
 41
0.9999252710617739
 10
1234.481271474667
 20
1636.083567606077
 30
0.0
 41
1.0
  0
SPLINE
  5
138
330
1F
100
AcDbEntity
  8
PREDEFINITO
100
AcDbSpline
210
0.0
220
0.0
230
1.0
 70
    12
 71
     2
 72
     6
 73
     3
 74
     0
 42
0.0000000001
 43
0.0000000001
 40
0.0
 40
0.0
 40
0.0
 40
0.8881393644644102
 40
0.8881393644644102
 40
0.8881393644644102
 10
1171.549571165296
 20
1529.799821826307
 30
0.0
 41
1.0
 10
1171.993637398145
 20
1529.801739037896
 30
0.0
 41
0.9999976717148321
 10
1172.437707769659
 20
1529.801739728354
 30
0.0
 41
1.0
  0
POLYLINE
  5
139
330
1F
100
AcDbEntity
  8
PREDEFINITO
100
AcDb2dPolyline
 66
     1
 10
0.0
 20
0.0
 30
0.0
  0
VERTEX
  5
13B
330
139
100
AcDbEntity
  8
PREDEFINITO
100
AcDbVertex
100
AcDb2dVertex
 10
1172.437707769659
 20
1529.801739728354
 30
0.0
  0
VERTEX
  5
13C
330
139
100
AcDbEntity
  8
PREDEFINITO
100
AcDbVertex
100
AcDb2dVertex
 10
1174.439664815169
 20
1529.801739728354
 30
0.0
  0
SEQEND
  5
13A
330
139
100
AcDbEntity
  8
PREDEFINITO
  0
SPLINE
  5
13D
330
1F
100
AcDbEntity
  8
PREDEFINITO
100
AcDbSpline
210
0.0
220
0.0
230
1.0
 70
    12
 71
     2
 72
     6
 73
     3
 74
     0
 42
0.0000000001
 43
0.0000000001
 40
0.0
 40
0.0
 40
0.0
 40
72.30849254902743
 40
72.30849254902743
 40
72.30849254902743
 10
1174.439664815169
 20
1529.801739728354
 30
0.0
 41
1.0
 10
1210.970389412949
 20
1529.802972052718
 30
0.0
 41
0.984612749205888
 10
1245.270406973453
 20
1517.233062088579
 30
0.0
 41
1.0
  0
SPLINE
  5
13E
330
1F
100
AcDbEntity
  8
PREDEFINITO
100
AcDbSpline
210
0.0
220
0.0
230
1.0
 70
    12
 71
     2
 72
     6
 73
     3
 74
     0
 42
0.0000000001
 43
0.0000000001
 40
0.0
 40
0.0
 40
0.0
 40
51.26146464677722
 40
51.26146464677722
 40
51.26146464677722
 10
225.3809620994736
 20
1523.453441452417
 30
0.0
 41
1.0
 10
250.350504277901
 20
1529.802001608745
 30
0.0
 41
0.9922606973982453
 10
276.1144762657409
 20
1529.801739728352
 30
0.0
 41
1.0
  0
SPLINE
  5
13F
330
1F
100
AcDbEntity
  8
PREDEFINITO
100
AcDbSpline
210
0.0
220
0.0
230
1.0
 70
    24
 71
     2
 72
     6
 73
     3
 74
     0
 42
0.0000000001
 43
0.0000000001
 40
0.0
 40
0.0
 40
0.0
 40
1.0
 40
1.0
 40
1.0
 10
276.1144762657409
 20
1529.801739728352
 30
0.0
 10
277.115454788496
 20
1529.801739728352
 30
0.0
 10
278.1164333112511
 20
1529.801739728352
 30
0.0
  0
SPLINE
  5
140
330
1F
100
AcDbEntity
  8
PREDEFINITO
100
AcDbSpline
210
0.0
220
0.0
230
1.0
 70
    12
 71
     2
 72
     6
 73
     3
 74
     0
 42
0.0000000001
 43
0.0000000001
 40
0.0
 40
0.0
 40
0.0
 40
91.11850912518581
 40
91.11850912518581
 40
91.11850912518581
 10
278.1164333112511
 20
1529.801739728352
 30
0.0
 41
1.0
 10
324.4350542335497
 20
1529.805067218412
 30
0.0
 41
0.9755888355669889
 10
366.2875380519487
 20
1509.961069298476
 30
0.0
 41
1.0
  0
SPLINE
  5
141
330
1F
100
AcDbEntity
  8
LINEE VISIBILI 2D
100
AcDbSpline
210
0.0
220
0.0
230
1.0
 70
    12
 71
     2
 72
     6
 73
     3
 74
     0
 42
0.0000000001
 43
0.0000000001
 40
0.0
 40
0.0
 40
0.0
 40
2.647904643033121
 40
2.647904643033121
 40
2.647904643033121
 10
230.6917023657086
 20
1622.719881157865
 30
0.0
 41
1.0
 10
229.6610654931462
 20
1621.888834969567
 30
0.0
 41
0.9999998371834455
 10
228.6313777525093
 20
1621.056613071903
 30
0.0
 41
1.0
  0
SPLINE
  5
142
330
1F
100
AcDbEntity
  8
LINEE VISIBILI 2D
100
AcDbSpline
210
0.0
220
0.0
230
1.0
 70
    12
 71
     2
 72
     6
 73
     3
 74
     0
 42
0.0000000001
 43
0.0000000001
 40
0.0
 40
0.0
 40
0.0
 40
7.96322513392699
 40
7.96322513392699
 40
7.96322513392699
 10
228.6313777525093
 20
1621.056613071903
 30
0.0
 41
1.0
 10
225.5337850337257
 20
1618.554850073406
 30
0.0
 41
0.9999687717477019
 10
222.3970382024254
 20
1616.102357857634
 30
0.0
 41
1.0
  0
SPLINE
  5
143
330
1F
100
AcDbEntity
  8
LINEE VISIBILI 2D
100
AcDbSpline
210
0.0
220
0.0
230
1.0
 70
    12
 71
     2
 72
     6
 73
     3
 74
     0
 42
0.0000000001
 43
0.0000000001
 40
0.0
 40
0.0
 40
0.0
 40
6.841980487714216
 40
6.841980487714216
 40
6.841980487714216
 10
222.3970382024254
 20
1616.102357857634
 30
0.0
 41
1.0
 10
219.7023937998324
 20
1613.994721847905
 30
0.0
 41
0.9999959141192638
 10
216.9957435985789
 20
1611.902526184494
 30
0.0
 41
1.0
  0
SPLINE
  5
144
330
1F
100
AcDbEntity
  8
LINEE VISIBILI 2D
100
AcDbSpline
210
0.0
220
0.0
230
1.0
 70
    12
 71
     2
 72
     6
 73
     3
 74
     0
 42
0.0000000001
 43
0.0000000001
 40
0.0
 40
0.0
 40
0.0
 40
7.400205227136037
 40
7.400205227136037
 40
7.400205227136037
 10
216.9957435985789
 20
1611.902526184494
 30
0.0
 41
1.0
 10
214.0719617078177
 20
1609.632785520619
 30
0.0
 41
0.9994819041325244
 10
211.3002684155956
 20
1607.179636621788
 30
0.0
 41
1.0
  0
SPLINE
  5
145
330
1F
100
AcDbEntity
  8
LINEE VISIBILI 2D
100
AcDbSpline
210
0.0
220
0.0
230
1.0
 70
    12
 71
     2
 72
     6
 73
     3
 74
     0
 42
0.0000000001
 43
0.0000000001
 40
0.0
 40
0.0
 40
0.0
 40
7.700876256798867
 40
7.700876256798867
 40
7.700876256798867
 10
211.3002684155956
 20
1607.179636621788
 30
0.0
 41
1.0
 10
208.4157265836216
 20
1604.622757519894
 30
0.0
 41
0.9983675538500241
 10
205.8416049789159
 20
1601.753592086132
 30
0.0
 41
1.0
  0
SPLINE
  5
146
330
1F
100
AcDbEntity
  8
LINEE VISIBILI 2D
100
AcDbSpline
210
0.0
220
0.0
230
1.0
 70
    12
 71
     2
 72
     6
 73
     3
 74
     0
 42
0.0000000001
 43
0.0000000001
 40
0.0
 40
0.0
 40
0.0
 40
7.984359750342258
 40
7.984359750342258
 40
7.984359750342258
 10
205.8416049789159
 20
1601.753592086132
 30
0.0
 41
1.0
 10
203.1673677145181
 20
1598.7752797781
 30
0.0
 41
0.9960491445970195
 10
201.0621896310533
 20
1595.370854072142
 30
0.0
 41
1.0
  0
SPLINE
  5
147
330
1F
100
AcDbEntity
  8
LINEE VISIBILI 2D
100
AcDbSpline
210
0.0
220
0.0
230
1.0
 70
    12
 71
     2
 72
     6
 73
     3
 74
     0
 42
0.0000000001
 43
0.0000000001
 40
0.0
 40
0.0
 40
0.0
 40
9.799131491234082
 40
9.799131491234082
 40
9.799131491234082
 10
201.0621896310533
 20
1595.370854072142
 30
0.0
 41
1.0
 10
198.4751445804627
 20
1591.191307270964
 30
0.0
 41
0.9951670525444166
 10
196.7548569376286
 20
1586.586741712421
 30
0.0
 41
1.0
  0
SPLINE
  5
148
330
1F
100
AcDbEntity
  8
LINEE VISIBILI 2D
100
AcDbSpline
210
0.0
220
0.0
230
1.0
 70
    12
 71
     2
 72
     6
 73
     3
 74
     0
 42
0.0000000001
 43
0.0000000001
 40
0.0
 40
0.0
 40
0.0
 40
10.14565535026834
 40
10.14565535026834
 40
10.14565535026834
 10
196.7548569376286
 20
1586.586741712421
 30
0.0
 41
1.0
 10
194.9727270890384
 20
1581.828387872411
 30
0.0
 41
0.9975498302893225
 10
193.8721950540892
 20
1576.867869018095
 30
0.0
 41
1.0
  0
SPLINE
  5
149
330
1F
100
AcDbEntity
  8
LINEE VISIBILI 2D
100
AcDbSpline
210
0.0
220
0.0
230
1.0
 70
    12
 71
     2
 72
     6
 73
     3
 74
     0
 42
0.0000000001
 43
0.0000000001
 40
0.0
 40
0.0
 40
0.0
 40
10.12312380824021
 40
10.12312380824021
 40
10.12312380824021
 10
193.8721950540892
 20
1576.867869018095
 30
0.0
 41
1.0
 10
192.7745578970228
 20
1571.921572720089
 30
0.0
 41
0.9985027245368686
 10
192.2238240629456
 20
1566.884972017211
 30
0.0
 41
1.0
  0
SPLINE
  5
14A
330
1F
100
AcDbEntity
  8
LINEE VISIBILI 2D
100
AcDbSpline
210
0.0
220
0.0
230
1.0
 70
    12
 71
     2
 72
     6
 73
     3
 74
     0
 42
0.0000000001
 43
0.0000000001
 40
0.0
 40
0.0
 40
0.0
 40
10.47189816089828
 40
10.47189816089828
 40
10.47189816089828
 10
192.2238240629456
 20
1566.884972017211
 30
0.0
 41
1.0
 10
191.6540575700391
 20
1561.678982352404
 30
0.0
 41
0.9996773357442481
 10
191.3494184671908
 20
1556.450774492031
 30
0.0
 41
1.0
  0
SPLINE
  5
14B
330
1F
100
AcDbEntity
  8
LINEE VISIBILI 2D
100
AcDbSpline
210
0.0
220
0.0
230
1.0
 70
    12
 71
     2
 72
     6
 73
     3
 74
     0
 42
0.0000000001
 43
0.0000000001
 40
0.0
 40
0.0
 40
0.0
 40
8.600680640166923
 40
8.600680640166923
 40
8.600680640166923
 10
191.3494184671908
 20
1556.450774492031
 30
0.0
 41
1.0
 10
191.0981167919534
 20
1552.157782759391
 30
0.0
 41
0.9999998563413522
 10
190.8422130051044
 20
1547.865062913283
 30
0.0
 41
1.0
  0
SPLINE
  5
14C
330
1F
100
AcDbEntity
  8
LINEE VISIBILI 2D
100
AcDbSpline
210
0.0
220
0.0
230
1.0
 70
    12
 71
     2
 72
     6
 73
     3
 74
     0
 42
0.0000000001
 43
0.0000000001
 40
0.0
 40
0.0
 40
0.0
 40
8.862796331375012
 40
8.862796331375012
 40
8.862796331375012
 10
190.8422130051044
 20
1547.865062913283
 30
0.0
 41
1.0
 10
190.5778508834483
 20
1543.440006509597
 30
0.0
 41
0.99947628538567
 10
190.0278047562492
 20
1539.041317983439
 30
0.0
 41
1.0
  0
SPLINE
  5
14D
330
1F
100
AcDbEntity
  8
LINEE VISIBILI 2D
100
AcDbSpline
210
0.0
220
0.0
230
1.0
 70
    12
 71
     2
 72
     6
 73
     3
 74
     0
 42
0.0000000001
 43
0.0000000001
 40
0.0
 40
0.0
 40
0.0
 40
6.926238822382867
 40
6.926238822382867
 40
6.926238822382867
 10
190.0278047562492
 20
1539.041317983439
 30
0.0
 41
1.0
 10
189.5982782135246
 20
1535.604479527144
 30
0.0
 41
0.9998027156288689
 10
189.0325872318704
 20
1532.187412753018
 30
0.0
 41
0.9999999999999984
  0
SPLINE
  5
14E
330
1F
100
AcDbEntity
  8
LINEE VISIBILI 2D
100
AcDbSpline
210
0.0
220
0.0
230
1.0
 70
    12
 71
     2
 72
     6
 73
     3
 74
     0
 42
0.0000000001
 43
0.0000000001
 40
0.0
 40
0.0
 40
0.0
 40
6.685542742010031
 40
6.685542742010031
 40
6.685542742010031
 10
189.0325872318704
 20
1532.187412753018
 30
0.0
 41
0.9999999999999973
 10
188.4865168806587
 20
1528.888789766188
 30
0.0
 41
0.9996654883822594
 10
188.1117466839175
 20
1525.566342815918
 30
0.0
 41
1.0
  0
SPLINE
  5
14F
330
1F
100
AcDbEntity
  8
LINEE VISIBILI 2D
100
AcDbSpline
210
0.0
220
0.0
230
1.0
 70
    12
 71
     2
 72
     6
 73
     3
 74
     0
 42
0.0000000001
 43
0.0000000001
 40
0.0
 40
0.0
 40
0.0
 40
4.048559620160768
 40
4.048559620160768
 40
4.048559620160768
 10
188.1117466839175
 20
1525.566342815918
 30
0.0
 41
1.0
 10
187.884762257279
 20
1523.55386515456
 30
0.0
 41
0.9992905900911463
 10
187.8098961744124
 20
1521.53001156869
 30
0.0
 41
1.0
  0
SPLINE
  5
150
330
1F
100
AcDbEntity
  8
LINEE VISIBILI 2D
100
AcDbSpline
210
0.0
220
0.0
230
1.0
 70
    12
 71
     2
 72
     6
 73
     3
 74
     0
 42
0.0000000001
 43
0.0000000001
 40
0.0
 40
0.0
 40
0.0
 40
3.622014329961043
 40
3.622014329961043
 40
3.622014329961043
 10
187.8098961744124
 20
1521.53001156869
 30
0.0
 41
1.0
 10
187.742533502458
 20
1519.712421266682
 30
0.0
 41
0.9935542591964376
 10
188.0863210779034
 20
1517.92636910101
 30
0.0
 41
1.0
  0
SPLINE
  5
151
330
1F
100
AcDbEntity
  8
LINEE VISIBILI 2D
100
AcDbSpline
210
0.0
220
0.0
230
1.0
 70
    12
 71
     2
 72
     6
 73
     3
 74
     0
 42
0.0000000001
 43
0.0000000001
 40
0.0
 40
0.0
 40
0.0
 40
2.557572692319624
 40
2.557572692319624
 40
2.557572692319624
 10
188.0863210779034
 20
1517.92636910101
 30
0.0
 41
1.0
 10
188.3293718376891
 20
1516.660743683602
 30
0.0
 41
0.9884412239600333
 10
188.9405635987391
 20
1515.526139787854
 30
0.0
 41
1.0
  0
SPLINE
  5
152
330
1F
100
AcDbEntity
  8
LINEE VISIBILI 2D
100
AcDbSpline
210
0.0
220
0.0
230
1.0
 70
    12
 71
     2
 72
     6
 73
     3
 74
     0
 42
0.0000000001
 43
0.0000000001
 40
0.0
 40
0.0
 40
0.0
 40
2.115332859198235
 40
2.115332859198235
 40
2.115332859198235
 10
188.9405635987391
 20
1515.526139787854
 30
0.0
 41
1.0
 10
189.4508523157621
 20
1514.578233320169
 30
0.0
 41
0.973919453155705
 10
190.3275309059297
 20
1513.953448640667
 30
0.0
 41
0.9999999999407756
  0
SPLINE
  5
153
330
1F
100
AcDbEntity
  8
LINEE VISIBILI 2D
100
AcDbSpline
210
0.0
220
0.0
230
1.0
 70
    12
 71
     2
 72
     6
 73
     3
 74
     0
 42
0.0000000001
 43
0.0000000001
 40
0.0
 40
0.0
 40
0.0
 40
2.644092196112827
 40
2.644092196112827
 40
2.644092196112827
 10
190.3275309059297
 20
1513.953448640667
 30
0.0
 41
0.9999999999590241
 10
191.4220938406895
 20
1513.176305397182
 30
0.0
 41
0.9774182513616169
 10
192.7399300360719
 20
1512.92071314146
 30
0.0
 41
1.0
  0
SPLINE
  5
154
330
1F
100
AcDbEntity
  8
LINEE VISIBILI 2D
100
AcDbSpline
210
0.0
220
0.0
230
1.0
 70
    12
 71
     2
 72
     6
 73
     3
 74
     0
 42
0.0000000001
 43
0.0000000001
 40
0.0
 40
0.0
 40
0.0
 40
1.281224588308425
 40
1.281224588308425
 40
1.281224588308425
 10
192.7399300360719
 20
1512.92071314146
 30
0.0
 41
1.0
 10
193.3691437103727
 20
1512.799358222121
 30
0.0
 41
0.9995383569950805
 10
194.0045663984894
 20
1512.716443375428
 30
0.0
 41
1.0
  0
SPLINE
  5
155
330
1F
100
AcDbEntity
  8
LINEE VISIBILI 2D
100
AcDbSpline
210
0.0
220
0.0
230
1.0
 70
    12
 71
     2
 72
     6
 73
     3
 74
     0
 42
0.0000000001
 43
0.0000000001
 40
-0.3634328786472263
 40
-0.3634328786472263
 40
-0.3634328786472263
 40
0.0
 40
0.0
 40
0.0
 10
187.4427625132057
 20
1509.715905904962
 30
0.0
 41
1.0
 10
187.2953549866454
 20
1509.822206999567
 30
0.0
 41
0.9998172897501482
 10
187.1521154638476
 20
1509.934061104236
 30
0.0
 41
0.9999999999504123
  0
SPLINE
  5
156
330
1F
100
AcDbEntity
  8
LINEE VISIBILI 2D
100
AcDbSpline
210
0.0
220
0.0
230
1.0
 70
    12
 71
     2
 72
     6
 73
     3
 74
     0
 42
0.0000000001
 43
0.0000000001
 40
0.0
 40
0.0
 40
0.0
 40
4.024686190387323
 40
4.024686190387323
 40
4.024686190387323
 10
187.1521154638476
 20
1509.934061104236
 30
0.0
 41
0.9999999993773163
 10
185.545845228693
 20
1511.193719348857
 30
0.0
 41
0.9788678843937592
 10
184.5778936888609
 20
1512.991689445148
 30
0.0
 41
1.0
  0
SPLINE
  5
157
330
1F
100
AcDbEntity
  8
LINEE VISIBILI 2D
100
AcDbSpline
210
0.0
220
0.0
230
1.0
 70
    12
 71
     2
 72
     6
 73
     3
 74
     0
 42
0.0000000001
 43
0.0000000001
 40
0.0
 40
0.0
 40
0.0
 40
4.17453283579403
 40
4.17453283579403
 40
4.17453283579403
 10
184.5778936888609
 20
1512.991689445148
 30
0.0
 41
1.0
 10
183.5799420742804
 20
1514.844205244528
 30
0.0
 41
0.988440360405302
 10
183.1832239432797
 20
1516.909990415455
 30
0.0
 41
0.9999999999915721
  0
SPLINE
  5
158
330
1F
100
AcDbEntity
  8
LINEE VISIBILI 2D
100
AcDbSpline
210
0.0
220
0.0
230
1.0
 70
    12
 71
     2
 72
     6
 73
     3
 74
     0
 42
0.0000000001
 43
0.0000000001
 40
0.0
 40
0.0
 40
0.0
 40
4.843419651591629
 40
4.843419651591629
 40
4.843419651591629
 10
183.1832239432797
 20
1516.909990415455
 30
0.0
 41
0.9999999999959623
 10
182.7237040150191
 20
1519.298352294825
 30
0.0
 41
0.9935638299842052
 10
182.8135705971113
 20
1521.728857392273
 30
0.0
 41
1.0
  0
SPLINE
  5
159
330
1F
100
AcDbEntity
  8
LINEE VISIBILI 2D
100
AcDbSpline
210
0.0
220
0.0
230
1.0
 70
    12
 71
     2
 72
     6
 73
     3
 74
     0
 42
0.0000000001
 43
0.0000000001
 40
0.0
 40
0.0
 40
0.0
 40
4.454080748027089
 40
4.454080748027089
 40
4.454080748027089
 10
182.8135705971113
 20
1521.728857392273
 30
0.0
 41
1.0
 10
182.8958759960319
 20
1523.955432549329
 30
0.0
 41
0.9992895845028467
 10
183.1456552080938
 20
1526.169483464265
 30
0.0
 41
1.0
  0
SPLINE
  5
15A
330
1F
100
AcDbEntity
  8
LINEE VISIBILI 2D
100
AcDbSpline
210
0.0
220
0.0
230
1.0
 70
    12
 71
     2
 72
     6
 73
     3
 74
     0
 42
0.0000000001
 43
0.0000000001
 40
0.0
 40
0.0
 40
0.0
 40
6.963207216997636
 40
6.963207216997636
 40
6.963207216997636
 10
183.1456552080938
 20
1526.169483464265
 30
0.0
 41
1.0
 10
183.5360778271374
 20
1529.629907146861
 30
0.0
 41
0.9996661411572976
 10
184.1047408351499
 20
1533.065541625069
 30
0.0
 41
1.0
  0
SPLINE
  5
15B
330
1F
100
AcDbEntity
  8
LINEE VISIBILI 2D
100
AcDbSpline
210
0.0
220
0.0
230
1.0
 70
    12
 71
     2
 72
     6
 73
     3
 74
     0
 42
0.0000000001
 43
0.0000000001
 40
0.0
 40
0.0
 40
0.0
 40
6.712931250610975
 40
6.712931250610975
 40
6.712931250610975
 10
184.1047408351499
 20
1533.065541625069
 30
0.0
 41
1.0
 10
184.6529996516119
 20
1536.377374484169
 30
0.0
 41
0.9998027871914702
 10
185.0693114388414
 20
1539.708366695545
 30
0.0
 41
1.0
  0
SPLINE
  5
15C
330
1F
100
AcDbEntity
  8
LINEE VISIBILI 2D
100
AcDbSpline
210
0.0
220
0.0
230
1.0
 70
    12
 71
     2
 72
     6
 73
     3
 74
     0
 42
0.0000000001
 43
0.0000000001
 40
0.0
 40
0.0
 40
0.0
 40
8.514447499602769
 40
8.514447499602769
 40
8.514447499602769
 10
185.0693114388414
 20
1539.708366695545
 30
0.0
 41
1.0
 10
185.5978664759016
 20
1543.934152787535
 30
0.0
 41
0.9994754531554507
 10
185.8517482482573
 20
1548.185291760578
 30
0.0
 41
1.0
  0
SPLINE
  5
15D
330
1F
100
AcDbEntity
  8
LINEE VISIBILI 2D
100
AcDbSpline
210
0.0
220
0.0
230
1.0
 70
    12
 71
     2
 72
     6
 73
     3
 74
     0
 42
0.0000000001
 43
0.0000000001
 40
0.0
 40
0.0
 40
0.0
 40
8.594910522070938
 40
8.594910522070938
 40
8.594910522070938
 10
185.8517482482573
 20
1548.185291760578
 30
0.0
 41
1.0
 10
186.1074800988923
 20
1552.475131673423
 30
0.0
 41
0.9999998563743754
 10
186.3586134532204
 20
1556.765243244887
 30
0.0
 41
1.0
  0
SPLINE
  5
15E
330
1F
100
AcDbEntity
  8
LINEE VISIBILI 2D
100
AcDbSpline
210
0.0
220
0.0
230
1.0
 70
    12
 71
     2
 72
     6
 73
     3
 74
     0
 42
0.0000000001
 43
0.0000000001
 40
0.0
 40
0.0
 40
0.0
 40
10.74524366269187
 40
10.74524366269187
 40
10.74524366269187
 10
186.3586134532204
 20
1556.765243244887
 30
0.0
 41
1.0
 10
186.6712577903819
 20
1562.129918385088
 30
0.0
 41
0.9996774139409743
 10
187.2559169443455
 20
1567.471796286645
 30
0.0
 41
1.0
  0
SPLINE
  5
15F
330
1F
100
AcDbEntity
  8
LINEE VISIBILI 2D
100
AcDbSpline
210
0.0
220
0.0
230
1.0
 70
    12
 71
     2
 72
     6
 73
     3
 74
     0
 42
0.0000000001
 43
0.0000000001
 40
0.0
 40
0.0
 40
0.0
 40
10.71042105770168
 40
10.71042105770168
 40
10.71042105770168
 10
187.2559169443455
 20
1567.471796286645
 30
0.0
 41
1.0
 10
187.8387458091501
 20
1572.800580131122
 30
0.0
 41
0.9985031696509175
 10
189.0001188917702
 20
1578.03382380114
 30
0.0
 41
1.0
  0
SPLINE
  5
160
330
1F
100
AcDbEntity
  8
LINEE VISIBILI 2D
100
AcDbSpline
210
0.0
220
0.0
230
1.0
 70
    12
 71
     2
 72
     6
 73
     3
 74
     0
 42
0.0000000001
 43
0.0000000001
 40
0.0
 40
0.0
 40
0.0
 40
10.89224293589727
 40
10.89224293589727
 40
10.89224293589727
 10
189.0001188917702
 20
1578.03382380114
 30
0.0
 41
1.0
 10
190.1817909731155
 20
1583.35933574726
 30
0.0
 41
0.9975503088410042
 10
192.0951410861628
 20
1588.467810836854
 30
0.0
 41
1.0
  0
SPLINE
  5
161
330
1F
100
AcDbEntity
  8
LINEE VISIBILI 2D
100
AcDbSpline
210
0.0
220
0.0
230
1.0
 70
    12
 71
     2
 72
     6
 73
     3
 74
     0
 42
0.0000000001
 43
0.0000000001
 40
0.0
 40
0.0
 40
0.0
 40
10.83437343654169
 40
10.83437343654169
 40
10.83437343654169
 10
192.0951410861628
 20
1588.467810836854
 30
0.0
 41
1.0
 10
193.997688852309
 20
1593.558633270203
 30
0.0
 41
0.9951682920799848
 10
196.8583982985954
 20
1598.179510082486
 30
0.0
 41
1.0
  0
SPLINE
  5
162
330
1F
100
AcDbEntity
  8
LINEE VISIBILI 2D
100
AcDbSpline
210
0.0
220
0.0
230
1.0
 70
    12
 71
     2
 72
     6
 73
     3
 74
     0
 42
0.0000000001
 43
0.0000000001
 40
0.0
 40
0.0
 40
0.0
 40
8.903820497293411
 40
8.903820497293411
 40
8.903820497293411
 10
196.8583982985954
 20
1598.179510082486
 30
0.0
 41
1.0
 10
199.206568078145
 20
1601.975632685831
 30
0.0
 41
0.9960491791210787
 10
202.1892553994994
 20
1605.296479686823
 30
0.0
 41
1.0
  0
SPLINE
  5
163
330
1F
100
AcDbEntity
  8
LINEE VISIBILI 2D
100
AcDbSpline
210
0.0
220
0.0
230
1.0
 70
    12
 71
     2
 72
     6
 73
     3
 74
     0
 42
0.0000000001
 43
0.0000000001
 40
0.0
 40
0.0
 40
0.0
 40
8.283232423430324
 40
8.283232423430324
 40
8.283232423430324
 10
202.1892553994994
 20
1605.296479686823
 30
0.0
 41
1.0
 10
204.9584637325356
 20
1608.382238172924
 30
0.0
 41
0.9983666575457919
 10
208.061607151235
 20
1611.131951038817
 30
0.0
 41
1.0
  0
SPLINE
  5
164
330
1F
100
AcDbEntity
  8
LINEE VISIBILI 2D
100
AcDbSpline
210
0.0
220
0.0
230
1.0
 70
    12
 71
     2
 72
     6
 73
     3
 74
     0
 42
0.0000000001
 43
0.0000000001
 40
0.0
 40
0.0
 40
0.0
 40
7.725781390055132
 40
7.725781390055132
 40
7.725781390055132
 10
208.061607151235
 20
1611.131951038817
 30
0.0
 41
1.0
 10
210.9553850547628
 20
1613.69286911222
 30
0.0
 41
0.9994812776354703
 10
214.0080245001825
 20
1616.062182166651
 30
0.0
 41
1.0
  0
SPLINE
  5
165
330
1F
100
AcDbEntity
  8
LINEE VISIBILI 2D
100
AcDbSpline
210
0.0
220
0.0
230
1.0
 70
    12
 71
     2
 72
     6
 73
     3
 74
     0
 42
0.0000000001
 43
0.0000000001
 40
0.0
 40
0.0
 40
0.0
 40
6.813214264342207
 40
6.813214264342207
 40
6.813214264342207
 10
214.0080245001825
 20
1616.062182166651
 30
0.0
 41
1.0
 10
216.7032959244013
 20
1618.145580189266
 30
0.0
 41
0.9999959144096312
 10
219.3866124604365
 20
1620.244353101775
 30
0.0
 41
1.0
  0
SPLINE
  5
166
330
1F
100
AcDbEntity
  8
LINEE VISIBILI 2D
100
AcDbSpline
210
0.0
220
0.0
230
1.0
 70
    12
 71
     2
 72
     6
 73
     3
 74
     0
 42
0.0000000001
 43
0.0000000001
 40
0.0
 40
0.0
 40
0.0
 40
7.883674743741764
 40
7.883674743741764
 40
7.883674743741764
 10
219.3866124604365
 20
1620.244353101775
 30
0.0
 41
1.0
 10
222.4920311513503
 20
1622.67233653014
 30
0.0
 41
0.9999687759831994
 10
225.5586896658434
 20
1625.149095365753
 30
0.0
 41
1.0
  0
SPLINE
  5
167
330
1F
100
AcDbEntity
  8
LINEE VISIBILI 2D
100
AcDbSpline
210
0.0
220
0.0
230
1.0
 70
    12
 71
     2
 72
     6
 73
     3
 74
     0
 42
0.0000000001
 43
0.0000000001
 40
0.0
 40
0.0
 40
0.0
 40
7.175820776801973
 40
7.175820776801973
 40
7.175820776801973
 10
225.5586896658434
 20
1625.149095365753
 30
0.0
 41
1.0
 10
228.3491661501738
 20
1627.404391761992
 30
0.0
 41
0.999998841230656
 10
231.14649637537
 20
1629.651181573188
 30
0.0
 41
1.0
  0
SPLINE
  5
168
330
1F
100
AcDbEntity
  8
PREDEFINITO
100
AcDbSpline
210
0.0
220
0.0
230
1.0
 70
    12
 71
     2
 72
     6
 73
     3
 74
     0
 42
0.0000000001
 43
0.0000000001
 40
0.0
 40
0.0
 40
0.0
 40
4.470041056908837
 40
4.470041056908837
 40
4.470041056908837
 10
277.5922256611572
 20
1811.903181787736
 30
0.0
 41
1.0
 10
276.271112277271
 20
1810.100330902349
 30
0.0
 41
0.9999556922376373
 10
274.9162923413646
 20
1808.322670971628
 30
0.0
 41
1.0
  0
SPLINE
  5
169
330
1F
100
AcDbEntity
  8
PREDEFINITO
100
AcDbSpline
210
0.0
220
0.0
230
1.0
 70
    12
 71
     2
 72
     6
 73
     3
 74
     0
 42
0.0000000001
 43
0.0000000001
 40
0.0
 40
0.0
 40
0.0
 40
8.15036706410674
 40
8.15036706410674
 40
8.15036706410674
 10
274.9162923413646
 20
1808.322670971628
 30
0.0
 41
1.0
 10
272.4460437508877
 20
1805.081488935094
 30
0.0
 41
0.9999878846299739
 10
270.0078236502213
 20
1801.816144874601
 30
0.0
 41
1.0
  0
SPLINE
  5
16A
330
1F
100
AcDbEntity
  8
PREDEFINITO
100
AcDbSpline
210
0.0
220
0.0
230
1.0
 70
    12
 71
     2
 72
     6
 73
     3
 74
     0
 42
0.0000000001
 43
0.0000000001
 40
0.0
 40
0.0
 40
0.0
 40
8.046436079481174
 40
8.046436079481174
 40
8.046436079481174
 10
270.0078236502213
 20
1801.816144874601
 30
0.0
 41
1.0
 10
267.6002513333162
 20
1798.592168622556
 30
0.0
 41
0.9998080362843348
 10
265.3208387822636
 20
1795.276342031186
 30
0.0
 41
1.0
  0
SPLINE
  5
16B
330
1F
100
AcDbEntity
  8
PREDEFINITO
100
AcDbSpline
210
0.0
220
0.0
230
1.0
 70
    12
 71
     2
 72
     6
 73
     3
 74
     0
 42
0.0000000001
 43
0.0000000001
 40
0.0
 40
0.0
 40
0.0
 40
8.159475888282142
 40
8.159475888282142
 40
8.159475888282142
 10
265.3208387822636
 20
1795.276342031186
 30
0.0
 41
1.0
 10
263.0097596447713
 20
1791.914283046988
 30
0.0
 41
0.9999880379594599
 10
260.731679784761
 20
1788.529777275951
 30
0.0
 41
1.0
  0
SPLINE
  5
16C
330
1F
100
AcDbEntity
  8
PREDEFINITO
100
AcDbSpline
210
0.0
220
0.0
230
1.0
 70
    12
 71
     2
 72
     6
 73
     3
 74
     0
 42
0.0000000001
 43
0.0000000001
 40
0.0
 40
0.0
 40
0.0
 40
8.227523573017809
 40
8.227523573017809
 40
8.227523573017809
 10
260.731679784761
 20
1788.529777275951
 30
0.0
 41
1.0
 10
258.4345190539073
 20
1785.116524283262
 30
0.0
 41
0.9998135813345159
 10
256.0072888348907
 20
1781.794507293632
 30
0.0
 41
1.0
  0
SPLINE
  5
16D
330
1F
100
AcDbEntity
  8
PREDEFINITO
100
AcDbSpline
210
0.0
220
0.0
230
1.0
 70
    12
 71
     2
 72
     6
 73
     3
 74
     0
 42
0.0000000001
 43
0.0000000001
 40
0.0
 40
0.0
 40
0.0
 40
6.499035076357052
 40
6.499035076357052
 40
6.499035076357052
 10
256.0072888348907
 20
1781.794507293632
 30
0.0
 41
1.0
 10
254.089887558693
 20
1779.17068507951
 30
0.0
 41
0.9998930173631293
 10
252.0965568269238
 20
1776.604071891072
 30
0.0
 41
1.0
  0
SPLINE
  5
16E
330
1F
100
AcDbEntity
  8
PREDEFINITO
100
AcDbSpline
210
0.0
220
0.0
230
1.0
 70
    12
 71
     2
 72
     6
 73
     3
 74
     0
 42
0.0000000001
 43
0.0000000001
 40
0.0
 40
0.0
 40
0.0
 40
6.484739821203769
 40
6.484739821203769
 40
6.484739821203769
 10
252.0965568269238
 20
1776.604071891072
 30
0.0
 41
1.0
 10
250.1078968499233
 20
1774.043171707341
 30
0.0
 41
0.9999988858070081
 10
248.1268914358859
 20
1771.476345689725
 30
0.0
 41
1.0
  0
SPLINE
  5
16F
330
1F
100
AcDbEntity
  8
PREDEFINITO
100
AcDbSpline
210
0.0
220
0.0
230
1.0
 70
    12
 71
     2
 72
     6
 73
     3
 74
     0
 42
0.0000000001
 43
0.0000000001
 40
0.0
 40
0.0
 40
0.0
 40
5.606751043737618
 40
5.606751043737618
 40
5.606751043737618
 10
248.1268914358859
 20
1771.476345689725
 30
0.0
 41
1.0
 10
246.4136895006977
 20
1769.257147589678
 30
0.0
 41
0.9999058418997673
 10
244.7620329820716
 20
1766.991770816724
 30
0.0
 41
1.0
  0
SPLINE
  5
170
330
1F
100
AcDbEntity
  8
PREDEFINITO
100
AcDbSpline
210
0.0
220
0.0
230
1.0
 70
    12
 71
     2
 72
     6
 73
     3
 74
     0
 42
0.0000000001
 43
0.0000000001
 40
0.0
 40
0.0
 40
0.0
 40
5.036349085880661
 40
5.036349085880661
 40
5.036349085880661
 10
244.7620329820716
 20
1766.991770816724
 30
0.0
 41
1.0
 10
243.2732767358441
 20
1764.959186600627
 30
0.0
 41
0.9992212875229393
 10
241.949428523717
 20
1762.815540273289
 30
0.0
 41
1.0
  0
SPLINE
  5
171
330
1F
100
AcDbEntity
  8
PREDEFINITO
100
AcDbSpline
210
0.0
220
0.0
230
1.0
 70
    24
 71
     2
 72
     6
 73
     3
 74
     0
 42
0.0000000001
 43
0.0000000001
 40
-1.0
 40
-1.0
 40
-1.0
 40
0.0
 40
0.0
 40
0.0
 10
241.949428523717
 20
1762.815540273289
 30
0.0
 10
241.9096595125601
 20
1762.750430917034
 30
0.0
 10
241.8698905014032
 20
1762.685321560778
 30
0.0
  0
SPLINE
  5
172
330
1F
100
AcDbEntity
  8
PREDEFINITO
100
AcDbSpline
210
0.0
220
0.0
230
1.0
 70
    12
 71
     2
 72
     6
 73
     3
 74
     0
 42
0.0000000001
 43
0.0000000001
 40
0.0
 40
0.0
 40
0.0
 40
1.777224313256839
 40
1.777224313256839
 40
1.777224313256839
 10
241.8698905014032
 20
1762.685321560778
 30
0.0
 41
1.0
 10
241.4071427516672
 20
1761.926548627645
 30
0.0
 41
0.999771848245649
 10
240.9772247107116
 20
1761.148703963202
 30
0.0
 41
1.0
  0
SPLINE
  5
173
330
1F
100
AcDbEntity
  8
PREDEFINITO
100
AcDbSpline
210
0.0
220
0.0
230
1.0
 70
    12
 71
     2
 72
     6
 73
     3
 74
     0
 42
0.0000000001
 43
0.0000000001
 40
0.0
 40
0.0
 40
0.0
 40
4.417386760204562
 40
4.417386760204562
 40
4.417386760204562
 10
233.833794482935
 20
1756.127270018364
 30
0.0
 41
1.0
 10
234.1869950223481
 20
1758.317406015783
 30
0.0
 41
0.993427317724445
 10
235.0290311843878
 20
1760.369824445357
 30
0.0
 41
1.0
  0
SPLINE
  5
174
330
1F
100
AcDbEntity
  8
PREDEFINITO
100
AcDbSpline
210
0.0
220
0.0
230
1.0
 70
    12
 71
     2
 72
     6
 73
     3
 74
     0
 42
0.0000000001
 43
0.0000000001
 40
0.0
 40
0.0
 40
0.0
 40
5.893382646376797
 40
5.893382646376797
 40
5.893382646376797
 10
235.0290311843878
 20
1760.369824445357
 30
0.0
 41
1.0
 10
236.1558610811643
 20
1763.100326898777
 30
0.0
 41
0.9963550585425935
 10
237.730434001528
 20
1765.599548654216
 30
0.0
 41
1.0
  0
SPLINE
  5
175
330
1F
100
AcDbEntity
  8
PREDEFINITO
100
AcDbSpline
210
0.0
220
0.0
230
1.0
 70
    24
 71
     2
 72
     6
 73
     3
 74
     0
 42
0.0000000001
 43
0.0000000001
 40
0.0
 40
0.0
 40
0.0
 40
1.0
 40
1.0
 40
1.0
 10
237.730434001528
 20
1765.599548654216
 30
0.0
 10
237.7410213983336
 20
1765.616805850862
 30
0.0
 10
237.7516087951392
 20
1765.634063047509
 30
0.0
  0
SPLINE
  5
176
330
1F
100
AcDbEntity
  8
PREDEFINITO
100
AcDbSpline
210
0.0
220
0.0
230
1.0
 70
    12
 71
     2
 72
     6
 73
     3
 74
     0
 42
0.0000000001
 43
0.0000000001
 40
0.0
 40
0.0
 40
0.0
 40
4.639073624765853
 40
4.639073624765853
 40
4.639073624765853
 10
237.7516087951392
 20
1765.634063047509
 30
0.0
 41
1.0
 10
238.9704159337174
 20
1767.608656445928
 30
0.0
 41
0.9994067718510434
 10
240.322260587247
 20
1769.494664389404
 30
0.0
 41
1.0
  0
SPLINE
  5
177
330
1F
100
AcDbEntity
  8
LINEE VISIBILI 2D
100
AcDbSpline
210
0.0
220
0.0
230
1.0
 70
    12
 71
     2
 72
     6
 73
     3
 74
     0
 42
0.0000000001
 43
0.0000000001
 40
0.0
 40
0.0
 40
0.0
 40
0.1490363460106894
 40
0.1490363460106894
 40
0.1490363460106894
 10
238.8110890933861
 20
1746.46361431183
 30
0.0
 41
1.0
 10
238.7429741139466
 20
1746.493839022839
 30
0.0
 41
0.9999695482866092
 10
238.6753391644986
 20
1746.525123159279
 30
0.0
 41
0.9999999999999991
  0
SPLINE
  5
178
330
1F
100
AcDbEntity
  8
LINEE VISIBILI 2D
100
AcDbSpline
210
0.0
220
0.0
230
1.0
 70
    12
 71
     2
 72
     6
 73
     3
 74
     0
 42
0.0000000001
 43
0.0000000001
 40
0.0
 40
0.0
 40
0.0
 40
3.78370410804292
 40
3.78370410804292
 40
3.78370410804292
 10
238.6753391644986
 20
1746.525123159279
 30
0.0
 41
0.9999999999999745
 10
236.9221447585938
 20
1747.312454103835
 30
0.0
 41
0.9767358482995381
 10
235.6600230355014
 20
1748.761808924868
 30
0.0
 41
0.9999999999999798
  0
SPLINE
  5
179
330
1F
100
AcDbEntity
  8
LINEE VISIBILI 2D
100
AcDbSpline
210
0.0
220
0.0
230
1.0
 70
    12
 71
     2
 72
     6
 73
     3
 74
     0
 42
0.0000000001
 43
0.0000000001
 40
0.0
 40
0.0
 40
0.0
 40
0.5416342580404713
 40
0.5416342580404713
 40
0.5416342580404713
 10
235.6600230355014
 20
1748.761808924868
 30
0.0
 41
0.9999999999999964
 10
235.4838274420272
 20
1748.967615510699
 30
0.0
 41
0.999393861436421
 10
235.322379510307
 20
1749.185183438654
 30
0.0
 41
1.0
  0
SPLINE
  5
17A
330
1F
100
AcDbEntity
  8
LINEE VISIBILI 2D
100
AcDbSpline
210
0.0
220
0.0
230
1.0
 70
    12
 71
     2
 72
     6
 73
     3
 74
     0
 42
0.0000000001
 43
0.0000000001
 40
0.0
 40
0.0
 40
0.0
 40
3.10143323618566
 40
3.10143323618566
 40
3.10143323618566
 10
235.322379510307
 20
1749.185183438654
 30
0.0
 41
1.0
 10
234.3929848250974
 20
1750.449349697287
 30
0.0
 41
0.9825732980121679
 10
233.9895761686846
 20
1751.965645270814
 30
0.0
 41
1.0
  0
SPLINE
  5
17B
330
1F
100
AcDbEntity
  8
LINEE VISIBILI 2D
100
AcDbSpline
210
0.0
220
0.0
230
1.0
 70
    12
 71
     2
 72
     6
 73
     3
 74
     0
 42
0.0000000001
 43
0.0000000001
 40
0.0
 40
0.0
 40
0.0
 40
3.965006092282388
 40
3.965006092282388
 40
3.965006092282388
 10
233.9895761686846
 20
1751.965645270814
 30
0.0
 41
1.0
 10
233.507138696435
 20
1753.914942213133
 30
0.0
 41
0.9809818828093648
 10
233.8033755835042
 20
1755.901081229087
 30
0.0
 41
1.0
  0
SPLINE
  5
17C
330
1F
100
AcDbEntity
  8
LINEE VISIBILI 2D
100
AcDbSpline
210
0.0
220
0.0
230
1.0
 70
    12
 71
     2
 72
     6
 73
     3
 74
     0
 42
0.0000000001
 43
0.0000000001
 40
0.0
 40
0.0
 40
0.0
 40
4.279397228470704
 40
4.279397228470704
 40
4.279397228470704
 10
241.6436289133963
 20
1771.30505524936
 30
0.0
 41
1.0
 10
242.9165349764788
 20
1773.025035695188
 30
0.0
 41
0.9999488240902479
 10
244.2239800179884
 20
1774.718909965284
 30
0.0
 41
1.0
  0
SPLINE
  5
17D
330
1F
100
AcDbEntity
  8
LINEE VISIBILI 2D
100
AcDbSpline
210
0.0
220
0.0
230
1.0
 70
    12
 71
     2
 72
     6
 73
     3
 74
     0
 42
0.0000000001
 43
0.0000000001
 40
0.0
 40
0.0
 40
0.0
 40
6.50016982561275
 40
6.50016982561275
 40
6.50016982561275
 10
244.2239800179884
 20
1774.718909965284
 30
0.0
 41
1.0
 10
246.2096991324795
 20
1777.291843550022
 30
0.0
 41
0.9999988857870948
 10
248.2030910918693
 20
1779.858837147475
 30
0.0
 41
1.0
  0
SPLINE
  5
17E
330
1F
100
AcDbEntity
  8
LINEE VISIBILI 2D
100
AcDbSpline
210
0.0
220
0.0
230
1.0
 70
    12
 71
     2
 72
     6
 73
     3
 74
     0
 42
0.0000000001
 43
0.0000000001
 40
0.0
 40
0.0
 40
0.0
 40
6.347829879562036
 40
6.347829879562036
 40
6.347829879562036
 10
248.2030910918693
 20
1779.858837147475
 30
0.0
 41
1.0
 10
250.1500654987018
 20
1782.36572070166
 30
0.0
 41
0.999892920816628
 10
252.0228436256318
 20
1784.92850757973
 30
0.0
 41
1.0
  0
SPLINE
  5
17F
330
1F
100
AcDbEntity
  8
LINEE VISIBILI 2D
100
AcDbSpline
210
0.0
220
0.0
230
1.0
 70
    12
 71
     2
 72
     6
 73
     3
 74
     0
 42
0.0000000001
 43
0.0000000001
 40
0.0
 40
0.0
 40
0.0
 40
8.027313422576524
 40
8.027313422576524
 40
8.027313422576524
 10
252.0228436256318
 20
1784.92850757973
 30
0.0
 41
1.0
 10
254.391008448464
 20
1788.169686483128
 30
0.0
 41
0.9998135808011631
 10
256.6322687157724
 20
1791.499881331196
 30
0.0
 41
1.0
  0
SPLINE
  5
180
330
1F
100
AcDbEntity
  8
LINEE VISIBILI 2D
100
AcDbSpline
210
0.0
220
0.0
230
1.0
 70
    12
 71
     2
 72
     6
 73
     3
 74
     0
 42
0.0000000001
 43
0.0000000001
 40
0.0
 40
0.0
 40
0.0
 40
8.21028125295864
 40
8.21028125295864
 40
8.21028125295864
 10
256.6322687157724
 20
1791.499881331196
 30
0.0
 41
1.0
 10
258.9245377991991
 20
1794.905457732976
 30
0.0
 41
0.9999880455290879
 10
261.2500011118211
 20
1798.288454712113
 30
0.0
 41
1.0
  0
SPLINE
  5
181
330
1F
100
AcDbEntity
  8
LINEE VISIBILI 2D
100
AcDbSpline
210
0.0
220
0.0
230
1.0
 70
    12
 71
     2
 72
     6
 73
     3
 74
     0
 42
0.0000000001
 43
0.0000000001
 40
0.0
 40
0.0
 40
0.0
 40
8.249412871885138
 40
8.249412871885138
 40
8.249412871885138
 10
261.2500011118211
 20
1798.288454712113
 30
0.0
 41
1.0
 10
263.586908735326
 20
1801.687928419711
 30
0.0
 41
0.9998080405644353
 10
266.0552077415712
 20
1804.993236082427
 30
0.0
 41
1.0
  0
SPLINE
  5
182
330
1F
100
AcDbEntity
  8
LINEE VISIBILI 2D
100
AcDbSpline
210
0.0
220
0.0
230
1.0
 70
    12
 71
     2
 72
     6
 73
     3
 74
     0
 42
0.0000000001
 43
0.0000000001
 40
0.0
 40
0.0
 40
0.0
 40
8.201213791694897
 40
8.201213791694897
 40
8.201213791694897
 10
266.0552077415712
 20
1804.993236082427
 30
0.0
 41
1.0
 10
268.5086462139695
 20
1808.278945740442
 30
0.0
 41
0.9999878957871733
 10
270.9942981459108
 20
1811.54035383632
 30
0.0
 41
1.0
  0
SPLINE
  5
183
330
1F
100
AcDbEntity
  8
LINEE VISIBILI 2D
100
AcDbSpline
210
0.0
220
0.0
230
1.0
 70
    12
 71
     2
 72
     6
 73
     3
 74
     0
 42
0.0000000001
 43
0.0000000001
 40
0.0
 40
0.0
 40
0.0
 40
0.4558501541462316
 40
0.4558501541462316
 40
0.4558501541462316
 10
270.9942981459108
 20
1811.54035383632
 30
0.0
 41
1.0
 10
271.1324572482594
 20
1811.721632452065
 30
0.0
 41
0.9999995188160732
 10
271.270260414992
 20
1811.903181787859
 30
0.0
 41
1.0
  0
SPLINE
  5
184
330
1F
100
AcDbEntity
  8
LINEE VISIBILI 2D
100
AcDbSpline
210
0.0
220
0.0
230
1.0
 70
    12
 71
     2
 72
     6
 73
     3
 74
     0
 42
0.0000000001
 43
0.0000000001
 40
0.0
 40
0.0
 40
0.0
 40
0.4161784168280196
 40
0.4161784168280196
 40
0.4161784168280196
 10
240.3410343584045
 20
1751.452827677431
 30
0.0
 41
1.0
 10
240.5222855125364
 20
1751.350365999197
 30
0.0
 41
0.9991477734003593
 10
240.7113703161683
 20
1751.263203430303
 30
0.0
 41
0.9999999999999916
  0
SPLINE
  5
185
330
1F
100
AcDbEntity
  8
LINEE VISIBILI 2D
100
AcDbSpline
210
0.0
220
0.0
230
1.0
 70
    12
 71
     2
 72
     6
 73
     3
 74
     0
 42
0.0000000001
 43
0.0000000001
 40
0.0
 40
0.0
 40
0.0
 40
2.75547649822523
 40
2.75547649822523
 40
2.75547649822523
 10
240.7113703161683
 20
1751.263203430303
 30
0.0
 41
0.9999999999999842
 10
241.9917730879806
 20
1750.728041219562
 30
0.0
 41
0.989221248415673
 10
243.3723055514015
 20
1750.586761471145
 30
0.0
 41
1.0
  0
SPLINE
  5
186
330
1F
100
AcDbEntity
  8
LINEE VISIBILI 2D
100
AcDbSpline
210
0.0
220
0.0
230
1.0
 70
    12
 71
     2
 72
     6
 73
     3
 74
     0
 42
0.0000000001
 43
0.0000000001
 40
0.0
 40
0.0
 40
0.0
 40
3.706091758560659
 40
3.706091758560659
 40
3.706091758560659
 10
243.3723055514015
 20
1750.586761471145
 30
0.0
 41
1.0
 10
245.2159139335586
 20
1750.371141425726
 30
0.0
 41
0.9974736145125159
 10
247.0714721996426
 20
1750.418968111922
 30
0.0
 41
1.0
  0
SPLINE
  5
187
330
1F
100
AcDbEntity
  8
LINEE VISIBILI 2D
100
AcDbSpline
210
0.0
220
0.0
230
1.0
 70
    12
 71
     2
 72
     6
 73
     3
 74
     0
 42
0.0000000001
 43
0.0000000001
 40
0.0
 40
0.0
 40
0.0
 40
5.233993858247161
 40
5.233993858247161
 40
5.233993858247161
 10
247.0714721996426
 20
1750.418968111922
 30
0.0
 41
1.0
 10
249.688303074916
 20
1750.466192409267
 30
0.0
 41
0.9998509813486675
 10
252.3019441174799
 20
1750.603724399518
 30
0.0
 41
1.0
  0
SPLINE
  5
188
330
1F
100
AcDbEntity
  8
LINEE VISIBILI 2D
100
AcDbSpline
210
0.0
220
0.0
230
1.0
 70
    12
 71
     2
 72
     6
 73
     3
 74
     0
 42
0.0000000001
 43
0.0000000001
 40
0.0
 40
0.0
 40
0.0
 40
6.582123329670386
 40
6.582123329670386
 40
6.582123329670386
 10
252.3019441174799
 20
1750.603724399518
 30
0.0
 41
1.0
 10
255.5890189745171
 20
1750.768037286932
 30
0.0
 41
0.99994653089621
 10
258.8787888337258
 20
1750.864335678455
 30
0.0
 41
1.0
  0
SPLINE
  5
189
330
1F
100
AcDbEntity
  8
LINEE VISIBILI 2D
100
AcDbSpline
210
0.0
220
0.0
230
1.0
 70
    12
 71
     2
 72
     6
 73
     3
 74
     0
 42
0.0000000001
 43
0.0000000001
 40
0.0
 40
0.0
 40
0.0
 40
7.26462418453306
 40
7.26462418453306
 40
7.26462418453306
 10
258.8787888337258
 20
1750.864335678455
 30
0.0
 41
1.0
 10
262.5108522395573
 20
1750.970364212662
 30
0.0
 41
0.9994640095014568
 10
266.1420690611974
 20
1750.838489164661
 30
0.0
 41
1.0
  0
SPLINE
  5
18A
330
1F
100
AcDbEntity
  8
LINEE VISIBILI 2D
100
AcDbSpline
210
0.0
220
0.0
230
1.0
 70
    12
 71
     2
 72
     6
 73
     3
 74
     0
 42
0.0000000001
 43
0.0000000001
 40
0.0
 40
0.0
 40
0.0
 40
9.588778238376696
 40
9.588778238376696
 40
9.588778238376696
 10
266.1420690611974
 20
1750.838489164661
 30
0.0
 41
1.0
 10
270.9359562684274
 20
1750.6646235097
 30
0.0
 41
0.9991715857436229
 10
275.6998253018194
 20
1750.101475523544
 30
0.0
 41
1.0
  0
SPLINE
  5
18B
330
1F
100
AcDbEntity
  8
LINEE VISIBILI 2D
100
AcDbSpline
210
0.0
220
0.0
230
1.0
 70
    12
 71
     2
 72
     6
 73
     3
 74
     0
 42
0.0000000001
 43
0.0000000001
 40
0.0
 40
0.0
 40
0.0
 40
9.82737459970843
 40
9.82737459970843
 40
9.82737459970843
 10
275.6998253018194
 20
1750.101475523544
 30
0.0
 41
1.0
 10
280.5818420428635
 20
1749.524692203464
 30
0.0
 41
0.9993034618589224
 10
285.4072433116819
 20
1748.585400420769
 30
0.0
 41
1.0
  0
SPLINE
  5
18C
330
1F
100
AcDbEntity
  8
LINEE VISIBILI 2D
100
AcDbSpline
210
0.0
220
0.0
230
1.0
 70
    12
 71
     2
 72
     6
 73
     3
 74
     0
 42
0.0000000001
 43
0.0000000001
 40
0.0
 40
0.0
 40
0.0
 40
9.695538095863316
 40
9.695538095863316
 40
9.695538095863316
 10
285.4072433116819
 20
1748.585400420769
 30
0.0
 41
1.0
 10
290.1676422244657
 20
1747.659239506485
 30
0.0
 41
0.9994161955568592
 10
294.8536796201618
 20
1746.41014968821
 30
0.0
 41
1.0
  0
SPLINE
  5
18D
330
1F
100
AcDbEntity
  8
LINEE VISIBILI 2D
100
AcDbSpline
210
0.0
220
0.0
230
1.0
 70
    12
 71
     2
 72
     6
 73
     3
 74
     0
 42
0.0000000001
 43
0.0000000001
 40
0.0
 40
0.0
 40
0.0
 40
9.704824204872
 40
9.704824204872
 40
9.704824204872
 10
294.8536796201618
 20
1746.41014968821
 30
0.0
 41
1.0
 10
299.5448081577394
 20
1745.161739330997
 30
0.0
 41
0.9993853474217165
 10
304.1369316853047
 20
1743.587694578247
 30
0.0
 41
1.0
  0
SPLINE
  5
18E
330
1F
100
AcDbEntity
  8
LINEE VISIBILI 2D
100
AcDbSpline
210
0.0
220
0.0
230
1.0
 70
    12
 71
     2
 72
     6
 73
     3
 74
     0
 42
0.0000000001
 43
0.0000000001
 40
0.0
 40
0.0
 40
0.0
 40
8.029595373788002
 40
8.029595373788002
 40
8.029595373788002
 10
304.1369316853047
 20
1743.587694578247
 30
0.0
 41
1.0
 10
307.9372651918007
 20
1742.288460082744
 30
0.0
 41
0.9994446193713642
 10
311.6426166360568
 20
1740.738971228493
 30
0.0
 41
1.0
  0
SPLINE
  5
18F
330
1F
100
AcDbEntity
  8
LINEE VISIBILI 2D
100
AcDbSpline
210
0.0
220
0.0
230
1.0
 70
    12
 71
     2
 72
     6
 73
     3
 74
     0
 42
0.0000000001
 43
0.0000000001
 40
0.0
 40
0.0
 40
0.0
 40
7.168122282912375
 40
7.168122282912375
 40
7.168122282912375
 10
311.6426166360568
 20
1740.738971228493
 30
0.0
 41
1.0
 10
314.9510947649448
 20
1739.357551211269
 30
0.0
 41
0.9994833647086852
 10
318.1639847169918
 20
1737.766423639592
 30
0.0
 41
1.0
  0
SPLINE
  5
190
330
1F
100
AcDbEntity
  8
LINEE VISIBILI 2D
100
AcDbSpline
210
0.0
220
0.0
230
1.0
 70
    12
 71
     2
 72
     6
 73
     3
 74
     0
 42
0.0000000001
 43
0.0000000001
 40
0.0
 40
0.0
 40
0.0
 40
7.001283755086787
 40
7.001283755086787
 40
7.001283755086787
 10
318.1639847169918
 20
1737.766423639592
 30
0.0
 41
1.0
 10
321.30443268874
 20
1736.215603093635
 30
0.0
 41
0.9992073775008034
 10
324.3115579243349
 20
1734.419870472539
 30
0.0
 41
1.0
  0
SPLINE
  5
191
330
1F
100
AcDbEntity
  8
LINEE VISIBILI 2D
100
AcDbSpline
210
0.0
220
0.0
230
1.0
 70
    12
 71
     2
 72
     6
 73
     3
 74
     0
 42
0.0000000001
 43
0.0000000001
 40
0.0
 40
0.0
 40
0.0
 40
5.799503097271767
 40
5.799503097271767
 40
5.799503097271767
 10
324.3115579243349
 20
1734.419870472539
 30
0.0
 41
1.0
 10
326.7982269342112
 20
1732.926563114652
 30
0.0
 41
0.9995604684983825
 10
329.1920235446457
 20
1731.288507127308
 30
0.0
 41
1.0
  0
SPLINE
  5
192
330
1F
100
AcDbEntity
  8
LINEE VISIBILI 2D
100
AcDbSpline
210
0.0
220
0.0
230
1.0
 70
    12
 71
     2
 72
     6
 73
     3
 74
     0
 42
0.0000000001
 43
0.0000000001
 40
0.0
 40
0.0
 40
0.0
 40
6.078716328630857
 40
6.078716328630857
 40
6.078716328630857
 10
329.1920235446457
 20
1731.288507127308
 30
0.0
 41
1.0
 10
331.7011546774236
 20
1729.57126244171
 30
0.0
 41
0.9994345038662202
 10
334.0891907741955
 20
1727.689255015529
 30
0.0
 41
1.0
  0
SPLINE
  5
193
330
1F
100
AcDbEntity
  8
LINEE VISIBILI 2D
100
AcDbSpline
210
0.0
220
0.0
230
1.0
 70
    12
 71
     2
 72
     6
 73
     3
 74
     0
 42
0.0000000001
 43
0.0000000001
 40
0.0
 40
0.0
 40
0.0
 40
5.505227872590278
 40
5.505227872590278
 40
5.505227872590278
 10
334.0891907741955
 20
1727.689255015529
 30
0.0
 41
1.0
 10
336.2475450936241
 20
1725.980288769642
 30
0.0
 41
0.999784716237803
 10
338.3331375504358
 20
1724.183245892595
 30
0.0
 41
1.0
  0
SPLINE
  5
194
330
1F
100
AcDbEntity
  8
LINEE VISIBILI 2D
100
AcDbSpline
210
0.0
220
0.0
230
1.0
 70
    12
 71
     2
 72
     6
 73
     3
 74
     0
 42
0.0000000001
 43
0.0000000001
 40
0.0
 40
0.0
 40
0.0
 40
5.049388135857725
 40
5.049388135857725
 40
5.049388135857725
 10
338.3331375504358
 20
1724.183245892595
 30
0.0
 41
1.0
 10
340.2451908388818
 20
1722.534171322603
 30
0.0
 41
0.9998453524741479
 10
342.0980688098566
 20
1720.818876030281
 30
0.0
 41
0.9999999999999991
  0
SPLINE
  5
195
330
1F
100
AcDbEntity
  8
LINEE VISIBILI 2D
100
AcDbSpline
210
0.0
220
0.0
230
1.0
 70
    12
 71
     2
 72
     6
 73
     3
 74
     0
 42
0.0000000001
 43
0.0000000001
 40
0.0
 40
0.0
 40
0.0
 40
1.493690054568733
 40
1.493690054568733
 40
1.493690054568733
 10
342.0980688098566
 20
1720.818876030281
 30
0.0
 41
0.9999999999999978
 10
342.6461979342019
 20
1720.31149922486
 30
0.0
 41
0.9998665494135276
 10
343.1774591091861
 20
1719.786486535879
 30
0.0
 41
1.0
  0
SPLINE
  5
196
330
1F
100
AcDbEntity
  8
LINEE VISIBILI 2D
100
AcDbSpline
210
0.0
220
0.0
230
1.0
 70
    12
 71
     2
 72
     6
 73
     3
 74
     0
 42
0.0000000001
 43
0.0000000001
 40
0.0
 40
0.0
 40
0.0
 40
3.392157190274342
 40
3.392157190274342
 40
3.392157190274342
 10
344.175691376316
 20
1710.723146582274
 30
0.0
 41
1.0
 10
343.2546325737586
 20
1712.150520741162
 30
0.0
 41
0.9976441737661135
 10
342.1468656268557
 20
1713.438386688603
 30
0.0
 41
1.0
  0
SPLINE
  5
197
330
1F
100
AcDbEntity
  8
LINEE VISIBILI 2D
100
AcDbSpline
210
0.0
220
0.0
230
1.0
 70
    12
 71
     2
 72
     6
 73
     3
 74
     0
 42
0.0000000001
 43
0.0000000001
 40
0.0
 40
0.0
 40
0.0
 40
4.872566408610611
 40
4.872566408610611
 40
4.872566408610611
 10
342.1468656268557
 20
1713.438386688603
 30
0.0
 41
1.0
 10
340.5570059525551
 20
1715.287796774238
 30
0.0
 41
0.9984243044393589
 10
338.769926183063
 20
1716.947410387791
 30
0.0
 41
0.9999999999999916
  0
SPLINE
  5
198
330
1F
100
AcDbEntity
  8
LINEE VISIBILI 2D
100
AcDbSpline
210
0.0
220
0.0
230
1.0
 70
    12
 71
     2
 72
     6
 73
     3
 74
     0
 42
0.0000000001
 43
0.0000000001
 40
0.0
 40
0.0
 40
0.0
 40
4.871590461939385
 40
4.871590461939385
 40
4.871590461939385
 10
338.769926183063
 20
1716.947410387791
 30
0.0
 41
0.9999999999999991
 10
336.9822959629783
 20
1718.602312126724
 30
0.0
 41
0.9998454117638572
 10
335.137584642272
 20
1720.193337491891
 30
0.0
 41
1.0
  0
SPLINE
  5
199
330
1F
100
AcDbEntity
  8
LINEE VISIBILI 2D
100
AcDbSpline
210
0.0
220
0.0
230
1.0
 70
    12
 71
     2
 72
     6
 73
     3
 74
     0
 42
0.0000000001
 43
0.0000000001
 40
0.0
 40
0.0
 40
0.0
 40
5.296174732116247
 40
5.296174732116247
 40
5.296174732116247
 10
335.137584642272
 20
1720.193337491891
 30
0.0
 41
1.0
 10
333.1311740752472
 20
1721.922122422742
 30
0.0
 41
0.9997846548955099
 10
331.0547557054549
 20
1723.566162402222
 30
0.0
 41
1.0
  0
SPLINE
  5
19A
330
1F
100
AcDbEntity
  8
LINEE VISIBILI 2D
100
AcDbSpline
210
0.0
220
0.0
230
1.0
 70
    12
 71
     2
 72
     6
 73
     3
 74
     0
 42
0.0000000001
 43
0.0000000001
 40
0.0
 40
0.0
 40
0.0
 40
5.74059386308281
 40
5.74059386308281
 40
5.74059386308281
 10
331.0547557054549
 20
1723.566162402222
 30
0.0
 41
1.0
 10
328.7992636004008
 20
1725.343117542271
 30
0.0
 41
0.9994351133238872
 10
326.4294963928005
 20
1726.96454209725
 30
0.0
 41
1.0
  0
SPLINE
  5
19B
330
1F
100
AcDbEntity
  8
LINEE VISIBILI 2D
100
AcDbSpline
210
0.0
220
0.0
230
1.0
 70
    12
 71
     2
 72
     6
 73
     3
 74
     0
 42
0.0000000001
 43
0.0000000001
 40
0.0
 40
0.0
 40
0.0
 40
5.503164007108049
 40
5.503164007108049
 40
5.503164007108049
 10
326.4294963928005
 20
1726.96454209725
 30
0.0
 41
1.0
 10
324.15779773298
 20
1728.518576233887
 30
0.0
 41
0.9995610822980406
 10
321.798050332628
 20
1729.935343365562
 30
0.0
 41
1.0
  0
SPLINE
  5
19C
330
1F
100
AcDbEntity
  8
LINEE VISIBILI 2D
100
AcDbSpline
210
0.0
220
0.0
230
1.0
 70
    12
 71
     2
 72
     6
 73
     3
 74
     0
 42
0.0000000001
 43
0.0000000001
 40
0.0
 40
0.0
 40
0.0
 40
6.603864787833074
 40
6.603864787833074
 40
6.603864787833074
 10
321.798050332628
 20
1729.935343365562
 30
0.0
 41
1.0
 10
318.9609224465947
 20
1731.627945048698
 30
0.0
 41
0.9992140144806604
 10
315.9986258207321
 20
1733.090474979968
 30
0.0
 41
1.0
  0
SPLINE
  5
19D
330
1F
100
AcDbEntity
  8
LINEE VISIBILI 2D
100
AcDbSpline
210
0.0
220
0.0
230
1.0
 70
    12
 71
     2
 72
     6
 73
     3
 74
     0
 42
0.0000000001
 43
0.0000000001
 40
0.0
 40
0.0
 40
0.0
 40
6.849952068182305
 40
6.849952068182305
 40
6.849952068182305
 10
315.9986258207321
 20
1733.090474979968
 30
0.0
 41
1.0
 10
312.9281464622238
 20
1734.610571272262
 30
0.0
 41
0.9994840369985839
 10
309.7664035196854
 20
1735.930388605903
 30
0.0
 41
1.0
  0
SPLINE
  5
19E
330
1F
100
AcDbEntity
  8
LINEE VISIBILI 2D
100
AcDbSpline
210
0.0
220
0.0
230
1.0
 70
    12
 71
     2
 72
     6
 73
     3
 74
     0
 42
0.0000000001
 43
0.0000000001
 40
0.0
 40
0.0
 40
0.0
 40
7.702259446957118
 40
7.702259446957118
 40
7.702259446957118
 10
309.7664035196854
 20
1735.930388605903
 30
0.0
 41
1.0
 10
306.2119907929243
 20
1737.416433472091
 30
0.0
 41
0.9994452011077151
 10
302.5665302976045
 20
1738.662546209184
 30
0.0
 41
1.0
  0
SPLINE
  5
19F
330
1F
100
AcDbEntity
  8
LINEE VISIBILI 2D
100
AcDbSpline
210
0.0
220
0.0
230
1.0
 70
    12
 71
     2
 72
     6
 73
     3
 74
     0
 42
0.0000000001
 43
0.0000000001
 40
0.0
 40
0.0
 40
0.0
 40
9.362497584290066
 40
9.362497584290066
 40
9.362497584290066
 10
302.5665302976045
 20
1738.662546209184
 30
0.0
 41
1.0
 10
298.1363653034019
 20
1740.180998597935
 30
0.0
 41
0.9993855006831508
 10
293.6107030624339
 20
1741.385341079725
 30
0.0
 41
1.0
  0
SPLINE
  5
1A0
330
1F
100
AcDbEntity
  8
LINEE VISIBILI 2D
100
AcDbSpline
210
0.0
220
0.0
230
1.0
 70
    12
 71
     2
 72
     6
 73
     3
 74
     0
 42
0.0000000001
 43
0.0000000001
 40
0.0
 40
0.0
 40
0.0
 40
9.36400723682988
 40
9.36400723682988
 40
9.36400723682988
 10
293.6107030624339
 20
1741.385341079725
 30
0.0
 41
1.0
 10
289.0849101331759
 20
1742.591753354032
 30
0.0
 41
0.9994162702867061
 10
284.4872999838267
 20
1743.486299679675
 30
0.0
 41
1.0
  0
SPLINE
  5
1A1
330
1F
100
AcDbEntity
  8
LINEE VISIBILI 2D
100
AcDbSpline
210
0.0
220
0.0
230
1.0
 70
    12
 71
     2
 72
     6
 73
     3
 74
     0
 42
0.0000000001
 43
0.0000000001
 40
0.0
 40
0.0
 40
0.0
 40
9.466445968023455
 40
9.466445968023455
 40
9.466445968023455
 10
284.4872999838267
 20
1743.486299679675
 30
0.0
 41
1.0
 10
279.8391352409369
 20
1744.391169241467
 30
0.0
 41
0.999303485311764
 10
275.1364293969145
 20
1744.946850935874
 30
0.0
 41
1.0
  0
SPLINE
  5
1A2
330
1F
100
AcDbEntity
  8
LINEE VISIBILI 2D
100
AcDbSpline
210
0.0
220
0.0
230
1.0
 70
    12
 71
     2
 72
     6
 73
     3
 74
     0
 42
0.0000000001
 43
0.0000000001
 40
0.0
 40
0.0
 40
0.0
 40
9.195943378450703
 40
9.195943378450703
 40
9.195943378450703
 10
275.1364293969145
 20
1744.946850935874
 30
0.0
 41
1.0
 10
270.5677378345501
 20
1745.487009145782
 30
0.0
 41
0.9991718358704036
 10
265.9702532874749
 20
1745.653890310552
 30
0.0
 41
1.0
  0
SPLINE
  5
1A3
330
1F
100
AcDbEntity
  8
LINEE VISIBILI 2D
100
AcDbSpline
210
0.0
220
0.0
230
1.0
 70
    12
 71
     2
 72
     6
 73
     3
 74
     0
 42
0.0000000001
 43
0.0000000001
 40
0.0
 40
0.0
 40
0.0
 40
6.948775164968741
 40
6.948775164968741
 40
6.948775164968741
 10
265.9702532874749
 20
1745.653890310552
 30
0.0
 41
1.0
 10
262.4969169756239
 20
1745.780122464186
 30
0.0
 41
0.9994641490208431
 10
259.0227640786916
 20
1745.678824188934
 30
0.0
 41
1.0
  0
SPLINE
  5
1A4
330
1F
100
AcDbEntity
  8
LINEE VISIBILI 2D
100
AcDbSpline
210
0.0
220
0.0
230
1.0
 70
    12
 71
     2
 72
     6
 73
     3
 74
     0
 42
0.0000000001
 43
0.0000000001
 40
0.0
 40
0.0
 40
0.0
 40
6.481836658484705
 40
6.481836658484705
 40
6.481836658484705
 10
259.0227640786916
 20
1745.678824188934
 30
0.0
 41
1.0
 10
255.7831170365583
 20
1745.584022626678
 30
0.0
 41
0.9999465448694838
 10
252.5461229952959
 20
1745.422251582793
 30
0.0
 41
1.0
  0
SPLINE
  5
1A5
330
1F
100
AcDbEntity
  8
LINEE VISIBILI 2D
100
AcDbSpline
210
0.0
220
0.0
230
1.0
 70
    12
 71
     2
 72
     6
 73
     3
 74
     0
 42
0.0000000001
 43
0.0000000001
 40
0.0
 40
0.0
 40
0.0
 40
5.403370516888258
 40
5.403370516888258
 40
5.403370516888258
 10
252.5461229952959
 20
1745.422251582793
 30
0.0
 41
1.0
 10
249.8478974407271
 20
1745.280336036888
 30
0.0
 41
0.999850223456808
 10
247.1463767728026
 20
1745.231887649128
 30
0.0
 41
1.0
  0
SPLINE
  5
1A6
330
1F
100
AcDbEntity
  8
LINEE VISIBILI 2D
100
AcDbSpline
210
0.0
220
0.0
230
1.0
 70
    12
 71
     2
 72
     6
 73
     3
 74
     0
 42
0.0000000001
 43
0.0000000001
 40
0.0
 40
0.0
 40
0.0
 40
4.407014211758314
 40
4.407014211758314
 40
4.407014211758314
 10
247.1463767728026
 20
1745.231887649128
 30
0.0
 41
1.0
 10
244.9397473581946
 20
1745.177821736595
 30
0.0
 41
0.9974301258476548
 10
242.7480445374792
 20
1745.439690486124
 30
0.0
 41
1.0
  0
SPLINE
  5
1A7
330
1F
100
AcDbEntity
  8
LINEE VISIBILI 2D
100
AcDbSpline
210
0.0
220
0.0
230
1.0
 70
    12
 71
     2
 72
     6
 73
     3
 74
     0
 42
0.0000000001
 43
0.0000000001
 40
0.0
 40
0.0
 40
0.0
 40
2.827894165144039
 40
2.827894165144039
 40
2.827894165144039
 10
242.7480445374792
 20
1745.439690486124
 30
0.0
 41
1.0
 10
241.3411887135333
 20
1745.612733532502
 30
0.0
 41
0.9962887624610247
 10
239.984857236903
 20
1746.024500615659
 30
0.0
 41
1.0
  0
SPLINE
  5
1A8
330
1F
100
AcDbEntity
  8
LINEE VISIBILI 2D
100
AcDbSpline
210
0.0
220
0.0
230
1.0
 70
    12
 71
     2
 72
     6
 73
     3
 74
     0
 42
0.0000000001
 43
0.0000000001
 40
0.2036414326280364
 40
0.2036414326280364
 40
0.2036414326280364
 40
3.172652953679312
 40
3.172652953679312
 40
3.172652953679312
 10
239.5827517467193
 20
1758.224159926108
 30
0.0
 41
0.9992375871649936
 10
239.030498148263
 20
1756.840051874826
 30
0.0
 41
0.9940609548320052
 10
238.7803352118899
 20
1755.37069961887
 30
0.0
 41
1.0
  0
SPLINE
  5
1A9
330
1F
100
AcDbEntity
  8
LINEE VISIBILI 2D
100
AcDbSpline
210
0.0
220
0.0
230
1.0
 70
    12
 71
     2
 72
     6
 73
     3
 74
     0
 42
0.0000000001
 43
0.0000000001
 40
0.0
 40
0.0
 40
0.0
 40
2.005043129659999
 40
2.005043129659999
 40
2.005043129659999
 10
238.7803352118899
 20
1755.37069961887
 30
0.0
 41
1.0
 10
238.5929386810234
 20
1754.372325945137
 30
0.0
 41
0.9808994110026336
 10
238.8006332569419
 20
1753.378263880225
 30
0.0
 41
1.0
  0
SPLINE
  5
1AA
330
1F
100
AcDbEntity
  8
LINEE VISIBILI 2D
100
AcDbSpline
210
0.0
220
0.0
230
1.0
 70
    12
 71
     2
 72
     6
 73
     3
 74
     0
 42
0.0000000001
 43
0.0000000001
 40
0.0
 40
0.0
 40
0.0
 40
1.004817789442772
 40
1.004817789442772
 40
1.004817789442772
 10
238.8006332569419
 20
1753.378263880225
 30
0.0
 41
1.0
 10
238.928141827159
 20
1752.887743655617
 30
0.0
 41
0.986989960282287
 10
239.2047394200897
 20
1752.463052829473
 30
0.0
 41
1.0
  0
SPLINE
  5
1AB
330
1F
100
AcDbEntity
  8
LINEE VISIBILI 2D
100
AcDbSpline
210
0.0
220
0.0
230
1.0
 70
    24
 71
     2
 72
     6
 73
     3
 74
     0
 42
0.0000000001
 43
0.0000000001
 40
0.0
 40
0.0
 40
0.0
 40
28.79999999998995
 40
28.79999999998995
 40
28.79999999998995
 10
211.5634966829602
 20
1832.40318178774
 30
0.0
 10
211.5638292160838
 20
1846.803181787735
 30
0.0
 10
211.5641617492074
 20
1861.20318178773
 30
0.0
  0
SPLINE
  5
1AC
330
1F
100
AcDbEntity
  8
LINEE VISIBILI 2D
100
AcDbSpline
210
0.0
220
0.0
230
1.0
 70
    24
 71
     2
 72
     6
 73
     3
 74
     0
 42
0.0000000001
 43
0.0000000001
 40
0.0
 40
0.0
 40
0.0
 40
38.73018157561603
 40
38.73018157561603
 40
38.73018157561603
 10
211.5641617492074
 20
1861.20318178773
 30
0.0
 10
230.9295850701389
 20
1861.20318178773
 30
0.0
 10
250.2950083910705
 20
1861.20318178773
 30
0.0
  0
SPLINE
  5
1AD
330
1F
100
AcDbEntity
  8
LINEE VISIBILI 2D
100
AcDbSpline
210
0.0
220
0.0
230
1.0
 70
    24
 71
     2
 72
     6
 73
     3
 74
     0
 42
0.0000000001
 43
0.0000000001
 40
0.0
 40
0.0
 40
0.0
 40
92.16014762333072
 40
92.16014762333072
 40
92.16014762333072
 10
250.2950083910705
 20
1861.20318178773
 30
0.0
 10
296.3754147358595
 20
1861.20318178773
 30
0.0
 10
342.4558210806484
 20
1861.20318178773
 30
0.0
  0
SPLINE
  5
1AE
330
1F
100
AcDbEntity
  8
LINEE VISIBILI 2D
100
AcDbSpline
210
0.0
220
0.0
230
1.0
 70
    24
 71
     2
 72
     6
 73
     3
 74
     0
 42
0.0000000001
 43
0.0000000001
 40
0.0
 40
0.0
 40
0.0
 40
28.79999999998995
 40
28.79999999998995
 40
28.79999999998995
 10
342.4558210806484
 20
1861.20318178773
 30
0.0
 10
342.4561536137721
 20
1846.803181787735
 30
0.0
 10
342.4564861468957
 20
1832.40318178774
 30
0.0
  0
SPLINE
  5
1AF
330
1F
100
AcDbEntity
  8
PREDEFINITO
100
AcDbSpline
210
0.0
220
0.0
230
1.0
 70
    12
 71
     2
 72
     6
 73
     3
 74
     0
 42
0.0000000001
 43
0.0000000001
 40
-2.211831262356121
 40
-2.211831262356121
 40
-2.211831262356121
 40
0.0
 40
0.0
 40
0.0
 10
1088.750457392441
 20
237.2044187687097
 30
0.0
 41
0.9186196469977078
 10
1087.595783304471
 20
237.5313965856644
 30
0.0
 41
0.8653080086161491
 10
1087.109309916639
 20
238.6467160231092
 30
0.0
 41
1.0
  0
SPLINE
  5
1B0
330
1F
100
AcDbEntity
  8
PREDEFINITO
100
AcDbSpline
210
0.0
220
0.0
230
1.0
 70
    12
 71
     2
 72
     6
 73
     3
 74
     0
 42
0.0000000001
 43
0.0000000001
 40
0.0
 40
0.0
 40
0.0
 40
2.171024374245866
 40
2.171024374245866
 40
2.171024374245866
 10
1087.109309916639
 20
238.6467160231092
 30
0.0
 41
1.0
 10
1086.635470449178
 20
239.739320264848
 30
0.0
 41
0.8677929906829517
 10
1087.15456008859
 20
240.7933238377918
 30
0.0
 41
0.9167165074847848
  0
SPLINE
  5
1B1
330
1F
100
AcDbEntity
  8
PREDEFINITO
100
AcDbSpline
210
0.0
220
0.0
230
1.0
 70
    12
 71
     2
 72
     6
 73
     3
 74
     0
 42
0.0000000001
 43
0.0000000001
 40
-2.003599373785062
 40
-2.003599373785062
 40
-2.003599373785062
 40
0.0
 40
0.0
 40
0.0
 10
1167.195153789725
 20
183.6465589739859
 30
0.0
 41
0.9102479587056423
 10
1167.910402721236
 20
182.8467259179607
 30
0.0
 41
0.8779885273422383
 10
1168.995712309031
 20
182.799827193917
 30
0.0
 41
1.0
  0
SPLINE
  5
1B2
330
1F
100
AcDbEntity
  8
PREDEFINITO
100
AcDbSpline
210
0.0
220
0.0
230
1.0
 70
    12
 71
     2
 72
     6
 73
     3
 74
     0
 42
0.0000000001
 43
0.0000000001
 40
0.0
 40
0.0
 40
0.0
 40
1.9784952401105
 40
1.9784952401105
 40
1.9784952401105
 10
1168.995712309031
 20
182.799827193917
 30
0.0
 41
1.0
 10
1170.065655327435
 20
182.7558414296655
 30
0.0
 41
0.8795172722397994
 10
1170.842196855052
 20
183.4742753009686
 30
0.0
 41
0.9094637872836768
  0
SPLINE
  5
1B3
330
1F
100
AcDbEntity
  8
PREDEFINITO
100
AcDbSpline
210
0.0
220
0.0
230
1.0
 70
    12
 71
     2
 72
     6
 73
     3
 74
     0
 42
0.0000000001
 43
0.0000000001
 40
-2.211831262355783
 40
-2.211831262355783
 40
-2.211831262355783
 40
0.0
 40
0.0
 40
0.0
 10
1250.247169535457
 20
223.5754211843878
 30
0.0
 41
0.9186196469976915
 10
1250.541335483485
 20
222.411955182637
 30
0.0
 41
0.8653080086161697
 10
1249.818677211239
 20
221.4329971517876
 30
0.0
 41
1.0
  0
SPLINE
  5
1B4
330
1F
100
AcDbEntity
  8
PREDEFINITO
100
AcDbSpline
210
0.0
220
0.0
230
1.0
 70
    12
 71
     2
 72
     6
 73
     3
 74
     0
 42
0.0000000001
 43
0.0000000001
 40
0.0
 40
0.0
 40
0.0
 40
2.171024374246067
 40
2.171024374246067
 40
2.171024374246067
 10
1249.818677211239
 20
221.4329971517876
 30
0.0
 41
1.0
 10
1249.109373915342
 20
220.4763380147805
 30
0.0
 41
0.8677929906829395
 10
1247.937035225786
 20
220.3988810428816
 30
0.0
 41
0.9167165074847938
  0
SPLINE
  5
1B5
330
1F
100
AcDbEntity
  8
PREDEFINITO
100
AcDbSpline
210
0.0
220
0.0
230
1.0
 70
    12
 71
     2
 72
     6
 73
     3
 74
     0
 42
0.0000000001
 43
0.0000000001
 40
-2.211831262355487
 40
-2.211831262355487
 40
-2.211831262355487
 40
0.0
 40
0.0
 40
0.0
 10
1258.11587495955
 20
316.8155914133978
 30
0.0
 41
0.9186196469976772
 10
1259.27054904752
 20
316.4886135964429
 30
0.0
 41
0.8653080086161878
 10
1259.757022435351
 20
315.3732941589985
 30
0.0
 41
1.0
  0
SPLINE
  5
1B6
330
1F
100
AcDbEntity
  8
PREDEFINITO
100
AcDbSpline
210
0.0
220
0.0
230
1.0
 70
    12
 71
     2
 72
     6
 73
     3
 74
     0
 42
0.0000000001
 43
0.0000000001
 40
0.0
 40
0.0
 40
0.0
 40
2.171024374245511
 40
2.171024374245511
 40
2.171024374245511
 10
1259.757022435351
 20
315.3732941589985
 30
0.0
 41
1.0
 10
1260.230861902813
 20
314.28068991726
 30
0.0
 41
0.8677929906829733
 10
1259.7117722634
 20
313.2266863443162
 30
0.0
 41
0.9167165074847688
  0
SPLINE
  5
1B7
330
1F
100
AcDbEntity
  8
PREDEFINITO
100
AcDbSpline
210
0.0
220
0.0
230
1.0
 70
    12
 71
     2
 72
     6
 73
     3
 74
     0
 42
0.0000000001
 43
0.0000000001
 40
-2.21183126235585
 40
-2.21183126235585
 40
-2.21183126235585
 40
0.0
 40
0.0
 40
0.0
 10
1181.301871600088
 20
370.2501753200638
 30
0.0
 41
0.9186196469976947
 10
1182.16237974003
 20
371.0866635048599
 30
0.0
 41
0.8653080086161656
 10
1183.371511400107
 20
370.9503020982647
 30
0.0
 41
1.0
  0
SPLINE
  5
1B8
330
1F
100
AcDbEntity
  8
PREDEFINITO
100
AcDbSpline
210
0.0
220
0.0
230
1.0
 70
    12
 71
     2
 72
     6
 73
     3
 74
     0
 42
0.0000000001
 43
0.0000000001
 40
0.0
 40
0.0
 40
0.0
 40
2.171024374245978
 40
2.171024374245978
 40
2.171024374245978
 10
1183.371511400107
 20
370.9503020982647
 30
0.0
 41
1.0
 10
1184.554654163466
 20
370.814356993533
 30
0.0
 41
0.8677929906829449
 10
1185.207903213609
 20
369.837810392488
 30
0.0
 41
0.9167165074847898
  0
SPLINE
  5
1B9
330
1F
100
AcDbEntity
  8
PREDEFINITO
100
AcDbSpline
210
0.0
220
0.0
230
1.0
 70
    12
 71
     2
 72
     6
 73
     3
 74
     0
 42
0.0000000001
 43
0.0000000001
 40
-2.211831262355745
 40
-2.211831262355745
 40
-2.211831262355745
 40
0.0
 40
0.0
 40
0.0
 10
1096.619162816534
 20
330.4445889977198
 30
0.0
 41
0.9186196469976896
 10
1096.324996868505
 20
331.6080549994708
 30
0.0
 41
0.8653080086161721
 10
1097.047655140751
 20
332.5870130303201
 30
0.0
 41
1.0
  0
SPLINE
  5
1BA
330
1F
100
AcDbEntity
  8
PREDEFINITO
100
AcDbSpline
210
0.0
220
0.0
230
1.0
 70
    12
 71
     2
 72
     6
 73
     3
 74
     0
 42
0.0000000001
 43
0.0000000001
 40
0.0
 40
0.0
 40
0.0
 40
2.171024374245995
 40
2.171024374245995
 40
2.171024374245995
 10
1097.047655140751
 20
332.5870130303201
 30
0.0
 41
1.0
 10
1097.756958436649
 20
333.5436721673272
 30
0.0
 41
0.8677929906829439
 10
1098.929297126204
 20
333.6211291392261
 30
0.0
 41
0.9167165074847906
  0
SPLINE
  5
1BB
330
1F
100
AcDbEntity
  8
LINEE VISIBILI 2D
100
AcDbSpline
210
0.0
220
0.0
230
1.0
 70
    12
 71
     2
 72
     6
 73
     3
 74
     0
 42
0.0000000001
 43
0.0000000001
 40
0.0
 40
0.0
 40
0.0
 40
0.2024256692708974
 40
0.2024256692708974
 40
0.2024256692708974
 10
1090.051893210538
 20
1509.475030816922
 30
0.0
 41
1.0
 10
1090.129895817027
 20
1509.516090672628
 30
0.0
 41
0.9999998638707501
 10
1090.226291778491
 20
1509.522125510315
 30
0.0
 41
0.9999999648598856
  0
SPLINE
  5
1BC
330
1F
100
AcDbEntity
  8
LINEE VISIBILI 2D
100
AcDbSpline
210
0.0
220
0.0
230
1.0
 70
    24
 71
     2
 72
     6
 73
     3
 74
     0
 42
0.0000000001
 43
0.0000000001
 40
0.0
 40
0.0
 40
0.0
 40
309.7365513894692
 40
309.7365513894692
 40
309.7365513894692
 10
1090.226291778491
 20
1509.522125510315
 30
0.0
 10
1105.85823192951
 20
1663.575671065617
 30
0.0
 10
1121.490172080529
 20
1817.629216620919
 30
0.0
  0
SPLINE
  5
1BD
330
1F
100
AcDbEntity
  8
LINEE VISIBILI 2D
100
AcDbSpline
210
0.0
220
0.0
230
1.0
 70
    24
 71
     2
 72
     6
 73
     3
 74
     0
 42
0.0000000001
 43
0.0000000001
 40
0.0
 40
0.0
 40
0.0
 40
115.3344416412304
 40
115.3344416412304
 40
115.3344416412304
 10
345.0686341424995
 20
1702.615771053484
 30
0.0
 10
338.7570526620853
 20
1759.92108017314
 30
0.0
 10
332.4454711816711
 20
1817.226389292795
 30
0.0
  0
SPLINE
  5
1BE
330
1F
100
AcDbEntity
  8
LINEE VISIBILI 2D
100
AcDbSpline
210
0.0
220
0.0
230
1.0
 70
    12
 71
     2
 72
     6
 73
     3
 74
     0
 42
0.0000000001
 43
0.0000000001
 40
0.0
 40
0.0
 40
0.0
 40
0.4117358023313942
 40
0.4117358023313942
 40
0.4117358023313942
 10
332.4454711816711
 20
1817.226389292795
 30
0.0
 41
1.0
 10
332.247555067847
 20
1817.15259344793
 30
0.0
 41
0.9999757058457232
 10
332.0456880687809
 20
1817.112187009149
 30
0.0
 41
1.0
  0
SPLINE
  5
1BF
330
1F
100
AcDbEntity
  8
LINEE VISIBILI 2D
100
AcDbSpline
210
0.0
220
0.0
230
1.0
 70
    24
 71
     2
 72
     6
 73
     3
 74
     0
 42
0.0000000001
 43
0.0000000001
 40
0.0
 40
0.0
 40
0.0
 40
2.741686638847284
 40
2.741686638847284
 40
2.741686638847284
 10
312.1695225331288
 20
1832.40318178774
 30
0.0
 10
313.5302156970516
 20
1832.403181787729
 30
0.0
 10
314.8909088609743
 20
1832.403181787718
 30
0.0
  0
SPLINE
  5
1C0
330
1F
100
AcDbEntity
  8
LINEE VISIBILI 2D
100
AcDbSpline
210
0.0
220
0.0
230
1.0
 70
    12
 71
     2
 72
     6
 73
     3
 74
     0
 42
0.0000000001
 43
0.0000000001
 40
0.0
 40
0.0
 40
0.0
 40
1.724506969615579
 40
1.724506969615579
 40
1.724506969615579
 10
314.8909088609743
 20
1832.403181787718
 30
0.0
 41
1.0
 10
314.2818986672413
 20
1831.773180401948
 30
0.0
 41
0.9999999999972295
 10
313.6931858186257
 20
1831.136365123047
 30
0.0
 41
1.0
  0
SPLINE
  5
1C1
330
1F
100
AcDbEntity
  8
LINEE VISIBILI 2D
100
AcDbSpline
210
0.0
220
0.0
230
1.0
 70
    12
 71
     2
 72
     6
 73
     3
 74
     0
 42
0.0000000001
 43
0.0000000001
 40
0.0
 40
0.0
 40
0.0
 40
2.041755270390521
 40
2.041755270390521
 40
2.041755270390521
 10
313.6931858186257
 20
1831.136365123047
 30
0.0
 41
1.0
 10
312.9397732889618
 20
1830.44058738561
 30
0.0
 41
0.9999232557174802
 10
312.1695225218347
 20
1829.770504140504
 30
0.0
 41
1.0
  0
SPLINE
  5
1C2
330
1F
100
AcDbEntity
  8
LINEE VISIBILI 2D
100
AcDbSpline
210
0.0
220
0.0
230
1.0
 70
    24
 71
     2
 72
     6
 73
     3
 74
     0
 42
0.0000000001
 43
0.0000000001
 40
-0.0999810156235981
 40
-0.0999810156235981
 40
-0.0999810156235981
 40
0.0
 40
0.0
 40
0.0
 10
1153.433159191211
 20
1812.003162803363
 30
0.0
 10
1153.446309711945
 20
1811.953172295551
 30
0.0
 10
1153.459460232679
 20
1811.903181787739
 30
0.0
  0
SPLINE
  5
1C3
330
1F
100
AcDbEntity
  8
LINEE VISIBILI 2D
100
AcDbSpline
210
0.0
220
0.0
230
1.0
 70
    28
 71
     2
 72
     8
 73
     5
 74
     0
 42
0.0000000001
 43
0.0000000001
 40
39.59522511094387
 40
39.59522511094387
 40
39.59522511094387
 40
54.06402345023919
 40
54.06402345023919
 40
72.40076270695491
 40
72.40076270695491
 40
72.40076270695491
 10
1153.459460232679
 20
1811.903181787739
 30
0.0
 41
0.9664848498774354
 10
1153.075238323879
 20
1811.903181787739
 30
0.0
 41
0.9205891492045273
 10
1157.704239573207
 20
1811.903181787739
 30
0.0
 41
1.0
 10
1163.709185495649
 20
1811.903181787739
 30
0.0
 41
0.8993602626117285
 10
1173.432224538648
 20
1811.903181787739
 30
0.0
 41
0.9999784868194147
  0
SPLINE
  5
1C4
330
1F
100
AcDbEntity
  8
LINEE VISIBILI 2D
100
AcDbSpline
210
0.0
220
0.0
230
1.0
 70
    24
 71
     2
 72
     6
 73
     3
 74
     0
 42
0.0000000001
 43
0.0000000001
 40
0.0
 40
0.0
 40
0.0
 40
19.98473886632405
 40
19.98473886632405
 40
19.98473886632405
 10
1173.432224538648
 20
1811.903181787739
 30
0.0
 10
1183.428876581511
 20
1811.903181787739
 30
0.0
 10
1193.425528624373
 20
1811.903181787739
 30
0.0
  0
SPLINE
  5
1C5
330
1F
100
AcDbEntity
  8
LINEE VISIBILI 2D
100
AcDbSpline
210
0.0
220
0.0
230
1.0
 70
    24
 71
     2
 72
     6
 73
     3
 74
     0
 42
0.0000000001
 43
0.0000000001
 40
-0.0999989324880062
 40
-0.0999989324880062
 40
-0.0999989324880062
 40
0.0
 40
0.0
 40
0.0
 10
1193.425528624373
 20
1811.903181787739
 30
0.0
 10
1193.429343907792
 20
1811.953181253983
 30
0.0
 10
1193.433159191211
 20
1812.003180720227
 30
0.0
  0
SPLINE
  5
1C6
330
1F
100
AcDbEntity
  8
LINEE VISIBILI 2D
100
AcDbSpline
210
0.0
220
0.0
230
1.0
 70
    12
 71
     2
 72
     6
 73
     3
 74
     0
 42
0.0000000001
 43
0.0000000001
 40
-28.73599810737268
 40
-28.73599810737268
 40
-28.73599810737268
 40
0.0
 40
0.0
 40
0.0
 10
1122.548578697462
 20
1816.173080241149
 30
0.0
 41
1.0
 10
1136.638131926636
 20
1813.280237220814
 30
0.0
 41
0.9983879443945419
 10
1150.974750649325
 20
1812.003012534386
 30
0.0
 41
1.0
  0
SPLINE
  5
1C7
330
1F
100
AcDbEntity
  8
LINEE VISIBILI 2D
100
AcDbSpline
210
0.0
220
0.0
230
1.0
 70
    12
 71
     2
 72
     6
 73
     3
 74
     0
 42
0.0000000001
 43
0.0000000001
 40
0.0
 40
0.0
 40
0.0
 40
40.61742952096992
 40
40.61742952096992
 40
40.61742952096992
 10
1150.974750649325
 20
1812.003012534386
 30
0.0
 41
1.0
 10
1171.293453518243
 20
1812.003225662927
 30
0.0
 41
0.9999999999970213
 10
1191.60216827872
 20
1812.003181787489
 30
0.0
 41
1.0
  0
SPLINE
  5
1C8
330
1F
100
AcDbEntity
  8
LINEE VISIBILI 2D
100
AcDbSpline
210
0.0
220
0.0
230
1.0
 70
    12
 71
     2
 72
     6
 73
     3
 74
     0
 42
0.0000000001
 43
0.0000000001
 40
0.0
 40
0.0
 40
0.0
 40
4.279411346184796
 40
4.279411346184796
 40
4.279411346184796
 10
1191.60216827872
 20
1812.003181787489
 30
0.0
 41
1.0
 10
1193.741873951826
 20
1812.003187635194
 30
0.0
 41
0.9999999999854522
 10
1195.891568951296
 20
1812.002998884174
 30
0.0
 41
1.0
  0
SPLINE
  5
1C9
330
1F
100
AcDbEntity
  8
LINEE VISIBILI 2D
100
AcDbSpline
210
0.0
220
0.0
230
1.0
 70
    12
 71
     2
 72
     6
 73
     3
 74
     0
 42
0.0000000001
 43
0.0000000001
 40
-22.54558479624522
 40
-22.54558479624522
 40
-22.54558479624522
 40
0.0
 40
0.0
 40
0.0
 10
1195.891568951296
 20
1812.002998884174
 30
0.0
 41
1.0
 10
1207.137246327437
 20
1813.004597106407
 30
0.0
 41
0.9990075049394986
 10
1218.239197625553
 20
1815.002322295608
 30
0.0
 41
1.0
  0
SPLINE
  5
1CA
330
1F
100
AcDbEntity
  8
PREDEFINITO
100
AcDbSpline
210
0.0
220
0.0
230
1.0
 70
    12
 71
     2
 72
     6
 73
     3
 74
     0
 42
0.0000000001
 43
0.0000000001
 40
-10.20290713541769
 40
-10.20290713541769
 40
-10.20290713541769
 40
0.0
 40
0.0
 40
0.0
 10
244.3869868504191
 20
1813.115276154168
 30
0.0
 41
1.0
 10
249.4465380032473
 20
1812.457381664979
 30
0.0
 41
0.9997967519873394
 10
254.5362998639862
 20
1812.003594892236
 30
0.0
 41
1.0
  0
SPLINE
  5
1CB
330
1F
100
AcDbEntity
  8
PREDEFINITO
100
AcDbSpline
210
0.0
220
0.0
230
1.0
 70
    12
 71
     2
 72
     6
 73
     3
 74
     0
 42
0.0000000001
 43
0.0000000001
 40
0.0
 40
0.0
 40
0.0
 40
9.241400770703551
 40
9.241400770703551
 40
9.241400770703551
 10
254.5362998639862
 20
1812.003594892236
 30
0.0
 41
1.0
 10
259.1648020497229
 20
1812.003175068095
 30
0.0
 41
0.9999999999938136
 10
263.7855024350888
 20
1812.00318178796
 30
0.0
 41
1.0
  0
SPLINE
  5
1CC
330
1F
100
AcDbEntity
  8
PREDEFINITO
100
AcDbSpline
210
0.0
220
0.0
230
1.0
 70
    12
 71
     2
 72
     6
 73
     3
 74
     0
 42
0.0000000001
 43
0.0000000001
 40
0.0
 40
0.0
 40
0.0
 40
35.69037873044184
 40
35.69037873044184
 40
35.69037873044184
 10
263.7855024350888
 20
1812.00318178796
 30
0.0
 41
1.0
 10
281.6306918003
 20
1812.003123043429
 30
0.0
 41
0.9999999999926804
 10
299.4836819829372
 20
1812.003605910308
 30
0.0
 41
1.0
  0
SPLINE
  5
1CD
330
1F
100
AcDbEntity
  8
PREDEFINITO
100
AcDbSpline
210
0.0
220
0.0
230
1.0
 70
    12
 71
     2
 72
     6
 73
     3
 74
     0
 42
0.0000000001
 43
0.0000000001
 40
-32.69353775734846
 40
-32.69353775734846
 40
-32.69353775734846
 40
0.0
 40
0.0
 40
0.0
 10
299.4836819829372
 20
1812.003605910308
 30
0.0
 41
1.0
 10
315.7809441082414
 20
1813.457234379909
 30
0.0
 41
0.9979153231691048
 10
331.7405678131833
 20
1817.028004775914
 30
0.0
 41
0.9999960878937805
  0
SPLINE
  5
1CE
330
1F
100
AcDbEntity
  8
PREDEFINITO
100
AcDbSpline
210
0.0
220
0.0
230
1.0
 70
    12
 71
     2
 72
     6
 73
     3
 74
     0
 42
0.0000000001
 43
0.0000000001
 40
0.0
 40
0.0
 40
0.0
 40
1.378248760229594
 40
1.378248760229594
 40
1.378248760229594
 10
331.7405678131833
 20
1817.028004775914
 30
0.0
 41
0.9999227872542819
 10
332.3730474595929
 20
1817.270149729912
 30
0.0
 41
0.9980583432522112
 10
333.037291638329
 20
1817.397220789227
 30
0.0
 41
1.0
  0
SPLINE
  5
1CF
330
1F
100
AcDbEntity
  8
PREDEFINITO
100
AcDbSpline
210
0.0
220
0.0
230
1.0
 70
    12
 71
     2
 72
     6
 73
     3
 74
     0
 42
0.0000000001
 43
0.0000000001
 40
0.0
 40
0.0
 40
0.0
 40
34.78030648931724
 40
34.78030648931724
 40
34.78030648931724
 10
333.037291638329
 20
1817.397220789227
 30
0.0
 41
1.0
 10
350.010573862573
 20
1821.308521772494
 30
0.0
 41
0.9975941075095567
 10
366.2797095403432
 20
1827.52992106396
 30
0.0
 41
1.0
  0
POLYLINE
  5
1D0
330
1F
100
AcDbEntity
  8
PREDEFINITO
100
AcDb2dPolyline
 66
     1
 10
0.0
 20
0.0
 30
0.0
  0
VERTEX
  5
1D2
330
1D0
100
AcDbEntity
  8
PREDEFINITO
100
AcDbVertex
100
AcDb2dVertex
 10
366.2797095403432
 20
1827.52992106396
 30
0.0
  0
VERTEX
  5
1D3
330
1D0
100
AcDbEntity
  8
PREDEFINITO
100
AcDbVertex
100
AcDb2dVertex
 10
366.3383146490569
 20
1827.552341230976
 30
0.0
  0
SEQEND
  5
1D1
330
1D0
100
AcDbEntity
  8
PREDEFINITO
  0
SPLINE
  5
1D4
330
1F
100
AcDbEntity
  8
PREDEFINITO
100
AcDbSpline
210
0.0
220
0.0
230
1.0
 70
    24
 71
     2
 72
     6
 73
     3
 74
     0
 42
0.0000000001
 43
0.0000000001
 40
0.0
 40
0.0
 40
0.0
 40
4.850840556764069
 40
4.850840556764069
 40
4.850840556764069
 10
366.3383146490569
 20
1827.552341230976
 30
0.0
 10
366.3383146490571
 20
1829.977761509358
 30
0.0
 10
366.3383146490573
 20
1832.40318178774
 30
0.0
  0
SPLINE
  5
1D5
330
1F
100
AcDbEntity
  8
PREDEFINITO
100
AcDbSpline
210
0.0
220
0.0
230
1.0
 70
    24
 71
     2
 72
     6
 73
     3
 74
     0
 42
0.0000000001
 43
0.0000000001
 40
0.0
 40
0.0
 40
0.0
 40
51.42710550998254
 40
51.42710550998254
 40
51.42710550998254
 10
366.3383146490573
 20
1832.40318178774
 30
0.0
 10
340.6247618940661
 20
1832.40318178774
 30
0.0
 10
314.9112091390748
 20
1832.40318178774
 30
0.0
  0
SPLINE
  5
1D6
330
1F
100
AcDbEntity
  8
PREDEFINITO
100
AcDbSpline
210
0.0
220
0.0
230
1.0
 70
    24
 71
     2
 72
     6
 73
     3
 74
     0
 42
0.0000000001
 43
0.0000000001
 40
0.0
 40
0.0
 40
0.0
 40
4.850840556764069
 40
4.850840556764069
 40
4.850840556764069
 10
314.9112091390748
 20
1832.40318178774
 30
0.0
 10
314.9112091390748
 20
1829.977761509358
 30
0.0
 10
314.9112091390748
 20
1827.552341230976
 30
0.0
  0
SPLINE
  5
1D7
330
1F
100
AcDbEntity
  8
PREDEFINITO
100
AcDbSpline
210
0.0
220
0.0
230
1.0
 70
    12
 71
     2
 72
     6
 73
     3
 74
     0
 42
0.0000000001
 43
0.0000000001
 40
-0.3593898172590464
 40
-0.3593898172590464
 40
-0.3593898172590464
 40
-0.0030098658597022
 40
-0.0030098658597022
 40
-0.0030098658597022
 10
366.6544703879986
 20
1827.552341230976
 30
0.0
 41
1.0
 10
366.8326605293827
 20
1827.552012849012
 30
0.0
 41
0.9999960414308648
 10
367.0108497130904
 20
1827.552683021265
 30
0.0
 41
0.9999999336944926
  0
SPLINE
  5
1D8
330
1F
100
AcDbEntity
  8
PREDEFINITO
100
AcDbSpline
210
0.0
220
0.0
230
1.0
 70
    24
 71
     2
 72
     6
 73
     3
 74
     0
 42
0.0000000001
 43
0.0000000001
 40
-4.85048737519287
 40
-4.85048737519287
 40
-4.85048737519287
 40
0.0
 40
0.0
 40
0.0
 10
367.0108497130905
 20
1827.552683021265
 30
0.0
 10
367.0108497130905
 20
1829.977926708861
 30
0.0
 10
367.0108497130904
 20
1832.403170396458
 30
0.0
  0
POLYLINE
  5
1D9
330
1F
100
AcDbEntity
  8
PREDEFINITO
100
AcDb2dPolyline
 66
     1
 10
0.0
 20
0.0
 30
0.0
  0
VERTEX
  5
1DB
330
1D9
100
AcDbEntity
  8
PREDEFINITO
100
AcDbVertex
100
AcDb2dVertex
 10
367.0108497130904
 20
1832.403170396458
 30
0.0
  0
VERTEX
  5
1DC
330
1D9
100
AcDbEntity
  8
PREDEFINITO
100
AcDbVertex
100
AcDb2dVertex
 10
366.8851691688487
 20
1832.403181787739
 30
0.0
  0
SEQEND
  5
1DA
330
1D9
100
AcDbEntity
  8
PREDEFINITO
  0
SPLINE
  5
1DD
330
1F
100
AcDbEntity
  8
PREDEFINITO
100
AcDbSpline
210
0.0
220
0.0
230
1.0
 70
    24
 71
     2
 72
     6
 73
     3
 74
     0
 42
0.0000000001
 43
0.0000000001
 40
0.0
 40
0.0
 40
0.0
 40
0.2306987808501049
 40
0.2306987808501049
 40
0.2306987808501049
 10
366.8851691688487
 20
1832.403181787739
 30
0.0
 10
366.7449555342079
 20
1832.403181787739
 30
0.0
 10
366.604741899567
 20
1832.40318178774
 30
0.0
  0
SPLINE
  5
1DE
330
1F
100
AcDbEntity
  8
PREDEFINITO
100
AcDbSpline
210
0.0
220
0.0
230
1.0
 70
    24
 71
     2
 72
     6
 73
     3
 74
     0
 42
0.0000000001
 43
0.0000000001
 40
-0.2364740655760471
 40
-0.2364740655760471
 40
-0.2364740655760471
 40
0.0
 40
0.0
 40
0.0
 10
366.604741899567
 20
1832.40318178774
 30
0.0
 10
366.4715282876643
 20
1832.379515315934
 30
0.0
 10
366.3383146757616
 20
1832.355848844128
 30
0.0
  0
SPLINE
  5
1DF
330
1F
100
AcDbEntity
  8
PREDEFINITO
100
AcDbSpline
210
0.0
220
0.0
230
1.0
 70
    24
 71
     2
 72
     6
 73
     3
 74
     0
 42
0.0000000001
 43
0.0000000001
 40
0.0
 40
0.0
 40
0.0
 40
0.2863271157253848
 40
0.2863271157253848
 40
0.2863271157253848
 10
366.3383146757616
 20
1832.355848844128
 30
0.0
 10
366.4814782365565
 20
1832.379515315934
 30
0.0
 10
366.6246417973515
 20
1832.40318178774
 30
0.0
  0
SPLINE
  5
1E0
330
1F
100
AcDbEntity
  8
PREDEFINITO
100
AcDbSpline
210
0.0
220
0.0
230
1.0
 70
    24
 71
     2
 72
     6
 73
     3
 74
     0
 42
0.0000000001
 43
0.0000000001
 40
0.0
 40
0.0
 40
0.0
 40
0.0298286114871189
 40
0.0298286114871189
 40
0.0298286114871189
 10
366.6246417973515
 20
1832.40318178774
 30
0.0
 10
366.639556092675
 20
1832.40318178774
 30
0.0
 10
366.6544703879986
 20
1832.40318178774
 30
0.0
  0
SPLINE
  5
1E1
330
1F
100
AcDbEntity
  8
PREDEFINITO
100
AcDbSpline
210
0.0
220
0.0
230
1.0
 70
    24
 71
     2
 72
     6
 73
     3
 74
     0
 42
0.0000000001
 43
0.0000000001
 40
0.0
 40
0.0
 40
0.0
 40
4.850840556764069
 40
4.850840556764069
 40
4.850840556764069
 10
366.6544703879986
 20
1832.40318178774
 30
0.0
 10
366.6544703879986
 20
1829.977761509358
 30
0.0
 10
366.6544703879986
 20
1827.552341230976
 30
0.0
  0
SPLINE
  5
1E2
330
1F
100
AcDbEntity
  8
PREDEFINITO
100
AcDbSpline
210
0.0
220
0.0
230
1.0
 70
    12
 71
     2
 72
     6
 73
     3
 74
     0
 42
0.0000000001
 43
0.0000000001
 40
0.0
 40
0.0
 40
0.0
 40
34.56234539455045
 40
34.56234539455045
 40
34.56234539455045
 10
366.6544703879986
 20
1827.552341230976
 30
0.0
 41
1.0
 10
350.4911480350744
 20
1821.366778424187
 30
0.0
 41
0.9976245143951411
 10
333.6230115552355
 20
1817.496193529478
 30
0.0
 41
0.9999994171083164
  0
SPLINE
  5
1E3
330
1F
100
AcDbEntity
  8
PREDEFINITO
100
AcDbSpline
210
0.0
220
0.0
230
1.0
 70
    24
 71
     2
 72
     6
 73
     3
 74
     0
 42
0.0000000001
 43
0.0000000001
 40
0.0
 40
0.0
 40
0.0
 40
99.7467093416006
 40
99.7467093416006
 40
99.7467093416006
 10
333.6230115552355
 20
1817.496193529478
 30
0.0
 10
339.0810524074276
 20
1767.94051256519
 30
0.0
 10
344.5390932596197
 20
1718.384831600902
 30
0.0
  0
SPLINE
  5
1E4
330
1F
100
AcDbEntity
  8
PREDEFINITO
100
AcDbSpline
210
0.0
220
0.0
230
1.0
 70
    12
 71
     2
 72
     6
 73
     3
 74
     0
 42
0.0000000001
 43
0.0000000001
 40
0.0
 40
0.0
 40
0.0
 40
1.99721750863319
 40
1.99721750863319
 40
1.99721750863319
 10
344.5390932596197
 20
1718.384831600902
 30
0.0
 41
0.9999999999999984
 10
345.220328793889
 20
1717.654495308469
 30
0.0
 41
0.9998093853446681
 10
345.8725319888208
 20
1716.898119776266
 30
0.0
 41
1.0
  0
SPLINE
  5
1E5
330
1F
100
AcDbEntity
  8
PREDEFINITO
100
AcDbSpline
210
0.0
220
0.0
230
1.0
 70
    12
 71
     2
 72
     6
 73
     3
 74
     0
 42
0.0000000001
 43
0.0000000001
 40
0.0
 40
0.0
 40
0.0
 40
4.41166546476167
 40
4.41166546476167
 40
4.41166546476167
 10
345.8725319888208
 20
1716.898119776266
 30
0.0
 41
1.0
 10
347.3136367406259
 20
1715.222853169643
 30
0.0
 41
0.9972961942621305
 10
348.4936226621669
 20
1713.354448948413
 30
0.0
 41
0.999999999999998
  0
SPLINE
  5
1E6
330
1F
100
AcDbEntity
  8
PREDEFINITO
100
AcDbSpline
210
0.0
220
0.0
230
1.0
 70
    12
 71
     2
 72
     6
 73
     3
 74
     0
 42
0.0000000001
 43
0.0000000001
 40
0.0
 40
0.0
 40
0.0
 40
1.899234836964558
 40
1.899234836964558
 40
1.899234836964558
 10
348.4936226621669
 20
1713.354448948413
 30
0.0
 41
0.9999999999999962
 10
349.0026533347461
 20
1712.551174180276
 30
0.0
 41
0.9978524733416567
 10
349.4023107194062
 20
1711.688250919703
 30
0.0
 41
1.0
  0
SPLINE
  5
1E7
330
1F
100
AcDbEntity
  8
PREDEFINITO
100
AcDbSpline
210
0.0
220
0.0
230
1.0
 70
    12
 71
     2
 72
     6
 73
     3
 74
     0
 42
0.0000000001
 43
0.0000000001
 40
0.0
 40
0.0
 40
0.0
 40
3.133077238747099
 40
3.133077238747099
 40
3.133077238747099
 10
349.4023107194062
 20
1711.688250919703
 30
0.0
 41
1.0
 10
350.0617899928906
 20
1710.260812042744
 30
0.0
 41
0.9944019372187434
 10
350.406575529059
 20
1708.726661595866
 30
0.0
 41
1.0
  0
SPLINE
  5
1E8
330
1F
100
AcDbEntity
  8
PREDEFINITO
100
AcDbSpline
210
0.0
220
0.0
230
1.0
 70
    12
 71
     2
 72
     6
 73
     3
 74
     0
 42
0.0000000001
 43
0.0000000001
 40
0.0
 40
0.0
 40
0.0
 40
5.045414399140273
 40
5.045414399140273
 40
5.045414399140273
 10
350.406575529059
 20
1708.726661595866
 30
0.0
 41
1.0
 10
350.9577068492778
 20
1706.232199361576
 30
0.0
 41
0.9813661455980807
 10
350.5273975201499
 20
1703.714080680385
 30
0.0
 41
1.0
  0
SPLINE
  5
1E9
330
1F
100
AcDbEntity
  8
PREDEFINITO
100
AcDbSpline
210
0.0
220
0.0
230
1.0
 70
    12
 71
     2
 72
     6
 73
     3
 74
     0
 42
0.0000000001
 43
0.0000000001
 40
0.0
 40
0.0
 40
0.0
 40
5.207028390778228
 40
5.207028390778228
 40
5.207028390778228
 10
350.5273975201499
 20
1703.714080680385
 30
0.0
 41
1.0
 10
350.0875246705457
 20
1701.126068811303
 30
0.0
 41
0.9876958880245065
 10
348.8696655298054
 20
1698.800533942905
 30
0.0
 41
1.0
  0
SPLINE
  5
1EA
330
1F
100
AcDbEntity
  8
PREDEFINITO
100
AcDbSpline
210
0.0
220
0.0
230
1.0
 70
    12
 71
     2
 72
     6
 73
     3
 74
     0
 42
0.0000000001
 43
0.0000000001
 40
0.0
 40
0.0
 40
0.0
 40
6.649353534275495
 40
6.649353534275495
 40
6.649353534275495
 10
348.8696655298054
 20
1698.800533942905
 30
0.0
 41
1.0
 10
347.321204237901
 20
1695.839654728402
 30
0.0
 41
0.9925372646720807
 10
345.1020731177964
 20
1693.34165649638
 30
0.0
 41
1.0
  0
SPLINE
  5
1EB
330
1F
100
AcDbEntity
  8
PREDEFINITO
100
AcDbSpline
210
0.0
220
0.0
230
1.0
 70
    12
 71
     2
 72
     6
 73
     3
 74
     0
 42
0.0000000001
 43
0.0000000001
 40
0.0
 40
0.0
 40
0.0
 40
6.797539317795001
 40
6.797539317795001
 40
6.797539317795001
 10
345.1020731177964
 20
1693.34165649638
 30
0.0
 41
1.0
 10
342.8527224484248
 20
1690.788475697211
 30
0.0
 41
0.9982719644649095
 10
340.3031607618906
 20
1688.502266000271
 30
0.0
 41
1.0
  0
SPLINE
  5
1EC
330
1F
100
AcDbEntity
  8
PREDEFINITO
100
AcDbSpline
210
0.0
220
0.0
230
1.0
 70
    12
 71
     2
 72
     6
 73
     3
 74
     0
 42
0.0000000001
 43
0.0000000001
 40
0.0
 40
0.0
 40
0.0
 40
10.89281908371472
 40
10.89281908371472
 40
10.89281908371472
 10
340.3031607618906
 20
1688.502266000271
 30
0.0
 41
1.0
 10
336.2233543949374
 20
1684.851802716325
 30
0.0
 41
0.9982516330004014
 10
331.7590754999876
 20
1681.720844665872
 30
0.0
 41
1.0
  0
SPLINE
  5
1ED
330
1F
100
AcDbEntity
  8
PREDEFINITO
100
AcDbSpline
210
0.0
220
0.0
230
1.0
 70
    12
 71
     2
 72
     6
 73
     3
 74
     0
 42
0.0000000001
 43
0.0000000001
 40
0.0
 40
0.0
 40
0.0
 40
11.38584944558553
 40
11.38584944558553
 40
11.38584944558553
 10
331.7590754999876
 20
1681.720844665872
 30
0.0
 41
1.0
 10
327.1004376149091
 20
1678.445693857285
 30
0.0
 41
0.9995344941104938
 10
322.2507225093893
 20
1675.460767868492
 30
0.0
 41
1.0
  0
SPLINE
  5
1EE
330
1F
100
AcDbEntity
  8
PREDEFINITO
100
AcDbSpline
210
0.0
220
0.0
230
1.0
 70
    12
 71
     2
 72
     6
 73
     3
 74
     0
 42
0.0000000001
 43
0.0000000001
 40
0.0
 40
0.0
 40
0.0
 40
13.37070875848753
 40
13.37070875848753
 40
13.37070875848753
 10
322.2507225093893
 20
1675.460767868492
 30
0.0
 41
1.0
 10
316.5561558894286
 20
1671.955629045219
 30
0.0
 41
0.999662451845407
 10
310.6872081960139
 20
1668.751016633681
 30
0.0
 41
1.0
  0
SPLINE
  5
1EF
330
1F
100
AcDbEntity
  8
PREDEFINITO
100
AcDbSpline
210
0.0
220
0.0
230
1.0
 70
    12
 71
     2
 72
     6
 73
     3
 74
     0
 42
0.0000000001
 43
0.0000000001
 40
0.0
 40
0.0
 40
0.0
 40
14.08907442352276
 40
14.08907442352276
 40
14.08907442352276
 10
310.6872081960139
 20
1668.751016633681
 30
0.0
 41
1.0
 10
304.5042448354529
 20
1665.373938107806
 30
0.0
 41
0.9998762405297308
 10
298.2180972023525
 20
1662.193051027869
 30
0.0
 41
1.0
  0
SPLINE
  5
1F0
330
1F
100
AcDbEntity
  8
PREDEFINITO
100
AcDbSpline
210
0.0
220
0.0
230
1.0
 70
    12
 71
     2
 72
     6
 73
     3
 74
     0
 42
0.0000000001
 43
0.0000000001
 40
0.0
 40
0.0
 40
0.0
 40
10.52405492997263
 40
10.52405492997263
 40
10.52405492997263
 10
298.2180972023525
 20
1662.193051027869
 30
0.0
 41
1.0
 10
293.5235090994058
 20
1659.815869684572
 30
0.0
 41
0.9999670761703784
 10
288.7909607751244
 20
1657.515188193943
 30
0.0
 41
1.0
  0
SPLINE
  5
1F1
330
1F
100
AcDbEntity
  8
PREDEFINITO
100
AcDbSpline
210
0.0
220
0.0
230
1.0
 70
    12
 71
     2
 72
     6
 73
     3
 74
     0
 42
0.0000000001
 43
0.0000000001
 40
0.0
 40
0.0
 40
0.0
 40
10.95023121687762
 40
10.95023121687762
 40
10.95023121687762
 10
288.7909607751244
 20
1657.515188193943
 30
0.0
 41
1.0
 10
283.8672343873151
 20
1655.120649588188
 30
0.0
 41
0.9999998656944985
 10
278.9410286081367
 20
1652.731215991068
 30
0.0
 41
1.0
  0
SPLINE
  5
1F2
330
1F
100
AcDbEntity
  8
PREDEFINITO
100
AcDbSpline
210
0.0
220
0.0
230
1.0
 70
    12
 71
     2
 72
     6
 73
     3
 74
     0
 42
0.0000000001
 43
0.0000000001
 40
0.0
 40
0.0
 40
0.0
 40
10.34286742504939
 40
10.34286742504939
 40
10.34286742504939
 10
278.9410286081367
 20
1652.731215991068
 30
0.0
 41
1.0
 10
274.2881604167144
 20
1650.473999665616
 30
0.0
 41
0.999986502578011
 10
269.6589984750306
 20
1648.168556613988
 30
0.0
 41
1.0
  0
SPLINE
  5
1F3
330
1F
100
AcDbEntity
  8
PREDEFINITO
100
AcDbSpline
210
0.0
220
0.0
230
1.0
 70
    12
 71
     2
 72
     6
 73
     3
 74
     0
 42
0.0000000001
 43
0.0000000001
 40
0.0
 40
0.0
 40
0.0
 40
10.13328128833076
 40
10.13328128833076
 40
10.13328128833076
 10
269.6589984750306
 20
1648.168556613988
 30
0.0
 41
1.0
 10
265.122384474363
 20
1645.911128164041
 30
0.0
 41
0.9998246742966238
 10
260.644215278276
 20
1643.46943774585
 30
0.0
 41
1.0
  0
SPLINE
  5
1F4
330
1F
100
AcDbEntity
  8
PREDEFINITO
100
AcDbSpline
210
0.0
220
0.0
230
1.0
 70
    12
 71
     2
 72
     6
 73
     3
 74
     0
 42
0.0000000001
 43
0.0000000001
 40
0.0
 40
0.0
 40
0.0
 40
8.856174391476612
 40
8.856174391476612
 40
8.856174391476612
 10
260.644215278276
 20
1643.46943774585
 30
0.0
 41
1.0
 10
256.7254154079648
 20
1641.334987077049
 30
0.0
 41
0.9996761727128054
 10
252.9486971444489
 20
1639.021369766811
 30
0.0
 41
1.0
  0
SPLINE
  5
1F5
330
1F
100
AcDbEntity
  8
PREDEFINITO
100
AcDbSpline
210
0.0
220
0.0
230
1.0
 70
    24
 71
     2
 72
     6
 73
     3
 74
     0
 42
0.0000000001
 43
0.0000000001
 40
-1.0
 40
-1.0
 40
-1.0
 40
0.0
 40
0.0
 40
0.0
 10
252.9486971444489
 20
1639.021369766811
 30
0.0
 10
252.8746437746018
 20
1638.975792091352
 30
0.0
 10
252.8005904047546
 20
1638.930214415893
 30
0.0
  0
SPLINE
  5
1F6
330
1F
100
AcDbEntity
  8
PREDEFINITO
100
AcDbSpline
210
0.0
220
0.0
230
1.0
 70
    12
 71
     2
 72
     6
 73
     3
 74
     0
 42
0.0000000001
 43
0.0000000001
 40
0.0
 40
0.0
 40
0.0
 40
7.745167309086224
 40
7.745167309086224
 40
7.745167309086224
 10
252.8005904047546
 20
1638.930214415893
 30
0.0
 41
1.0
 10
249.4998461310533
 20
1636.903205164713
 30
0.0
 41
0.9996613240791614
 10
246.3090377867422
 20
1634.707203940987
 30
0.0
 41
1.0
  0
SPLINE
  5
1F7
330
1F
100
AcDbEntity
  8
PREDEFINITO
100
AcDbSpline
210
0.0
220
0.0
230
1.0
 70
    12
 71
     2
 72
     6
 73
     3
 74
     0
 42
0.0000000001
 43
0.0000000001
 40
0.0
 40
0.0
 40
0.0
 40
7.65120236814121
 40
7.65120236814121
 40
7.65120236814121
 10
246.3090377867422
 20
1634.707203940987
 30
0.0
 41
1.0
 10
243.157365786831
 20
1632.537234172465
 30
0.0
 41
0.9996629080729025
 10
240.1225819537846
 20
1630.206592141178
 30
0.0
 41
1.0
  0
SPLINE
  5
1F8
330
1F
100
AcDbEntity
  8
PREDEFINITO
100
AcDbSpline
210
0.0
220
0.0
230
1.0
 70
    24
 71
     2
 72
     6
 73
     3
 74
     0
 42
0.0000000001
 43
0.0000000001
 40
-1.0
 40
-1.0
 40
-1.0
 40
0.0
 40
0.0
 40
0.0
 10
240.1225819537846
 20
1630.206592141178
 30
0.0
 10
239.9691154020027
 20
1630.08816830174
 30
0.0
 10
239.8156488502207
 20
1629.969744462302
 30
0.0
  0
SPLINE
  5
1F9
330
1F
100
AcDbEntity
  8
PREDEFINITO
100
AcDbSpline
210
0.0
220
0.0
230
1.0
 70
    12
 71
     2
 72
     6
 73
     3
 74
     0
 42
0.0000000001
 43
0.0000000001
 40
0.0
 40
0.0
 40
0.0
 40
6.673569778850906
 40
6.673569778850906
 40
6.673569778850906
 10
239.8156488502207
 20
1629.969744462302
 30
0.0
 41
1.0
 10
237.174431905246
 20
1627.930440737198
 30
0.0
 41
0.9999560003038181
 10
234.5719382939521
 20
1625.841945193311
 30
0.0
 41
1.0
  0
SPLINE
  5
1FA
330
1F
100
AcDbEntity
  8
PREDEFINITO
100
AcDbSpline
210
0.0
220
0.0
230
1.0
 70
    12
 71
     2
 72
     6
 73
     3
 74
     0
 42
0.0000000001
 43
0.0000000001
 40
0.0
 40
0.0
 40
0.0
 40
3.349702494117043
 40
3.349702494117043
 40
3.349702494117043
 10
234.5719382939521
 20
1625.841945193311
 30
0.0
 41
1.0
 10
233.2659378074427
 20
1624.793379337914
 30
0.0
 41
0.9999997529289546
 10
231.9614127949615
 20
1623.742978406996
 30
0.0
 41
1.0
  0
SPLINE
  5
1FB
330
1F
100
AcDbEntity
  8
LINEE VISIBILI 2D
100
AcDbSpline
210
0.0
220
0.0
230
1.0
 70
    12
 71
     2
 72
     6
 73
     3
 74
     0
 42
0.0000000001
 43
0.0000000001
 40
-34.51709121126463
 40
-34.51709121126463
 40
-34.51709121126463
 40
0.0
 40
0.0
 40
0.0
 10
224.1577110912607
 20
1523.138410267288
 30
0.0
 41
1.0
 10
207.4184353223848
 20
1518.772771279761
 30
0.0
 41
0.9964790227358901
 10
191.6439742558682
 20
1511.671465914428
 30
0.0
 41
1.0
  0
SPLINE
  5
1FC
330
1F
100
AcDbEntity
  8
LINEE VISIBILI 2D
100
AcDbSpline
210
0.0
220
0.0
230
1.0
 70
    12
 71
     2
 72
     6
 73
     3
 74
     0
 42
0.0000000001
 43
0.0000000001
 40
0.0
 40
0.0
 40
0.0
 40
5.010562706917822
 40
5.010562706917822
 40
5.010562706917822
 10
191.6439742558682
 20
1511.671465914428
 30
0.0
 41
1.0
 10
189.3615655958043
 20
1510.638225729824
 30
0.0
 41
0.9999355408470384
 10
187.1032056636454
 20
1509.553428719521
 30
0.0
 41
1.0
  0
SPLINE
  5
1FD
330
1F
100
AcDbEntity
  8
LINEE VISIBILI 2D
100
AcDbSpline
210
0.0
220
0.0
230
1.0
 70
    12
 71
     2
 72
     6
 73
     3
 74
     0
 42
0.0000000001
 43
0.0000000001
 40
0.0
 40
0.0
 40
0.0
 40
0.1811793006842441
 40
0.1811793006842441
 40
0.1811793006842441
 10
187.1032056636454
 20
1509.553428719521
 30
0.0
 41
1.0
 10
187.0215187139718
 20
1509.514265879076
 30
0.0
 41
0.999999902248276
 10
186.9398664285385
 20
1509.475030816922
 30
0.0
 41
1.0
  0
SPLINE
  5
1FE
330
1F
100
AcDbEntity
  8
LINEE VISIBILI 2D
100
AcDbSpline
210
0.0
220
0.0
230
1.0
 70
    12
 71
     2
 72
     6
 73
     3
 74
     0
 42
0.0000000001
 43
0.0000000001
 40
0.0
 40
0.0
 40
0.0
 40
0.0788639311869552
 40
0.0788639311869552
 40
0.0788639311869552
 10
1162.4286569617
 20
1509.475030816922
 30
0.0
 41
1.0
 10
1162.432932601217
 20
1509.514230291826
 30
0.0
 41
0.9999999925182993
 10
1162.437217830757
 20
1509.553428719523
 30
0.0
 41
1.0
  0
SPLINE
  5
1FF
330
1F
100
AcDbEntity
  8
LINEE VISIBILI 2D
100
AcDbSpline
210
0.0
220
0.0
230
1.0
 70
    12
 71
     3
 72
    10
 73
     6
 74
     0
 42
0.0000000001
 43
0.0000000001
 40
0.0
 40
0.0
 40
0.0
 40
0.0
 40
0.2944809829808451
 40
0.2944809829808451
 40
0.3960271664696118
 40
0.3960271664696118
 40
0.3960271664696118
 40
0.3960271664696118
 10
1162.437217830757
 20
1509.553428719523
 30
0.0
 41
1.0
 10
1162.532442784121
 20
1510.424482315287
 30
0.0
 41
1.0
 10
1163.305667210341
 20
1511.237583001984
 30
0.0
 41
1.0
 10
1165.449950270089
 20
1512.041125584645
 30
0.0
 41
1.0
 10
1166.089114267994
 20
1512.21474694131
 30
0.0
 41
1.0
 10
1166.773232088884
 20
1512.33916254245
 30
0.0
 41
1.0
  0
SPLINE
  5
200
330
1F
100
AcDbEntity
  8
LINEE VISIBILI 2D
100
AcDbSpline
210
0.0
220
0.0
230
1.0
 70
    12
 71
     3
 72
    10
 73
     6
 74
     0
 42
0.0000000001
 43
0.0000000001
 40
0.639139502505016
 40
0.639139502505016
 40
0.639139502505016
 40
0.639139502505016
 40
0.7162124727069309
 40
0.7162124727069309
 40
1.0
 40
1.0
 40
1.0
 40
1.0
 10
1171.783608640086
 20
1512.24861868646
 30
0.0
 41
1.0
 10
1172.252831132486
 20
1512.138731567716
 30
0.0
 41
1.0
 10
1172.68546121168
 20
1512.001518245427
 30
0.0
 41
1.0
 10
1174.473139467396
 20
1511.253416681965
 30
0.0
 41
1.0
 10
1175.133586395321
 20
1510.40883850605
 30
0.0
 41
1.0
 10
1175.040085309155
 20
1509.553428719523
 30
0.0
 41
1.0
  0
SPLINE
  5
201
330
1F
100
AcDbEntity
  8
LINEE VISIBILI 2D
100
AcDbSpline
210
0.0
220
0.0
230
1.0
 70
    12
 71
     2
 72
     6
 73
     3
 74
     0
 42
0.0000000001
 43
0.0000000001
 40
0.0
 40
0.0
 40
0.0
 40
0.0788637956813784
 40
0.0788637956813784
 40
0.0788637956813784
 10
1175.040085309155
 20
1509.553428719523
 30
0.0
 41
1.0
 10
1175.0358007056
 20
1509.514230291554
 30
0.0
 41
0.9999999925238994
 10
1175.031525688477
 20
1509.475030816923
 30
0.0
 41
1.0
  0
SPLINE
  5
202
330
1F
100
AcDbEntity
  8
PREDEFINITO
100
AcDbSpline
210
0.0
220
0.0
230
1.0
 70
    12
 71
     2
 72
     6
 73
     3
 74
     0
 42
0.0000000001
 43
0.0000000001
 40
-30.78183499874119
 40
-30.78183499874119
 40
-30.78183499874119
 40
0.0
 40
0.0
 40
0.0
 10
337.6005884075951
 20
1818.365694614466
 30
0.0
 41
1.0
 10
352.5620747198233
 20
1822.056209978733
 30
0.0
 41
0.9981502472110028
 10
366.9650603391033
 20
1827.535259310114
 30
0.0
 41
1.0
  0
POLYLINE
  5
203
330
1F
100
AcDbEntity
  8
PREDEFINITO
100
AcDb2dPolyline
 66
     1
 10
0.0
 20
0.0
 30
0.0
  0
VERTEX
  5
205
330
203
100
AcDbEntity
  8
PREDEFINITO
100
AcDbVertex
100
AcDb2dVertex
 10
366.9650603391033
 20
1827.535259310114
 30
0.0
  0
VERTEX
  5
206
330
203
100
AcDbEntity
  8
PREDEFINITO
100
AcDbVertex
100
AcDb2dVertex
 10
367.0110780725148
 20
1827.552769916286
 30
0.0
  0
SEQEND
  5
204
330
203
100
AcDbEntity
  8
PREDEFINITO
  0
SPLINE
  5
207
330
1F
100
AcDbEntity
  8
LINEE VISIBILI 2D
100
AcDbSpline
210
0.0
220
0.0
230
1.0
 70
    12
 71
     2
 72
     6
 73
     3
 74
     0
 42
0.0000000001
 43
0.0000000001
 40
0.0
 40
0.0
 40
0.0
 40
0.2786092955927312
 40
0.2786092955927312
 40
0.2786092955927312
 10
1121.460022416398
 20
1817.332090184841
 30
0.0
 41
1.0
 10
1121.324274111351
 20
1817.363384307903
 30
0.0
 41
0.999955960353431
 10
1121.189137080923
 20
1817.397220789229
 30
0.0
 41
1.0
  0
SPLINE
  5
208
330
1F
100
AcDbEntity
  8
LINEE VISIBILI 2D
100
AcDbSpline
210
0.0
220
0.0
230
1.0
 70
    12
 71
     2
 72
     6
 73
     3
 74
     0
 42
0.0000000001
 43
0.0000000001
 40
0.0
 40
0.0
 40
0.0
 40
32.27474523832493
 40
32.27474523832493
 40
32.27474523832493
 10
1121.189137080923
 20
1817.397220789229
 30
0.0
 41
1.0
 10
1105.508365971149
 20
1821.333408450872
 30
0.0
 41
0.9972297515108913
 10
1090.585061009402
 20
1827.552341230978
 30
0.0
 41
1.0
  0
SPLINE
  5
209
330
1F
100
AcDbEntity
  8
LINEE VISIBILI 2D
100
AcDbSpline
210
0.0
220
0.0
230
1.0
 70
    12
 71
     3
 72
    10
 73
     6
 74
     0
 42
0.0000000001
 43
0.0000000001
 40
0.0439998818231762
 40
0.0439998818231762
 40
0.0439998818231762
 40
0.0439998818231762
 40
0.499928441962321
 40
0.499928441962321
 40
1.0
 40
1.0
 40
1.0
 40
1.0
 10
1091.504023296191
 20
1510.227446886671
 30
0.0
 41
1.0
 10
1092.447805998248
 20
1510.688517983486
 30
0.0
 41
1.0
 10
1093.930530886742
 20
1511.287888953458
 30
0.0
 41
1.0
 10
1095.296726158338
 20
1511.284871523823
 30
0.0
 41
1.0
 10
1094.211402282204
 20
1510.569377355906
 30
0.0
 41
1.0
 10
1093.300468992927
 20
1510.098566902292
 30
0.0
 41
1.0
  0
SPLINE
  5
20A
330
1F
100
AcDbEntity
  8
LINEE VISIBILI 2D
100
AcDbSpline
210
0.0
220
0.0
230
1.0
 70
    12
 71
     2
 72
     6
 73
     3
 74
     0
 42
0.0000000001
 43
0.0000000001
 40
0.0
 40
0.0
 40
0.0
 40
1.348285098050293
 40
1.348285098050293
 40
1.348285098050293
 10
1093.300468992927
 20
1510.098566902292
 30
0.0
 41
1.0
 10
1092.701589268486
 20
1509.78902617933
 30
0.0
 41
0.9999930571483778
 10
1092.105033071417
 20
1509.475030817492
 30
0.0
 41
1.0
  0
SPLINE
  5
20B
330
1F
100
AcDbEntity
  8
LINEE VISIBILI 2D
100
AcDbSpline
210
0.0
220
0.0
230
1.0
 70
    12
 71
     2
 72
     6
 73
     3
 74
     0
 42
0.0000000001
 43
0.0000000001
 40
0.0
 40
0.0
 40
0.0
 40
0.4234871913508958
 40
0.4234871913508958
 40
0.4234871913508958
 10
1167.27731030955
 20
1821.638484721572
 30
0.0
 41
1.0
 10
1167.065778847375
 20
1821.649864508262
 30
0.0
 41
0.9993363305871474
 10
1166.855220937453
 20
1821.676668563085
 30
0.0
 41
1.0
  0
SPLINE
  5
20C
330
1F
100
AcDbEntity
  8
LINEE VISIBILI 2D
100
AcDbSpline
210
0.0
220
0.0
230
1.0
 70
    12
 71
     2
 72
     6
 73
     3
 74
     0
 42
0.0000000001
 43
0.0000000001
 40
0.0
 40
0.0
 40
0.0
 40
0.9368865093168571
 40
0.9368865093168571
 40
0.9368865093168571
 10
1166.855220937453
 20
1821.676668563085
 30
0.0
 41
1.0
 10
1166.366164788744
 20
1821.66730488516
 30
0.0
 41
0.9388820292396286
 10
1165.987245568475
 20
1821.975975915379
 30
0.0
 41
1.0
  0
SPLINE
  5
20D
330
1F
100
AcDbEntity
  8
LINEE VISIBILI 2D
100
AcDbSpline
210
0.0
220
0.0
230
1.0
 70
    12
 71
     2
 72
     6
 73
     3
 74
     0
 42
0.0000000001
 43
0.0000000001
 40
0.0
 40
0.0
 40
0.0
 40
9.709659392189861
 40
9.709659392189861
 40
9.709659392189861
 10
1165.987245568475
 20
1821.975975915379
 30
0.0
 41
1.0
 10
1164.04650182856
 20
1826.435423445941
 30
0.0
 41
0.9973430196719625
 10
1162.774358397456
 20
1831.136365123061
 30
0.0
 41
1.0
  0
SPLINE
  5
20E
330
1F
100
AcDbEntity
  8
LINEE VISIBILI 2D
100
AcDbSpline
210
0.0
220
0.0
230
1.0
 70
    12
 71
     2
 72
     6
 73
     3
 74
     0
 42
0.0000000001
 43
0.0000000001
 40
-1.296544931309315
 40
-1.296544931309315
 40
-1.296544931309315
 40
0.0
 40
0.0
 40
0.0
 10
1162.774358397456
 20
1831.136365123061
 30
0.0
 41
1.0
 10
1162.621527124781
 20
1831.773181622526
 30
0.0
 41
0.9999999999994157
 10
1162.463427251955
 20
1832.403181787748
 30
0.0
 41
1.0
  0
SPLINE
  5
20F
330
1F
100
AcDbEntity
  8
LINEE VISIBILI 2D
100
AcDbSpline
210
0.0
220
0.0
230
1.0
 70
    24
 71
     2
 72
     6
 73
     3
 74
     0
 42
0.0000000001
 43
0.0000000001
 40
0.0
 40
0.0
 40
0.0
 40
2.98329444415549
 40
2.98329444415549
 40
2.98329444415549
 10
1162.463427251955
 20
1832.403181787748
 30
0.0
 10
1163.952439492878
 20
1832.403181787745
 30
0.0
 10
1165.4414517338
 20
1832.403181787742
 30
0.0
  0
SPLINE
  5
210
330
1F
100
AcDbEntity
  8
LINEE VISIBILI 2D
100
AcDbSpline
210
0.0
220
0.0
230
1.0
 70
    12
 71
     2
 72
     6
 73
     3
 74
     0
 42
0.0000000001
 43
0.0000000001
 40
0.0
 40
0.0
 40
0.0
 40
22.20746820453882
 40
22.20746820453882
 40
22.20746820453882
 10
225.2667301660076
 20
1827.552341230976
 30
0.0
 41
1.0
 10
234.6035522000388
 20
1821.472329855289
 30
0.0
 41
0.9948646605837972
 10
244.973521829857
 20
1817.397220789227
 30
0.0
 41
1.0
  0
SPLINE
  5
211
330
1F
100
AcDbEntity
  8
LINEE VISIBILI 2D
100
AcDbSpline
210
0.0
220
0.0
230
1.0
 70
    12
 71
     3
 72
    10
 73
     6
 74
     0
 42
0.0000000001
 43
0.0000000001
 40
-1.0
 40
-1.0
 40
-1.0
 40
-1.0
 40
-0.5011964628324459
 40
-0.5011964628324459
 40
-0.500576773476706
 40
-0.500576773476706
 40
-0.500576773476706
 40
-0.500576773476706
 10
244.973521829857
 20
1817.397220789227
 30
0.0
 41
1.0
 10
245.4484368262433
 20
1817.212324774199
 30
0.0
 41
1.0
 10
245.3294815056511
 20
1817.05444324941
 30
0.0
 41
1.0
 10
244.6471075764327
 20
1817.053828035733
 30
0.0
 41
1.0
 10
244.6462604927637
 20
1817.05382751528
 30
0.0
 41
1.0
 10
244.6454130232011
 20
1817.053827237487
 30
0.0
 41
1.0
  0
SPLINE
  5
212
330
1F
100
AcDbEntity
  8
LINEE VISIBILI 2D
100
AcDbSpline
210
0.0
220
0.0
230
1.0
 70
    12
 71
     2
 72
     6
 73
     3
 74
     0
 42
0.0000000001
 43
0.0000000001
 40
0.0
 40
0.0
 40
0.0
 40
28.94914213180651
 40
28.94914213180651
 40
28.94914213180651
 10
1247.071701513324
 20
1827.552341230978
 30
0.0
 41
1.0
 10
1233.95091337305
 20
1821.363784601153
 30
0.0
 41
0.9966493294695966
 10
1219.996713786244
 20
1817.397220789229
 30
0.0
 41
1.0
  0
SPLINE
  5
213
330
1F
100
AcDbEntity
  8
LINEE VISIBILI 2D
100
AcDbSpline
210
0.0
220
0.0
230
1.0
 70
    12
 71
     2
 72
     6
 73
     3
 74
     0
 42
0.0000000001
 43
0.0000000001
 40
0.0
 40
0.0
 40
0.0
 40
0.7746955910970686
 40
0.7746955910970686
 40
0.7746955910970686
 10
1219.996713786244
 20
1817.397220789229
 30
0.0
 41
1.0
 10
1219.623321064671
 20
1817.293414600701
 30
0.0
 41
0.9992033566231839
 10
1219.242838908789
 20
1817.219718071909
 30
0.0
 41
1.0
  0
SPLINE
  5
214
330
1F
100
AcDbEntity
  8
LINEE VISIBILI 2D
100
AcDbSpline
210
0.0
220
0.0
230
1.0
 70
    12
 71
     3
 72
    10
 73
     6
 74
     0
 42
0.0000000001
 43
0.0000000001
 40
0.2821811646219195
 40
0.2821811646219195
 40
0.2821811646219195
 40
0.2821811646219195
 40
0.4988201302761441
 40
0.4988201302761441
 40
0.9999999999999978
 40
0.9999999999999978
 40
0.9999999999999978
 40
0.9999999999999978
 10
224.5614316621336
 20
1510.9633656378
 30
0.0
 41
1.0
 10
225.1285670708771
 20
1511.153039636617
 30
0.0
 41
1.0
 10
225.759324928412
 20
1511.285782882259
 30
0.0
 41
1.0
 10
227.7877808669741
 20
1511.287993170957
 30
0.0
 41
1.0
 10
227.5377882799808
 20
1510.582948456657
 30
0.0
 41
1.0
 10
226.9348755674432
 20
1510.098566726794
 30
0.0
 41
1.0
  0
SPLINE
  5
215
330
1F
100
AcDbEntity
  8
LINEE VISIBILI 2D
100
AcDbSpline
210
0.0
220
0.0
230
1.0
 70
    12
 71
     2
 72
     6
 73
     3
 74
     0
 42
0.0000000001
 43
0.0000000001
 40
0.0
 40
0.0
 40
0.0
 40
0.9901709998419694
 40
0.9901709998419694
 40
0.9901709998419694
 10
226.9348755674432
 20
1510.098566726794
 30
0.0
 41
1.0
 10
226.5489004725767
 20
1509.788508493875
 30
0.0
 41
0.9999901185512566
 10
226.1656973571035
 20
1509.475030816919
 30
0.0
 41
1.0
  0
SPLINE
  5
216
330
1F
100
AcDbEntity
  8
LINEE VISIBILI 2D
100
AcDbSpline
210
0.0
220
0.0
230
1.0
 70
    12
 71
     2
 72
     6
 73
     3
 74
     0
 42
0.0000000001
 43
0.0000000001
 40
0.0
 40
0.0
 40
0.0
 40
1.442895783979699
 40
1.442895783979699
 40
1.442895783979699
 10
366.512040924653
 20
1509.475030818745
 30
0.0
 41
1.0
 10
365.862521525184
 20
1509.789062602289
 30
0.0
 41
0.9999937311557081
 10
365.210794544957
 20
1510.098486833088
 30
0.0
 41
1.0
  0
SPLINE
  5
217
330
1F
100
AcDbEntity
  8
LINEE VISIBILI 2D
100
AcDbSpline
210
0.0
220
0.0
230
1.0
 70
    12
 71
     3
 72
    10
 73
     6
 74
     0
 42
0.0000000001
 43
0.0000000001
 40
0.0000000000210946
 40
0.0000000000210946
 40
0.0000000000210946
 40
0.0000000000210946
 40
0.507537649960025
 40
0.507537649960025
 40
1.0
 40
1.0
 40
1.0
 40
1.0
 10
365.210794544957
 20
1510.098486833088
 30
0.0
 41
1.0
 10
363.5446909958
 20
1510.889506994672
 30
0.0
 41
1.0
 10
362.8333401739142
 20
1511.292814555678
 30
0.0
 41
1.0
 10
363.0960501072468
 20
1511.280132425519
 30
0.0
 41
1.0
 10
364.0902525071051
 20
1510.881056404783
 30
0.0
 41
1.0
 10
365.7383266020806
 20
1510.098566902289
 30
0.0
 41
1.0
  0
SPLINE
  5
218
330
1F
100
AcDbEntity
  8
LINEE VISIBILI 2D
100
AcDbSpline
210
0.0
220
0.0
230
1.0
 70
    12
 71
     2
 72
     6
 73
     3
 74
     0
 42
0.0000000001
 43
0.0000000001
 40
0.0
 40
0.0
 40
0.0
 40
0.624419739117186
 40
0.624419739117186
 40
0.624419739117186
 10
365.7383266020806
 20
1510.098566902289
 30
0.0
 41
1.0
 10
366.0203622429934
 20
1509.964660022295
 30
0.0
 41
0.9999988258157465
 10
366.3019861516798
 20
1509.829889367807
 30
0.0
 41
1.0
  0
SPLINE
  5
219
330
1F
100
AcDbEntity
  8
LINEE VISIBILI 2D
100
AcDbSpline
210
0.0
220
0.0
230
1.0
 70
    12
 71
     2
 72
     6
 73
     3
 74
     0
 42
0.0000000001
 43
0.0000000001
 40
0.0
 40
0.0
 40
0.0
 40
0.7784796787018913
 40
0.7784796787018913
 40
0.7784796787018913
 10
225.2667301660076
 20
1830.716448755766
 30
0.0
 41
1.0
 10
224.9361302164157
 20
1830.921905405413
 30
0.0
 41
0.9999945101373597
 10
224.6068991059424
 20
1831.136365123068
 30
0.0
 41
1.0
  0
SPLINE
  5
21A
330
1F
100
AcDbEntity
  8
LINEE VISIBILI 2D
100
AcDbSpline
210
0.0
220
0.0
230
1.0
 70
    12
 71
     2
 72
     6
 73
     3
 74
     0
 42
0.0000000001
 43
0.0000000001
 40
0.0
 40
0.0
 40
0.0
 40
2.121535881426779
 40
2.121535881426779
 40
2.121535881426779
 10
224.6068991059424
 20
1831.136365123068
 30
0.0
 41
1.0
 10
223.7534759702488
 20
1831.773179863537
 30
0.0
 41
0.9999999999974583
 10
222.9000556754437
 20
1832.403181787741
 30
0.0
 41
1.0
  0
SPLINE
  5
21B
330
1F
100
AcDbEntity
  8
LINEE VISIBILI 2D
100
AcDbSpline
210
0.0
220
0.0
230
1.0
 70
    24
 71
     2
 72
     6
 73
     3
 74
     0
 42
0.0000000001
 43
0.0000000001
 40
-0.0588563877427077
 40
-0.0588563877427077
 40
-0.0588563877427077
 40
0.0
 40
0.0
 40
0.0
 10
222.9000556754437
 20
1832.403181787741
 30
0.0
 10
222.8706274815764
 20
1832.403181787741
 30
0.0
 10
222.8411992877091
 20
1832.40318178774
 30
0.0
  0
SPLINE
  5
21C
330
1F
100
AcDbEntity
  8
LINEE VISIBILI 2D
100
AcDbSpline
210
0.0
220
0.0
230
1.0
 70
    24
 71
     2
 72
     6
 73
     3
 74
     0
 42
0.0000000001
 43
0.0000000001
 40
0.0
 40
0.0
 40
0.0
 40
35.83076481125715
 40
35.83076481125715
 40
35.83076481125715
 10
222.8411992877091
 20
1832.40318178774
 30
0.0
 10
204.9257061167004
 20
1832.40318178774
 30
0.0
 10
187.0102129456916
 20
1832.40318178774
 30
0.0
  0
SPLINE
  5
21D
330
1F
100
AcDbEntity
  8
LINEE VISIBILI 2D
100
AcDbSpline
210
0.0
220
0.0
230
1.0
 70
    24
 71
     2
 72
     6
 73
     3
 74
     0
 42
0.0000000001
 43
0.0000000001
 40
-4.850840556764069
 40
-4.850840556764069
 40
-4.850840556764069
 40
0.0
 40
0.0
 40
0.0
 10
187.0102129456916
 20
1832.40318178774
 30
0.0
 10
187.0217577009587
 20
1829.973323308835
 30
0.0
 10
187.0333024562258
 20
1827.543464829929
 30
0.0
  0
SPLINE
  5
21E
330
1F
100
AcDbEntity
  8
LINEE VISIBILI 2D
100
AcDbSpline
210
0.0
220
0.0
230
1.0
 70
    12
 71
     2
 72
     6
 73
     3
 74
     0
 42
0.0000000001
 43
0.0000000001
 40
0.0
 40
0.0
 40
0.0
 40
0.0174668426156117
 40
0.0174668426156117
 40
0.0174668426156117
 10
187.0333024562258
 20
1827.543464829929
 30
0.0
 41
1.0
 10
187.0484506984512
 20
1827.537693486778
 30
0.0
 41
0.9999999994013576
 10
187.0424838374366
 20
1827.546570169751
 30
0.0
 41
1.0
  0
SPLINE
  5
21F
330
1F
100
AcDbEntity
  8
LINEE VISIBILI 2D
100
AcDbSpline
210
0.0
220
0.0
230
1.0
 70
    12
 71
     2
 72
     6
 73
     3
 74
     0
 42
0.0000000001
 43
0.0000000001
 40
5.702977543840059
 40
5.702977543840059
 40
5.702977543840059
 40
91.24764070144094
 40
91.24764070144094
 40
91.24764070144094
 10
187.0424838374366
 20
1827.546570169751
 30
0.0
 41
0.9850630856445987
 10
185.7960979293734
 20
1827.552341230976
 30
0.0
 41
0.8822125096157011
 10
222.8411992877091
 20
1827.552341230976
 30
0.0
 41
1.0
  0
SPLINE
  5
220
330
1F
100
AcDbEntity
  8
LINEE VISIBILI 2D
100
AcDbSpline
210
0.0
220
0.0
230
1.0
 70
    24
 71
     2
 72
     6
 73
     3
 74
     0
 42
0.0000000001
 43
0.0000000001
 40
0.0
 40
0.0
 40
0.0
 40
28.79999999998995
 40
28.79999999998995
 40
28.79999999998995
 10
1107.986664459245
 20
1832.403181787742
 30
0.0
 10
1107.986996992369
 20
1846.803181787737
 30
0.0
 10
1107.987329525492
 20
1861.203181787732
 30
0.0
  0
SPLINE
  5
221
330
1F
100
AcDbEntity
  8
LINEE VISIBILI 2D
100
AcDbSpline
210
0.0
220
0.0
230
1.0
 70
    24
 71
     2
 72
     6
 73
     3
 74
     0
 42
0.0000000001
 43
0.0000000001
 40
0.0
 40
0.0
 40
0.0
 40
125.1909038177348
 40
125.1909038177348
 40
125.1909038177348
 10
1107.987329525492
 20
1861.203181787732
 30
0.0
 10
1170.583113967483
 20
1861.203181787732
 30
0.0
 10
1233.178898409474
 20
1861.203181787732
 30
0.0
  0
SPLINE
  5
222
330
1F
100
AcDbEntity
  8
LINEE VISIBILI 2D
100
AcDbSpline
210
0.0
220
0.0
230
1.0
 70
    24
 71
     2
 72
     6
 73
     3
 74
     0
 42
0.0000000001
 43
0.0000000001
 40
0.0
 40
0.0
 40
0.0
 40
5.699425381211995
 40
5.699425381211995
 40
5.699425381211995
 10
1233.178898409474
 20
1861.203181787732
 30
0.0
 10
1236.028943633204
 20
1861.203181787732
 30
0.0
 10
1238.878988856933
 20
1861.203181787732
 30
0.0
  0
SPLINE
  5
223
330
1F
100
AcDbEntity
  8
LINEE VISIBILI 2D
100
AcDbSpline
210
0.0
220
0.0
230
1.0
 70
    24
 71
     2
 72
     6
 73
     3
 74
     0
 42
0.0000000001
 43
0.0000000001
 40
0.0
 40
0.0
 40
0.0
 40
28.79999999999131
 40
28.79999999999131
 40
28.79999999999131
 10
1238.878988856933
 20
1861.203181787732
 30
0.0
 10
1238.879321390057
 20
1846.803181787736
 30
0.0
 10
1238.879653923181
 20
1832.403181787741
 30
0.0
  0
SPLINE
  5
224
330
1F
100
AcDbEntity
  8
LINEE VISIBILI 2D
100
AcDbSpline
210
0.0
220
0.0
230
1.0
 70
    12
 71
     2
 72
     6
 73
     3
 74
     0
 42
0.0000000001
 43
0.0000000001
 40
0.0
 40
0.0
 40
0.0
 40
32.27474519111993
 40
32.27474519111993
 40
32.27474519111993
 10
1091.802909313932
 20
1827.552341230978
 30
0.0
 41
1.0
 10
1106.726214576478
 20
1821.333409357377
 30
0.0
 41
0.9972297558930144
 10
1122.406985385453
 20
1817.397220789229
 30
0.0
 41
1.0
  0
SPLINE
  5
225
330
1F
100
AcDbEntity
  8
LINEE VISIBILI 2D
100
AcDbSpline
210
0.0
220
0.0
230
1.0
 70
    12
 71
     2
 72
     6
 73
     3
 74
     0
 42
0.0000000001
 43
0.0000000001
 40
0.0
 40
0.0
 40
0.0
 40
0.9532947564731565
 40
0.9532947564731565
 40
0.9532947564731565
 10
1122.406985385453
 20
1817.397220789229
 30
0.0
 41
1.0
 10
1122.881774764455
 20
1817.334592744358
 30
0.0
 41
0.9784099272420036
 10
1123.28206448696
 20
1817.071109215464
 30
0.0
 41
0.9995787946018451
  0
SPLINE
  5
226
330
1F
100
AcDbEntity
  8
LINEE VISIBILI 2D
100
AcDbSpline
210
0.0
220
0.0
230
1.0
 70
    12
 71
     2
 72
     6
 73
     3
 74
     0
 42
0.0000000001
 43
0.0000000001
 40
0.0
 40
0.0
 40
0.0
 40
0.6250422522274867
 40
0.6250422522274867
 40
0.6250422522274867
 10
1123.28206448696
 20
1817.071109215464
 30
0.0
 41
1.0
 10
1122.951398711893
 20
1817.044828760865
 30
0.0
 41
0.9925461848410612
 10
1122.643152680869
 20
1817.105111526128
 30
0.0
 41
1.0
  0
SPLINE
  5
227
330
1F
100
AcDbEntity
  8
LINEE VISIBILI 2D
100
AcDbSpline
210
0.0
220
0.0
230
1.0
 70
    24
 71
     2
 72
     6
 73
     3
 74
     0
 42
0.0000000001
 43
0.0000000001
 40
0.0
 40
0.0
 40
0.0
 40
4.850162929402813
 40
4.850162929402813
 40
4.850162929402813
 10
1162.458157224034
 20
1827.553018858339
 30
0.0
 10
1162.458157224034
 20
1829.978100323041
 30
0.0
 10
1162.458157224034
 20
1832.403181787742
 30
0.0
  0
SPLINE
  5
228
330
1F
100
AcDbEntity
  8
LINEE VISIBILI 2D
100
AcDbSpline
210
0.0
220
0.0
230
1.0
 70
    24
 71
     2
 72
     6
 73
     3
 74
     0
 42
0.0000000001
 43
0.0000000001
 40
0.0
 40
0.0
 40
0.0
 40
27.69336864212414
 40
27.69336864212414
 40
27.69336864212414
 10
1162.458157224034
 20
1832.403181787742
 30
0.0
 10
1148.611472905835
 20
1832.403181787742
 30
0.0
 10
1134.764788587636
 20
1832.403181787742
 30
0.0
  0
SPLINE
  5
229
330
1F
100
AcDbEntity
  8
LINEE VISIBILI 2D
100
AcDbSpline
210
0.0
220
0.0
230
1.0
 70
    24
 71
     2
 72
     6
 73
     3
 74
     0
 42
0.0000000001
 43
0.0000000001
 40
-51.68702965698026
 40
-51.68702965698026
 40
-51.68702965698026
 40
0.0
 40
0.0
 40
0.0
 10
1134.764788587636
 20
1832.403181787742
 30
0.0
 10
1108.92127376201
 20
1832.403181787742
 30
0.0
 10
1083.077758936383
 20
1832.403181787742
 30
0.0
  0
SPLINE
  5
22A
330
1F
100
AcDbEntity
  8
LINEE VISIBILI 2D
100
AcDbSpline
210
0.0
220
0.0
230
1.0
 70
    24
 71
     2
 72
     6
 73
     3
 74
     0
 42
0.0000000001
 43
0.0000000001
 40
0.0
 40
0.0
 40
0.0
 40
4.850840556764069
 40
4.850840556764069
 40
4.850840556764069
 10
1245.306255405843
 20
1827.552341230978
 30
0.0
 10
1245.306255405843
 20
1829.97776150936
 30
0.0
 10
1245.306255405843
 20
1832.403181787742
 30
0.0
  0
SPLINE
  5
22B
330
1F
100
AcDbEntity
  8
LINEE VISIBILI 2D
100
AcDbSpline
210
0.0
220
0.0
230
1.0
 70
    24
 71
     2
 72
     6
 73
     3
 74
     0
 42
0.0000000001
 43
0.0000000001
 40
0.0
 40
0.0
 40
0.0
 40
79.86480376979853
 40
79.86480376979853
 40
79.86480376979853
 10
1245.306255405843
 20
1832.403181787742
 30
0.0
 10
1205.373853520944
 20
1832.403181787742
 30
0.0
 10
1165.441451636044
 20
1832.403181787742
 30
0.0
  0
SPLINE
  5
22C
330
1F
100
AcDbEntity
  8
LINEE VISIBILI 2D
100
AcDbSpline
210
0.0
220
0.0
230
1.0
 70
    24
 71
     2
 72
     6
 73
     3
 74
     0
 42
0.0000000001
 43
0.0000000001
 40
0.0
 40
0.0
 40
0.0
 40
4.850315939105258
 40
4.850315939105258
 40
4.850315939105258
 10
1165.441451636044
 20
1832.403181787742
 30
0.0
 10
1165.441451636044
 20
1829.97802381819
 30
0.0
 10
1165.441451636044
 20
1827.552865848637
 30
0.0
  0
SPLINE
  5
22D
330
1F
100
AcDbEntity
  8
PREDEFINITO
100
AcDbSpline
210
0.0
220
0.0
230
1.0
 70
    12
 71
     2
 72
     6
 73
     3
 74
     0
 42
0.0000000001
 43
0.0000000001
 40
0.0
 40
0.0
 40
0.0
 40
5.788030813329999
 40
5.788030813329999
 40
5.788030813329999
 10
232.4157808288136
 20
1630.667786725473
 30
0.0
 41
1.0
 10
234.6789610492771
 20
1632.47158530797
 30
0.0
 41
0.9999687610636512
 10
236.9703728739928
 20
1634.239382209785
 30
0.0
 41
1.0
  0
SPLINE
  5
22E
330
1F
100
AcDbEntity
  8
PREDEFINITO
100
AcDbSpline
210
0.0
220
0.0
230
1.0
 70
    24
 71
     2
 72
     6
 73
     3
 74
     0
 42
0.0000000001
 43
0.0000000001
 40
0.0
 40
0.0
 40
0.0
 40
1.0
 40
1.0
 40
1.0
 10
236.9703728739928
 20
1634.239382209785
 30
0.0
 10
237.0551738645893
 20
1634.304788860914
 30
0.0
 10
237.1399748551858
 20
1634.370195512042
 30
0.0
  0
SPLINE
  5
22F
330
1F
100
AcDbEntity
  8
PREDEFINITO
100
AcDbSpline
210
0.0
220
0.0
230
1.0
 70
    12
 71
     2
 72
     6
 73
     3
 74
     0
 42
0.0000000001
 43
0.0000000001
 40
0.0
 40
0.0
 40
0.0
 40
7.913200533671585
 40
7.913200533671585
 40
7.913200533671585
 10
237.1399748551858
 20
1634.370195512042
 30
0.0
 41
1.0
 10
240.2784772027641
 20
1636.780909345676
 30
0.0
 41
0.9996622701791867
 10
243.5379945136324
 20
1639.025299034116
 30
0.0
 41
1.0
  0
SPLINE
  5
230
330
1F
100
AcDbEntity
  8
PREDEFINITO
100
AcDbSpline
210
0.0
220
0.0
230
1.0
 70
    12
 71
     2
 72
     6
 73
     3
 74
     0
 42
0.0000000001
 43
0.0000000001
 40
0.0
 40
0.0
 40
0.0
 40
7.945097560504561
 40
7.945097560504561
 40
7.945097560504561
 10
243.5379945136324
 20
1639.025299034116
 30
0.0
 41
1.0
 10
246.8109378301468
 20
1641.27830561985
 30
0.0
 41
0.9996649603500608
 10
250.1960889326828
 20
1643.358918183851
 30
0.0
 41
1.0
  0
SPLINE
  5
231
330
1F
100
AcDbEntity
  8
PREDEFINITO
100
AcDbSpline
210
0.0
220
0.0
230
1.0
 70
    24
 71
     2
 72
     6
 73
     3
 74
     0
 42
0.0000000001
 43
0.0000000001
 40
0.0
 40
0.0
 40
0.0
 40
1.0
 40
1.0
 40
1.0
 10
250.1960889326828
 20
1643.358918183851
 30
0.0
 10
250.2982933577009
 20
1643.42184487987
 30
0.0
 10
250.4004977827191
 20
1643.484771575889
 30
0.0
  0
SPLINE
  5
232
330
1F
100
AcDbEntity
  8
PREDEFINITO
100
AcDbSpline
210
0.0
220
0.0
230
1.0
 70
    12
 71
     2
 72
     6
 73
     3
 74
     0
 42
0.0000000001
 43
0.0000000001
 40
0.0
 40
0.0
 40
0.0
 40
9.177284416941077
 40
9.177284416941077
 40
9.177284416941077
 10
250.4004977827191
 20
1643.484771575889
 30
0.0
 41
1.0
 10
254.3141088571731
 20
1645.88237459196
 30
0.0
 41
0.9996719185949364
 10
258.3542555906312
 20
1648.081266053389
 30
0.0
 41
1.0
  0
SPLINE
  5
233
330
1F
100
AcDbEntity
  8
PREDEFINITO
100
AcDbSpline
210
0.0
220
0.0
230
1.0
 70
    12
 71
     2
 72
     6
 73
     3
 74
     0
 42
0.0000000001
 43
0.0000000001
 40
0.0
 40
0.0
 40
0.0
 40
10.29861307362272
 40
10.29861307362272
 40
10.29861307362272
 10
258.3542555906312
 20
1648.081266053389
 30
0.0
 41
1.0
 10
262.8848006071134
 20
1650.551104118051
 30
0.0
 41
0.9998253519323336
 10
267.4954168675847
 20
1652.845390801438
 30
0.0
 41
1.0
  0
SPLINE
  5
234
330
1F
100
AcDbEntity
  8
PREDEFINITO
100
AcDbSpline
210
0.0
220
0.0
230
1.0
 70
    12
 71
     2
 72
     6
 73
     3
 74
     0
 42
0.0000000001
 43
0.0000000001
 40
0.0
 40
0.0
 40
0.0
 40
10.39413828179811
 40
10.39413828179811
 40
10.39413828179811
 10
267.4954168675847
 20
1652.845390801438
 30
0.0
 41
1.0
 10
272.1475254427457
 20
1655.162263615995
 30
0.0
 41
0.9999865000387848
 10
276.8234600141438
 20
1657.43066607542
 30
0.0
 41
1.0
  0
SPLINE
  5
235
330
1F
100
AcDbEntity
  8
PREDEFINITO
100
AcDbSpline
210
0.0
220
0.0
230
1.0
 70
    12
 71
     2
 72
     6
 73
     3
 74
     0
 42
0.0000000001
 43
0.0000000001
 40
0.0
 40
0.0
 40
0.0
 40
10.94512155708663
 40
10.94512155708663
 40
10.94512155708663
 10
276.8234600141438
 20
1657.43066607542
 30
0.0
 41
1.0
 10
281.7473672003476
 20
1659.818984492287
 30
0.0
 41
0.9999998656752755
 10
286.6687959434009
 20
1662.212405885552
 30
0.0
 41
1.0
  0
SPLINE
  5
236
330
1F
100
AcDbEntity
  8
PREDEFINITO
100
AcDbSpline
210
0.0
220
0.0
230
1.0
 70
    12
 71
     2
 72
     6
 73
     3
 74
     0
 42
0.0000000001
 43
0.0000000001
 40
0.0
 40
0.0
 40
0.0
 40
10.44409707130944
 40
10.44409707130944
 40
10.44409707130944
 10
286.6687959434009
 20
1662.212405885552
 30
0.0
 41
1.0
 10
291.3653883604017
 20
1664.495607010964
 30
0.0
 41
0.9999670858157312
 10
296.0243146137486
 20
1666.854715714773
 30
0.0
 41
1.0
  0
SPLINE
  5
237
330
1F
100
AcDbEntity
  8
PREDEFINITO
100
AcDbSpline
210
0.0
220
0.0
230
1.0
 70
    12
 71
     2
 72
     6
 73
     3
 74
     0
 42
0.0000000001
 43
0.0000000001
 40
0.0
 40
0.0
 40
0.0
 40
13.93362995987752
 40
13.93362995987752
 40
13.93362995987752
 10
296.0243146137486
 20
1666.854715714773
 30
0.0
 41
1.0
 10
302.2411202267376
 20
1670.000482398942
 30
0.0
 41
0.9998762610705627
 10
308.3558894844994
 20
1673.340260383366
 30
0.0
 41
1.0
  0
SPLINE
  5
238
330
1F
100
AcDbEntity
  8
PREDEFINITO
100
AcDbSpline
210
0.0
220
0.0
230
1.0
 70
    12
 71
     2
 72
     6
 73
     3
 74
     0
 42
0.0000000001
 43
0.0000000001
 40
0.0
 40
0.0
 40
0.0
 40
13.11308871970266
 40
13.11308871970266
 40
13.11308871970266
 10
308.3558894844994
 20
1673.340260383366
 30
0.0
 41
1.0
 10
314.1117969177221
 20
1676.48305508011
 30
0.0
 41
0.9996624698663131
 10
319.6966916998979
 20
1679.920580230235
 30
0.0
 41
1.0
  0
SPLINE
  5
239
330
1F
100
AcDbEntity
  8
PREDEFINITO
100
AcDbSpline
210
0.0
220
0.0
230
1.0
 70
    12
 71
     2
 72
     6
 73
     3
 74
     0
 42
0.0000000001
 43
0.0000000001
 40
0.0
 40
0.0
 40
0.0
 40
11.08179727890557
 40
11.08179727890557
 40
11.08179727890557
 10
319.6966916998979
 20
1679.920580230235
 30
0.0
 41
1.0
 10
324.4169569473556
 20
1682.825699854582
 30
0.0
 41
0.9995345162518899
 10
328.9512579311611
 20
1686.013291206432
 30
0.0
 41
1.0
  0
SPLINE
  5
23A
330
1F
100
AcDbEntity
  8
PREDEFINITO
100
AcDbSpline
210
0.0
220
0.0
230
1.0
 70
    12
 71
     2
 72
     6
 73
     3
 74
     0
 42
0.0000000001
 43
0.0000000001
 40
0.0
 40
0.0
 40
0.0
 40
10.2979239832451
 40
10.2979239832451
 40
10.2979239832451
 10
328.9512579311611
 20
1686.013291206432
 30
0.0
 41
1.0
 10
333.1720630289202
 20
1688.972775593927
 30
0.0
 41
0.9982519150753489
 10
337.0141658657994
 20
1692.409633068997
 30
0.0
 41
1.0
  0
SPLINE
  5
23B
330
1F
100
AcDbEntity
  8
PREDEFINITO
100
AcDbSpline
210
0.0
220
0.0
230
1.0
 70
    24
 71
     2
 72
     6
 73
     3
 74
     0
 42
0.0000000001
 43
0.0000000001
 40
0.0
 40
0.0
 40
0.0
 40
1.0
 40
1.0
 40
1.0
 10
337.0141658657994
 20
1692.409633068997
 30
0.0
 10
337.1323054597012
 20
1692.516347970473
 30
0.0
 10
337.250445053603
 20
1692.623062871949
 30
0.0
  0
SPLINE
  5
23C
330
1F
100
AcDbEntity
  8
PREDEFINITO
100
AcDbSpline
210
0.0
220
0.0
230
1.0
 70
    12
 71
     2
 72
     6
 73
     3
 74
     0
 42
0.0000000001
 43
0.0000000001
 40
0.0
 40
0.0
 40
0.0
 40
5.920356327371447
 40
5.920356327371447
 40
5.920356327371447
 10
337.250445053603
 20
1692.623062871949
 30
0.0
 41
1.0
 10
339.4471197428094
 20
1694.612001066381
 30
0.0
 41
0.9984112982587836
 10
341.4060644669521
 20
1696.835464670585
 30
0.0
 41
1.0
  0
SPLINE
  5
23D
330
1F
100
AcDbEntity
  8
PREDEFINITO
100
AcDbSpline
210
0.0
220
0.0
230
1.0
 70
    12
 71
     2
 72
     6
 73
     3
 74
     0
 42
0.0000000001
 43
0.0000000001
 40
0.0
 40
0.0
 40
0.0
 40
5.380143416040169
 40
5.380143416040169
 40
5.380143416040169
 10
341.4060644669521
 20
1696.835464670585
 30
0.0
 41
1.0
 10
343.2043087432331
 20
1698.85421556217
 30
0.0
 41
0.9925533761557407
 10
344.4610413118048
 20
1701.247886569334
 30
0.0
 41
1.0
  0
SPLINE
  5
23E
330
1F
100
AcDbEntity
  8
PREDEFINITO
100
AcDbSpline
210
0.0
220
0.0
230
1.0
 70
    12
 71
     2
 72
     6
 73
     3
 74
     0
 42
0.0000000001
 43
0.0000000001
 40
0.0
 40
0.0
 40
0.0
 40
3.540403619921485
 40
3.540403619921485
 40
3.540403619921485
 10
344.4610413118048
 20
1701.247886569334
 30
0.0
 41
1.0
 10
345.2939365383999
 20
1702.826538871819
 30
0.0
 41
0.9876959606172194
 10
345.5984079475278
 20
1704.585275552407
 30
0.0
 41
1.0
  0
SPLINE
  5
23F
330
1F
100
AcDbEntity
  8
PREDEFINITO
100
AcDbSpline
210
0.0
220
0.0
230
1.0
 70
     8
 71
     2
 72
     6
 73
     3
 74
     0
 42
0.0000000001
 43
0.0000000001
 40
0.0
 40
0.0
 40
0.0
 40
1.0
 40
1.0
 40
1.0
 10
345.5984079475278
 20
1704.585275552407
 30
0.0
 10
345.8798898523915
 20
1706.211216564153
 30
0.0
 10
345.7969022620233
 20
1706.964693253617
 30
0.0
  0
SPLINE
  5
240
330
1F
100
AcDbEntity
  8
PREDEFINITO
100
AcDbSpline
210
0.0
220
0.0
230
1.0
 70
    24
 71
     2
 72
     6
 73
     3
 74
     0
 42
0.0000000001
 43
0.0000000001
 40
4.243052999518501
 40
4.243052999518501
 40
4.243052999518501
 40
115.3344416412304
 40
115.3344416412304
 40
115.3344416412304
 10
345.7969022620233
 20
1706.964693253617
 30
0.0
 10
339.7158962950947
 20
1762.176517385918
 30
0.0
 10
333.6348903281661
 20
1817.388341518219
 30
0.0
  0
SPLINE
  5
241
330
1F
100
AcDbEntity
  8
LINEE VISIBILI 2D
100
AcDbSpline
210
0.0
220
0.0
230
1.0
 70
    12
 71
     2
 72
     6
 73
     3
 74
     0
 42
0.0000000001
 43
0.0000000001
 40
0.0
 40
0.0
 40
0.0
 40
0.9324088201052867
 40
0.9324088201052867
 40
0.9324088201052867
 10
243.4502898993178
 20
1817.167479833392
 30
0.0
 41
1.0
 10
242.9885166553325
 20
1817.240625854507
 30
0.0
 41
0.995750524710747
 10
242.5479909515584
 20
1817.397220789227
 30
0.0
 41
1.0
  0
SPLINE
  5
242
330
1F
100
AcDbEntity
  8
LINEE VISIBILI 2D
100
AcDbSpline
210
0.0
220
0.0
230
1.0
 70
    12
 71
     2
 72
     6
 73
     3
 74
     0
 42
0.0000000001
 43
0.0000000001
 40
0.0
 40
0.0
 40
0.0
 40
22.20746754981183
 40
22.20746754981183
 40
22.20746754981183
 10
242.5479909515584
 20
1817.397220789227
 30
0.0
 41
1.0
 10
232.1780257940095
 20
1821.472338534071
 30
0.0
 41
0.9948647488186855
 10
222.8411992877091
 20
1827.552341230976
 30
0.0
 41
1.0
  0
SPLINE
  5
243
330
1F
100
AcDbEntity
  8
LINEE VISIBILI 2D
100
AcDbSpline
210
0.0
220
0.0
230
1.0
 70
    24
 71
     2
 72
     6
 73
     3
 74
     0
 42
0.0000000001
 43
0.0000000001
 40
0.0
 40
0.0
 40
0.0
 40
4.850840556764069
 40
4.850840556764069
 40
4.850840556764069
 10
222.8411992877091
 20
1827.552341230976
 30
0.0
 10
222.8559133812692
 20
1829.977761509358
 30
0.0
 10
222.8706274748293
 20
1832.40318178774
 30
0.0
  0
SPLINE
  5
244
330
1F
100
AcDbEntity
  8
LINEE VISIBILI 2D
100
AcDbSpline
210
0.0
220
0.0
230
1.0
 70
    24
 71
     2
 72
     6
 73
     3
 74
     0
 42
0.0000000001
 43
0.0000000001
 40
0.0
 40
0.0
 40
0.0
 40
2.36667431608808
 40
2.36667431608808
 40
2.36667431608808
 10
222.8706274748293
 20
1832.40318178774
 30
0.0
 10
224.0686787264335
 20
1832.40318178774
 30
0.0
 10
225.2667299780377
 20
1832.40318178774
 30
0.0
  0
SPLINE
  5
245
330
1F
100
AcDbEntity
  8
LINEE VISIBILI 2D
100
AcDbSpline
210
0.0
220
0.0
230
1.0
 70
    24
 71
     2
 72
     6
 73
     3
 74
     0
 42
0.0000000001
 43
0.0000000001
 40
-4.850840556764069
 40
-4.850840556764069
 40
-4.850840556764069
 40
0.0
 40
0.0
 40
0.0
 10
1083.433159191211
 20
1832.403181787742
 30
0.0
 10
1083.435931791025
 20
1829.976710309643
 30
0.0
 10
1083.438704390839
 20
1827.550238831544
 30
0.0
  0
SPLINE
  5
246
330
1F
100
AcDbEntity
  8
LINEE VISIBILI 2D
100
AcDbSpline
210
0.0
220
0.0
230
1.0
 70
    12
 71
     2
 72
     6
 73
     3
 74
     0
 42
0.0000000001
 43
0.0000000001
 40
0.0
 40
0.0
 40
0.0
 40
0.0088087344915439
 40
0.0088087344915439
 40
0.0088087344915439
 10
1083.438704390839
 20
1827.550238831544
 30
0.0
 41
0.9999999999337806
 10
1083.437362010665
 20
1827.55075779245
 30
0.0
 41
0.9999999999508202
 10
1083.436220874546
 20
1827.551805485472
 30
0.0
 41
1.0
  0
SPLINE
  5
247
330
1F
100
AcDbEntity
  8
LINEE VISIBILI 2D
100
AcDbSpline
210
0.0
220
0.0
230
1.0
 70
    12
 71
     2
 72
     6
 73
     3
 74
     0
 42
0.0000000001
 43
0.0000000001
 40
54.17828666648059
 40
54.17828666648059
 40
54.17828666648059
 40
91.247640701441
 40
91.247640701441
 40
91.247640701441
 10
1083.436220874546
 20
1827.551805485472
 30
0.0
 41
0.93934222312323
 10
1083.282024888618
 20
1827.552341230978
 30
0.0
 41
0.9489422490426043
 10
1090.585061009402
 20
1827.552341230978
 30
0.0
 41
1.0
  0
SPLINE
  5
248
330
1F
100
AcDbEntity
  8
LINEE VISIBILI 2D
100
AcDbSpline
210
0.0
220
0.0
230
1.0
 70
    24
 71
     2
 72
     6
 73
     3
 74
     0
 42
0.0000000001
 43
0.0000000001
 40
0.0
 40
0.0
 40
0.0
 40
4.850840556764069
 40
4.850840556764069
 40
4.850840556764069
 10
1090.585061009402
 20
1827.552341230978
 30
0.0
 10
1090.607911575327
 20
1829.97776150937
 30
0.0
 10
1090.630762141252
 20
1832.403181787762
 30
0.0
  0
SPLINE
  5
249
330
1F
100
AcDbEntity
  8
LINEE VISIBILI 2D
100
AcDbSpline
210
0.0
220
0.0
230
1.0
 70
    12
 71
     2
 72
     6
 73
     3
 74
     0
 42
0.0000000001
 43
0.0000000001
 40
-1.247235148887958
 40
-1.247235148887958
 40
-1.247235148887958
 40
0.0
 40
0.0
 40
0.0
 10
1090.630762141252
 20
1832.403181787762
 30
0.0
 41
1.0
 10
1091.239686091234
 20
1832.135452565859
 30
0.0
 41
0.9999999999997146
 10
1091.802909313934
 20
1831.867724195006
 30
0.0
 41
1.0
  0
SPLINE
  5
24A
330
1F
100
AcDbEntity
  8
LINEE VISIBILI 2D
100
AcDbSpline
210
0.0
220
0.0
230
1.0
 70
    12
 71
     3
 72
    10
 73
     6
 74
     0
 42
0.0000000001
 43
0.0000000001
 40
-0.5469339661541357
 40
-0.5469339661541357
 40
-0.5469339661541357
 40
-0.5469339661541357
 40
-0.5011964628324459
 40
-0.5011964628324459
 40
0.0
 40
0.0
 40
0.0
 40
0.0
 10
1218.052597488702
 20
1817.05786424745
 30
0.0
 41
1.0
 10
1217.999957550321
 20
1817.055263763159
 30
0.0
 41
1.0
 10
1217.950462423189
 20
1817.053885140767
 30
0.0
 41
1.0
 10
1217.402917013098
 20
1817.053211401064
 30
0.0
 41
1.0
 10
1217.575839415705
 20
1817.211489749727
 30
0.0
 41
1.0
 10
1218.231267678763
 20
1817.397220789229
 30
0.0
 41
1.0
  0
SPLINE
  5
24B
330
1F
100
AcDbEntity
  8
LINEE VISIBILI 2D
100
AcDbSpline
210
0.0
220
0.0
230
1.0
 70
    12
 71
     2
 72
     6
 73
     3
 74
     0
 42
0.0000000001
 43
0.0000000001
 40
0.0
 40
0.0
 40
0.0
 40
28.94914177450654
 40
28.94914177450654
 40
28.94914177450654
 10
1218.231267678763
 20
1817.397220789229
 30
0.0
 41
1.0
 10
1232.185464955135
 20
1821.363790761098
 30
0.0
 41
0.9966493664386981
 10
1245.306255405843
 20
1827.552341230978
 30
0.0
 41
1.0
  0
SPLINE
  5
24C
330
1F
100
AcDbEntity
  8
LINEE VISIBILI 2D
100
AcDbSpline
210
0.0
220
0.0
230
1.0
 70
    24
 71
     2
 72
     6
 73
     3
 74
     0
 42
0.0000000001
 43
0.0000000001
 40
-79.86480371640073
 40
-79.86480371640073
 40
-79.86480371640073
 40
0.0
 40
0.0
 40
0.0
 10
1245.306255405843
 20
1827.552341230978
 30
0.0
 10
1205.373853534293
 20
1827.552341230978
 30
0.0
 10
1165.441451662743
 20
1827.552341230978
 30
0.0
  0
SPLINE
  5
24D
330
1F
100
AcDbEntity
  8
LINEE VISIBILI 2D
100
AcDbSpline
210
0.0
220
0.0
230
1.0
 70
    12
 71
     2
 72
     6
 73
     3
 74
     0
 42
0.0000000001
 43
0.0000000001
 40
0.0
 40
0.0
 40
0.0
 40
10.76177358006305
 40
10.76177358006305
 40
10.76177358006305
 10
1165.441451662743
 20
1827.552341230978
 30
0.0
 41
0.9999999999961673
 10
1166.809012753926
 20
1822.336822202568
 30
0.0
 41
0.9969575860876425
 10
1168.970539980485
 20
1817.397220789229
 30
0.0
 41
1.0
  0
SPLINE
  5
24E
330
1F
100
AcDbEntity
  8
LINEE VISIBILI 2D
100
AcDbSpline
210
0.0
220
0.0
230
1.0
 70
    12
 71
     2
 72
     6
 73
     3
 74
     0
 42
0.0000000001
 43
0.0000000001
 40
0.0
 40
0.0
 40
0.0
 40
0.0550143803049383
 40
0.0550143803049383
 40
0.0550143803049383
 10
1168.970539980485
 20
1817.397220789229
 30
0.0
 41
1.0
 10
1168.983081715332
 20
1817.371552894078
 30
0.0
 41
0.9452157089717328
 10
1168.97456233086
 20
1817.335787576744
 30
0.0
 41
1.0
  0
SPLINE
  5
24F
330
1F
100
AcDbEntity
  8
LINEE VISIBILI 2D
100
AcDbSpline
210
0.0
220
0.0
230
1.0
 70
    12
 71
     3
 72
    10
 73
     6
 74
     0
 42
0.0000000001
 43
0.0000000001
 40
-0.9373947644764784
 40
-0.9373947644764784
 40
-0.9373947644764784
 40
-0.9373947644764784
 40
-0.4991581158118272
 40
-0.4991581158118272
 40
0.0
 40
0.0
 40
0.0
 40
0.0
 10
1168.97456233086
 20
1817.335787576744
 30
0.0
 41
1.0
 10
1168.904609533112
 20
1817.171323552435
 30
0.0
 41
1.0
 10
1168.355903414363
 20
1817.05331434029
 30
0.0
 41
1.0
 10
1166.809391770104
 20
1817.054414525192
 30
0.0
 41
1.0
 10
1166.074261112477
 20
1817.208046590857
 30
0.0
 41
1.0
 10
1165.987245568475
 20
1817.397220789229
 30
0.0
 41
1.0
  0
SPLINE
  5
250
330
1F
100
AcDbEntity
  8
LINEE VISIBILI 2D
100
AcDbSpline
210
0.0
220
0.0
230
1.0
 70
    12
 71
     2
 72
     6
 73
     3
 74
     0
 42
0.0000000001
 43
0.0000000001
 40
0.0
 40
0.0
 40
0.0
 40
10.76177358893377
 40
10.76177358893377
 40
10.76177358893377
 10
1165.987245568475
 20
1817.397220789229
 30
0.0
 41
1.0
 10
1163.825718178712
 20
1822.336822149448
 30
0.0
 41
0.9969575836164356
 10
1162.458157224034
 20
1827.552341230978
 30
0.0
 41
1.0
  0
SPLINE
  5
251
330
1F
100
AcDbEntity
  8
LINEE VISIBILI 2D
100
AcDbSpline
210
0.0
220
0.0
230
1.0
 70
    24
 71
     2
 72
     6
 73
     3
 74
     0
 42
0.0000000001
 43
0.0000000001
 40
-70.65524791010193
 40
-70.65524791010193
 40
-70.65524791010193
 40
0.0
 40
0.0
 40
0.0
 10
1162.458157224034
 20
1827.552341230978
 30
0.0
 10
1127.130533268983
 20
1827.552341230978
 30
0.0
 10
1091.802909313932
 20
1827.552341230978
 30
0.0
  0
SPLINE
  5
252
330
1F
100
AcDbEntity
  8
LINEE VISIBILI 2D
100
AcDbSpline
210
0.0
220
0.0
230
1.0
 70
    24
 71
     2
 72
     6
 73
     3
 74
     0
 42
0.0000000001
 43
0.0000000001
 40
-4.850840556764069
 40
-4.850840556764069
 40
-4.850840556764069
 40
0.0
 40
0.0
 40
0.0
 10
1091.802909313932
 20
1827.552341230978
 30
0.0
 10
1091.802909313932
 20
1829.97776150936
 30
0.0
 10
1091.802909313932
 20
1832.403181787742
 30
0.0
  0
SPLINE
  5
253
330
1F
100
AcDbEntity
  8
LINEE VISIBILI 2D
100
AcDbSpline
210
0.0
220
0.0
230
1.0
 70
    24
 71
     2
 72
     6
 73
     3
 74
     0
 42
0.0000000001
 43
0.0000000001
 40
0.0
 40
0.0
 40
0.0
 40
0.1000101131160136
 40
0.1000101131160136
 40
0.1000101131160136
 10
297.0099914149314
 20
1812.003191900853
 30
0.0
 10
297.0082982127101
 20
1811.953186844295
 30
0.0
 10
297.0066050104888
 20
1811.903181787737
 30
0.0
  0
SPLINE
  5
254
330
1F
100
AcDbEntity
  8
LINEE VISIBILI 2D
100
AcDbSpline
210
0.0
220
0.0
230
1.0
 70
    24
 71
     2
 72
     6
 73
     3
 74
     0
 42
0.0000000001
 43
0.0000000001
 40
-2.239884083040124
 40
-2.239884083040124
 40
-2.239884083040124
 40
0.0
 40
0.0
 40
0.0
 10
297.0066050104888
 20
1811.903181787737
 30
0.0
 10
295.8849697667475
 20
1811.903181787737
 30
0.0
 10
294.7633345230063
 20
1811.903181787737
 30
0.0
  0
SPLINE
  5
255
330
1F
100
AcDbEntity
  8
LINEE VISIBILI 2D
100
AcDbSpline
210
0.0
220
0.0
230
1.0
 70
    24
 71
     2
 72
     6
 73
     3
 74
     0
 42
0.0000000001
 43
0.0000000001
 40
0.0
 40
0.0
 40
0.0
 40
2.187776554415905
 40
2.187776554415905
 40
2.187776554415905
 10
294.7633345230063
 20
1811.903181787737
 30
0.0
 10
293.6694462457984
 20
1811.903181787737
 30
0.0
 10
292.5755579685906
 20
1811.903181787737
 30
0.0
  0
SPLINE
  5
256
330
1F
100
AcDbEntity
  8
LINEE VISIBILI 2D
100
AcDbSpline
210
0.0
220
0.0
230
1.0
 70
    24
 71
     2
 72
     6
 73
     3
 74
     0
 42
0.0000000001
 43
0.0000000001
 40
-35.53533964276392
 40
-35.53533964276392
 40
-35.53533964276392
 40
0.0
 40
0.0
 40
0.0
 10
292.5755579685906
 20
1811.903181787737
 30
0.0
 10
274.8003314194848
 20
1811.903181787737
 30
0.0
 10
257.025104870379
 20
1811.903181787737
 30
0.0
  0
SPLINE
  5
257
330
1F
100
AcDbEntity
  8
LINEE VISIBILI 2D
100
AcDbSpline
210
0.0
220
0.0
230
1.0
 70
    24
 71
     2
 72
     6
 73
     3
 74
     0
 42
0.0000000001
 43
0.0000000001
 40
0.0
 40
0.0
 40
0.0
 40
0.1000079194875525
 40
0.1000079194875525
 40
0.1000079194875525
 10
257.025104870379
 20
1811.903181787737
 30
0.0
 10
257.0175481426552
 20
1811.95318574748
 30
0.0
 10
257.0099914149314
 20
1812.003189707224
 30
0.0
  0
SPLINE
  5
258
330
1F
100
AcDbEntity
  8
LINEE VISIBILI 2D
100
AcDbSpline
210
0.0
220
0.0
230
1.0
 70
    24
 71
     2
 72
     6
 73
     3
 74
     0
 42
0.0000000001
 43
0.0000000001
 40
0.0
 40
0.0
 40
0.0
 40
1.684583820872604
 40
1.684583820872604
 40
1.684583820872604
 10
1245.306255419021
 20
1832.403181787742
 30
0.0
 10
1246.14854732946
 20
1832.403181787742
 30
0.0
 10
1246.990839239898
 20
1832.403181787742
 30
0.0
  0
SPLINE
  5
259
330
1F
100
AcDbEntity
  8
LINEE VISIBILI 2D
100
AcDbSpline
210
0.0
220
0.0
230
1.0
 70
    24
 71
     2
 72
     6
 73
     3
 74
     0
 42
0.0000000001
 43
0.0000000001
 40
0.0
 40
0.0
 40
0.0
 40
0.080862273422099
 40
0.080862273422099
 40
0.080862273422099
 10
1246.990839239898
 20
1832.403181787742
 30
0.0
 10
1247.031270376611
 20
1832.403181787742
 30
0.0
 10
1247.071701513324
 20
1832.403181787742
 30
0.0
  0
SPLINE
  5
25A
330
1F
100
AcDbEntity
  8
LINEE VISIBILI 2D
100
AcDbSpline
210
0.0
220
0.0
230
1.0
 70
    24
 71
     2
 72
     6
 73
     3
 74
     0
 42
0.0000000001
 43
0.0000000001
 40
0.0
 40
0.0
 40
0.0
 40
4.850840556764069
 40
4.850840556764069
 40
4.850840556764069
 10
1247.071701513324
 20
1832.403181787742
 30
0.0
 10
1247.071701513324
 20
1829.97776150936
 30
0.0
 10
1247.071701513324
 20
1827.552341230978
 30
0.0
  0
SPLINE
  5
25B
330
1F
100
AcDbEntity
  8
LINEE VISIBILI 2D
100
AcDbSpline
210
0.0
220
0.0
230
1.0
 70
    24
 71
     2
 72
     6
 73
     3
 74
     0
 42
0.0000000001
 43
0.0000000001
 40
0.0
 40
0.0
 40
0.0
 40
16.35819208117209
 40
16.35819208117209
 40
16.35819208117209
 10
1247.071701513324
 20
1827.552341230978
 30
0.0
 10
1255.251613953089
 20
1827.552341230978
 30
0.0
 10
1263.431526392853
 20
1827.552341230978
 30
0.0
  0
SPLINE
  5
25C
330
1F
100
AcDbEntity
  8
LINEE VISIBILI 2D
100
AcDbSpline
210
0.0
220
0.0
230
1.0
 70
    24
 71
     2
 72
     6
 73
     3
 74
     0
 42
0.0000000001
 43
0.0000000001
 40
-4.850840556764069
 40
-4.850840556764069
 40
-4.850840556764069
 40
0.0
 40
0.0
 40
0.0
 10
1263.431526392853
 20
1827.552341230978
 30
0.0
 10
1263.42599390372
 20
1829.97776150936
 30
0.0
 10
1263.420461414586
 20
1832.403181787742
 30
0.0
  0
SPLINE
  5
25D
330
1F
100
AcDbEntity
  8
LINEE VISIBILI 2D
100
AcDbSpline
210
0.0
220
0.0
230
1.0
 70
    28
 71
     2
 72
     6
 73
     3
 74
     0
 42
0.0000000001
 43
0.0000000001
 40
-57.02977543840055
 40
-57.02977543840055
 40
-57.02977543840055
 40
0.0
 40
0.0
 40
0.0
 10
1263.420461414586
 20
1832.403181787742
 30
0.0
 41
0.9406367485128193
 10
1263.91249357582
 20
1832.403181787742
 30
0.0
 41
0.9222469445164763
 10
1247.031270376616
 20
1832.403181787719
 30
0.0
 41
1.0
  0
SPLINE
  5
25E
330
1F
100
AcDbEntity
  8
LINEE VISIBILI 2D
100
AcDbSpline
210
0.0
220
0.0
230
1.0
 70
    12
 71
     2
 72
     6
 73
     3
 74
     0
 42
0.0000000001
 43
0.0000000001
 40
0.0
 40
0.0
 40
0.0
 40
1.912356803497378
 40
1.912356803497378
 40
1.912356803497378
 10
1247.031270376616
 20
1832.403181787719
 30
0.0
 41
1.0
 10
1246.148547953606
 20
1831.950608561507
 30
0.0
 41
0.9999999999990288
 10
1245.306255405929
 20
1831.498037683045
 30
0.0
 41
1.0
  0
SPLINE
  5
25F
330
1F
100
AcDbEntity
  8
LINEE VISIBILI 2D
100
AcDbSpline
210
0.0
220
0.0
230
1.0
 70
    12
 71
     2
 72
     6
 73
     3
 74
     0
 42
0.0000000001
 43
0.0000000001
 40
0.0
 40
0.0
 40
0.0
 40
1.22859250638892
 40
1.22859250638892
 40
1.22859250638892
 10
1244.89131942625
 20
1509.475030816922
 30
0.0
 41
1.0
 10
1244.363234439797
 20
1509.788862149581
 30
0.0
 41
0.999992106581037
 10
1243.832672281119
 20
1510.098487171268
 30
0.0
 41
1.0
  0
SPLINE
  5
260
330
1F
100
AcDbEntity
  8
LINEE VISIBILI 2D
100
AcDbSpline
210
0.0
220
0.0
230
1.0
 70
    12
 71
     3
 72
    10
 73
     6
 74
     0
 42
0.0000000001
 43
0.0000000001
 40
0.000000000010554
 40
0.000000000010554
 40
0.000000000010554
 40
0.000000000010554
 40
0.4988201302761441
 40
0.4988201302761441
 40
0.8511272134532347
 40
0.8511272134532347
 40
0.8511272134532347
 40
0.8511272134532347
 10
1243.832672281119
 20
1510.098487171268
 30
0.0
 41
1.0
 10
1243.002151853098
 20
1510.583150347502
 30
0.0
 41
1.0
 10
1242.250202070456
 20
1511.284913997512
 30
0.0
 41
1.0
 10
1243.990833640417
 20
1511.287534765828
 30
0.0
 41
1.0
 10
1245.032327744284
 20
1510.939461796182
 30
0.0
 41
1.0
 10
1245.875788701084
 20
1510.564323488609
 30
0.0
 41
1.0
  0
SPLINE
  5
261
330
1F
100
AcDbEntity
  8
LINEE VISIBILI 2D
100
AcDbSpline
210
0.0
220
0.0
230
1.0
 70
    12
 71
     2
 72
     6
 73
     3
 74
     0
 42
0.0000000001
 43
0.0000000001
 40
0.0
 40
0.0
 40
0.0
 40
0.9898761825930122
 40
0.9898761825930122
 40
0.9898761825930122
 10
222.0818747325567
 20
1509.47503081692
 30
0.0
 41
1.0
 10
222.4649205778085
 20
1509.78846792675
 30
0.0
 41
0.9999901195815126
 10
222.8507379042899
 20
1510.098487171265
 30
0.0
 41
1.0
  0
SPLINE
  5
262
330
1F
100
AcDbEntity
  8
LINEE VISIBILI 2D
100
AcDbSpline
210
0.0
220
0.0
230
1.0
 70
    12
 71
     2
 72
     6
 73
     3
 74
     0
 42
0.0000000001
 43
0.0000000001
 40
0.0
 40
0.0
 40
0.0
 40
0.5680492536544769
 40
0.5680492536544769
 40
0.5680492536544769
 10
222.8507379042899
 20
1510.098487171265
 30
0.0
 41
1.0
 10
223.0748506249628
 20
1510.27384539519
 30
0.0
 41
0.997156054738566
 10
223.3227739010099
 20
1510.41352741787
 30
0.0
 41
1.0
  0
SPLINE
  5
263
330
1F
100
AcDbEntity
  8
LINEE VISIBILI 2D
100
AcDbSpline
210
0.0
220
0.0
230
1.0
 70
    24
 71
     2
 72
     6
 73
     3
 74
     0
 42
0.0000000001
 43
0.0000000001
 40
0.0
 40
0.0
 40
0.0
 40
4.850840556764069
 40
4.850840556764069
 40
4.850840556764069
 10
312.1695225218346
 20
1827.552341230976
 30
0.0
 10
312.1695225218346
 20
1829.977761509358
 30
0.0
 10
312.1695225218346
 20
1832.40318178774
 30
0.0
  0
SPLINE
  5
264
330
1F
100
AcDbEntity
  8
LINEE VISIBILI 2D
100
AcDbSpline
210
0.0
220
0.0
230
1.0
 70
    24
 71
     2
 72
     6
 73
     3
 74
     0
 42
0.0000000001
 43
0.0000000001
 40
0.0
 40
0.0
 40
0.0
 40
86.90279235582693
 40
86.90279235582693
 40
86.90279235582693
 10
312.1695225218346
 20
1832.40318178774
 30
0.0
 10
268.7181263439211
 20
1832.40318178774
 30
0.0
 10
225.2667301660076
 20
1832.40318178774
 30
0.0
  0
SPLINE
  5
265
330
1F
100
AcDbEntity
  8
LINEE VISIBILI 2D
100
AcDbSpline
210
0.0
220
0.0
230
1.0
 70
    24
 71
     2
 72
     6
 73
     3
 74
     0
 42
0.0000000001
 43
0.0000000001
 40
0.0
 40
0.0
 40
0.0
 40
4.850840556764069
 40
4.850840556764069
 40
4.850840556764069
 10
225.2667301660076
 20
1832.40318178774
 30
0.0
 10
225.2667301660076
 20
1829.977761509358
 30
0.0
 10
225.2667301660076
 20
1827.552341230976
 30
0.0
  0
SPLINE
  5
266
330
1F
100
AcDbEntity
  8
LINEE VISIBILI 2D
100
AcDbSpline
210
0.0
220
0.0
230
1.0
 70
    24
 71
     2
 72
     6
 73
     3
 74
     0
 42
0.0000000001
 43
0.0000000001
 40
0.0
 40
0.0
 40
0.0
 40
86.90279235582693
 40
86.90279235582693
 40
86.90279235582693
 10
225.2667301660076
 20
1827.552341230976
 30
0.0
 10
268.7181263439211
 20
1827.552341230976
 30
0.0
 10
312.1695225218346
 20
1827.552341230976
 30
0.0
  0
SPLINE
  5
267
330
1F
100
AcDbEntity
  8
LINEE VISIBILI 2D
100
AcDbSpline
210
0.0
220
0.0
230
1.0
 70
    12
 71
     2
 72
     6
 73
     3
 74
     0
 42
0.0000000001
 43
0.0000000001
 40
-17.00891702435372
 40
-17.00891702435372
 40
-17.00891702435372
 40
0.0
 40
0.0
 40
0.0
 10
312.1695225218346
 20
1827.552341230976
 30
0.0
 41
1.0
 10
305.9818946077817
 20
1821.658885457536
 30
0.0
 41
0.992872661816473
 10
298.5752911749564
 20
1817.397220789227
 30
0.0
 41
1.0
  0
SPLINE
  5
268
330
1F
100
AcDbEntity
  8
LINEE VISIBILI 2D
100
AcDbSpline
210
0.0
220
0.0
230
1.0
 70
    12
 71
     3
 72
    10
 73
     6
 74
     0
 42
0.0000000001
 43
0.0000000001
 40
0.0
 40
0.0
 40
0.0
 40
0.0
 40
0.4995129411727152
 40
0.4995129411727152
 40
1.0
 40
1.0
 40
1.0
 40
1.0
 10
298.5752911749564
 20
1817.397220789227
 30
0.0
 41
1.0
 10
298.2469648180886
 20
1817.211919396192
 30
0.0
 41
1.0
 10
298.5623491809401
 20
1817.054076788492
 30
0.0
 41
1.0
 10
300.1113220676243
 20
1817.053577280728
 30
0.0
 41
1.0
 10
300.9885436845971
 20
1817.21185858365
 30
0.0
 41
1.0
 10
301.3169777921962
 20
1817.397220789227
 30
0.0
 41
1.0
  0
SPLINE
  5
269
330
1F
100
AcDbEntity
  8
LINEE VISIBILI 2D
100
AcDbSpline
210
0.0
220
0.0
230
1.0
 70
    12
 71
     2
 72
     6
 73
     3
 74
     0
 42
0.0000000001
 43
0.0000000001
 40
-17.00891627430965
 40
-17.00891627430965
 40
-17.00891627430965
 40
0.0
 40
0.0
 40
0.0
 10
301.3169777921962
 20
1817.397220789227
 30
0.0
 41
1.0
 10
308.7235755266472
 20
1821.65889308571
 30
0.0
 41
0.9928727936678086
 10
314.9112091390748
 20
1827.552341230976
 30
0.0
 41
1.0
  0
SPLINE
  5
26A
330
1F
100
AcDbEntity
  8
LINEE VISIBILI 2D
100
AcDbSpline
210
0.0
220
0.0
230
1.0
 70
    24
 71
     2
 72
     6
 73
     3
 74
     0
 42
0.0000000001
 43
0.0000000001
 40
0.0
 40
0.0
 40
0.0
 40
51.42710550998208
 40
51.42710550998208
 40
51.42710550998208
 10
314.9112091390748
 20
1827.552341230976
 30
0.0
 10
340.6247618940658
 20
1827.552341230976
 30
0.0
 10
366.3383146490569
 20
1827.552341230976
 30
0.0
  0
SPLINE
  5
26B
330
1F
100
AcDbEntity
  8
LINEE VISIBILI 2D
100
AcDbSpline
210
0.0
220
0.0
230
1.0
 70
    12
 71
     2
 72
     8
 73
     5
 74
     0
 42
0.0000000001
 43
0.0000000001
 40
0.0
 40
0.0
 40
0.0
 40
150.6393677395747
 40
150.6393677395747
 40
301.2787354791502
 40
301.2787354791502
 40
301.2787354791502
 10
1093.004658710056
 20
329.2408885489799
 30
0.0
 41
1.0
 10
1145.235542167979
 20
409.6693960149153
 30
0.0
 41
0.7071067811865513
 10
1225.664049633915
 20
357.4385125569937
 30
0.0
 41
1.0
 10
1306.092557099851
 20
305.2076290990714
 30
0.0
 41
0.7071067811865511
 10
1253.861673641929
 20
224.7791216331348
 30
0.0
 41
1.0
  0
SPLINE
  5
26C
330
1F
100
AcDbEntity
  8
LINEE VISIBILI 2D
100
AcDbSpline
210
0.0
220
0.0
230
1.0
 70
    12
 71
     2
 72
     8
 73
     5
 74
     0
 42
0.0000000001
 43
0.0000000001
 40
0.0
 40
0.0
 40
0.0
 40
123.022150320653
 40
123.022150320653
 40
246.0443006413052
 40
246.0443006413052
 40
246.0443006413052
 10
1253.861673641929
 20
224.7791216331348
 30
0.0
 41
1.0
 10
1214.859023061765
 20
164.7203065088378
 30
0.0
 41
0.8012538126910613
 10
1146.196094618896
 20
185.0591925172315
 30
0.0
 41
1.0
 10
1077.533166176029
 20
205.3980785256254
 30
0.0
 41
0.8012538126910627
 10
1077.533166176029
 20
277.0100050910573
 30
0.0
 41
1.0
  0
SPLINE
  5
26D
330
1F
100
AcDbEntity
  8
LINEE VISIBILI 2D
100
AcDbSpline
210
0.0
220
0.0
230
1.0
 70
    12
 71
     2
 72
     6
 73
     3
 74
     0
 42
0.0000000001
 43
0.0000000001
 40
0.0
 40
0.0
 40
0.0
 40
55.23443483784483
 40
55.23443483784483
 40
55.23443483784483
 10
1077.533166176029
 20
277.0100050910573
 30
0.0
 41
1.0
 10
1077.533166176028
 20
305.4168792579108
 30
0.0
 41
0.9588197348681899
 10
1093.004658710056
 20
329.2408885489799
 30
0.0
 41
1.0
  0
SPLINE
  5
26E
330
1F
100
AcDbEntity
  8
PREDEFINITO
100
AcDbSpline
210
0.0
220
0.0
230
1.0
 70
    15
 71
     2
 72
    12
 73
     9
 74
     0
 42
0.0000000001
 43
0.0000000001
 40
0.0
 40
0.0
 40
0.0
 40
141.3093007468747
 40
141.3093007468747
 40
282.6186014937494
 40
282.6186014937494
 40
423.9279022406241
 40
423.9279022406241
 40
565.2372029874988
 40
565.2372029874988
 40
565.2372029874988
 10
1180.593956715688
 20
370.3072127032464
 30
0.0
 41
1.0
 10
1087.296749103496
 20
377.4680032429395
 30
0.0
 41
0.7071067811865476
 10
1080.135958563803
 20
284.1707956307469
 30
0.0
 41
1.0
 10
1072.97516802411
 20
190.8735880185543
 30
0.0
 41
0.7071067811865476
 10
1166.272375636302
 20
183.7127974788613
 30
0.0
 41
1.0
 10
1259.569583248495
 20
176.5520069391683
 30
0.0
 41
0.7071067811865476
 10
1266.730373788188
 20
269.8492145513608
 30
0.0
 41
1.0
 10
1273.89116432788
 20
363.1464221635534
 30
0.0
 41
0.7071067811865476
 10
1180.593956715688
 20
370.3072127032464
 30
0.0
 41
1.0
  0
SPLINE
  5
26F
330
1F
100
AcDbEntity
  8
LINEE VISIBILI 2D
100
AcDbSpline
210
0.0
220
0.0
230
1.0
 70
    24
 71
     2
 72
     6
 73
     3
 74
     0
 42
0.0000000001
 43
0.0000000001
 40
-124.3179680927174
 40
-124.3179680927174
 40
-124.3179680927174
 40
0.0
 40
0.0
 40
0.0
 10
128.3180884654951
 20
1101.803181787714
 30
0.0
 10
66.15910387277883
 20
1101.8032564573
 30
0.0
 10
4.000119280062535
 20
1101.803331126887
 30
0.0
  0
SPLINE
  5
270
330
1F
100
AcDbEntity
  8
LINEE VISIBILI 2D
100
AcDbSpline
210
0.0
220
0.0
230
1.0
 70
     8
 71
     3
 72
    25
 73
    21
 74
     0
 42
0.0000000001
 43
0.0000000001
 40
0.0
 40
0.0
 40
0.0
 40
0.0
 40
2.93945188888644
 40
5.931654275109087
 40
6.431829497369056
 40
6.453028290516521
 40
9.667696632322258
 40
17.63547892582415
 40
31.97671417351276
 40
124.6952058000251
 40
162.6566968951164
 40
178.3141953014546
 40
192.5386869689388
 40
250.8697282676343
 40
369.2612513805942
 40
387.5348246057346
 40
398.4594830038922
 40
401.1818462692659
 40
419.2066284530952
 40
465.3462605439419
 40
465.3462605439419
 40
465.3462605439419
 40
465.3462605439419
 10
4.000119280062535
 20
1101.803331126887
 30
0.0
 10
3.019480975877803
 20
1101.797625338253
 30
0.0
 10
1.050347881793327
 20
1102.565784553465
 30
0.0
 10
0.0170735751986248
 20
1104.616920960008
 30
0.0
 10
-0.0021653419326403
 20
1105.792818678231
 30
0.0
 10
0.0455888043794055
 20
1107.03573586758
 30
0.0
 10
0.2303778699137361
 20
1110.767558873394
 30
0.0
 10
0.6741758424447764
 20
1119.26301595276
 30
0.0
 10
3.148105533879028
 20
1157.527171578887
 30
0.0
 10
8.985954908870214
 20
1205.571730633262
 30
0.0
 10
18.20306626026821
 20
1253.482243384736
 30
0.0
 10
23.07719749161814
 20
1275.56647123841
 30
0.0
 10
30.39004716527419
 20
1304.051135761033
 30
0.0
 10
51.38877626524038
 20
1364.292303200853
 30
0.0
 10
85.10362871530617
 20
1420.573812227038
 30
0.0
 10
116.7536350387246
 20
1458.256505341057
 30
0.0
 10
123.8600764153778
 20
1466.175698891123
 30
0.0
 10
131.0473070698303
 20
1473.909141819632
 30
0.0
 10
147.0567988300311
 20
1489.458474589745
 30
0.0
 10
164.6550825013147
 20
1501.852629560046
 30
0.0
 10
178.1504369595214
 20
1509.229811500376
 30
0.0
  0
SPLINE
  5
271
330
1F
100
AcDbEntity
  8
LINEE VISIBILI 2D
100
AcDbSpline
210
0.0
220
0.0
230
1.0
 70
    12
 71
     2
 72
     6
 73
     3
 74
     0
 42
0.0000000001
 43
0.0000000001
 40
0.0
 40
0.0
 40
0.0
 40
1.000706769343569
 40
1.000706769343569
 40
1.000706769343569
 10
178.1504369595214
 20
1509.229811500376
 30
0.0
 41
1.0
 10
178.5990286835277
 20
1509.474451467797
 30
0.0
 41
0.9691429368225722
 10
179.1099914149097
 20
1509.47503081692
 30
0.0
 41
0.9999999999930433
  0
SPLINE
  5
272
330
1F
100
AcDbEntity
  8
LINEE VISIBILI 2D
100
AcDbSpline
210
0.0
220
0.0
230
1.0
 70
    28
 71
     3
 72
    42
 73
    38
 74
     0
 42
0.0000000001
 43
0.0000000001
 40
0.0
 40
0.0
 40
0.0
 40
0.0
 40
1.257507003218404
 40
1.257507003218404
 40
7.926806895820049
 40
7.926806895820049
 40
18.59768672398268
 40
18.59768672398268
 40
31.93628650918597
 40
33.2701464877063
 40
38.60558640178764
 40
39.93944638030798
 40
39.93944638030798
 40
45.27488629438932
 40
49.27646622995032
 40
50.61032620847066
 40
53.27804616551133
 40
57.27962610107235
 40
58.61348607959268
 40
58.61348607959268
 40
61.28120603663335
 40
63.94892599367402
 40
65.28278597219436
 40
67.95050592923502
 40
69.28436590775537
 40
69.28436590775537
 40
71.95208586479606
 40
73.2859458433164
 40
75.95366580035709
 40
82.62296569295879
 40
87.95840560704015
 40
90.62612556408082
 40
91.95998554260115
 40
93.2938455211215
 40
94.62770549964182
 40
95.96156547816216
 40
97.29542545668248
 40
97.29542545668248
 40
97.29542545668248
 40
97.29542545668248
 10
179.1099914149097
 20
1509.47503081692
 30
0.0
 41
1.0
 10
179.1153719318168
 20
1509.47503081692
 30
0.0
 41
1.0
 10
179.1126765648254
 20
1509.47503081692
 30
0.0
 41
1.0
 10
179.1465931309349
 20
1509.47503081692
 30
0.0
 41
1.0
 10
179.2506626649129
 20
1509.47503081692
 30
0.0
 41
1.0
 10
179.7178912466188
 20
1509.47503081692
 30
0.0
 41
1.0
 10
180.1984234314591
 20
1509.47503081692
 30
0.0
 41
1.0
 10
181.7090578782168
 20
1509.47503081692
 30
0.0
 41
1.0
 10
182.9587265093692
 20
1509.47503081692
 30
0.0
 41
1.0
 10
185.1413026687469
 20
1509.47503081692
 30
0.0
 41
1.0
 10
186.0981573721833
 20
1509.47503081692
 30
0.0
 41
1.0
 10
186.9679564276757
 20
1509.47503081692
 30
0.0
 41
1.0
 10
187.8499390827851
 20
1509.47503081692
 30
0.0
 41
1.0
 10
189.1652287875486
 20
1509.47503081692
 30
0.0
 41
1.0
 10
190.8163160616132
 20
1509.47503081692
 30
0.0
 41
1.0
 10
192.1215902739245
 20
1509.47503081692
 30
0.0
 41
1.0
 10
193.4747542232403
 20
1509.47503081692
 30
0.0
 41
1.0
 10
194.9015998984319
 20
1509.47503081692
 30
0.0
 41
1.0
 10
195.8981265868811
 20
1509.47503081692
 30
0.0
 41
1.0
 10
196.6500670855057
 20
1509.47503081692
 30
0.0
 41
1.0
 10
197.6756473065652
 20
1509.47503081692
 30
0.0
 41
1.0
 10
199.0021096467945
 20
1509.47503081692
 30
0.0
 41
1.0
 10
200.3688260269587
 20
1509.47503081692
 30
0.0
 41
1.0
 10
201.4888150653369
 20
1509.47503081692
 30
0.0
 41
1.0
 10
202.3538418808112
 20
1509.47503081692
 30
0.0
 41
1.0
 10
203.2213376556138
 20
1509.47503081692
 30
0.0
 41
1.0
 10
204.1059016069626
 20
1509.47503081692
 30
0.0
 41
1.0
 10
205.6083571060003
 20
1509.47503081692
 30
0.0
 41
1.0
 10
208.0716504780753
 20
1509.47503081692
 30
0.0
 41
1.0
 10
211.6240201984824
 20
1509.47503081692
 30
0.0
 41
1.0
 10
215.3783504130124
 20
1509.47503081692
 30
0.0
 41
1.0
 10
217.8472362348161
 20
1509.47503081692
 30
0.0
 41
1.0
 10
219.2800959866563
 20
1509.47503081692
 30
0.0
 41
1.0
 10
220.3685712332954
 20
1509.47503081692
 30
0.0
 41
1.0
 10
221.46167260633
 20
1509.47503081692
 30
0.0
 41
1.0
 10
222.568201354326
 20
1509.47503081692
 30
0.0
 41
1.0
 10
223.3169401850973
 20
1509.47503081692
 30
0.0
 41
1.0
 10
223.6898298869796
 20
1509.47503081692
 30
0.0
 41
1.0
  0
SPLINE
  5
273
330
1F
100
AcDbEntity
  8
LINEE VISIBILI 2D
100
AcDbSpline
210
0.0
220
0.0
230
1.0
 70
    24
 71
     3
 72
     8
 73
     4
 74
     0
 42
0.0000000001
 43
0.0000000001
 40
0.0
 40
0.0
 40
0.0
 40
0.0
 40
151.2201615275776
 40
151.2201615275776
 40
151.2201615275776
 40
151.2201615275776
 10
223.6898298869796
 20
1509.47503081692
 30
0.0
 10
274.0965503961724
 20
1509.475030816921
 30
0.0
 10
324.5032709053656
 20
1509.475030816922
 30
0.0
 10
374.9099914147271
 20
1509.47503081692
 30
0.0
  0
SPLINE
  5
274
330
1F
100
AcDbEntity
  8
LINEE VISIBILI 2D
100
AcDbSpline
210
0.0
220
0.0
230
1.0
 70
    12
 71
     2
 72
     6
 73
     3
 74
     0
 42
0.0000000001
 43
0.0000000001
 40
0.0
 40
0.0
 40
0.0
 40
1.000685883818911
 40
1.000685883818911
 40
1.000685883818911
 10
374.9099914147271
 20
1509.47503081692
 30
0.0
 41
1.0
 10
375.4209214509277
 20
1509.474323529285
 30
0.0
 41
0.9692046484584407
 10
375.8695458703405
 20
1509.229811500376
 30
0.0
 41
0.999999999999903
  0
SPLINE
  5
275
330
1F
100
AcDbEntity
  8
LINEE VISIBILI 2D
100
AcDbSpline
210
0.0
220
0.0
230
1.0
 70
     8
 71
     3
 72
    24
 73
    20
 74
     0
 42
0.0000000001
 43
0.0000000001
 40
0.0
 40
0.0
 40
0.0
 40
0.0
 40
45.54568728976387
 40
64.28298647148317
 40
66.17849867150842
 40
78.28380249095902
 40
95.84804238700474
 40
214.4761047399936
 40
272.3344447589804
 40
286.0846661237636
 40
301.2642041181776
 40
339.6994173601487
 40
433.6367873828117
 40
447.9046529396992
 40
456.2864555768505
 40
458.9253069231105
 40
459.4164110453552
 40
462.377822700432
 40
465.3459054054121
 40
465.3459054054121
 40
465.3459054054121
 40
465.3459054054121
 10
375.8695458703405
 20
1509.229811500376
 30
0.0
 10
389.1910483089277
 20
1501.947392587599
 30
0.0
 10
406.8375294407121
 20
1489.558765071562
 30
0.0
 10
422.6960037617698
 20
1474.190347688383
 30
0.0
 10
430.1362485574638
 20
1466.207412949917
 30
0.0
 10
437.1652389592986
 20
1458.376768842622
 30
0.0
 10
468.9514182546002
 20
1420.503499388418
 30
0.0
 10
502.5294041615788
 20
1364.506590877238
 30
0.0
 10
523.4718617842666
 20
1304.49857121042
 30
0.0
 10
530.7227106070517
 20
1276.489927947677
 30
0.0
 10
535.593982846655
 20
1254.567183542552
 30
0.0
 10
544.9506758848256
 20
1206.27268728004
 30
0.0
 10
550.8677693633318
 20
1157.689588779937
 30
0.0
 10
553.3668496977499
 20
1118.907624164277
 30
0.0
 10
553.8042749455444
 20
1110.489161089308
 30
0.0
 10
554.0204182935486
 20
1106.658796612503
 30
0.0
 10
554.0052757355653
 20
1104.623046741305
 30
0.0
 10
552.9780826552322
 20
1102.57428136292
 30
0.0
 10
551.0104522704935
 20
1101.797518310366
 30
0.0
 10
550.0199914120199
 20
1101.803181787712
 30
0.0
  0
SPLINE
  5
276
330
1F
100
AcDbEntity
  8
LINEE VISIBILI 2D
100
AcDbSpline
210
0.0
220
0.0
230
1.0
 70
    24
 71
     3
 72
     8
 73
     4
 74
     0
 42
0.0000000001
 43
0.0000000001
 40
0.0
 40
0.0
 40
0.0
 40
0.0
 40
421.7019029465287
 40
421.7019029465287
 40
421.7019029465287
 40
421.7019029465287
 10
550.0199914120199
 20
1101.803181787712
 30
0.0
 10
409.4526904298435
 20
1101.803181787717
 30
0.0
 10
268.8853894476683
 20
1101.803181787716
 30
0.0
 10
128.3180884654951
 20
1101.803181787714
 30
0.0
  0
SPLINE
  5
277
330
1F
100
AcDbEntity
  8
LINEE VISIBILI 2D
100
AcDbSpline
210
0.0
220
0.0
230
1.0
 70
    24
 71
     2
 72
     6
 73
     3
 74
     0
 42
0.0000000001
 43
0.0000000001
 40
-501.9753227973862
 40
-501.9753227973862
 40
-501.9753227973862
 40
0.0
 40
0.0
 40
0.0
 10
1402.398610945932
 20
1101.803181787716
 30
0.0
 10
1151.410949000869
 20
1101.803256457306
 30
0.0
 10
900.4232870558062
 20
1101.803331126896
 30
0.0
  0
SPLINE
  5
278
330
1F
100
AcDbEntity
  8
LINEE VISIBILI 2D
100
AcDbSpline
210
0.0
220
0.0
230
1.0
 70
     8
 71
     3
 72
    25
 73
    21
 74
     0
 42
0.0000000001
 43
0.0000000001
 40
0.0
 40
0.0
 40
0.0
 40
0.0
 40
2.939451888357806
 40
5.931654274579099
 40
6.431829496839219
 40
6.453028289986912
 40
9.667696631791308
 40
17.63547892529209
 40
31.97671417298253
 40
124.6952057994956
 40
162.6566968945871
 40
178.3141953009255
 40
192.53868696841
 40
250.8697282671054
 40
369.2612513800663
 40
387.5348246052065
 40
398.4594830033639
 40
401.1818462687374
 40
419.2066284525669
 40
465.3462605434127
 40
465.3462605434127
 40
465.3462605434127
 40
465.3462605434127
 10
900.4232870558062
 20
1101.803331126896
 30
0.0
 10
899.4426487518048
 20
1101.797625338379
 30
0.0
 10
897.4735156580062
 20
1102.565784553651
 30
0.0
 10
896.4402413514696
 20
1104.616920960001
 30
0.0
 10
896.421002434353
 20
1105.792818678231
 30
0.0
 10
896.468756580661
 20
1107.03573586758
 30
0.0
 10
896.6535456462013
 20
1110.767558873392
 30
0.0
 10
897.0973436187279
 20
1119.263015952758
 30
0.0
 10
899.571273310162
 20
1157.527171578883
 30
0.0
 10
905.4091226851544
 20
1205.571730633265
 30
0.0
 10
914.6262340365522
 20
1253.482243384736
 30
0.0
 10
919.5003652679004
 20
1275.56647123841
 30
0.0
 10
926.8132149415569
 20
1304.05113576103
 30
0.0
 10
947.8119440415235
 20
1364.29230320086
 30
0.0
 10
981.5267964915869
 20
1420.573812227035
 30
0.0
 10
1013.176802815008
 20
1458.25650534106
 30
0.0
 10
1020.283244191659
 20
1466.175698891122
 30
0.0
 10
1027.470474846112
 20
1473.909141819633
 30
0.0
 10
1043.479966606312
 20
1489.458474589749
 30
0.0
 10
1061.078250277596
 20
1501.852629560046
 30
0.0
 10
1074.573604735801
 20
1509.229811500378
 30
0.0
  0
SPLINE
  5
279
330
1F
100
AcDbEntity
  8
LINEE VISIBILI 2D
100
AcDbSpline
210
0.0
220
0.0
230
1.0
 70
    12
 71
     2
 72
     6
 73
     3
 74
     0
 42
0.0000000001
 43
0.0000000001
 40
0.0
 40
0.0
 40
0.0
 40
1.000706768984457
 40
1.000706768984457
 40
1.000706768984457
 10
1074.573604735801
 20
1509.229811500378
 30
0.0
 41
0.9999999999999141
 10
1075.022196459708
 20
1509.474451467688
 30
0.0
 41
0.9691429368646574
 10
1075.533159191098
 20
1509.475030816921
 30
0.0
 41
1.0
  0
SPLINE
  5
27A
330
1F
100
AcDbEntity
  8
LINEE VISIBILI 2D
100
AcDbSpline
210
0.0
220
0.0
230
1.0
 70
    24
 71
     2
 72
     6
 73
     3
 74
     0
 42
0.0000000001
 43
0.0000000001
 40
0.0
 40
0.0
 40
0.0
 40
180.005848601792
 40
180.005848601792
 40
180.005848601792
 10
1075.533159191098
 20
1509.475030816921
 30
0.0
 10
1165.536083492068
 20
1509.475030816922
 30
0.0
 10
1255.539007793039
 20
1509.475030816923
 30
0.0
  0
SPLINE
  5
27B
330
1F
100
AcDbEntity
  8
LINEE VISIBILI 2D
100
AcDbSpline
210
0.0
220
0.0
230
1.0
 70
    24
 71
     2
 72
     6
 73
     3
 74
     0
 42
0.0000000001
 43
0.0000000001
 40
-15.79415139798743
 40
-15.79415139798743
 40
-15.79415139798743
 40
0.0
 40
0.0
 40
0.0
 10
1255.539007793039
 20
1509.475030816923
 30
0.0
 10
1263.43608349207
 20
1509.475030816923
 30
0.0
 10
1271.333159191101
 20
1509.475030816923
 30
0.0
  0
SPLINE
  5
27C
330
1F
100
AcDbEntity
  8
LINEE VISIBILI 2D
100
AcDbSpline
210
0.0
220
0.0
230
1.0
 70
    12
 71
     2
 72
     6
 73
     3
 74
     0
 42
0.0000000001
 43
0.0000000001
 40
0.0
 40
0.0
 40
0.0
 40
1.000685883823063
 40
1.000685883823063
 40
1.000685883823063
 10
1271.333159191101
 20
1509.475030816923
 30
0.0
 41
1.0
 10
1271.844089227213
 20
1509.474323529311
 30
0.0
 41
0.9692046484474094
 10
1272.292713646621
 20
1509.229811500379
 30
0.0
 41
1.0
  0
SPLINE
  5
27D
330
1F
100
AcDbEntity
  8
LINEE VISIBILI 2D
100
AcDbSpline
210
0.0
220
0.0
230
1.0
 70
     8
 71
     3
 72
    24
 73
    20
 74
     0
 42
0.0000000001
 43
0.0000000001
 40
0.0
 40
0.0
 40
0.0
 40
0.0
 40
45.54568728976513
 40
64.28298647148475
 40
66.17849867150997
 40
78.28380249096047
 40
95.84804238700622
 40
214.4761047399944
 40
272.3344447589809
 40
286.0846661237645
 40
301.2642041181787
 40
339.6994173601499
 40
433.6367873828123
 40
447.9046529396996
 40
456.2864555768506
 40
458.9253069231108
 40
459.4164110453564
 40
462.3778227004279
 40
465.3459054031381
 40
465.3459054031381
 40
465.3459054031381
 40
465.3459054031381
 10
1272.292713646621
 20
1509.229811500379
 30
0.0
 10
1285.614216085207
 20
1501.947392587601
 30
0.0
 10
1303.260697216994
 20
1489.558765071566
 30
0.0
 10
1319.119171538052
 20
1474.190347688387
 30
0.0
 10
1326.559416333746
 20
1466.207412949921
 30
0.0
 10
1333.588406735577
 20
1458.376768842624
 30
0.0
 10
1365.374586030886
 20
1420.503499388423
 30
0.0
 10
1398.952571937858
 20
1364.50659087724
 30
0.0
 10
1419.89502956055
 20
1304.498571210425
 30
0.0
 10
1427.145878383335
 20
1276.489927947681
 30
0.0
 10
1432.017150622938
 20
1254.567183542555
 30
0.0
 10
1441.373843661112
 20
1206.272687280046
 30
0.0
 10
1447.290937139615
 20
1157.689588779941
 30
0.0
 10
1449.790017474033
 20
1118.90762416428
 30
0.0
 10
1450.227442721831
 20
1110.489161089313
 30
0.0
 10
1450.44358606983
 20
1106.658796612511
 30
0.0
 10
1450.428443511853
 20
1104.623046741303
 30
0.0
 10
1449.401250431876
 20
1102.574281363666
 30
0.0
 10
1447.433620048286
 20
1101.797518310957
 30
0.0
 10
1446.44315919057
 20
1101.803181787716
 30
0.0
  0
SPLINE
  5
27E
330
1F
100
AcDbEntity
  8
LINEE VISIBILI 2D
100
AcDbSpline
210
0.0
220
0.0
230
1.0
 70
    24
 71
     2
 72
     6
 73
     3
 74
     0
 42
0.0000000001
 43
0.0000000001
 40
0.0
 40
0.0
 40
0.0
 40
44.04454824460299
 40
44.04454824460299
 40
44.04454824460299
 10
1446.44315919057
 20
1101.803181787716
 30
0.0
 10
1424.420885068251
 20
1101.803181787716
 30
0.0
 10
1402.398610945932
 20
1101.803181787716
 30
0.0
  0
SPLINE
  5
27F
330
1F
100
AcDbEntity
  8
LINEE VISIBILI 2D
100
AcDbSpline
210
0.0
220
0.0
230
1.0
 70
    15
 71
     2
 72
    12
 73
     9
 74
     0
 42
0.0000000001
 43
0.0000000001
 40
0.0
 40
0.0
 40
0.0
 40
435.1262941171535
 40
435.1262941171535
 40
870.252588234307
 40
870.252588234307
 40
1305.378882351461
 40
1305.378882351461
 40
1740.505176468614
 40
1740.505176468614
 40
1740.505176468614
 10
1405.753300202535
 20
126.1395460015569
 30
0.0
 41
1.0
 10
1254.882755883551
 20
-106.1805354330752
 30
0.0
 41
0.7071067811865476
 10
1022.562674448919
 20
44.6900088859087
 30
0.0
 41
1.0
 10
790.2425930142866
 20
195.5605532048926
 30
0.0
 41
0.7071067811865476
 10
941.1131373332705
 20
427.8806346395248
 30
0.0
 41
1.0
 10
1091.983681652254
 20
660.2007160741571
 30
0.0
 41
0.7071067811865476
 10
1324.303763086887
 20
509.3301717551731
 30
0.0
 41
1.0
 10
1556.623844521519
 20
358.4596274361892
 30
0.0
 41
0.7071067811865476
 10
1405.753300202535
 20
126.139546001557
 30
0.0
 41
1.0
  0
SPLINE
  5
280
330
1F
100
AcDbEntity
  8
LINEE VISIBILI 2D
100
AcDbSpline
210
0.0
220
0.0
230
1.0
 70
    15
 71
     2
 72
    12
 73
     9
 74
     0
 42
0.0000000001
 43
0.0000000001
 40
0.0
 40
0.0
 40
0.0
 40
102.8031135265764
 40
102.8031135265764
 40
205.6062270531532
 40
205.6062270531532
 40
308.4093405797298
 40
308.4093405797298
 40
411.212454106307
 40
411.212454106307
 40
411.212454106307
 10
1233.178905394257
 20
250.2950220671964
 30
0.0
 41
1.0
 10
1259.893888418114
 20
310.0407612854577
 30
0.0
 41
0.7071067811865456
 10
1200.148149199853
 20
336.7557443093152
 30
0.0
 41
1.0
 10
1140.402409981592
 20
363.4707273331728
 30
0.0
 41
0.7071067811865479
 10
1113.687426957734
 20
303.7249881149114
 30
0.0
 41
1.0
 10
1086.972443933876
 20
243.9792488966502
 30
0.0
 41
0.7071067811865496
 10
1146.718183152137
 20
217.2642658727924
 30
0.0
 41
1.0
 10
1206.463922370399
 20
190.5492828489345
 30
0.0
 41
0.7071067811865457
 10
1233.178905394257
 20
250.2950220671964
 30
0.0
 41
1.0
  0
ENDSEC
  0
SECTION
  2
OBJECTS
  0
DICTIONARY
  5
C
330
0
100
AcDbDictionary
281
     1
  3
ACAD_GROUP
350
D
  3
ACAD_LAYOUT
350
1A
  3
ACAD_MLEADERSTYLE
350
282
  3
ACAD_MLINESTYLE
350
17
  3
ACAD_PLOTSETTINGS
350
19
  3
ACAD_PLOTSTYLENAME
350
E
  3
ACAD_SCALELIST
350
3B
  3
ACAD_TABLESTYLE
350
281
  3
ACAD_VISUALSTYLE
350
2A
  0
DICTIONARY
  5
D
102
{ACAD_REACTORS
330
C
102
}
330
C
100
AcDbDictionary
281
     1
  0
DICTIONARY
  5
1A
102
{ACAD_REACTORS
330
C
102
}
330
C
100
AcDbDictionary
281
     1
  3
Layout1
350
1E
  3
Layout2
350
26
  3
Model
350
22
  0
DICTIONARY
  5
282
102
{ACAD_REACTORS
330
C
102
}
330
C
100
AcDbDictionary
281
     1
  0
DICTIONARY
  5
17
102
{ACAD_REACTORS
330
C
102
}
330
C
100
AcDbDictionary
281
     1
  3
Standard
350
18
  0
DICTIONARY
  5
19
102
{ACAD_REACTORS
330
C
102
}
330
C
100
AcDbDictionary
281
     1
  0
ACDBDICTIONARYWDFLT
  5
E
102
{ACAD_REACTORS
330
C
102
}
330
C
100
AcDbDictionary
281
     1
  3
Normal
350
F
100
AcDbDictionaryWithDefault
340
F
  0
DICTIONARY
  5
3B
102
{ACAD_REACTORS
330
C
102
}
330
C
100
AcDbDictionary
281
     1
  3
A0
350
3C
  3
A1
350
3D
  3
A2
350
3E
  3
A3
350
3F
  3
A4
350
40
  3
A5
350
41
  3
A6
350
42
  3
A7
350
43
  3
A8
350
44
  3
A9
350
45
  3
B0
350
46
  3
B1
350
47
  3
B2
350
48
  3
B3
350
49
  3
B4
350
4A
  3
B5
350
4B
  3
B6
350
4C
  3
B7
350
4D
  3
B8
350
4E
  3
B9
350
4F
  3
C0
350
50
  3
C1
350
51
  3
C2
350
52
  3
C3
350
53
  3
C4
350
54
  3
C5
350
55
  3
C6
350
56
  3
C7
350
57
  3
C8
350
58
  3
C9
350
59
  3
D0
350
5A
  3
D1
350
5B
  3
D2
350
5C
  0
DICTIONARY
  5
281
102
{ACAD_REACTORS
330
C
102
}
330
C
100
AcDbDictionary
281
     1
  0
DICTIONARY
  5
2A
102
{ACAD_REACTORS
330
C
102
}
330
C
100
AcDbDictionary
281
     1
  3
2dWireframe
350
2F
  3
3D Hidden
350
31
  3
3dWireframe
350
30
  3
Basic
350
32
  3
Brighten
350
36
  3
ColorChange
350
3A
  3
Conceptual
350
34
  3
Dim
350
35
  3
Facepattern
350
39
  3
Flat
350
2B
  3
FlatWithEdges
350
2C
  3
Gouraud
350
2D
  3
GouraudWithEdges
350
2E
  3
Linepattern
350
38
  3
Realistic
350
33
  3
Thicken
350
37
  0
LAYOUT
  5
1E
102
{ACAD_REACTORS
330
1A
102
}
330
1A
100
AcDbPlotSettings
  1

  2
none_device
  4

  6

 40
0.0
 41
0.0
 42
0.0
 43
0.0
 44
0.0
 45
0.0
 46
0.0
 47
0.0
 48
0.0
 49
0.0
140
0.0
141
0.0
142
1.0
143
1.0
 70
   688
 72
     0
 73
     0
 74
     5
  7

 75
    16
 76
     0
 77
     2
 78
   300
147
1.0
148
0.0
149
0.0
100
AcDbLayout
  1
Layout1
 70
     1
 71
     1
 10
0.0
 20
0.0
 11
12.0
 21
9.0
 12
0.0
 22
0.0
 32
0.0
 14
1.000000000000000E+20
 24
1.000000000000000E+20
 34
1.000000000000000E+20
 15
-1.000000000000000E+20
 25
-1.000000000000000E+20
 35
-1.000000000000000E+20
146
0.0
 13
0.0
 23
0.0
 33
0.0
 16
1.0
 26
0.0
 36
0.0
 17
0.0
 27
1.0
 37
0.0
 76
     0
330
1B
  0
LAYOUT
  5
26
102
{ACAD_REACTORS
330
1A
102
}
330
1A
100
AcDbPlotSettings
  1

  2
none_device
  4

  6

 40
0.0
 41
0.0
 42
0.0
 43
0.0
 44
0.0
 45
0.0
 46
0.0
 47
0.0
 48
0.0
 49
0.0
140
0.0
141
0.0
142
1.0
143
1.0
 70
   688
 72
     0
 73
     0
 74
     5
  7

 75
    16
 76
     0
 77
     2
 78
   300
147
1.0
148
0.0
149
0.0
100
AcDbLayout
  1
Layout2
 70
     1
 71
     2
 10
0.0
 20
0.0
 11
0.0
 21
0.0
 12
0.0
 22
0.0
 32
0.0
 14
0.0
 24
0.0
 34
0.0
 15
0.0
 25
0.0
 35
0.0
146
0.0
 13
0.0
 23
0.0
 33
0.0
 16
1.0
 26
0.0
 36
0.0
 17
0.0
 27
1.0
 37
0.0
 76
     0
330
23
  0
LAYOUT
  5
22
102
{ACAD_REACTORS
330
1A
102
}
330
1A
100
AcDbPlotSettings
  1

  2
none_device
  4

  6

 40
0.0
 41
0.0
 42
0.0
 43
0.0
 44
0.0
 45
0.0
 46
0.0
 47
0.0
 48
0.0
 49
0.0
140
0.0
141
0.0
142
1.0
143
1.0
 70
  1712
 72
     0
 73
     0
 74
     0
  7

 75
     0
 76
     0
 77
     2
 78
   300
147
1.0
148
0.0
149
0.0
100
AcDbLayout
  1
Model
 70
     1
 71
     0
 10
0.0
 20
0.0
 11
12.0
 21
9.0
 12
0.0
 22
0.0
 32
0.0
 14
0.0039726783789966
 24
0.0013916439287793
 34
0.0
 15
1450.441917444514
 25
1861.203181787732
 35
0.0
146
0.0
 13
0.0
 23
0.0
 33
0.0
 16
1.0
 26
0.0
 36
0.0
 17
0.0
 27
1.0
 37
0.0
 76
     0
330
1F
331
29
  0
MLINESTYLE
  5
18
102
{ACAD_REACTORS
330
17
102
}
330
17
100
AcDbMlineStyle
  2
Standard
 70
     0
  3

 62
   256
 51
90.0
 52
90.0
 71
     2
 49
0.5
 62
   256
  6
BYLAYER
 49
-0.5
 62
   256
  6
BYLAYER
  0
ACDBPLACEHOLDER
  5
F
102
{ACAD_REACTORS
330
E
102
}
330
E
  0
SCALE
  5
3C
102
{ACAD_REACTORS
330
3B
102
}
330
3B
100
AcDbScale
 70
     0
300
1:1
140
1.0
141
1.0
290
     1
  0
SCALE
  5
3D
102
{ACAD_REACTORS
330
3B
102
}
330
3B
100
AcDbScale
 70
     0
300
1:2
140
1.0
141
2.0
290
     0
  0
SCALE
  5
3E
102
{ACAD_REACTORS
330
3B
102
}
330
3B
100
AcDbScale
 70
     0
300
1:4
140
1.0
141
4.0
290
     0
  0
SCALE
  5
3F
102
{ACAD_REACTORS
330
3B
102
}
330
3B
100
AcDbScale
 70
     0
300
1:5
140
1.0
141
5.0
290
     0
  0
SCALE
  5
40
102
{ACAD_REACTORS
330
3B
102
}
330
3B
100
AcDbScale
 70
     0
300
1:8
140
1.0
141
8.0
290
     0
  0
SCALE
  5
41
102
{ACAD_REACTORS
330
3B
102
}
330
3B
100
AcDbScale
 70
     0
300
1:10
140
1.0
141
10.0
290
     0
  0
SCALE
  5
42
102
{ACAD_REACTORS
330
3B
102
}
330
3B
100
AcDbScale
 70
     0
300
1:16
140
1.0
141
16.0
290
     0
  0
SCALE
  5
43
102
{ACAD_REACTORS
330
3B
102
}
330
3B
100
AcDbScale
 70
     0
300
1:20
140
1.0
141
20.0
290
     0
  0
SCALE
  5
44
102
{ACAD_REACTORS
330
3B
102
}
330
3B
100
AcDbScale
 70
     0
300
1:30
140
1.0
141
30.0
290
     0
  0
SCALE
  5
45
102
{ACAD_REACTORS
330
3B
102
}
330
3B
100
AcDbScale
 70
     0
300
1:40
140
1.0
141
40.0
290
     0
  0
SCALE
  5
46
102
{ACAD_REACTORS
330
3B
102
}
330
3B
100
AcDbScale
 70
     0
300
1:50
140
1.0
141
50.0
290
     0
  0
SCALE
  5
47
102
{ACAD_REACTORS
330
3B
102
}
330
3B
100
AcDbScale
 70
     0
300
1:100
140
1.0
141
100.0
290
     0
  0
SCALE
  5
48
102
{ACAD_REACTORS
330
3B
102
}
330
3B
100
AcDbScale
 70
     0
300
2:1
140
2.0
141
1.0
290
     0
  0
SCALE
  5
49
102
{ACAD_REACTORS
330
3B
102
}
330
3B
100
AcDbScale
 70
     0
300
4:1
140
4.0
141
1.0
290
     0
  0
SCALE
  5
4A
102
{ACAD_REACTORS
330
3B
102
}
330
3B
100
AcDbScale
 70
     0
300
8:1
140
8.0
141
1.0
290
     0
  0
SCALE
  5
4B
102
{ACAD_REACTORS
330
3B
102
}
330
3B
100
AcDbScale
 70
     0
300
10:1
140
10.0
141
1.0
290
     0
  0
SCALE
  5
4C
102
{ACAD_REACTORS
330
3B
102
}
330
3B
100
AcDbScale
 70
     0
300
100:1
140
100.0
141
1.0
290
     0
  0
SCALE
  5
4D
102
{ACAD_REACTORS
330
3B
102
}
330
3B
100
AcDbScale
 70
     0
300
1/128" = 1'-0"
140
0.0078125
141
12.0
290
     0
  0
SCALE
  5
4E
102
{ACAD_REACTORS
330
3B
102
}
330
3B
100
AcDbScale
 70
     0
300
1/64" = 1'-0"
140
0.015625
141
12.0
290
     0
  0
SCALE
  5
4F
102
{ACAD_REACTORS
330
3B
102
}
330
3B
100
AcDbScale
 70
     0
300
1/32" = 1'-0"
140
0.03125
141
12.0
290
     0
  0
SCALE
  5
50
102
{ACAD_REACTORS
330
3B
102
}
330
3B
100
AcDbScale
 70
     0
300
1/16" = 1'-0"
140
0.0625
141
12.0
290
     0
  0
SCALE
  5
51
102
{ACAD_REACTORS
330
3B
102
}
330
3B
100
AcDbScale
 70
     0
300
3/32" = 1'-0"
140
0.09375
141
12.0
290
     0
  0
SCALE
  5
52
102
{ACAD_REACTORS
330
3B
102
}
330
3B
100
AcDbScale
 70
     0
300
1/8" = 1'-0"
140
0.125
141
12.0
290
     0
  0
SCALE
  5
53
102
{ACAD_REACTORS
330
3B
102
}
330
3B
100
AcDbScale
 70
     0
300
3/16" = 1'-0"
140
0.1875
141
12.0
290
     0
  0
SCALE
  5
54
102
{ACAD_REACTORS
330
3B
102
}
330
3B
100
AcDbScale
 70
     0
300
1/4" = 1'-0"
140
0.25
141
12.0
290
     0
  0
SCALE
  5
55
102
{ACAD_REACTORS
330
3B
102
}
330
3B
100
AcDbScale
 70
     0
300
3/8" = 1'-0"
140
0.375
141
12.0
290
     0
  0
SCALE
  5
56
102
{ACAD_REACTORS
330
3B
102
}
330
3B
100
AcDbScale
 70
     0
300
1/2" = 1'-0"
140
0.5
141
12.0
290
     0
  0
SCALE
  5
57
102
{ACAD_REACTORS
330
3B
102
}
330
3B
100
AcDbScale
 70
     0
300
3/4" = 1'-0"
140
0.75
141
12.0
290
     0
  0
SCALE
  5
58
102
{ACAD_REACTORS
330
3B
102
}
330
3B
100
AcDbScale
 70
     0
300
1" = 1'-0"
140
1.0
141
12.0
290
     0
  0
SCALE
  5
59
102
{ACAD_REACTORS
330
3B
102
}
330
3B
100
AcDbScale
 70
     0
300
1-1/2" = 1'-0"
140
1.5
141
12.0
290
     0
  0
SCALE
  5
5A
102
{ACAD_REACTORS
330
3B
102
}
330
3B
100
AcDbScale
 70
     0
300
3" = 1'-0"
140
3.0
141
12.0
290
     0
  0
SCALE
  5
5B
102
{ACAD_REACTORS
330
3B
102
}
330
3B
100
AcDbScale
 70
     0
300
6" = 1'-0"
140
6.0
141
12.0
290
     0
  0
SCALE
  5
5C
102
{ACAD_REACTORS
330
3B
102
}
330
3B
100
AcDbScale
 70
     0
300
1'-0" = 1'-0"
140
12.0
141
12.0
290
     0
  0
VISUALSTYLE
  5
2F
102
{ACAD_REACTORS
330
2A
102
}
330
2A
100
AcDbVisualStyle
  2
2dWireframe
 70
     4
 71
     0
 72
     2
 73
     0
 90
        0
 40
-0.6
 41
-30.0
 62
     5
 63
     7
421
 16777215
 74
     1
 91
        4
 64
     7
 65
   257
 75
     1
175
     1
 42
1.0
 92
        0
 66
   257
 43
1.0
 76
     1
 77
     6
 78
     2
 67
     7
 79
     5
170
     0
171
     0
290
     0
174
     0
 93
        1
 44
0.0
173
     0
291
     0
 45
0.0
1001
ACAD
1000
AcDbSavedByObjectVersion
1070
     0
  0
VISUALSTYLE
  5
31
102
{ACAD_REACTORS
330
2A
102
}
330
2A
100
AcDbVisualStyle
  2
3D Hidden
 70
     6
 71
     1
 72
     2
 73
     2
 90
        0
 40
-0.6
 41
-30.0
 62
     5
 63
     7
421
 16777215
 74
     2
 91
        2
 64
     7
 65
   257
 75
     2
175
     1
 42
40.0
 92
        0
 66
   257
 43
1.0
 76
     1
 77
     6
 78
     2
 67
     7
 79
     3
170
     0
171
     0
290
     0
174
     0
 93
        1
 44
0.0
173
     0
291
     0
 45
0.0
1001
ACAD
1000
AcDbSavedByObjectVersion
1070
     0
  0
VISUALSTYLE
  5
30
102
{ACAD_REACTORS
330
2A
102
}
330
2A
100
AcDbVisualStyle
  2
3dWireframe
 70
     5
 71
     0
 72
     2
 73
     0
 90
        0
 40
-0.6
 41
-30.0
 62
     5
 63
     7
421
 16777215
 74
     1
 91
        4
 64
     7
 65
   257
 75
     1
175
     1
 42
1.0
 92
        0
 66
   257
 43
1.0
 76
     1
 77
     6
 78
     2
 67
     7
 79
     5
170
     0
171
     0
290
     0
174
     0
 93
        1
 44
0.0
173
     0
291
     0
 45
0.0
1001
ACAD
1000
AcDbSavedByObjectVersion
1070
     0
  0
VISUALSTYLE
  5
32
102
{ACAD_REACTORS
330
2A
102
}
330
2A
100
AcDbVisualStyle
  2
Basic
 70
     7
 71
     1
 72
     0
 73
     1
 90
        0
 40
-0.6
 41
-30.0
 62
     5
 63
     7
421
 16777215
 74
     0
 91
        4
 64
     7
 65
   257
 75
     1
175
     1
 42
1.0
 92
        8
 66
     7
 43
1.0
 76
     1
 77
     6
 78
     2
 67
     7
 79
     5
170
     0
171
     0
290
     0
174
     0
 93
        1
 44
0.0
173
     0
291
     1
 45
0.0
1001
ACAD
1000
AcDbSavedByObjectVersion
1070
     0
  0
VISUALSTYLE
  5
36
102
{ACAD_REACTORS
330
2A
102
}
330
2A
100
AcDbVisualStyle
  2
Brighten
 70
    12
 71
     2
 72
     2
 73
     0
 90
        0
 40
-0.6
 41
-30.0
 62
     5
 63
     7
421
 16777215
 74
     1
 91
        4
 64
     7
 65
   257
 75
     1
175
     1
 42
1.0
 92
        8
 66
     7
 43
1.0
 76
     1
 77
     6
 78
     2
 67
     7
 79
     5
170
     0
171
     0
290
     0
174
     0
 93
        1
 44
50.0
173
     0
291
     1
 45
0.0
1001
ACAD
1000
AcDbSavedByObjectVersion
1070
     0
  0
VISUALSTYLE
  5
3A
102
{ACAD_REACTORS
330
2A
102
}
330
2A
100
AcDbVisualStyle
  2
ColorChange
 70
    16
 71
     2
 72
     2
 73
     3
 90
        0
 40
-0.6
 41
-30.0
 62
     5
 63
     8
421
  8421504
 74
     1
 91
        4
 64
     7
 65
   257
 75
     1
175
     1
 42
1.0
 92
        8
 66
     8
424
  8421504
 43
1.0
 76
     1
 77
     6
 78
     2
 67
     7
 79
     5
170
     0
171
     0
290
     0
174
     0
 93
        1
 44
0.0
173
     0
291
     1
 45
0.0
1001
ACAD
1000
AcDbSavedByObjectVersion
1070
     0
  0
VISUALSTYLE
  5
34
102
{ACAD_REACTORS
330
2A
102
}
330
2A
100
AcDbVisualStyle
  2
Conceptual
 70
     9
 71
     3
 72
     2
 73
     0
 90
        0
 40
-0.6
 41
-30.0
 62
     5
 63
     7
421
 16777215
 74
     2
 91
        2
 64
     7
 65
   257
 75
     1
175
     1
 42
40.0
 92
        8
 66
     7
 43
1.0
 76
     1
 77
     6
 78
     2
 67
     7
 79
     3
170
     0
171
     0
290
     0
174
     0
 93
        1
 44
0.0
173
     0
291
     0
 45
0.0
1001
ACAD
1000
AcDbSavedByObjectVersion
1070
     0
  0
VISUALSTYLE
  5
35
102
{ACAD_REACTORS
330
2A
102
}
330
2A
100
AcDbVisualStyle
  2
Dim
 70
    11
 71
     2
 72
     2
 73
     0
 90
        0
 40
-0.6
 41
-30.0
 62
     5
 63
     7
421
 16777215
 74
     1
 91
        4
 64
     7
 65
   257
 75
     1
175
     1
 42
1.0
 92
        8
 66
     7
 43
1.0
 76
     1
 77
     6
 78
     2
 67
     7
 79
     5
170
     0
171
     0
290
     0
174
     0
 93
        1
 44
-50.0
173
     0
291
     1
 45
0.0
1001
ACAD
1000
AcDbSavedByObjectVersion
1070
     0
  0
VISUALSTYLE
  5
39
102
{ACAD_REACTORS
330
2A
102
}
330
2A
100
AcDbVisualStyle
  2
Facepattern
 70
    15
 71
     2
 72
     2
 73
     0
 90
        0
 40
-0.6
 41
-30.0
 62
     5
 63
     7
421
 16777215
 74
     1
 91
        4
 64
     7
 65
   257
 75
     1
175
     1
 42
1.0
 92
        8
 66
     7
 43
1.0
 76
     1
 77
     6
 78
     2
 67
     7
 79
     5
170
     0
171
     0
290
     0
174
     0
 93
        1
 44
0.0
173
     0
291
     1
 45
0.0
1001
ACAD
1000
AcDbSavedByObjectVersion
1070
     0
  0
VISUALSTYLE
  5
2B
102
{ACAD_REACTORS
330
2A
102
}
330
2A
100
AcDbVisualStyle
  2
Flat
 70
     0
 71
     2
 72
     1
 73
     1
 90
        2
 40
-0.6
 41
30.0
 62
     5
 63
     7
421
 16777215
 74
     0
 91
        4
 64
     7
 65
   257
 75
     1
175
     1
 42
1.0
 92
        8
 66
     7
 43
1.0
 76
     1
 77
     6
 78
     2
 67
     7
 79
     5
170
     0
171
     0
290
     0
174
     0
 93
       13
 44
0.0
173
     0
291
     1
 45
0.0
1001
ACAD
1000
AcDbSavedByObjectVersion
1070
     0
  0
VISUALSTYLE
  5
2C
102
{ACAD_REACTORS
330
2A
102
}
330
2A
100
AcDbVisualStyle
  2
FlatWithEdges
 70
     1
 71
     2
 72
     1
 73
     1
 90
        2
 40
-0.6
 41
30.0
 62
     5
 63
     7
421
 16777215
 74
     1
 91
        4
 64
     7
 65
   257
 75
     1
175
     1
 42
1.0
 92
        0
 66
   257
 43
1.0
 76
     1
 77
     6
 78
     2
 67
     7
 79
     5
170
     0
171
     0
290
     0
174
     0
 93
       13
 44
0.0
173
     0
291
     1
 45
0.0
1001
ACAD
1000
AcDbSavedByObjectVersion
1070
     0
  0
VISUALSTYLE
  5
2D
102
{ACAD_REACTORS
330
2A
102
}
330
2A
100
AcDbVisualStyle
  2
Gouraud
 70
     2
 71
     2
 72
     2
 73
     1
 90
        2
 40
-0.6
 41
30.0
 62
     5
 63
     7
421
 16777215
 74
     0
 91
        4
 64
     7
 65
   257
 75
     1
175
     1
 42
1.0
 92
        0
 66
     7
 43
1.0
 76
     1
 77
     6
 78
     2
 67
     7
 79
     5
170
     0
171
     0
290
     0
174
     0
 93
       13
 44
0.0
173
     0
291
     1
 45
0.0
1001
ACAD
1000
AcDbSavedByObjectVersion
1070
     0
  0
VISUALSTYLE
  5
2E
102
{ACAD_REACTORS
330
2A
102
}
330
2A
100
AcDbVisualStyle
  2
GouraudWithEdges
 70
     3
 71
     2
 72
     2
 73
     1
 90
        2
 40
-0.6
 41
30.0
 62
     5
 63
     7
421
 16777215
 74
     1
 91
        4
 64
     7
 65
   257
 75
     1
175
     1
 42
1.0
 92
        0
 66
   257
 43
1.0
 76
     1
 77
     6
 78
     2
 67
     7
 79
     5
170
     0
171
     0
290
     0
174
     0
 93
       13
 44
0.0
173
     0
291
     1
 45
0.0
1001
ACAD
1000
AcDbSavedByObjectVersion
1070
     0
  0
VISUALSTYLE
  5
38
102
{ACAD_REACTORS
330
2A
102
}
330
2A
100
AcDbVisualStyle
  2
Linepattern
 70
    14
 71
     2
 72
     2
 73
     0
 90
        0
 40
-0.6
 41
-30.0
 62
     5
 63
     7
421
 16777215
 74
     1
 91
        4
 64
     7
 65
   257
 75
     7
175
     7
 42
1.0
 92
        8
 66
     7
 43
1.0
 76
     1
 77
     6
 78
     2
 67
     7
 79
     5
170
     0
171
     0
290
     0
174
     0
 93
        1
 44
0.0
173
     0
291
     1
 45
0.0
1001
ACAD
1000
AcDbSavedByObjectVersion
1070
     0
  0
VISUALSTYLE
  5
33
102
{ACAD_REACTORS
330
2A
102
}
330
2A
100
AcDbVisualStyle
  2
Realistic
 70
     8
 71
     2
 72
     2
 73
     0
 90
        0
 40
-0.6
 41
-30.0
 62
     5
 63
     7
421
 16777215
 74
     1
 91
        0
 64
     7
 65
   257
 75
     1
175
     1
 42
1.0
 92
        8
 66
     8
424
  7895160
 43
1.0
 76
     1
 77
     6
 78
     2
 67
     7
 79
     5
170
     0
171
     0
290
     0
174
     0
 93
       13
 44
0.0
173
     0
291
     0
 45
0.0
1001
ACAD
1000
AcDbSavedByObjectVersion
1070
     0
  0
VISUALSTYLE
  5
37
102
{ACAD_REACTORS
330
2A
102
}
330
2A
100
AcDbVisualStyle
  2
Thicken
 70
    13
 71
     2
 72
     2
 73
     0
 90
        0
 40
-0.6
 41
-30.0
 62
     5
 63
     7
421
 16777215
 74
     1
 91
        4
 64
     7
 65
   257
 75
     1
175
     1
 42
1.0
 92
       12
 66
     7
 43
1.0
 76
     1
 77
     6
 78
     2
 67
     7
 79
     5
170
     0
171
     0
290
     0
174
     0
 93
        1
 44
0.0
173
     0
291
     1
 45
0.0
1001
ACAD
1000
AcDbSavedByObjectVersion
1070
     0
  0
ENDSEC
  0
EOF
