  0
SECTION
  2
HEADER
  9
$ACADVER
  1
AC1018
  9
$ACADMAINTVER
 70
     0
  9
$DWGCODEPAGE
  3
ANSI_1252
  9
$INSBASE
 10
0.0
 20
0.0
 30
0.0
  9
$EXTMIN
 10
0.0
 20
-0.0003675295167958
 30
0.0
  9
$EXTMAX
 10
2124.162919479087
 20
1668.787663427801
 30
0.0
  9
$LIMMIN
 10
0.0
 20
0.0
  9
$LIMMAX
 10
12.0
 20
9.0
  9
$ORTHOMODE
 70
     0
  9
$REGENMODE
 70
     1
  9
$FILLMODE
 70
     1
  9
$QTEXTMODE
 70
     0
  9
$MIRRTEXT
 70
     1
  9
$LTSCALE
 40
1.0
  9
$ATTMODE
 70
     1
  9
$TEXTSIZE
 40
0.2
  9
$TRACEWID
 40
0.05
  9
$TEXTSTYLE
  7
Standard
  9
$CLAYER
  8
0
  9
$CELTYPE
  6
ByLayer
  9
$CECOLOR
 62
   256
  9
$CELTSCALE
 40
1.0
  9
$DISPSILH
 70
     0
  9
$DIMSCALE
 40
1.0
  9
$DIMASZ
 40
0.18
  9
$DIMEXO
 40
0.0625
  9
$DIMDLI
 40
0.38
  9
$DIMRND
 40
0.0
  9
$DIMDLE
 40
0.0
  9
$DIMEXE
 40
0.18
  9
$DIMTP
 40
0.0
  9
$DIMTM
 40
0.0
  9
$DIMTXT
 40
0.18
  9
$DIMCEN
 40
0.09
  9
$DIMTSZ
 40
0.0
  9
$DIMTOL
 70
     0
  9
$DIMLIM
 70
     0
  9
$DIMTIH
 70
     1
  9
$DIMTOH
 70
     1
  9
$DIMSE1
 70
     0
  9
$DIMSE2
 70
     0
  9
$DIMTAD
 70
     0
  9
$DIMZIN
 70
     0
  9
$DIMBLK
  1

  9
$DIMASO
 70
     1
  9
$DIMSHO
 70
     1
  9
$DIMPOST
  1

  9
$DIMAPOST
  1

  9
$DIMALT
 70
     0
  9
$DIMALTD
 70
     2
  9
$DIMALTF
 40
25.4
  9
$DIMLFAC
 40
1.0
  9
$DIMTOFL
 70
     0
  9
$DIMTVP
 40
0.0
  9
$DIMTIX
 70
     0
  9
$DIMSOXD
 70
     0
  9
$DIMSAH
 70
     0
  9
$DIMBLK1
  1

  9
$DIMBLK2
  1

  9
$DIMSTYLE
  2
Standard
  9
$DIMCLRD
 70
     0
  9
$DIMCLRE
 70
     0
  9
$DIMCLRT
 70
     0
  9
$DIMTFAC
 40
1.0
  9
$DIMGAP
 40
0.09
  9
$DIMJUST
 70
     0
  9
$DIMSD1
 70
     0
  9
$DIMSD2
 70
     0
  9
$DIMTOLJ
 70
     1
  9
$DIMTZIN
 70
     0
  9
$DIMALTZ
 70
     0
  9
$DIMALTTZ
 70
     0
  9
$DIMUPT
 70
     0
  9
$DIMDEC
 70
     4
  9
$DIMTDEC
 70
     4
  9
$DIMALTU
 70
     2
  9
$DIMALTTD
 70
     2
  9
$DIMTXSTY
  7
Standard
  9
$DIMAUNIT
 70
     0
  9
$DIMADEC
 70
     0
  9
$DIMALTRND
 40
0.0
  9
$DIMAZIN
 70
     0
  9
$DIMDSEP
 70
    46
  9
$DIMATFIT
 70
     3
  9
$DIMFRAC
 70
     0
  9
$DIMLDRBLK
  1

  9
$DIMLUNIT
 70
     2
  9
$DIMLWD
 70
    -2
  9
$DIMLWE
 70
    -2
  9
$DIMTMOVE
 70
     2
  9
$LUNITS
 70
     2
  9
$LUPREC
 70
     3
  9
$SKETCHINC
 40
0.1
  9
$FILLETRAD
 40
0.5
  9
$AUNITS
 70
     0
  9
$AUPREC
 70
     0
  9
$MENU
  1
.
  9
$ELEVATION
 40
0.0
  9
$PELEVATION
 40
0.0
  9
$THICKNESS
 40
0.0
  9
$LIMCHECK
 70
     0
  9
$CHAMFERA
 40
0.5
  9
$CHAMFERB
 40
0.5
  9
$CHAMFERC
 40
1.0
  9
$CHAMFERD
 40
0.0
  9
$SKPOLY
 70
     0
  9
$TDCREATE
 40
2455961.603968553
  9
$TDUCREATE
 40
2455961.562301887
  9
$TDUPDATE
 40
2455961.603968565
  9
$TDUUPDATE
 40
2455961.562301898
  9
$TDINDWG
 40
0.0000000116
  9
$TDUSRTIMER
 40
0.0000000116
  9
$USRTIMER
 70
     1
  9
$ANGBASE
 50
0.0
  9
$ANGDIR
 70
     0
  9
$PDMODE
 70
     0
  9
$PDSIZE
 40
0.0
  9
$PLINEWID
 40
0.0
  9
$SPLFRAME
 70
     0
  9
$SPLINETYPE
 70
     6
  9
$SPLINESEGS
 70
     8
  9
$HANDSEED
  5
471
  9
$SURFTAB1
 70
     6
  9
$SURFTAB2
 70
     6
  9
$SURFTYPE
 70
     6
  9
$SURFU
 70
     6
  9
$SURFV
 70
     6
  9
$UCSBASE
  2

  9
$UCSNAME
  2

  9
$UCSORG
 10
0.0
 20
0.0
 30
0.0
  9
$UCSXDIR
 10
1.0
 20
0.0
 30
0.0
  9
$UCSYDIR
 10
0.0
 20
1.0
 30
0.0
  9
$UCSORTHOREF
  2

  9
$UCSORTHOVIEW
 70
     0
  9
$UCSORGTOP
 10
0.0
 20
0.0
 30
0.0
  9
$UCSORGBOTTOM
 10
0.0
 20
0.0
 30
0.0
  9
$UCSORGLEFT
 10
0.0
 20
0.0
 30
0.0
  9
$UCSORGRIGHT
 10
0.0
 20
0.0
 30
0.0
  9
$UCSORGFRONT
 10
0.0
 20
0.0
 30
0.0
  9
$UCSORGBACK
 10
0.0
 20
0.0
 30
0.0
  9
$PUCSBASE
  2

  9
$PUCSNAME
  2

  9
$PUCSORG
 10
0.0
 20
0.0
 30
0.0
  9
$PUCSXDIR
 10
1.0
 20
0.0
 30
0.0
  9
$PUCSYDIR
 10
0.0
 20
1.0
 30
0.0
  9
$PUCSORTHOREF
  2

  9
$PUCSORTHOVIEW
 70
     0
  9
$PUCSORGTOP
 10
0.0
 20
0.0
 30
0.0
  9
$PUCSORGBOTTOM
 10
0.0
 20
0.0
 30
0.0
  9
$PUCSORGLEFT
 10
0.0
 20
0.0
 30
0.0
  9
$PUCSORGRIGHT
 10
0.0
 20
0.0
 30
0.0
  9
$PUCSORGFRONT
 10
0.0
 20
0.0
 30
0.0
  9
$PUCSORGBACK
 10
0.0
 20
0.0
 30
0.0
  9
$USERI1
 70
     0
  9
$USERI2
 70
     0
  9
$USERI3
 70
     0
  9
$USERI4
 70
     0
  9
$USERI5
 70
     0
  9
$USERR1
 40
0.0
  9
$USERR2
 40
0.0
  9
$USERR3
 40
0.0
  9
$USERR4
 40
0.0
  9
$USERR5
 40
0.0
  9
$WORLDVIEW
 70
     1
  9
$SHADEDGE
 70
     3
  9
$SHADEDIF
 70
    70
  9
$TILEMODE
 70
     1
  9
$MAXACTVP
 70
    64
  9
$PINSBASE
 10
0.0
 20
0.0
 30
0.0
  9
$PLIMCHECK
 70
     0
  9
$PEXTMIN
 10
1.000000000000000E+20
 20
1.000000000000000E+20
 30
1.000000000000000E+20
  9
$PEXTMAX
 10
-1.000000000000000E+20
 20
-1.000000000000000E+20
 30
-1.000000000000000E+20
  9
$PLIMMIN
 10
0.0
 20
0.0
  9
$PLIMMAX
 10
12.0
 20
9.0
  9
$UNITMODE
 70
     0
  9
$VISRETAIN
 70
     1
  9
$PLINEGEN
 70
     0
  9
$PSLTSCALE
 70
     1
  9
$TREEDEPTH
 70
  3020
  9
$CMLSTYLE
  2
Standard
  9
$CMLJUST
 70
     0
  9
$CMLSCALE
 40
1.0
  9
$PROXYGRAPHICS
 70
     1
  9
$MEASUREMENT
 70
     0
  9
$CELWEIGHT
370
    -1
  9
$ENDCAPS
280
     0
  9
$JOINSTYLE
280
     0
  9
$LWDISPLAY
290
     0
  9
$INSUNITS
 70
     4
  9
$HYPERLINKBASE
  1

  9
$STYLESHEET
  1

  9
$XEDIT
290
     1
  9
$CEPSNTYPE
380
     0
  9
$PSTYLEMODE
290
     1
  9
$FINGERPRINTGUID
  2
{B099718B-C4EC-4AC5-82CE-6BFBB068860E}
  9
$VERSIONGUID
  2
{FAEB1C32-E019-11D5-929B-00C0DF256EC4}
  9
$EXTNAMES
290
     1
  9
$PSVPSCALE
 40
0.0
  9
$OLESTARTUP
290
     0
  9
$SORTENTS
280
   127
  9
$INDEXCTL
280
     0
  9
$HIDETEXT
280
     1
  9
$XCLIPFRAME
290
     0
  9
$HALOGAP
280
     0
  9
$OBSCOLOR
 70
   257
  9
$OBSLTYPE
280
     0
  9
$INTERSECTIONDISPLAY
280
     0
  9
$INTERSECTIONCOLOR
 70
   257
  9
$DIMASSOC
280
     2
  9
$PROJECTNAME
  1

  0
ENDSEC
  0
SECTION
  2
CLASSES
  0
CLASS
  1
ACDBDICTIONARYWDFLT
  2
AcDbDictionaryWithDefault
  3
ObjectDBX Classes
 90
        0
 91
        4
280
     0
281
     0
  0
CLASS
  1
VISUALSTYLE
  2
AcDbVisualStyle
  3
ObjectDBX Classes
 90
     4095
 91
        4
280
     0
281
     0
  0
ENDSEC
  0
SECTION
  2
TABLES
  0
TABLE
  2
VPORT
  5
8
330
0
100
AcDbSymbolTable
 70
     1
  0
VPORT
  5
29
330
8
100
AcDbSymbolTableRecord
100
AcDbViewportTableRecord
  2
*Active
 70
     0
 10
0.0
 20
0.0
 11
1.0
 21
1.0
 12
1062.081459739543
 22
834.393647949142
 13
0.0
 23
0.0
 14
0.5
 24
0.5
 15
0.5
 25
0.5
 16
0.0
 26
0.0
 36
1.0
 17
0.0
 27
0.0
 37
0.0
 40
1702.163791576464
 41
1.272877609423252
 42
50.0
 43
0.0
 44
0.0
 50
0.0
 51
0.0
 71
     0
 72
   100
 73
     1
 74
     3
 75
     0
 76
     0
 77
     0
 78
     0
281
     0
 65
     1
110
0.0
120
0.0
130
0.0
111
1.0
121
0.0
131
0.0
112
0.0
122
1.0
132
0.0
 79
     0
146
0.0
  0
ENDTAB
  0
TABLE
  2
LTYPE
  5
5
330
0
100
AcDbSymbolTable
 70
     1
  0
LTYPE
  5
14
330
5
100
AcDbSymbolTableRecord
100
AcDbLinetypeTableRecord
  2
ByBlock
 70
     0
  3

 72
    65
 73
     0
 40
0.0
  0
LTYPE
  5
15
330
5
100
AcDbSymbolTableRecord
100
AcDbLinetypeTableRecord
  2
ByLayer
 70
     0
  3

 72
    65
 73
     0
 40
0.0
  0
LTYPE
  5
16
330
5
100
AcDbSymbolTableRecord
100
AcDbLinetypeTableRecord
  2
Continuous
 70
     0
  3
Solid line
 72
    65
 73
     0
 40
0.0
  0
ENDTAB
  0
TABLE
  2
LAYER
  5
2
330
0
100
AcDbSymbolTable
 70
     2
  0
LAYER
  5
10
330
2
100
AcDbSymbolTableRecord
100
AcDbLayerTableRecord
  2
0
 70
     0
 62
     7
  6
Continuous
370
    -3
390
F
  0
LAYER
  5
3B
330
2
100
AcDbSymbolTableRecord
100
AcDbLayerTableRecord
  2
Linee visibili 2D
 70
     0
 62
     7
  6
Continuous
370
    -3
390
F
  0
ENDTAB
  0
TABLE
  2
STYLE
  5
3
330
0
100
AcDbSymbolTable
 70
     1
  0
STYLE
  5
11
330
3
100
AcDbSymbolTableRecord
100
AcDbTextStyleTableRecord
  2
Standard
 70
     0
 40
0.0
 41
1.0
 50
0.0
 71
     0
 42
0.2
  3
txt
  4

  0
ENDTAB
  0
TABLE
  2
VIEW
  5
6
330
0
100
AcDbSymbolTable
 70
     0
  0
ENDTAB
  0
TABLE
  2
UCS
  5
7
330
0
100
AcDbSymbolTable
 70
     0
  0
ENDTAB
  0
TABLE
  2
APPID
  5
9
330
0
100
AcDbSymbolTable
 70
     1
  0
APPID
  5
12
330
9
100
AcDbSymbolTableRecord
100
AcDbRegAppTableRecord
  2
ACAD
 70
     0
  0
ENDTAB
  0
TABLE
  2
DIMSTYLE
  5
A
330
0
100
AcDbSymbolTable
 70
     1
100
AcDbDimStyleTable
  0
DIMSTYLE
105
27
330
A
100
AcDbSymbolTableRecord
100
AcDbDimStyleTableRecord
  2
Standard
 70
     0
340
11
  0
ENDTAB
  0
TABLE
  2
BLOCK_RECORD
  5
1
330
0
100
AcDbSymbolTable
 70
     1
  0
BLOCK_RECORD
  5
1F
330
1
100
AcDbSymbolTableRecord
100
AcDbBlockTableRecord
  2
*Model_Space
340
22
  0
BLOCK_RECORD
  5
1B
330
1
100
AcDbSymbolTableRecord
100
AcDbBlockTableRecord
  2
*Paper_Space
340
1E
  0
BLOCK_RECORD
  5
23
330
1
100
AcDbSymbolTableRecord
100
AcDbBlockTableRecord
  2
*Paper_Space0
340
26
  0
ENDTAB
  0
ENDSEC
  0
SECTION
  2
BLOCKS
  0
BLOCK
  5
20
330
1F
100
AcDbEntity
  8
0
100
AcDbBlockBegin
  2
*Model_Space
 70
     0
 10
0.0
 20
0.0
 30
0.0
  3
*Model_Space
  1

  0
ENDBLK
  5
21
330
1F
100
AcDbEntity
  8
0
100
AcDbBlockEnd
  0
BLOCK
  5
1C
330
1B
100
AcDbEntity
 67
     1
  8
0
100
AcDbBlockBegin
  2
*Paper_Space
 70
     0
 10
0.0
 20
0.0
 30
0.0
  3
*Paper_Space
  1

  0
ENDBLK
  5
1D
330
1B
100
AcDbEntity
 67
     1
  8
0
100
AcDbBlockEnd
  0
BLOCK
  5
24
330
23
100
AcDbEntity
  8
0
100
AcDbBlockBegin
  2
*Paper_Space0
 70
     0
 10
0.0
 20
0.0
 30
0.0
  3
*Paper_Space0
  1

  0
ENDBLK
  5
25
330
23
100
AcDbEntity
  8
0
100
AcDbBlockEnd
  0
ENDSEC
  0
SECTION
  2
ENTITIES
  0
LINE
  5
3C
330
1F
100
AcDbEntity
  8
Linee visibili 2D
 62
   255
100
AcDbLine
 10
1732.547780450451
 20
1653.198254111576
 30
0.0
 11
1732.847690854093
 21
1653.193913293406
 31
0.0
  0
LINE
  5
3D
330
1F
100
AcDbEntity
  8
Linee visibili 2D
 62
   255
100
AcDbLine
 10
1693.827953896319
 20
1653.44722237541
 30
0.0
 11
1732.547780450451
 21
1653.198254111576
 31
0.0
  0
LINE
  5
3E
330
1F
100
AcDbEntity
  8
Linee visibili 2D
 62
   255
100
AcDbLine
 10
1732.847690854093
 20
1653.193913293406
 30
0.0
 11
1738.24595540303
 21
1653.10923194067
 31
0.0
  0
ARC
  5
3F
330
1F
100
AcDbEntity
  8
Linee visibili 2D
 62
   255
100
AcDbCircle
 10
1620.419711073639
 20
1543.863775433296
 30
0.0
 40
2.475077701286833
100
AcDbArc
 50
13.22650150364487
 51
97.9305900587785
  0
LINE
  5
40
330
1F
100
AcDbEntity
  8
Linee visibili 2D
 62
   255
100
AcDbLine
 10
1617.85695048992
 20
1544.953095389323
 30
0.0
 11
1620.07821629511
 21
1546.31518134494
 31
0.0
  0
ARC
  5
41
330
1F
100
AcDbEntity
  8
Linee visibili 2D
 62
   255
100
AcDbCircle
 10
1623.905853789184
 20
1236.236198677759
 30
0.0
 40
3.707167498173688
100
AcDbArc
 50
45.16847216603017
 51
129.9781505755875
  0
ARC
  5
42
330
1F
100
AcDbEntity
  8
Linee visibili 2D
 62
   255
100
AcDbCircle
 10
1620.462386226819
 20
1456.316469334174
 30
0.0
 40
2.598623307923528
100
AcDbArc
 50
261.7209358254734
 51
331.9894095626013
  0
LINE
  5
43
330
1F
100
AcDbEntity
  8
Linee visibili 2D
 62
   255
100
AcDbLine
 10
1738.24595540303
 20
1653.109231940671
 30
0.0
 11
1738.545852141385
 21
1653.104160306087
 31
0.0
  0
LINE
  5
44
330
1F
100
AcDbEntity
  8
Linee visibili 2D
 62
   255
100
AcDbLine
 10
1515.540397967671
 20
1434.142909977292
 30
0.0
 11
1515.360080590037
 21
1433.925160618704
 31
0.0
  0
LINE
  5
45
330
1F
100
AcDbEntity
  8
Linee visibili 2D
 62
   255
100
AcDbLine
 10
1569.745645756791
 20
1393.960172511351
 30
0.0
 11
1569.445863215776
 21
1393.971298324431
 31
0.0
  0
SPLINE
  5
46
330
1F
100
AcDbEntity
  8
Linee visibili 2D
 62
   255
100
AcDbSpline
210
0.0
220
0.0
230
1.0
 70
     8
 71
     3
 72
    10
 73
     6
 74
     0
 42
0.0000000001
 43
0.0000000001
 40
-0.65625
 40
-0.65625
 40
-0.65625
 40
-0.65625
 40
-0.59375
 40
-0.5
 40
-0.4789010502497226
 40
-0.4789010502497226
 40
-0.4789010502497226
 40
-0.4789010502497226
 10
1423.573010269895
 20
1411.18643677423
 30
0.0
 10
1374.395614487238
 20
1421.121678916066
 30
0.0
 10
1271.21333887655
 20
1451.388178367679
 30
0.0
 10
1194.217914800602
 20
1494.337810816152
 30
0.0
 10
1186.143771319639
 20
1524.733087084174
 30
0.0
 10
1186.132075756557
 20
1530.327911385113
 30
0.0
  0
ARC
  5
47
330
1F
100
AcDbEntity
  8
Linee visibili 2D
 62
   255
100
AcDbCircle
 10
1597.697508460122
 20
2261.187074207753
 30
0.0
 40
867.6522486038946
100
AcDbArc
 50
258.4230009539259
 51
267.7577099267032
  0
ARC
  5
48
330
1F
100
AcDbEntity
  8
Linee visibili 2D
 62
   255
100
AcDbCircle
 10
2086.777576894574
 20
1563.843705477657
 30
0.0
 40
37.39256357344463
100
AcDbArc
 50
330.8513266812508
 51
358.8739690211137
  0
SPLINE
  5
49
330
1F
100
AcDbEntity
  8
Linee visibili 2D
 62
   255
100
AcDbSpline
210
0.0
220
0.0
230
1.0
 70
     8
 71
     3
 72
    10
 73
     6
 74
     0
 42
0.0000000001
 43
0.0000000001
 40
-0.9375
 40
-0.9375
 40
-0.9375
 40
-0.9375
 40
-0.8749999999999885
 40
-0.8124999999999821
 40
-0.75
 40
-0.75
 40
-0.75
 40
-0.75
 10
2064.571387112983
 20
1498.703981170745
 30
0.0
 10
2038.495593779357
 20
1483.887976205111
 30
0.0
 10
1974.113661798151
 20
1455.38837162125
 30
0.0
 10
1850.637722576953
 20
1419.344278326159
 30
0.0
 10
1743.719752347861
 20
1400.236494469407
 30
0.0
 10
1684.509339602008
 20
1395.911922138028
 30
0.0
  0
ARC
  5
4A
330
1F
100
AcDbEntity
  8
Linee visibili 2D
 62
   255
100
AcDbCircle
 10
2005.736045901145
 20
1623.02456709191
 30
0.0
 40
137.5398322643123
100
AcDbArc
 50
295.3260881994261
 51
325.7571348944385
  0
ARC
  5
4B
330
1F
100
AcDbEntity
  8
Linee visibili 2D
 62
   255
100
AcDbCircle
 10
1609.242236915345
 20
2467.945485549026
 30
0.0
 40
1074.711325581795
100
AcDbArc
 50
267.8938551744336
 51
272.5869776357101
  0
SPLINE
  5
4C
330
1F
100
AcDbEntity
  8
Linee visibili 2D
 62
   255
100
AcDbSpline
210
0.0
220
0.0
230
1.0
 70
     8
 71
     3
 72
    14
 73
    10
 74
     0
 42
0.0000000001
 43
0.0000000001
 40
0.0
 40
0.0
 40
0.0
 40
0.0
 40
21.24866162925646
 40
41.34288083784422
 40
64.50170417964702
 40
93.92974635405814
 40
135.6626494522772
 40
186.488219510877
 40
303.7863150939064
 40
303.7863150939064
 40
303.7863150939064
 40
303.7863150939064
 10
1950.879181906504
 20
1546.583761171805
 30
0.0
 10
1950.351864205974
 20
1553.596842804013
 30
0.0
 10
1947.379423499817
 20
1567.405056279934
 30
0.0
 10
1934.394987042374
 20
1585.044817402247
 30
0.0
 10
1913.8216105483
 20
1598.372239649635
 30
0.0
 10
1884.123743304569
 20
1608.978999930048
 30
0.0
 10
1844.201980907555
 20
1617.045089075965
 30
0.0
 10
1774.722811234423
 20
1625.468194994246
 30
0.0
 10
1718.568593003163
 20
1626.396675764699
 30
0.0
 10
1679.494503611884
 20
1625.61515944833
 30
0.0
  0
LINE
  5
4D
330
1F
100
AcDbEntity
  8
Linee visibili 2D
 62
   255
100
AcDbLine
 10
1545.490350713319
 20
1636.938120070845
 30
0.0
 11
1614.408574139378
 21
1636.937541982279
 31
0.0
  0
LINE
  5
4E
330
1F
100
AcDbEntity
  8
Linee visibili 2D
 62
   255
100
AcDbLine
 10
1617.379847913154
 20
1636.937378406525
 30
0.0
 11
1698.372763913748
 21
1636.93663500891
 31
0.0
  0
ARC
  5
4F
330
1F
100
AcDbEntity
  8
Linee visibili 2D
 62
   255
100
AcDbCircle
 10
1624.468617809773
 20
1789.718424850199
 30
0.0
 40
169.7177012291141
100
AcDbArc
 50
286.2508873700745
 51
295.8141363564415
  0
LINE
  5
50
330
1F
100
AcDbEntity
  8
Linee visibili 2D
 62
   255
100
AcDbLine
 10
1671.451596874738
 20
1626.58483500103
 30
0.0
 11
1671.963078301255
 21
1626.781706050789
 31
0.0
  0
ARC
  5
51
330
1F
100
AcDbEntity
  8
Linee visibili 2D
 62
   255
100
AcDbCircle
 10
1626.311873751593
 20
1789.721865068478
 30
0.0
 40
169.7213962919625
100
AcDbArc
 50
286.2509906297
 51
295.81397094066
  0
LINE
  5
52
330
1F
100
AcDbEntity
  8
Linee visibili 2D
 62
   255
100
AcDbLine
 10
1718.324015024983
 20
1636.936417907476
 30
0.0
 11
1700.21716085551
 21
1636.936522520893
 31
0.0
  0
LINE
  5
53
330
1F
100
AcDbEntity
  8
Linee visibili 2D
 62
   255
100
AcDbLine
 10
1606.838405641222
 20
1621.388339724828
 30
0.0
 11
1605.867660929523
 21
1621.38834543694
 31
0.0
  0
LINE
  5
54
330
1F
100
AcDbEntity
  8
Linee visibili 2D
 62
   255
100
AcDbLine
 10
1614.422468184377
 20
1641.78832450285
 30
0.0
 11
1614.823198873529
 21
1640.528317919044
 31
0.0
  0
LINE
  5
55
330
1F
100
AcDbEntity
  8
Linee visibili 2D
 62
   255
100
AcDbLine
 10
1619.035381910494
 20
1626.782287716362
 30
0.0
 11
1614.408574139378
 21
1636.937541981853
 31
0.0
  0
LINE
  5
56
330
1F
100
AcDbEntity
  8
Linee visibili 2D
 62
   255
100
AcDbLine
 10
1617.379876004829
 20
1641.788293152755
 30
0.0
 11
1617.379847913154
 21
1636.937378402659
 31
0.0
  0
LINE
  5
57
330
1F
100
AcDbEntity
  8
Linee visibili 2D
 62
   255
100
AcDbLine
 10
1622.00660842878
 20
1626.782256286233
 30
0.0
 11
1619.035381910494
 21
1626.782287716362
 31
0.0
  0
LINE
  5
58
330
1F
100
AcDbEntity
  8
Linee visibili 2D
 62
   255
100
AcDbLine
 10
1612.002239058692
 20
1161.137187075189
 30
0.0
 11
1634.122731311127
 21
1160.737927331923
 31
0.0
  0
SPLINE
  5
59
330
1F
100
AcDbEntity
  8
Linee visibili 2D
 62
   255
100
AcDbSpline
210
0.0
220
0.0
230
1.0
 70
     8
 71
     3
 72
    13
 73
     9
 74
     0
 42
0.0000000001
 43
0.0000000001
 40
0.0
 40
0.0
 40
0.0
 40
0.0
 40
8.287895236987982
 40
18.43595887022037
 40
30.99773405736018
 40
45.26959582665491
 40
80.43523854350363
 40
122.2309518898819
 40
122.2309518898819
 40
122.2309518898819
 40
122.2309518898819
 10
1852.381589386577
 20
1331.478461672429
 30
0.0
 10
1852.027580514768
 20
1328.729602753814
 30
0.0
 10
1849.624131653571
 20
1322.933354554302
 30
0.0
 10
1842.50265095325
 20
1315.301630402597
 30
0.0
 10
1832.313179870705
 20
1308.299037293687
 30
0.0
 10
1813.714788352441
 20
1299.179414001266
 30
0.0
 10
1784.551740565616
 20
1290.162966553743
 30
0.0
 10
1759.159544421669
 20
1286.22250063367
 30
0.0
 10
1745.319945316919
 20
1284.628059866156
 30
0.0
  0
LINE
  5
5A
330
1F
100
AcDbEntity
  8
Linee visibili 2D
 62
   255
100
AcDbLine
 10
1680.344158257388
 20
1434.239567297777
 30
0.0
 11
1515.540397967671
 21
1434.142909977292
 31
0.0
  0
LINE
  5
5B
330
1F
100
AcDbEntity
  8
Linee visibili 2D
 62
   255
100
AcDbLine
 10
1514.826962038354
 20
1433.615153740447
 30
0.0
 11
1514.826619712438
 21
1434.156518169116
 31
0.0
  0
LINE
  5
5C
330
1F
100
AcDbEntity
  8
Linee visibili 2D
 62
   255
100
AcDbLine
 10
1564.050057155982
 20
1394.186401918941
 30
0.0
 11
1563.750305746997
 21
1394.199178135756
 31
0.0
  0
LINE
  5
5D
330
1F
100
AcDbEntity
  8
Linee visibili 2D
 62
   255
100
AcDbLine
 10
1663.755689348582
 20
1394.621393953517
 30
0.0
 11
1663.455405873312
 21
1394.605945405437
 31
0.0
  0
LINE
  5
5E
330
1F
100
AcDbEntity
  8
Linee visibili 2D
 62
   255
100
AcDbLine
 10
1684.509339602008
 20
1395.911922138028
 30
0.0
 11
1663.755689348582
 21
1394.621393953517
 31
0.0
  0
LINE
  5
5F
330
1F
100
AcDbEntity
  8
Linee visibili 2D
 62
   255
100
AcDbLine
 10
1569.445863215776
 20
1393.971298324431
 30
0.0
 11
1564.050057155982
 21
1394.186401918941
 31
0.0
  0
LINE
  5
60
330
1F
100
AcDbEntity
  8
Linee visibili 2D
 62
   255
100
AcDbLine
 10
1626.623626225967
 20
1393.373378352366
 30
0.0
 11
1626.785441362337
 21
1390.235269355741
 31
0.0
  0
LINE
  5
61
330
1F
100
AcDbEntity
  8
Linee visibili 2D
 62
   255
100
AcDbLine
 10
1628.387430525187
 20
1342.001775346378
 30
0.0
 11
1628.53586105562
 21
1323.698505218159
 31
0.0
  0
LINE
  5
62
330
1F
100
AcDbEntity
  8
Linee visibili 2D
 62
   255
100
AcDbLine
 10
1623.53584182647
 20
1323.710443163665
 30
0.0
 11
1623.388834203386
 21
1341.87082138359
 31
0.0
  0
ARC
  5
63
330
1F
100
AcDbEntity
  8
Linee visibili 2D
 62
   255
100
AcDbCircle
 10
1708.75793215922
 20
2658.051446202171
 30
0.0
 40
1416.490700096952
100
AcDbArc
 50
266.6801086317732
 51
272.1056151330649
  0
ARC
  5
64
330
1F
100
AcDbEntity
  8
Linee visibili 2D
 62
   255
100
AcDbCircle
 10
1704.790505219051
 20
2685.606884866302
 30
0.0
 40
1443.776903337468
100
AcDbArc
 50
263.9756059429267
 51
266.7021680800418
  0
LINE
  5
65
330
1F
100
AcDbEntity
  8
Linee visibili 2D
 62
   255
100
AcDbLine
 10
1621.791870064445
 20
1389.981802014914
 30
0.0
 11
1621.620358590206
 21
1393.304719580223
 31
0.0
  0
LINE
  5
66
330
1F
100
AcDbEntity
  8
Linee visibili 2D
 62
   255
100
AcDbLine
 10
1617.199803824755
 20
1464.588194474812
 30
0.0
 11
1616.695982719236
 21
1474.562240769675
 31
0.0
  0
LINE
  5
67
330
1F
100
AcDbEntity
  8
Linee visibili 2D
 62
   255
100
AcDbLine
 10
1621.690289244202
 20
1474.801045860341
 30
0.0
 11
1622.188338123735
 21
1464.933331493426
 31
0.0
  0
LINE
  5
68
330
1F
100
AcDbEntity
  8
Linee visibili 2D
 62
   255
100
AcDbLine
 10
1615.965541185351
 20
1506.770472693141
 30
0.0
 11
1616.124262498992
 21
1516.793577080849
 31
0.0
  0
LINE
  5
69
330
1F
100
AcDbEntity
  8
Linee visibili 2D
 62
   255
100
AcDbLine
 10
1621.12151814006
 20
1516.624368188355
 30
0.0
 11
1620.965463643812
 21
1506.742502112297
 31
0.0
  0
LINE
  5
6A
330
1F
100
AcDbEntity
  8
Linee visibili 2D
 62
   255
100
AcDbLine
 10
1628.526581356635
 20
1316.324582640058
 30
0.0
 11
1628.443044746903
 21
1305.273740186456
 31
0.0
  0
LINE
  5
6B
330
1F
100
AcDbEntity
  8
Linee visibili 2D
 62
   255
100
AcDbLine
 10
1623.443350716926
 20
1305.329072116516
 30
0.0
 11
1623.526616080837
 21
1316.343218836851
 31
0.0
  0
SPLINE
  5
6C
330
1F
100
AcDbEntity
  8
Linee visibili 2D
 62
   255
100
AcDbSpline
210
0.0
220
0.0
230
1.0
 70
     8
 71
     3
 72
    21
 73
    17
 74
     0
 42
0.0000000001
 43
0.0000000001
 40
0.0
 40
0.0
 40
0.0
 40
0.0
 40
28.4432898683603
 40
54.6700078432147
 40
76.73610834436963
 40
94.12333792443656
 40
108.5139281060446
 40
120.583371050079
 40
131.8654410245874
 40
143.1564096193582
 40
156.8203179123742
 40
172.9911999297498
 40
192.2129264995688
 40
213.4380850449685
 40
264.3588463094702
 40
328.5970806837908
 40
328.5970806837908
 40
328.5970806837908
 40
328.5970806837908
 10
1403.135937396125
 20
1415.538310242849
 30
0.0
 10
1393.887912853533
 20
1413.448901430568
 30
0.0
 10
1376.211917061817
 20
1408.990917090881
 30
0.0
 10
1351.80065575465
 20
1401.308673079649
 30
0.0
 10
1331.464723470815
 20
1393.136843235826
 30
0.0
 10
1315.670176680723
 20
1384.512877620346
 30
0.0
 10
1304.408926326935
 20
1375.022937602544
 30
0.0
 10
1297.421184100247
 20
1364.345907694179
 30
0.0
 10
1295.246797213736
 20
1352.744061613102
 30
0.0
 10
1297.691394323934
 20
1340.725955680159
 30
0.0
 10
1304.897469578828
 20
1328.862798137578
 30
0.0
 10
1316.544363933092
 20
1317.297706711739
 30
0.0
 10
1332.025924427071
 20
1306.412620741525
 30
0.0
 10
1358.972920420417
 20
1292.092498041829
 30
0.0
 10
1401.853886348228
 20
1276.657716149615
 30
0.0
 10
1439.254178421936
 20
1267.834403395035
 30
0.0
 10
1460.252671402535
 20
1263.64622561298
 30
0.0
  0
LINE
  5
6D
330
1F
100
AcDbEntity
  8
Linee visibili 2D
 62
   255
100
AcDbLine
 10
1681.009381920774
 20
1434.254194584839
 30
0.0
 11
1681.009707284495
 21
1433.739654678526
 31
0.0
  0
LINE
  5
6E
330
1F
100
AcDbEntity
  8
Linee visibili 2D
 62
   255
100
AcDbLine
 10
1658.050591954207
 20
1394.343199660654
 30
0.0
 11
1657.750340458048
 21
1394.329447468153
 31
0.0
  0
LINE
  5
6F
330
1F
100
AcDbEntity
  8
Linee visibili 2D
 62
   255
100
AcDbLine
 10
1663.455405873312
 20
1394.605945405437
 30
0.0
 11
1658.050591954207
 21
1394.343199660654
 31
0.0
  0
SPLINE
  5
70
330
1F
100
AcDbEntity
  8
Linee visibili 2D
 62
   255
100
AcDbSpline
210
0.0
220
0.0
230
1.0
 70
     8
 71
     3
 72
    15
 73
    11
 74
     0
 42
0.0000000001
 43
0.0000000001
 40
0.0
 40
0.0
 40
0.0
 40
0.0
 40
65.60717349290007
 40
124.439208576181
 40
178.0641937323341
 40
225.6835290263145
 40
265.5293735159905
 40
298.4559374713517
 40
323.94946583132
 40
344.173489037345
 40
344.173489037345
 40
344.173489037345
 40
344.173489037345
 10
1600.033473348484
 20
1621.974947309264
 30
0.0
 10
1578.221251367674
 20
1620.408909607471
 30
0.0
 10
1536.907890639044
 20
1616.546411062448
 30
0.0
 10
1478.154427315456
 20
1607.978915450778
 30
0.0
 10
1425.886332573185
 20
1597.085142077945
 30
0.0
 10
1380.653098676692
 20
1584.077466988778
 30
0.0
 10
1343.395917477013
 20
1568.91435016012
 30
0.0
 10
1315.248805161043
 20
1551.93905902012
 30
0.0
 10
1296.306743350869
 20
1533.366211099418
 30
0.0
 10
1290.364535895237
 20
1518.856248056928
 30
0.0
 10
1290.077735053611
 20
1512.061871834972
 30
0.0
  0
SPLINE
  5
71
330
1F
100
AcDbEntity
  8
Linee visibili 2D
 62
   255
100
AcDbSpline
210
0.0
220
0.0
230
1.0
 70
     8
 71
     3
 72
    22
 73
    18
 74
     0
 42
0.0000000001
 43
0.0000000001
 40
0.0
 40
0.0
 40
0.0
 40
0.0
 40
109.7218288476986
 40
156.8491371524902
 40
197.881072922372
 40
232.470909455023
 40
262.141234954245
 40
286.5599451250301
 40
308.1931056397741
 40
329.8853750839023
 40
340.5309820183438
 40
350.3600596860406
 40
372.4990062601199
 40
400.1326013371787
 40
438.2018210968011
 40
487.4515622127378
 40
602.507333568425
 40
602.507333568425
 40
602.507333568425
 40
602.507333568425
 10
1681.841890702892
 20
1433.689346932617
 30
0.0
 10
1718.331804426829
 20
1435.866746728244
 30
0.0
 10
1770.498064675512
 20
1440.99140260531
 30
0.0
 10
1834.920030675153
 20
1455.511556538858
 30
0.0
 10
1873.890809491694
 20
1468.128109160954
 30
0.0
 10
1905.679650347592
 20
1483.27079805243
 30
0.0
 10
1929.588229589349
 20
1500.950587529248
 30
0.0
 10
1945.636040494465
 20
1520.82739676998
 30
0.0
 10
1952.436063058249
 20
1542.879079177575
 30
0.0
 10
1949.90610374122
 20
1561.122944595427
 30
0.0
 10
1944.731596208747
 20
1574.151167826302
 30
0.0
 10
1936.626130726457
 20
1586.004387968782
 30
0.0
 10
1920.926193688479
 20
1598.55516134188
 30
0.0
 10
1893.796668755101
 20
1610.048901394324
 30
0.0
 10
1856.447708492248
 20
1618.841295216793
 30
0.0
 10
1789.589287847042
 20
1628.271069438272
 30
0.0
 10
1734.740633000672
 20
1630.051349805601
 30
0.0
 10
1696.400775261698
 20
1629.71745606592
 30
0.0
  0
LINE
  5
72
330
1F
100
AcDbEntity
  8
Linee visibili 2D
 62
   255
100
AcDbLine
 10
1627.481856097548
 20
1374.838449541936
 30
0.0
 11
1628.029495967104
 21
1358.672513171861
 31
0.0
  0
LINE
  5
73
330
1F
100
AcDbEntity
  8
Linee visibili 2D
 62
   255
100
AcDbLine
 10
1623.031462897354
 20
1358.53227967486
 30
0.0
 11
1622.489544382626
 21
1374.545906820834
 31
0.0
  0
LINE
  5
74
330
1F
100
AcDbEntity
  8
Linee visibili 2D
 62
   255
100
AcDbLine
 10
1619.106664798019
 20
1434.20365153942
 30
0.0
 11
1618.52828856473
 21
1442.938425901607
 31
0.0
  0
LINE
  5
75
330
1F
100
AcDbEntity
  8
Linee visibili 2D
 62
   255
100
AcDbLine
 10
1623.512936693947
 20
1443.335769633204
 30
0.0
 11
1624.117465698638
 21
1434.206590371566
 31
0.0
  0
LINE
  5
76
330
1F
100
AcDbEntity
  8
Linee visibili 2D
 62
   255
100
AcDbLine
 10
1681.009381920774
 20
1434.254194584839
 30
0.0
 11
1680.446346821426
 21
1434.250918224101
 31
0.0
  0
LINE
  5
77
330
1F
100
AcDbEntity
  8
Linee visibili 2D
 62
   255
100
AcDbLine
 10
1680.550196772417
 20
1434.022044536758
 30
0.0
 11
1680.344158257388
 21
1434.239567297777
 31
0.0
  0
LINE
  5
78
330
1F
100
AcDbEntity
  8
Linee visibili 2D
 62
   255
100
AcDbLine
 10
1515.641102048525
 20
1434.149430080693
 30
0.0
 11
1514.826619712438
 21
1434.156518169116
 31
0.0
  0
LINE
  5
79
330
1F
100
AcDbEntity
  8
Linee visibili 2D
 62
   255
100
AcDbLine
 10
1615.968682453017
 20
424.0999913171459
 30
0.0
 11
1616.135664539534
 21
426.0339271753679
 31
0.0
  0
ARC
  5
7A
330
1F
100
AcDbEntity
  8
Linee visibili 2D
 62
   255
100
AcDbCircle
 10
1558.73975518517
 20
384.5765665149246
 30
0.0
 40
255.0374514410818
100
AcDbArc
 50
245.2510164745582
 51
259.9226935401005
  0
LINE
  5
7B
330
1F
100
AcDbEntity
  8
Linee visibili 2D
 62
   255
100
AcDbLine
 10
1515.368098645288
 20
134.724595396927
 30
0.0
 11
1515.36008058985
 21
133.6565154071641
 31
0.0
  0
LINE
  5
7C
330
1F
100
AcDbEntity
  8
Linee visibili 2D
 62
   255
100
AcDbLine
 10
1636.115915269609
 20
1160.737927331932
 30
0.0
 11
1635.117251136448
 21
1160.737927331927
 31
0.0
  0
LINE
  5
7D
330
1F
100
AcDbEntity
  8
Linee visibili 2D
 62
   255
100
AcDbLine
 10
1672.639232878097
 20
1202.285501661344
 30
0.0
 11
1671.422084611344
 21
1202.436435618313
 31
0.0
  0
LINE
  5
7E
330
1F
100
AcDbEntity
  8
Linee visibili 2D
 62
   255
100
AcDbLine
 10
1628.067361055006
 20
1284.287892344801
 30
0.0
 11
1633.764054062663
 21
1284.458661809201
 31
0.0
  0
LINE
  5
7F
330
1F
100
AcDbEntity
  8
Linee visibili 2D
 62
   255
100
AcDbLine
 10
1617.736358359293
 20
1633.735550528321
 30
0.0
 11
1618.611121307733
 21
1633.73555052832
 31
0.0
  0
SPLINE
  5
80
330
1F
100
AcDbEntity
  8
Linee visibili 2D
 62
   255
100
AcDbSpline
210
0.0
220
0.0
230
1.0
 70
    28
 71
     2
 72
    10
 73
     7
 74
     0
 42
0.0000000001
 43
0.0000000001
 40
9.645675772972787
 40
9.645675772972787
 40
9.645675772972787
 40
102.8872082450431
 40
102.8872082450431
 40
205.7744164900861
 40
205.7744164900861
 40
215.4200922630589
 40
215.4200922630589
 40
215.4200922630589
 10
1562.900228409778
 20
1668.787663265088
 30
0.0
 41
0.9502310350844329
 10
1560.215516832323
 20
1668.787663265089
 30
0.0
 41
0.7345655204503088
 10
1616.400671613191
 20
1668.787663265088
 30
0.0
 41
1.0
 10
1680.80559962459
 20
1668.787663265088
 30
0.0
 41
0.7071067811865476
 10
1692.73285081522
 20
1668.787663265087
 30
0.0
 41
1.0
 10
1693.545847189221
 20
1668.787663265087
 30
0.0
 41
0.9725412607362388
 10
1693.755617197865
 20
1668.787663265087
 30
0.0
 41
0.9502310350844329
  0
LINE
  5
81
330
1F
100
AcDbEntity
  8
Linee visibili 2D
 62
   255
100
AcDbLine
 10
1596.522911820801
 20
1202.735550544447
 30
0.0
 11
1596.098823097429
 21
1202.46295715421
 31
0.0
  0
LINE
  5
82
330
1F
100
AcDbEntity
  8
Linee visibili 2D
 62
   255
100
AcDbLine
 10
1671.382187157447
 20
1202.462957116846
 30
0.0
 11
1670.802371100576
 21
1202.735550505765
 31
0.0
  0
LINE
  5
83
330
1F
100
AcDbEntity
  8
Linee visibili 2D
 62
   255
100
AcDbLine
 10
1670.74196694287
 20
1202.735550505796
 30
0.0
 11
1596.529305167191
 21
1202.735550544443
 31
0.0
  0
LINE
  5
84
330
1F
100
AcDbEntity
  8
Linee visibili 2D
 62
   255
100
AcDbLine
 10
1596.310761127271
 20
1202.73555052832
 30
0.0
 11
1589.361321563928
 21
1202.73555052832
 31
0.0
  0
LINE
  5
85
330
1F
100
AcDbEntity
  8
Linee visibili 2D
 62
   255
100
AcDbLine
 10
1596.060709405004
 20
1202.427265482259
 30
0.0
 11
1595.381804536156
 21
1202.246298918485
 31
0.0
  0
LINE
  5
86
330
1F
100
AcDbEntity
  8
Linee visibili 2D
 62
   255
100
AcDbLine
 10
1595.381804536156
 20
1202.246298918485
 30
0.0
 11
1594.824320544897
 21
1202.243737541567
 31
0.0
  0
LINE
  5
87
330
1F
100
AcDbEntity
  8
Linee visibili 2D
 62
   255
100
AcDbLine
 10
1622.428915210529
 20
1209.569714474434
 30
0.0
 11
1620.185879748935
 21
1208.617480271834
 31
0.0
  0
ARC
  5
88
330
1F
100
AcDbEntity
  8
Linee visibili 2D
 62
   255
100
AcDbCircle
 10
1628.078074932084
 20
1614.911633918554
 30
0.0
 40
4.614920478887506
100
AcDbArc
 50
55.92280492185841
 51
121.5182683376621
  0
ARC
  5
89
330
1F
100
AcDbEntity
  8
Linee visibili 2D
 62
   255
100
AcDbCircle
 10
1624.88034526106
 20
1377.780982222386
 30
0.0
 40
3.926716718016863
100
AcDbArc
 50
232.4023948866057
 51
311.4635658386637
  0
LINE
  5
8A
330
1F
100
AcDbEntity
  8
Linee visibili 2D
 62
   255
100
AcDbLine
 10
1625.180086791121
 20
1208.451705380932
 30
0.0
 11
1622.428915210529
 21
1209.569714474434
 31
0.0
  0
LINE
  5
8B
330
1F
100
AcDbEntity
  8
Linee visibili 2D
 62
   255
100
AcDbLine
 10
1622.204736202905
 20
1464.638702536557
 30
0.0
 11
1622.763193515295
 21
1455.096469601325
 31
0.0
  0
LINE
  5
8C
330
1F
100
AcDbEntity
  8
Linee visibili 2D
 62
   255
100
AcDbLine
 10
1544.363619898666
 20
1641.789028253872
 30
0.0
 11
1542.301367072349
 21
1641.78904553003
 31
0.0
  0
LINE
  5
8D
330
1F
100
AcDbEntity
  8
Linee visibili 2D
 62
   255
100
AcDbLine
 10
1545.490271565621
 20
1641.304364836193
 30
0.0
 11
1544.456313097563
 21
1641.789027233069
 31
0.0
  0
LINE
  5
8E
330
1F
100
AcDbEntity
  8
Linee visibili 2D
 62
   255
100
AcDbLine
 10
1577.371298462908
 20
1626.43947923272
 30
0.0
 11
1575.399777375072
 21
1626.782725413131
 31
0.0
  0
LINE
  5
8F
330
1F
100
AcDbEntity
  8
Linee visibili 2D
 62
   255
100
AcDbLine
 10
1718.323764399967
 20
1641.787143366877
 30
0.0
 11
1700.217247402144
 21
1641.787379607987
 31
0.0
  0
LINE
  5
90
330
1F
100
AcDbEntity
  8
Linee visibili 2D
 62
   255
100
AcDbLine
 10
1650.7988966559
 20
1621.387864409015
 30
0.0
 11
1607.50009972342
 21
1621.388334832167
 31
0.0
  0
LINE
  5
91
330
1F
100
AcDbEntity
  8
Linee visibili 2D
 62
   255
100
AcDbLine
 10
1617.379847913154
 20
1636.937378402659
 30
0.0
 11
1622.00660842878
 21
1626.782256286233
 31
0.0
  0
LINE
  5
92
330
1F
100
AcDbEntity
  8
Linee visibili 2D
 62
   255
100
AcDbLine
 10
1619.756428799324
 20
1631.089221045952
 30
0.0
 11
1619.103375308924
 21
1631.294019264969
 31
0.0
  0
LINE
  5
93
330
1F
100
AcDbEntity
  8
Linee visibili 2D
 62
   255
100
AcDbLine
 10
1544.363564515562
 20
1636.938189137098
 30
0.0
 11
1544.363619898465
 21
1641.789010648059
 31
0.0
  0
LINE
  5
94
330
1F
100
AcDbEntity
  8
Linee visibili 2D
 62
   255
100
AcDbLine
 10
1545.490262780194
 20
1641.789018436545
 30
0.0
 11
1545.490350713192
 21
1636.938127082296
 31
0.0
  0
LINE
  5
95
330
1F
100
AcDbEntity
  8
Linee visibili 2D
 62
   255
100
AcDbLine
 10
1698.372763913748
 20
1636.936635003744
 30
0.0
 11
1698.372663765386
 21
1641.787401221063
 31
0.0
  0
ARC
  5
96
330
1F
100
AcDbEntity
  8
Linee visibili 2D
 62
   255
100
AcDbCircle
 10
1628.714210864902
 20
1842.220261442569
 30
0.0
 40
221.9363889693998
100
AcDbArc
 50
247.6621835750739
 51
256.100242224571
  0
ARC
  5
97
330
1F
100
AcDbEntity
  8
Linee visibili 2D
 62
   255
100
AcDbCircle
 10
1672.275877172609
 20
1630.917273752
 30
0.0
 40
4.410154593702694
100
AcDbArc
 50
259.2277769683196
 51
290.324172625196
  0
LINE
  5
98
330
1F
100
AcDbEntity
  8
Linee visibili 2D
 62
   255
100
AcDbLine
 10
1538.329329499501
 20
1636.938229575113
 30
0.0
 11
1542.301395270058
 21
1636.938201271185
 31
0.0
  0
LINE
  5
99
330
1F
100
AcDbEntity
  8
Linee visibili 2D
 62
   255
100
AcDbLine
 10
1700.217247402144
 20
1641.787379608423
 30
0.0
 11
1700.21716085551
 21
1636.936522520899
 31
0.0
  0
LINE
  5
9A
330
1F
100
AcDbEntity
  8
Linee visibili 2D
 62
   255
100
AcDbLine
 10
1606.847593017554
 20
1621.388339650584
 30
0.0
 11
1607.50009972342
 21
1621.388334832771
 31
0.0
  0
LINE
  5
9B
330
1F
100
AcDbEntity
  8
Linee visibili 2D
 62
   255
100
AcDbLine
 10
1614.408574139378
 20
1636.937541981853
 30
0.0
 11
1614.408649486545
 21
1641.788324729889
 31
0.0
  0
LINE
  5
9C
330
1F
100
AcDbEntity
  8
Linee visibili 2D
 62
   255
100
AcDbLine
 10
1619.035430461578
 20
1631.361042842253
 30
0.0
 11
1614.823198727785
 21
1640.514684589703
 31
0.0
  0
SPLINE
  5
9D
330
1F
100
AcDbEntity
  8
Linee visibili 2D
 62
   255
100
AcDbSpline
210
0.0
220
0.0
230
1.0
 70
     8
 71
     3
 72
    16
 73
    12
 74
     0
 42
0.0000000001
 43
0.0000000001
 40
0.0
 40
0.0
 40
0.0
 40
0.0
 40
51.17078059651704
 40
93.09347462389381
 40
135.6333361640498
 40
174.7078615714913
 40
209.7754592227535
 40
238.3143228970568
 40
259.3243001905028
 40
267.8347368112324
 40
274.6525597208386
 40
274.6525597208386
 40
274.6525597208386
 40
274.6525597208386
 10
1623.079059415831
 20
1284.834829421423
 30
0.0
 10
1606.034168673859
 20
1285.416886003516
 30
0.0
 10
1575.020596832673
 20
1286.769405783742
 30
0.0
 10
1530.017662470984
 20
1291.276097569951
 30
0.0
 10
1489.355756700282
 20
1297.935883597017
 30
0.0
 10
1451.443637157884
 20
1306.70317515803
 30
0.0
 10
1418.831819690092
 20
1317.263598990409
 30
0.0
 10
1393.125799929311
 20
1328.979433235316
 30
0.0
 10
1377.094050721515
 20
1340.100079131219
 30
0.0
 10
1369.500686911629
 20
1349.704769732272
 30
0.0
 10
1367.684852415254
 20
1354.553051849956
 30
0.0
 10
1367.362995857804
 20
1356.808510928214
 30
0.0
  0
SPLINE
  5
9E
330
1F
100
AcDbEntity
  8
Linee visibili 2D
 62
   255
100
AcDbSpline
210
0.0
220
0.0
230
1.0
 70
     8
 71
     3
 72
    15
 73
    11
 74
     0
 42
0.0000000001
 43
0.0000000001
 40
0.0
 40
0.0
 40
0.0
 40
0.0
 40
24.10452215435727
 40
46.09029803026809
 40
64.87653576336919
 40
80.180912334963
 40
92.85690686698749
 40
103.915608846644
 40
113.6781770095189
 40
123.014903437858
 40
123.014903437858
 40
123.014903437858
 40
123.014903437858
 10
1394.794280981892
 20
1417.447853807402
 30
0.0
 10
1386.986390722958
 20
1415.55166450939
 30
0.0
 10
1372.131892487428
 20
1411.614503475161
 30
0.0
 10
1351.538087837003
 20
1404.982145346682
 30
0.0
 10
1334.151266444091
 20
1398.087611395298
 30
0.0
 10
1320.222882339063
 20
1391.030100262983
 30
0.0
 10
1309.539170070274
 20
1383.522447559228
 30
0.0
 10
1301.79953833493
 20
1375.370954358152
 30
0.0
 10
1297.025121738682
 20
1366.391051812622
 30
0.0
 10
1296.004968962857
 20
1360.013179177421
 30
0.0
 10
1295.996621239629
 20
1356.903917432211
 30
0.0
  0
SPLINE
  5
9F
330
1F
100
AcDbEntity
  8
Linee visibili 2D
 62
   255
100
AcDbSpline
210
0.0
220
0.0
230
1.0
 70
     8
 71
     3
 72
    25
 73
    21
 74
     0
 42
0.0000000001
 43
0.0000000001
 40
0.0
 40
0.0
 40
0.0
 40
0.0
 40
40.98640532637214
 40
80.53580227086485
 40
118.825727365906
 40
152.861143477533
 40
182.5118268518268
 40
206.9380092573303
 40
225.3007419475563
 40
232.3914126653416
 40
238.6449598876292
 40
243.4007783548523
 40
248.4384445695256
 40
260.6772847992592
 40
277.5604815847008
 40
299.7284904989074
 40
326.6364138324647
 40
361.2055453962341
 40
401.4715589270388
 40
453.2425171047047
 40
453.2425171047047
 40
453.2425171047047
 40
453.2425171047047
 10
1587.642056157421
 20
1282.543673568971
 30
0.0
 10
1574.003237514694
 20
1283.328018934684
 30
0.0
 10
1547.227538652414
 20
1285.399643600863
 30
0.0
 10
1507.967450466477
 20
1290.770121138797
 30
0.0
 10
1471.354398162882
 20
1297.936094759354
 30
0.0
 10
1438.492146528212
 20
1306.723214362053
 30
0.0
 10
1410.845191999641
 20
1316.734179108597
 30
0.0
 10
1389.178192858266
 20
1327.517695502978
 30
0.0
 10
1375.804837812978
 20
1337.605951298584
 30
0.0
 10
1369.424384887995
 20
1346.157886457907
 30
0.0
 10
1367.216943514032
 20
1351.843888116158
 30
0.0
 10
1367.084668969753
 20
1357.281084967829
 30
0.0
 10
1369.716944578772
 20
1364.305150268206
 30
0.0
 10
1378.543523537099
 20
1371.992411336695
 30
0.0
 10
1394.190724878975
 20
1378.940527805889
 30
0.0
 10
1415.554988571498
 20
1384.480571143602
 30
0.0
 10
1443.14019668998
 20
1388.542799232101
 30
0.0
 10
1476.943373703632
 20
1391.498965121697
 30
0.0
 10
1519.107868311597
 20
1393.366222798128
 30
0.0
 10
1549.784057747088
 20
1393.905661367947
 30
0.0
 10
1567.040245786352
 20
1394.063719789454
 30
0.0
  0
LINE
  5
A0
330
1F
100
AcDbEntity
  8
Linee visibili 2D
 62
   255
100
AcDbLine
 10
1698.372663762317
 20
1641.787310726941
 30
0.0
 11
1700.217247401308
 21
1641.787292901093
 31
0.0
  0
LINE
  5
A1
330
1F
100
AcDbEntity
  8
Linee visibili 2D
 62
   255
100
AcDbLine
 10
1544.363619932715
 20
1641.788976363838
 30
0.0
 11
1545.49026277975
 21
1641.788962093534
 31
0.0
  0
LINE
  5
A2
330
1F
100
AcDbEntity
  8
Linee visibili 2D
 62
   255
100
AcDbLine
 10
1542.301367072349
 20
1641.789045529964
 30
0.0
 11
1538.329363217796
 21
1641.789067261106
 31
0.0
  0
LINE
  5
A3
330
1F
100
AcDbEntity
  8
Linee visibili 2D
 62
   255
100
AcDbLine
 10
1614.408649486545
 20
1641.788324728608
 30
0.0
 11
1545.490262780195
 21
1641.789018432241
 31
0.0
  0
LINE
  5
A4
330
1F
100
AcDbEntity
  8
Linee visibili 2D
 62
   255
100
AcDbLine
 10
1698.372663765386
 20
1641.787401214242
 30
0.0
 11
1617.393694677258
 21
1641.788293151299
 31
0.0
  0
LINE
  5
A5
330
1F
100
AcDbEntity
  8
Linee visibili 2D
 62
   255
100
AcDbLine
 10
1542.301395270058
 20
1636.93820127123
 30
0.0
 11
1544.363564515562
 21
1636.938189137105
 31
0.0
  0
LINE
  5
A6
330
1F
100
AcDbEntity
  8
Linee visibili 2D
 62
   255
100
AcDbLine
 10
1576.5264202566
 20
1626.782715595642
 30
0.0
 11
1577.443238674721
 21
1626.489475607044
 31
0.0
  0
ARC
  5
A7
330
1F
100
AcDbEntity
  8
Linee visibili 2D
 62
   255
100
AcDbCircle
 10
1629.842206257507
 20
1842.224392371701
 30
0.0
 40
221.9407333703629
100
AcDbArc
 50
247.662304790659
 51
256.1001600787664
  0
LINE
  5
A8
330
1F
100
AcDbEntity
  8
Linee visibili 2D
 62
   255
100
AcDbLine
 10
1623.606030116004
 20
1572.769249632677
 30
0.0
 11
1621.374326863637
 21
1571.168763425206
 31
0.0
  0
ARC
  5
A9
330
1F
100
AcDbEntity
  8
Linee visibili 2D
 62
   255
100
AcDbCircle
 10
1621.276678777767
 20
1552.139157660593
 30
0.0
 40
2.46315806705368
100
AcDbArc
 50
8.6234169475254
 51
97.00964391414439
  0
ARC
  5
AA
330
1F
100
AcDbEntity
  8
Linee visibili 2D
 62
   255
100
AcDbCircle
 10
1621.833107927517
 20
1556.729231316515
 30
0.0
 40
2.465394952530815
100
AcDbArc
 50
6.557189782815533
 51
96.49260381316508
  0
LINE
  5
AB
330
1F
100
AcDbEntity
  8
Linee visibili 2D
 62
   255
100
AcDbLine
 10
1619.324770421324
 20
1557.660195619631
 30
0.0
 11
1621.554333504676
 21
1559.178814361267
 31
0.0
  0
LINE
  5
AC
330
1F
100
AcDbEntity
  8
Linee visibili 2D
 62
   255
100
AcDbLine
 10
1618.748679271457
 20
1553.112960434411
 30
0.0
 11
1620.976083822033
 21
1554.583905160004
 31
0.0
  0
LINE
  5
AD
330
1F
100
AcDbEntity
  8
Linee visibili 2D
 62
   255
100
AcDbLine
 10
1618.497908941032
 20
1484.990018293855
 30
0.0
 11
1621.265431637097
 21
1485.64541305894
 31
0.0
  0
LINE
  5
AE
330
1F
100
AcDbEntity
  8
Linee visibili 2D
 62
   255
100
AcDbLine
 10
1618.221871178966
 20
1496.330669708456
 30
0.0
 11
1620.946284080067
 21
1496.498246531263
 31
0.0
  0
SPLINE
  5
AF
330
1F
100
AcDbEntity
  8
Linee visibili 2D
 62
   255
100
AcDbSpline
210
0.0
220
0.0
230
1.0
 70
    12
 71
     2
 72
     8
 73
     5
 74
     0
 42
0.0000000001
 43
0.0000000001
 40
0.0
 40
0.0
 40
0.0
 40
2.001903221946154
 40
2.001903221946154
 40
3.697571573793302
 40
3.697571573793302
 40
3.697571573793302
 10
1616.041030726489
 20
1496.492110793978
 30
0.0
 41
1.0
 10
1615.88402674564
 20
1496.419233308427
 30
0.0
 41
0.9207861530627415
 10
1616.527079116295
 20
1496.371630067829
 30
0.0
 41
1.0
 10
1617.373722428338
 20
1496.320005076415
 30
0.0
 41
0.9993252718127565
 10
1618.221871178966
 20
1496.330669708456
 30
0.0
 41
1.0
  0
LINE
  5
B0
330
1F
100
AcDbEntity
  8
Linee visibili 2D
 62
   255
100
AcDbLine
 10
1616.271766921479
 20
1485.448138041021
 30
0.0
 11
1618.497908941032
 21
1484.990018293855
 31
0.0
  0
LINE
  5
B1
330
1F
100
AcDbEntity
  8
Linee visibili 2D
 62
   255
100
AcDbLine
 10
1618.713558026893
 20
1527.694917959411
 30
0.0
 11
1621.50152517218
 21
1526.477605083089
 31
0.0
  0
ARC
  5
B2
330
1F
100
AcDbEntity
  8
Linee visibili 2D
 62
   255
100
AcDbCircle
 10
1619.693907749838
 20
1534.711609493073
 30
0.0
 40
2.551692776765825
100
AcDbArc
 50
21.28331566582877
 51
98.83125491583924
  0
LINE
  5
B3
330
1F
100
AcDbEntity
  8
Linee visibili 2D
 62
   255
100
AcDbLine
 10
1617.090402309636
 20
1536.05546264195
 30
0.0
 11
1619.302159388673
 21
1537.233051391774
 31
0.0
  0
LINE
  5
B4
330
1F
100
AcDbEntity
  8
Linee visibili 2D
 62
   255
100
AcDbLine
 10
1616.510399313004
 20
1526.760224506618
 30
0.0
 11
1618.713558026893
 21
1527.694917959411
 31
0.0
  0
LINE
  5
B5
330
1F
100
AcDbEntity
  8
Linee visibili 2D
 62
   255
100
AcDbLine
 10
1617.777513142069
 20
1454.709887491617
 30
0.0
 11
1617.213292513739
 21
1464.345959295404
 31
0.0
  0
LINE
  5
B6
330
1F
100
AcDbEntity
  8
Linee visibili 2D
 62
   255
100
AcDbLine
 10
1627.719749776669
 20
1271.509071221074
 30
0.0
 11
1627.159650373071
 21
1255.00749996596
 31
0.0
  0
LINE
  5
B7
330
1F
100
AcDbEntity
  8
Linee visibili 2D
 62
   255
100
AcDbLine
 10
1622.167679084882
 20
1255.315251782566
 30
0.0
 11
1622.722062317981
 21
1271.661124058193
 31
0.0
  0
LINE
  5
B8
330
1F
100
AcDbEntity
  8
Linee visibili 2D
 62
   255
100
AcDbLine
 10
1630.389366843272
 20
1610.82946583173
 30
0.0
 11
1629.994082320757
 21
1603.493333213681
 31
0.0
  0
LINE
  5
B9
330
1F
100
AcDbEntity
  8
Linee visibili 2D
 62
   255
100
AcDbLine
 10
1625.010637501194
 20
1603.913525502071
 30
0.0
 11
1625.394474786762
 21
1611.055415701851
 31
0.0
  0
LINE
  5
BA
330
1F
100
AcDbEntity
  8
Linee visibili 2D
 62
   255
100
AcDbLine
 10
1628.535862893209
 20
1323.697052363114
 30
0.0
 11
1628.526582333283
 21
1316.324841090189
 31
0.0
  0
LINE
  5
BB
330
1F
100
AcDbEntity
  8
Linee visibili 2D
 62
   255
100
AcDbLine
 10
1623.526617057403
 20
1316.343477253325
 30
0.0
 11
1623.535865058021
 21
1323.692178765993
 31
0.0
  0
LINE
  5
BC
330
1F
100
AcDbEntity
  8
Linee visibili 2D
 62
   255
100
AcDbLine
 10
1628.029988152297
 20
1358.654966910306
 30
0.0
 11
1628.38731672278
 21
1342.009333520133
 31
0.0
  0
LINE
  5
BD
330
1F
100
AcDbEntity
  8
Linee visibili 2D
 62
   255
100
AcDbLine
 10
1623.387883614564
 20
1341.934043437868
 30
0.0
 11
1623.034240804522
 21
1358.433132028598
 31
0.0
  0
LINE
  5
BE
330
1F
100
AcDbEntity
  8
Linee visibili 2D
 62
   255
100
AcDbLine
 10
1616.013045418781
 20
1496.491712019168
 30
0.0
 11
1615.968931453567
 21
1500.821226372947
 31
0.0
  0
LINE
  5
BF
330
1F
100
AcDbEntity
  8
Linee visibili 2D
 62
   255
100
AcDbLine
 10
1620.968840083028
 20
1500.851457446638
 30
0.0
 11
1621.012893673887
 21
1496.538023015175
 31
0.0
  0
LINE
  5
C0
330
1F
100
AcDbEntity
  8
Linee visibili 2D
 62
   255
100
AcDbLine
 10
1627.559257964714
 20
1578.54543423616
 30
0.0
 11
1626.389079302409
 21
1570.8358705641
 31
0.0
  0
LINE
  5
C1
330
1F
100
AcDbEntity
  8
Linee visibili 2D
 62
   255
100
AcDbLine
 10
1621.426225983127
 20
1571.474634757469
 30
0.0
 11
1622.60545202836
 21
1579.223524749992
 31
0.0
  0
LINE
  5
C2
330
1F
100
AcDbEntity
  8
Linee visibili 2D
 62
   255
100
AcDbLine
 10
1618.789398330271
 20
1553.449848682293
 30
0.0
 11
1619.324711595416
 21
1557.659754944034
 31
0.0
  0
LINE
  5
C3
330
1F
100
AcDbEntity
  8
Linee visibili 2D
 62
   255
100
AcDbLine
 10
1624.280895664051
 20
1556.999270668812
 30
0.0
 11
1623.712798154467
 21
1552.515027691904
 31
0.0
  0
LINE
  5
C4
330
1F
100
AcDbEntity
  8
Linee visibili 2D
 62
   255
100
AcDbLine
 10
1616.270519663571
 20
1485.461935150091
 30
0.0
 11
1616.013404474923
 21
1496.466554494522
 31
0.0
  0
LINE
  5
C5
330
1F
100
AcDbEntity
  8
Linee visibili 2D
 62
   255
100
AcDbLine
 10
1621.01344972007
 20
1496.499210900427
 30
0.0
 11
1621.266667088644
 21
1485.661580354288
 31
0.0
  0
LINE
  5
C6
330
1F
100
AcDbEntity
  8
Linee visibili 2D
 62
   255
100
AcDbLine
 10
1616.523202572489
 20
1527.008724444886
 30
0.0
 11
1617.090404230909
 21
1536.055501293604
 31
0.0
  0
LINE
  5
C7
330
1F
100
AcDbEntity
  8
Linee visibili 2D
 62
   255
100
AcDbLine
 10
1622.073142123374
 20
1535.637705735151
 30
0.0
 11
1621.517442020895
 21
1526.768090745726
 31
0.0
  0
LINE
  5
C8
330
1F
100
AcDbEntity
  8
Linee visibili 2D
 62
   255
100
AcDbLine
 10
1698.372683845519
 20
1640.81477194326
 30
0.0
 11
1700.138372901042
 21
1641.787380402286
 31
0.0
  0
LINE
  5
C9
330
1F
100
AcDbEntity
  8
Linee visibili 2D
 62
   255
100
AcDbLine
 10
1676.778596591942
 20
1202.73555052832
 30
0.0
 11
1671.092172794937
 21
1202.73555052832
 31
0.0
  0
LINE
  5
CA
330
1F
100
AcDbEntity
  8
Linee visibili 2D
 62
   255
100
AcDbLine
 10
1635.098929254028
 20
1160.737927349921
 30
0.0
 11
1634.122731311127
 21
1160.737927331924
 31
0.0
  0
SPLINE
  5
CB
330
1F
100
AcDbEntity
  8
Linee visibili 2D
 62
   255
100
AcDbSpline
210
0.0
220
0.0
230
1.0
 70
     8
 71
     3
 72
    20
 73
    16
 74
     0
 42
0.0000000001
 43
0.0000000001
 40
0.0
 40
0.0
 40
0.0
 40
0.0
 40
46.98963274752554
 40
84.59907414470716
 40
140.7274235787962
 40
189.0382982207611
 40
209.049220194937
 40
224.808811376729
 40
234.5345173367775
 40
243.5222821856088
 40
253.9711303348462
 40
267.2312928184185
 40
283.5560582348717
 40
303.6347398036726
 40
349.0113293575263
 40
349.0113293575263
 40
349.0113293575263
 40
349.0113293575263
 10
1635.538894537144
 20
1393.553490392516
 30
0.0
 10
1651.201367916564
 20
1393.183888424035
 30
0.0
 10
1679.376500708787
 20
1392.199800757658
 30
0.0
 10
1726.205206186139
 20
1389.131412722473
 30
0.0
 10
1773.183515271222
 20
1382.717606227033
 30
0.0
 10
1812.883266756133
 20
1369.612996194516
 30
0.0
 10
1836.838009608159
 20
1354.790028103858
 30
0.0
 10
1847.730545840175
 20
1344.065484610962
 30
0.0
 10
1853.024204314746
 20
1333.589394623986
 30
0.0
 10
1852.23346940924
 20
1323.466324301382
 30
0.0
 10
1845.841711942649
 20
1314.346657905321
 30
0.0
 10
1835.273402053696
 20
1306.096224342509
 30
0.0
 10
1820.530626274072
 20
1298.460370760881
 30
0.0
 10
1794.938715470832
 20
1288.947100788335
 30
0.0
 10
1773.445514665565
 20
1284.64458876728
 30
0.0
 10
1758.492625582898
 20
1282.468548547068
 30
0.0
  0
SPLINE
  5
CC
330
1F
100
AcDbEntity
  8
Linee visibili 2D
 62
   255
100
AcDbSpline
210
0.0
220
0.0
230
1.0
 70
     8
 71
     3
 72
    20
 73
    16
 74
     0
 42
0.0000000001
 43
0.0000000001
 40
0.0
 40
0.0
 40
0.0
 40
0.0
 40
29.61057045746851
 40
53.91330620532532
 40
73.9855677917155
 40
90.40172046119292
 40
105.0243575314277
 40
118.7194596408718
 40
134.194587115087
 40
149.3216874460242
 40
164.4692241688682
 40
179.5761542724482
 40
216.6655246204412
 40
261.3287101706547
 40
319.2613150079501
 40
319.2613150079501
 40
319.2613150079501
 40
319.2613150079501
 10
1842.557588987828
 20
1250.010154486783
 30
0.0
 10
1852.317750119362
 20
1251.471434745741
 30
0.0
 10
1870.031775742768
 20
1254.56958174026
 30
0.0
 10
1893.971961817751
 20
1260.563433975011
 30
0.0
 10
1912.992786012692
 20
1267.714768038699
 30
0.0
 10
1927.818055084162
 20
1276.220483341858
 30
0.0
 10
1938.972379617771
 20
1286.327620837253
 30
0.0
 10
1946.505817541527
 20
1299.01687963048
 30
0.0
 10
1950.05328455999
 20
1313.509475036239
 30
0.0
 10
1949.651294814878
 20
1328.903260968507
 30
0.0
 10
1944.425879462149
 20
1343.309140381961
 30
0.0
 10
1931.309437381159
 20
1361.741826077025
 30
0.0
 10
1905.404030302898
 20
1381.664191437825
 30
0.0
 10
1862.595224150247
 20
1400.402345535264
 30
0.0
 10
1829.459461551115
 20
1409.196623712589
 30
0.0
 10
1810.602879291248
 20
1413.323477572182
 30
0.0
  0
LINE
  5
CD
330
1F
100
AcDbEntity
  8
Linee visibili 2D
 62
   255
100
AcDbLine
 10
1596.098823097429
 20
1202.46295715421
 30
0.0
 11
1671.382187157447
 21
1202.462957116846
 31
0.0
  0
SPLINE
  5
CE
330
1F
100
AcDbEntity
  8
Linee visibili 2D
 62
   255
100
AcDbSpline
210
0.0
220
0.0
230
1.0
 70
     8
 71
     3
 72
    21
 73
    17
 74
     0
 42
0.0000000001
 43
0.0000000001
 40
0.0
 40
0.0
 40
0.0
 40
0.0
 40
26.07929817010862
 40
46.56591485728246
 40
65.4505671459325
 40
82.9257022506132
 40
94.8658398798508
 40
100.0390172702185
 40
103.9674739422159
 40
113.1674815407404
 40
125.0983955996489
 40
134.0524892705879
 40
144.9412442231188
 40
173.0903359703124
 40
206.6830714773994
 40
246.1130295394069
 40
246.1130295394069
 40
246.1130295394069
 40
246.1130295394069
 10
1672.721464877848
 20
1202.293089566818
 30
0.0
 10
1681.365820959707
 20
1203.21073169985
 30
0.0
 10
1696.774124688302
 20
1205.15591854942
 30
0.0
 10
1718.112842266541
 20
1209.877201678232
 30
0.0
 10
1735.873644180398
 20
1216.63340962888
 30
0.0
 10
1749.931088920856
 20
1224.596234063499
 30
0.0
 10
1758.679256676933
 20
1232.27558522083
 30
0.0
 10
1761.627409499013
 20
1238.859937485726
 30
0.0
 10
1761.936523084302
 20
1245.069792643666
 30
0.0
 10
1757.500537726014
 20
1252.662545742799
 30
0.0
 10
1748.459260127746
 20
1257.53115581763
 30
0.0
 10
1738.491202706115
 20
1260.90388850992
 30
0.0
 10
1722.738009220086
 20
1264.024630694907
 30
0.0
 10
1698.605234313189
 20
1266.174940448713
 30
0.0
 10
1664.853835977137
 20
1266.181692130501
 30
0.0
 10
1640.555136222514
 20
1264.594593325254
 30
0.0
 10
1627.461214196574
 20
1263.460162410019
 30
0.0
  0
SPLINE
  5
CF
330
1F
100
AcDbEntity
  8
Linee visibili 2D
 62
   255
100
AcDbSpline
210
0.0
220
0.0
230
1.0
 70
     8
 71
     3
 72
    39
 73
    35
 74
     0
 42
0.0000000001
 43
0.0000000001
 40
0.0
 40
0.0
 40
0.0
 40
0.0
 40
41.12327261498917
 40
74.90115877411107
 40
89.51214725113293
 40
101.0083248044824
 40
111.0449889078321
 40
118.7751147347461
 40
126.5014847324627
 40
135.3624151890336
 40
146.5827908666414
 40
159.4384562512156
 40
190.5705340261457
 40
226.6781204520687
 40
273.7474246388161
 40
340.1740213564024
 40
422.6136870670086
 40
506.6675886899037
 40
553.6863179062912
 40
587.0453215022069
 40
600.4349849834249
 40
611.6917667617239
 40
620.2896684483723
 40
627.5603351069284
 40
633.9337997281025
 40
640.938946055389
 40
649.8529585210734
 40
660.4573101326894
 40
687.6022650643433
 40
722.0061604673378
 40
762.3162107602418
 40
806.783840493711
 40
851.111379564608
 40
903.9349224281751
 40
903.9349224281751
 40
903.9349224281751
 40
903.9349224281751
 10
1743.664073048437
 20
1284.422611807168
 30
0.0
 10
1757.278555350015
 20
1282.850362192729
 30
0.0
 10
1781.997549574362
 20
1279.013048763751
 30
0.0
 10
1810.590458821496
 20
1270.122133844334
 30
0.0
 10
1828.553484678866
 20
1261.309604496584
 30
0.0
 10
1838.509144172583
 20
1254.460134457597
 30
0.0
 10
1845.297406057909
 20
1247.333986858622
 30
0.0
 10
1848.853834150391
 20
1239.422024838865
 30
0.0
 10
1848.37377781355
 20
1231.080821168373
 30
0.0
 10
1843.905581614084
 20
1222.794831981688
 30
0.0
 10
1836.299730319043
 20
1214.816553404596
 30
0.0
 10
1821.46789834594
 20
1203.811185344539
 30
0.0
 10
1797.064126525605
 20
1192.578975939922
 30
0.0
 10
1760.203252849212
 20
1182.632591032807
 30
0.0
 10
1710.613520514316
 20
1176.488575339071
 30
0.0
 10
1645.379590900024
 20
1173.45702797849
 30
0.0
 10
1567.721267414497
 20
1172.612513505289
 30
0.0
 10
1496.559465026193
 20
1174.327364394443
 30
0.0
 10
1441.886115776888
 20
1178.539679952577
 30
0.0
 10
1411.024834323979
 20
1183.889522465222
 30
0.0
 10
1392.590882822048
 20
1189.857982356638
 30
0.0
 10
1382.632258024036
 20
1194.809180019672
 30
0.0
 10
1375.415168091687
 20
1200.358362665278
 30
0.0
 10
1371.33547720173
 20
1206.770804739239
 30
0.0
 10
1370.909364442754
 20
1213.871643739927
 30
0.0
 10
1373.871290026922
 20
1220.83224441811
 30
0.0
 10
1379.502870864679
 20
1227.703770097764
 30
0.0
 10
1391.660110978648
 20
1237.52158551545
 30
0.0
 10
1413.152953190934
 20
1248.564879019833
 30
0.0
 10
1445.124265720423
 20
1260.055939069159
 30
0.0
 10
1483.72550197691
 20
1269.674534619827
 30
0.0
 10
1526.133615113765
 20
1277.099032957449
 30
0.0
 10
1573.101650491812
 20
1282.084002226256
 30
0.0
 10
1605.466877862148
 20
1283.521850890156
 30
0.0
 10
1623.062056361864
 20
1284.126391820363
 30
0.0
  0
ARC
  5
D0
330
1F
100
AcDbEntity
  8
Linee visibili 2D
 62
   255
100
AcDbCircle
 10
1942.978388713515
 20
263.426805174596
 30
0.0
 40
1.994155785471534
100
AcDbArc
 50
198.5842210072407
 51
15.13499503111319
  0
ARC
  5
D1
330
1F
100
AcDbEntity
  8
Linee visibili 2D
 62
   255
100
AcDbCircle
 10
1255.916013497004
 20
1496.066292676815
 30
0.0
 40
3.112678904446613
100
AcDbArc
 50
236.9585617065345
 51
312.8778573572018
  0
SPLINE
  5
D2
330
1F
100
AcDbEntity
  8
Linee visibili 2D
 62
   255
100
AcDbSpline
210
0.0
220
0.0
230
1.0
 70
     8
 71
     3
 72
    10
 73
     6
 74
     0
 42
0.0000000001
 43
0.0000000001
 40
-1.209869491856851
 40
-1.209869491856851
 40
-1.209869491856851
 40
-1.209869491856851
 40
-1.15625
 40
-1.0625
 40
-1.030888604452917
 40
-1.030888604452917
 40
-1.030888604452917
 40
-1.030888604452917
 10
1738.553883160425
 20
924.0774160680584
 30
0.0
 10
1790.908399311726
 20
920.4790174076819
 30
0.0
 10
1932.847347909292
 20
893.2933323726302
 30
0.0
 10
2094.582257214424
 20
788.7300478424502
 30
0.0
 10
2120.688933873991
 20
669.2477647682352
 30
0.0
 10
2123.091987311912
 20
638.3050779151224
 30
0.0
  0
LINE
  5
D3
330
1F
100
AcDbEntity
  8
Linee visibili 2D
 62
   255
100
AcDbLine
 10
1738.253986431004
 20
924.0979592994878
 30
0.0
 11
1738.553883160425
 21
924.0774160680584
 31
0.0
  0
LINE
  5
D4
330
1F
100
AcDbEntity
  8
Linee visibili 2D
 62
   255
100
AcDbLine
 10
1594.82432054471
 20
379.5470317572631
 30
0.0
 11
1594.836652929321
 21
380.5822344823439
 31
0.0
  0
LINE
  5
D5
330
1F
100
AcDbEntity
  8
Linee visibili 2D
 62
   255
100
AcDbLine
 10
1634.465234904172
 20
689.0820195615852
 30
0.0
 11
1633.370495826396
 21
689.9491859769162
 31
0.0
  0
LINE
  5
D6
330
1F
100
AcDbEntity
  8
Linee visibili 2D
 62
   255
100
AcDbLine
 10
1634.47768717808
 20
690.117220854951
 30
0.0
 11
1633.382948100304
 21
690.9843872702825
 31
0.0
  0
LINE
  5
D7
330
1F
100
AcDbEntity
  8
Linee visibili 2D
 62
   255
100
AcDbLine
 10
1744.013662006801
 20
687.7613481612652
 30
0.0
 11
1744.024878303947
 21
688.6937983626149
 31
0.0
  0
ARC
  5
D8
330
1F
100
AcDbEntity
  8
Linee visibili 2D
 62
   255
100
AcDbCircle
 10
1744.906769448686
 20
688.2888360498322
 30
0.0
 40
1.016526648100974
100
AcDbArc
 50
66.01744516763627
 51
150.0357844124011
  0
ARC
  5
D9
330
1F
100
AcDbEntity
  8
Linee visibili 2D
 62
   255
100
AcDbCircle
 10
1744.894317174779
 20
687.2536347564658
 30
0.0
 40
1.016526648101389
100
AcDbArc
 50
66.01744516764668
 51
150.0357844124489
  0
LINE
  5
DA
330
1F
100
AcDbEntity
  8
Linee visibili 2D
 62
   255
100
AcDbLine
 10
1743.99316294404
 20
688.6941798617045
 30
0.0
 11
1743.163621486539
 21
685.8003185688124
 31
0.0
  0
SPLINE
  5
DB
330
1F
100
AcDbEntity
  8
Linee visibili 2D
 62
   255
100
AcDbSpline
210
0.0
220
0.0
230
1.0
 70
     8
 71
     3
 72
    11
 73
     7
 74
     0
 42
0.0000000001
 43
0.0000000001
 40
0.0
 40
0.0
 40
0.0
 40
0.0
 40
23.25098286188413
 40
46.35933517564509
 40
96.38434698798451
 40
203.3624448254584
 40
203.3624448254584
 40
203.3624448254584
 40
203.3624448254584
 10
1743.676405432861
 20
685.5266008296857
 30
0.0
 10
1750.780598717989
 20
682.3926356771532
 30
0.0
 10
1764.45983830212
 20
675.1996526541341
 30
0.0
 10
1790.285296386844
 20
655.7825380716987
 30
0.0
 10
1828.401204544777
 20
608.6934020199624
 30
0.0
 10
1845.12933065702
 20
557.5203945048592
 30
0.0
 10
1847.861701693332
 20
521.9580736231176
 30
0.0
  0
SPLINE
  5
DC
330
1F
100
AcDbEntity
  8
Linee visibili 2D
 62
   255
100
AcDbSpline
210
0.0
220
0.0
230
1.0
 70
     8
 71
     3
 72
    38
 73
    34
 74
     0
 42
0.0000000001
 43
0.0000000001
 40
0.0
 40
0.0
 40
0.0
 40
0.0
 40
53.80064798480365
 40
100.4455256521698
 40
151.6404371903201
 40
204.2261423620087
 40
259.0527397018849
 40
313.4673185051444
 40
365.5999494919562
 40
416.5952432201109
 40
455.0825721729469
 40
490.8185829665435
 40
524.6423466100758
 40
558.7932998999792
 40
597.1911554630811
 40
642.4781507093219
 40
670.5538475562045
 40
702.8499772069157
 40
762.9239552438954
 40
808.1347205386362
 40
846.9055007655555
 40
879.1186207165698
 40
909.0635681884121
 40
940.9551226694704
 40
976.7643661785087
 40
1014.606549739306
 40
1056.144875425327
 40
1135.236313730442
 40
1210.300146132235
 40
1249.014158306561
 40
1287.091298088497
 40
1320.159244396384
 40
1354.379856854142
 40
1354.379856854142
 40
1354.379856854142
 40
1354.379856854142
 10
1633.382948100304
 20
690.9843872702824
 30
0.0
 10
1615.555701314134
 20
689.2324355738854
 30
0.0
 10
1582.219303840621
 20
684.9712983528196
 30
0.0
 10
1533.95283249941
 20
669.1496619031867
 30
0.0
 10
1490.484988769392
 20
643.5764672839526
 30
0.0
 10
1450.077837308673
 20
609.2672408879718
 30
0.0
 10
1415.812811924897
 20
567.2579571282346
 30
0.0
 10
1389.262984293255
 20
520.2900668901276
 30
0.0
 10
1372.076806442094
 20
470.3992314227145
 30
0.0
 10
1365.716508504682
 20
423.360176556826
 30
0.0
 10
1369.141458315774
 20
381.5037736296279
 30
0.0
 10
1381.075544174106
 20
347.1741152459861
 30
0.0
 10
1400.90945459427
 20
318.4191018554885
 30
0.0
 10
1429.524691809673
 20
296.7399143824128
 30
0.0
 10
1466.101020851728
 20
281.8775590432764
 30
0.0
 10
1502.678797419588
 20
274.2406022224377
 30
0.0
 10
1537.664281396645
 20
270.2241834519807
 30
0.0
 10
1577.743223792914
 20
267.5164982550152
 30
0.0
 10
1623.653693064442
 20
267.937961190138
 30
0.0
 10
1671.465103200623
 20
272.9318523788888
 30
0.0
 10
1709.47882616717
 20
280.6580351025827
 30
0.0
 10
1741.154293910024
 20
292.4170463654558
 30
0.0
 10
1768.049851807194
 20
308.8092373523169
 30
0.0
 10
1791.70432598558
 20
331.4575541591866
 30
0.0
 10
1812.49057106047
 20
359.9472411823876
 30
0.0
 10
1829.904821867548
 20
394.3213793893409
 30
0.0
 10
1847.234116441939
 20
444.2703113374597
 30
0.0
 10
1856.856644268043
 20
509.542833164721
 30
0.0
 10
1844.496544233688
 20
573.6554245155808
 30
0.0
 10
1822.593126413555
 20
619.443872473498
 30
0.0
 10
1801.305240708137
 20
649.4642749688577
 30
0.0
 10
1775.387420249146
 20
673.4579160619883
 30
0.0
 10
1755.755351403871
 20
684.6331640468327
 30
0.0
 10
1745.319945316732
 20
689.2176051968025
 30
0.0
  0
SPLINE
  5
DD
330
1F
100
AcDbEntity
  8
Linee visibili 2D
 62
   255
100
AcDbSpline
210
0.0
220
0.0
230
1.0
 70
     8
 71
     3
 72
    12
 73
     8
 74
     0
 42
0.0000000001
 43
0.0000000001
 40
0.0
 40
0.0
 40
0.0
 40
0.0
 40
12.66569343434251
 40
27.19540356957582
 40
59.79407938640963
 40
92.35733704133793
 40
129.8828436620879
 40
129.8828436620879
 40
129.8828436620879
 40
129.8828436620879
 10
1493.496808697194
 20
492.1208219984722
 30
0.0
 10
1493.142551162345
 20
487.9233161437221
 30
0.0
 10
1493.488078700394
 20
478.7784903663843
 30
0.0
 10
1498.832764149594
 20
459.4886171102111
 30
0.0
 10
1512.422204873001
 20
436.2493150765532
 30
0.0
 10
1537.469016081188
 20
412.5392131035603
 30
0.0
 10
1558.214241468831
 20
401.3286412432433
 30
0.0
 10
1569.595478571282
 20
396.2211390495712
 30
0.0
  0
LINE
  5
DE
330
1F
100
AcDbEntity
  8
Linee visibili 2D
 62
   255
100
AcDbLine
 10
1733.782954980991
 20
440.5916035563856
 30
0.0
 11
1737.245343943917
 21
447.3666396180046
 31
0.0
  0
LINE
  5
DF
330
1F
100
AcDbEntity
  8
Linee visibili 2D
 62
   255
100
AcDbLine
 10
1745.059063618548
 20
465.2362466040092
 30
0.0
 11
1742.24952381826
 21
458.2366006601887
 31
0.0
  0
LINE
  5
E0
330
1F
100
AcDbEntity
  8
Linee visibili 2D
 62
   255
100
AcDbLine
 10
1620.015010364354
 20
441.002807454206
 30
0.0
 11
1620.587616863857
 21
445.1074344788263
 31
0.0
  0
LINE
  5
E1
330
1F
100
AcDbEntity
  8
Linee visibili 2D
 62
   255
100
AcDbLine
 10
1617.794425245374
 20
425.0845525013283
 30
0.0
 11
1620.765560628803
 21
446.382580881379
 31
0.0
  0
SPLINE
  5
E2
330
1F
100
AcDbEntity
  8
Linee visibili 2D
 62
   255
100
AcDbSpline
210
0.0
220
0.0
230
1.0
 70
     8
 71
     3
 72
    18
 73
    14
 74
     0
 42
0.0000000001
 43
0.0000000001
 40
0.0
 40
0.0
 40
0.0
 40
0.0
 40
48.08022306582269
 40
92.69346705899018
 40
110.9689479064818
 40
127.9929685692897
 40
142.7561833124666
 40
156.8269772192488
 40
172.1268079519192
 40
189.7586350555441
 40
227.9950504043604
 40
268.2938555735421
 40
314.6112513210647
 40
314.6112513210647
 40
314.6112513210647
 40
314.6112513210647
 10
1588.541282165303
 20
592.2838144230142
 30
0.0
 10
1574.083059175608
 20
585.3254326865354
 30
0.0
 10
1547.505748485595
 20
569.461477880795
 30
0.0
 10
1518.917684864176
 20
545.6924265927086
 30
0.0
 10
1501.984482429644
 20
525.0122939028313
 30
0.0
 10
1493.376290042414
 20
510.6725524749894
 30
0.0
 10
1488.119612703789
 20
496.2060354769908
 30
0.0
 10
1486.621969316065
 20
481.4524277913677
 30
0.0
 10
1489.301464063318
 20
465.8664935532666
 30
0.0
 10
1498.385402914775
 20
443.8704020318423
 30
0.0
 10
1518.239969044226
 20
418.0290108541125
 30
0.0
 10
1553.153045401227
 20
394.730499678699
 30
0.0
 10
1579.921720758731
 20
383.6947372612448
 30
0.0
 10
1594.82432054471
 20
379.5470317572631
 30
0.0
  0
LINE
  5
E3
330
1F
100
AcDbEntity
  8
Linee visibili 2D
 62
   255
100
AcDbLine
 10
1514.832218117329
 20
135.7497820478939
 30
0.0
 11
1514.844670391238
 21
136.7849833412597
 31
0.0
  0
LINE
  5
E4
330
1F
100
AcDbEntity
  8
Linee visibili 2D
 62
   255
100
AcDbLine
 10
1453.827922722769
 20
155.3694459424103
 30
0.0
 11
1433.568615173999
 21
166.6237165825848
 31
0.0
  0
LINE
  5
E5
330
1F
100
AcDbEntity
  8
Linee visibili 2D
 62
   255
100
AcDbLine
 10
1453.840374996676
 20
156.4046472357761
 30
0.0
 11
1433.581067447906
 21
167.6589178759507
 31
0.0
  0
ARC
  5
E6
330
1F
100
AcDbEntity
  8
Linee visibili 2D
 62
   255
100
AcDbCircle
 10
1560.385299750726
 20
382.041528330413
 30
0.0
 40
250.468975190924
100
AcDbArc
 50
244.8220247287629
 51
259.5212317427799
  0
ARC
  5
E7
330
1F
100
AcDbEntity
  8
Linee visibili 2D
 62
   255
100
AcDbCircle
 10
1560.397318623739
 20
383.0755513973036
 30
0.0
 40
250.4677245246289
100
AcDbArc
 50
244.8219997874008
 51
259.5110906886514
  0
LINE
  5
E8
330
1F
100
AcDbEntity
  8
Linee visibili 2D
 62
   255
100
AcDbLine
 10
1743.994372670304
 20
688.6983032066969
 30
0.0
 11
1744.026114280708
 21
688.7965494546319
 31
0.0
  0
LINE
  5
E9
330
1F
100
AcDbEntity
  8
Linee visibili 2D
 62
   255
100
AcDbLine
 10
1743.137354046135
 20
685.7011376702496
 30
0.0
 11
1743.163621486539
 21
685.8003185688124
 31
0.0
  0
LINE
  5
EA
330
1F
100
AcDbEntity
  8
Linee visibili 2D
 62
   255
100
AcDbLine
 10
1743.578901917077
 20
687.248991900368
 30
0.0
 11
1743.981530400556
 21
687.7274782036799
 31
0.0
  0
LINE
  5
EB
330
1F
100
AcDbEntity
  8
Linee visibili 2D
 62
   255
100
AcDbLine
 10
1634.478635673702
 20
690.1079344248719
 30
0.0
 11
1634.658697112223
 21
686.999727983615
 31
0.0
  0
LINE
  5
EC
330
1F
100
AcDbEntity
  8
Linee visibili 2D
 62
   255
100
AcDbLine
 10
1743.207585466098
 20
685.9514605999797
 30
0.0
 11
1743.67640543286
 21
685.5266008296855
 31
0.0
  0
ARC
  5
ED
330
1F
100
AcDbEntity
  8
Linee visibili 2D
 62
   255
100
AcDbCircle
 10
1744.033780351614
 20
685.3719043342837
 30
0.0
 40
0.95497367014166
100
AcDbArc
 50
159.8330704868237
 51
247.2234198087132
  0
LINE
  5
EE
330
1F
100
AcDbEntity
  8
Linee visibili 2D
 62
   255
100
AcDbLine
 10
1633.949222037228
 20
685.970225760554
 30
0.0
 11
1633.764054062476
 21
685.9351885609879
 31
0.0
  0
LINE
  5
EF
330
1F
100
AcDbEntity
  8
Linee visibili 2D
 62
   255
100
AcDbLine
 10
1633.776386447087
 20
686.9703912860685
 30
0.0
 11
1633.96155442184
 21
687.0054284856345
 31
0.0
  0
LINE
  5
F0
330
1F
100
AcDbEntity
  8
Linee visibili 2D
 62
   255
100
AcDbLine
 10
1633.96155442184
 20
687.0054284856345
 30
0.0
 11
1634.661319883035
 21
687.7614619403444
 31
0.0
  0
LINE
  5
F1
330
1F
100
AcDbEntity
  8
Linee visibili 2D
 62
   255
100
AcDbLine
 10
1634.659645530737
 20
686.9904415544559
 30
0.0
 11
1633.949222037228
 21
685.970225760554
 31
0.0
  0
SPLINE
  5
F2
330
1F
100
AcDbEntity
  8
Linee visibili 2D
 62
   255
100
AcDbSpline
210
0.0
220
0.0
230
1.0
 70
     8
 71
     3
 72
    13
 73
     9
 74
     0
 42
0.0000000001
 43
0.0000000001
 40
0.0
 40
0.0
 40
0.0
 40
0.0
 40
33.69794896941191
 40
70.1613709437218
 40
141.0266674417542
 40
172.4742350968395
 40
203.6340260771482
 40
270.6216665808602
 40
270.6216665808602
 40
270.6216665808602
 40
270.6216665808602
 10
1433.568615173999
 20
166.6237165825848
 30
0.0
 10
1424.105169897745
 20
172.6664649348907
 30
0.0
 10
1405.249561373898
 20
186.6039034509312
 30
0.0
 10
1370.916670865214
 20
218.773129495606
 30
0.0
 10
1342.069845377473
 20
255.2899782175162
 30
0.0
 10
1320.872539552383
 20
294.5050795472603
 30
0.0
 10
1305.392392183325
 20
334.9367595100415
 30
0.0
 10
1299.440068487769
 20
367.3281368199551
 30
0.0
 10
1297.470142387976
 20
389.5562932351493
 30
0.0
  0
SPLINE
  5
F3
330
1F
100
AcDbEntity
  8
Linee visibili 2D
 62
   255
100
AcDbSpline
210
0.0
220
0.0
230
1.0
 70
     8
 71
     3
 72
    13
 73
     9
 74
     0
 42
0.0000000001
 43
0.0000000001
 40
0.0
 40
0.0
 40
0.0
 40
0.0
 40
51.39879269337766
 40
97.40914280457626
 40
145.3127118374898
 40
194.0116057024666
 40
297.1187664228104
 40
395.7975394701242
 40
395.7975394701242
 40
395.7975394701242
 40
395.7975394701242
 10
1633.370495826396
 20
689.9491859769163
 30
0.0
 10
1616.349530116573
 20
688.2203923739895
 30
0.0
 10
1583.999810121509
 20
684.2614679736265
 30
0.0
 10
1537.611300519097
 20
669.5382825989001
 30
0.0
 10
1495.941346769569
 20
646.1956270801222
 30
0.0
 10
1443.977367668197
 20
604.2523175630071
 30
0.0
 10
1393.306110368987
 20
536.4313984843996
 30
0.0
 10
1372.057187608816
 20
471.646469735058
 30
0.0
 10
1368.499002648645
 20
438.8541326934352
 30
0.0
  0
SPLINE
  5
F4
330
1F
100
AcDbEntity
  8
Linee visibili 2D
 62
   255
100
AcDbSpline
210
0.0
220
0.0
230
1.0
 70
     8
 71
     3
 72
    12
 73
     8
 74
     0
 42
0.0000000001
 43
0.0000000001
 40
0.0
 40
0.0
 40
0.0
 40
0.0
 40
27.41731034008635
 40
55.21545311869336
 40
108.5277803432331
 40
158.249273241641
 40
205.4381042883776
 40
205.4381042883776
 40
205.4381042883776
 40
205.4381042883776
 10
1851.667109729327
 20
523.4958102175614
 30
0.0
 10
1850.870110972064
 20
532.6081517445474
 30
0.0
 10
1848.170525580166
 20
550.8253233648146
 30
0.0
 10
1838.523799650106
 20
585.80111329452
 30
0.0
 10
1819.482720631295
 20
625.3148660489505
 30
0.0
 10
1787.425624623601
 20
664.404965243461
 30
0.0
 10
1759.701830097839
 20
681.9158999438164
 30
0.0
 10
1745.307493042824
 20
688.1824039034368
 30
0.0
  0
LINE
  5
F5
330
1F
100
AcDbEntity
  8
Linee visibili 2D
 62
   255
100
AcDbLine
 10
1681.018151301851
 20
134.8221140919329
 30
0.0
 11
1681.005699027943
 21
133.7869127985666
 31
0.0
  0
LINE
  5
F6
330
1F
100
AcDbEntity
  8
Linee visibili 2D
 62
   255
100
AcDbLine
 10
1596.599706591483
 20
383.0613404944921
 30
0.0
 11
1595.910841915413
 21
383.9320847725049
 31
0.0
  0
SPLINE
  5
F7
330
1F
100
AcDbEntity
  8
Linee visibili 2D
 62
   255
100
AcDbSpline
210
0.0
220
0.0
230
1.0
 70
     8
 71
     3
 72
    14
 73
    10
 74
     0
 42
0.0000000001
 43
0.0000000001
 40
0.0
 40
0.0
 40
0.0
 40
0.0
 40
23.4323031457799
 40
50.85411522431309
 40
84.39013411902789
 40
115.7566982080091
 40
174.2855806538022
 40
199.0097245195082
 40
220.7589498070751
 40
220.7589498070751
 40
220.7589498070751
 40
220.7589498070751
 10
1697.418971216664
 20
399.6429186724696
 30
0.0
 10
1703.860932531746
 20
404.0418763466726
 30
0.0
 10
1716.459945604017
 20
415.664711256795
 30
0.0
 10
1731.750173585661
 20
439.3977511047717
 30
0.0
 10
1744.640089336284
 20
467.4474724678123
 30
0.0
 10
1756.030997251087
 20
507.0808437192693
 30
0.0
 10
1757.165660272006
 20
545.8938174510972
 30
0.0
 10
1748.412929596978
 20
579.9829191062764
 30
0.0
 10
1740.279274694563
 20
593.4568744275472
 30
0.0
 10
1735.355881007976
 20
598.7757680431346
 30
0.0
  0
SPLINE
  5
F8
330
1F
100
AcDbEntity
  8
Linee visibili 2D
 62
   255
100
AcDbSpline
210
0.0
220
0.0
230
1.0
 70
     8
 71
     3
 72
    12
 73
     8
 74
     0
 42
0.0000000001
 43
0.0000000001
 40
0.0
 40
0.0
 40
0.0
 40
0.0
 40
16.58380693251967
 40
32.33432656607073
 40
60.34312897928815
 40
85.10021216271883
 40
105.4178310961163
 40
105.4178310961163
 40
105.4178310961163
 40
105.4178310961163
 10
1555.675571256799
 20
573.5901931501066
 30
0.0
 10
1551.161093610123
 20
570.3973114509655
 30
0.0
 10
1542.543431707756
 20
563.9243659613405
 30
0.0
 10
1527.240353071871
 20
550.839110875276
 30
0.0
 10
1511.588465336915
 20
534.1314735584692
 30
0.0
 10
1498.349697598535
 20
513.4818559533462
 30
0.0
 10
1494.049366092602
 20
498.8857658760065
 30
0.0
 10
1493.496808697194
 20
492.1208219984721
 30
0.0
  0
SPLINE
  5
F9
330
1F
100
AcDbEntity
  8
Linee visibili 2D
 62
   255
100
AcDbSpline
210
0.0
220
0.0
230
1.0
 70
     8
 71
     3
 72
    12
 73
     8
 74
     0
 42
0.0000000001
 43
0.0000000001
 40
0.0
 40
0.0
 40
0.0
 40
0.0
 40
15.70836385936085
 40
32.90479408438804
 40
73.02461253590427
 40
104.3035452856007
 40
131.4709508428433
 40
131.4709508428433
 40
131.4709508428433
 40
131.4709508428433
 10
1569.595478571282
 20
396.2211390495712
 30
0.0
 10
1574.492784273155
 20
394.4125546639391
 30
0.0
 10
1584.971968456071
 20
390.9826547566921
 30
0.0
 10
1608.923409829701
 20
386.703522469247
 30
0.0
 10
1638.456107735343
 20
384.0471506785646
 30
0.0
 10
1671.294692758744
 20
387.8864796239042
 30
0.0
 10
1689.638546125401
 20
394.9924179287045
 30
0.0
 10
1697.418971216664
 20
399.6429186724696
 30
0.0
  0
LINE
  5
FA
330
1F
100
AcDbEntity
  8
Linee visibili 2D
 62
   255
100
AcDbLine
 10
1617.794243789271
 20
425.0832507138456
 30
0.0
 11
1617.393694702452
 21
422.2119546678838
 31
0.0
  0
LINE
  5
FB
330
1F
100
AcDbEntity
  8
Linee visibili 2D
 62
   255
100
AcDbLine
 10
1617.794326193631
 20
446.7971020913683
 30
0.0
 11
1614.823198727241
 21
425.4990557893452
 31
0.0
  0
LINE
  5
FC
330
1F
100
AcDbEntity
  8
Linee visibili 2D
 62
   255
100
AcDbLine
 10
1614.408649486358
 20
422.5274032984258
 30
0.0
 11
1614.422468184166
 21
422.6264579562264
 31
0.0
  0
LINE
  5
FD
330
1F
100
AcDbEntity
  8
Linee visibili 2D
 62
   255
100
AcDbLine
 10
1614.422468184166
 20
422.6264579562264
 30
0.0
 11
1614.823198873336
 21
425.4990558004658
 31
0.0
  0
LINE
  5
FE
330
1F
100
AcDbEntity
  8
Linee visibili 2D
 62
   255
100
AcDbLine
 10
1564.042026420664
 20
3.783849139816084
 30
0.0
 11
1563.742275011679
 21
3.832213048423455
 31
0.0
  0
ARC
  5
FF
330
1F
100
AcDbEntity
  8
Linee visibili 2D
 62
   255
100
AcDbCircle
 10
1943.206199891774
 20
1468.310506242072
 30
0.0
 40
3.11267890444585
100
AcDbArc
 50
56.95856170652536
 51
132.8778573572129
  0
LINE
  5
100
330
1F
100
AcDbEntity
  8
Linee visibili 2D
 62
   255
100
AcDbLine
 10
1621.271975705576
 20
1485.499193620803
 30
0.0
 11
1621.680263703137
 21
1475.021601655228
 31
0.0
  0
LINE
  5
101
330
1F
100
AcDbEntity
  8
Linee visibili 2D
 62
   255
100
AcDbLine
 10
1616.128695274519
 20
1516.956767780495
 30
0.0
 11
1616.510399851382
 21
1526.760341233283
 31
0.0
  0
LINE
  5
102
330
1F
100
AcDbEntity
  8
Linee visibili 2D
 62
   255
100
AcDbLine
 10
2124.15944328839
 20
1564.779842268699
 30
0.0
 11
2124.162918282899
 21
1563.109205963121
 31
0.0
  0
LINE
  5
103
330
1F
100
AcDbEntity
  8
Linee visibili 2D
 62
   255
100
AcDbLine
 10
1186.132072381038
 20
1530.328243608578
 30
0.0
 11
1186.128199885625
 21
1532.189982213664
 31
0.0
  0
LINE
  5
104
330
1F
100
AcDbEntity
  8
Linee visibili 2D
 62
   255
100
AcDbLine
 10
1622.484595865977
 20
1374.670084691349
 30
0.0
 11
1621.799023567291
 21
1389.840726655787
 31
0.0
  0
LINE
  5
105
330
1F
100
AcDbEntity
  8
Linee visibili 2D
 62
   255
100
AcDbLine
 10
1949.722724533316
 20
1323.230704327456
 30
0.0
 11
1949.717493361135
 21
1321.607571284261
 31
0.0
  0
LINE
  5
106
330
1F
100
AcDbEntity
  8
Linee visibili 2D
 62
   255
100
AcDbLine
 10
1514.1141248647
 20
133.4736896774361
 30
0.0
 11
1515.279450560619
 21
134.2500776316396
 31
0.0
  0
LINE
  5
107
330
1F
100
AcDbEntity
  8
Linee visibili 2D
 62
   255
100
AcDbLine
 10
1680.558214827668
 20
133.8341754902438
 30
0.0
 11
1680.6613307878
 21
133.3662825969773
 31
0.0
  0
LINE
  5
108
330
1F
100
AcDbEntity
  8
Linee visibili 2D
 62
   255
100
AcDbLine
 10
1544.363614480831
 20
479.0401931443795
 30
0.0
 11
1542.301434436014
 21
484.9966370711779
 31
0.0
  0
LINE
  5
109
330
1F
100
AcDbEntity
  8
Linee visibili 2D
 62
   255
100
AcDbLine
 10
1700.138372900847
 20
457.3591911027883
 30
0.0
 11
1700.217247401956
 21
457.2976964305373
 31
0.0
  0
ARC
  5
10A
330
1F
100
AcDbEntity
  8
Linee visibili 2D
 62
   255
100
AcDbCircle
 10
1628.327634174348
 20
511.4445662409528
 30
0.0
 40
89.99999999672661
100
AcDbArc
 50
23.01314808357776
 51
81.10318970477438
  0
ARC
  5
10B
330
1F
100
AcDbEntity
  8
Linee visibili 2D
 62
   255
100
AcDbCircle
 10
1628.327634176795
 20
511.4445662457434
 30
0.0
 40
89.99999999163126
100
AcDbArc
 50
83.01419981437564
 51
141.1031897085158
  0
LINE
  5
10C
330
1F
100
AcDbEntity
  8
Linee visibili 2D
 62
   255
100
AcDbLine
 10
1567.075477726292
 20
488.2413112521172
 30
0.0
 11
1547.144415144532
 21
480.1669828758861
 31
0.0
  0
LINE
  5
10D
330
1F
100
AcDbEntity
  8
Linee visibili 2D
 62
   255
100
AcDbLine
 10
1544.363619898479
 20
479.0401791065406
 30
0.0
 11
1544.456313097397
 21
479.07773909209
 31
0.0
  0
LINE
  5
10E
330
1F
100
AcDbEntity
  8
Linee visibili 2D
 62
   255
100
AcDbLine
 10
1547.144415159888
 20
480.1669828358943
 30
0.0
 11
1544.456313097397
 21
479.07773909209
 31
0.0
  0
LINE
  5
10F
330
1F
100
AcDbEntity
  8
Linee visibili 2D
 62
   255
100
AcDbLine
 10
1597.178996677783
 20
384.7783927246028
 30
0.0
 11
1596.529305167003
 21
386.1571844856298
 31
0.0
  0
ARC
  5
110
330
1F
100
AcDbEntity
  8
Linee visibili 2D
 62
   255
100
AcDbCircle
 10
1628.327634186165
 20
511.4445662381241
 30
0.0
 40
90.00000000373669
100
AcDbArc
 50
143.0131374559282
 51
197.089397076203
  0
ARC
  5
111
330
1F
100
AcDbEntity
  8
Linee visibili 2D
 62
   255
100
AcDbCircle
 10
1681.219419937693
 20
135.0112503331247
 30
0.0
 40
0.9999581549286576
100
AcDbArc
 50
102.1250952401976
 51
191.9716843951043
  0
LINE
  5
112
330
1F
100
AcDbEntity
  8
Linee visibili 2D
 62
   255
100
AcDbLine
 10
1680.241210641294
 20
134.803830748595
 30
0.0
 11
1680.337364464047
 21
134.3503858341882
 31
0.0
  0
LINE
  5
113
330
1F
100
AcDbEntity
  8
Linee visibili 2D
 62
   255
100
AcDbLine
 10
1680.558214827668
 20
133.8341754902438
 30
0.0
 11
1680.346687521779
 21
134.3523628056179
 31
0.0
  0
ARC
  5
114
330
1F
100
AcDbEntity
  8
Linee visibili 2D
 62
   255
100
AcDbCircle
 10
1514.64512236808
 20
135.8765758280476
 30
0.0
 40
0.9999740131450162
100
AcDbArc
 50
351.7257926531835
 51
79.54273716614502
  0
LINE
  5
115
330
1F
100
AcDbEntity
  8
Linee visibili 2D
 62
   255
100
AcDbLine
 10
1680.550196772229
 20
132.7660955006066
 30
0.0
 11
1680.558214827668
 21
133.8341754902438
 31
0.0
  0
LINE
  5
116
330
1F
100
AcDbEntity
  8
Linee visibili 2D
 62
   255
100
AcDbLine
 10
1515.546420055557
 20
135.2400701077478
 30
0.0
 11
1515.629217155138
 21
135.6990812275126
 31
0.0
  0
LINE
  5
117
330
1F
100
AcDbEntity
  8
Linee visibili 2D
 62
   255
100
AcDbLine
 10
1431.169871317084
 20
163.2394496643255
 30
0.0
 11
1451.961933626316
 21
151.8960717024192
 31
0.0
  0
LINE
  5
118
330
1F
100
AcDbEntity
  8
Linee visibili 2D
 62
   255
100
AcDbLine
 10
1680.68571626968
 20
133.2769387920978
 30
0.0
 11
1681.849908758187
 21
132.6237559546712
 31
0.0
  0
ARC
  5
119
330
1F
100
AcDbEntity
  8
Linee visibili 2D
 62
   255
100
AcDbCircle
 10
1628.327634177846
 20
511.4445662291495
 30
0.0
 40
89.99999999163094
100
AcDbArc
 50
263.0131374534837
 51
321.1031670500561
  0
ARC
  5
11A
330
1F
100
AcDbEntity
  8
Linee visibili 2D
 62
   255
100
AcDbCircle
 10
1628.327634168323
 20
511.4445662368128
 30
0.0
 40
90.00000000388434
100
AcDbArc
 50
323.013137455964
 51
21.1031897054838
  0
LINE
  5
11B
330
1F
100
AcDbEntity
  8
Linee visibili 2D
 62
   255
100
AcDbLine
 10
1558.804253401506
 20
563.746586381657
 30
0.0
 11
1556.516895453793
 21
565.5299413721048
 31
0.0
  0
LINE
  5
11C
330
1F
100
AcDbEntity
  8
Linee visibili 2D
 62
   255
100
AcDbLine
 10
1577.607962604612
 20
552.890211392194
 30
0.0
 11
1560.648836978999
 21
566.1124923077894
 31
0.0
  0
LINE
  5
11D
330
1F
100
AcDbEntity
  8
Linee visibili 2D
 62
   255
100
AcDbLine
 10
1558.36147909055
 20
567.8958473733103
 30
0.0
 11
1560.64883703828
 21
566.1124923828492
 31
0.0
  0
SPLINE
  5
11E
330
1F
100
AcDbEntity
  8
Linee visibili 2D
 62
   255
100
AcDbSpline
210
0.0
220
0.0
230
1.0
 70
     8
 71
     3
 72
    13
 73
     9
 74
     0
 42
0.0000000001
 43
0.0000000001
 40
0.0
 40
0.0
 40
0.0
 40
0.0
 40
36.32417288255884
 40
69.2827588851291
 40
99.53339351071857
 40
132.5699037742536
 40
205.330252618697
 40
278.7932807117821
 40
278.7932807117821
 40
278.7932807117821
 40
278.7932807117821
 10
1291.337550521602
 20
393.7575691072065
 30
0.0
 10
1292.32928663746
 20
381.6915653612994
 30
0.0
 10
1295.321641473068
 20
358.7565366974873
 30
0.0
 10
1303.286881771646
 20
326.4931839519972
 30
0.0
 10
1314.500496060099
 20
296.380127064462
 30
0.0
 10
1335.789291369931
 20
256.2017639762943
 30
0.0
 10
1373.049437745044
 20
209.0569626167815
 30
0.0
 10
1410.413281093782
 20
177.3650653180513
 30
0.0
 10
1431.177889372566
 20
164.3075296597203
 30
0.0
  0
LINE
  5
11F
330
1F
100
AcDbEntity
  8
Linee visibili 2D
 62
   255
100
AcDbLine
 10
1623.700637928955
 20
1588.295959662687
 30
0.0
 11
1624.399840990332
 21
1595.623918898322
 31
0.0
  0
LINE
  5
120
330
1F
100
AcDbEntity
  8
Linee visibili 2D
 62
   255
100
AcDbLine
 10
1295.98837378576
 20
1354.344889690978
 30
0.0
 11
1295.996621239657
 21
1356.903917472549
 31
0.0
  0
LINE
  5
121
330
1F
100
AcDbEntity
  8
Linee visibili 2D
 62
   255
100
AcDbLine
 10
1626.788014757172
 20
1390.18455226625
 30
0.0
 11
1627.480621189193
 21
1374.869410981106
 31
0.0
  0
LINE
  5
122
330
1F
100
AcDbEntity
  8
Linee visibili 2D
 62
   255
100
AcDbLine
 10
1628.442900117648
 20
1305.261002793412
 30
0.0
 11
1628.158628696629
 21
1288.240462359593
 31
0.0
  0
ARC
  5
123
330
1F
100
AcDbEntity
  8
Linee visibili 2D
 62
   255
100
AcDbCircle
 10
1942.78538976496
 20
1473.200781172563
 30
0.0
 40
3.11267890444604
100
AcDbArc
 50
236.9585617065277
 51
312.8778573572131
  0
LINE
  5
124
330
1F
100
AcDbEntity
  8
Linee visibili 2D
 62
   255
100
AcDbLine
 10
1711.072312375715
 20
546.5918026723512
 30
0.0
 11
1711.165005574633
 21
546.6293626579006
 31
0.0
  0
SPLINE
  5
125
330
1F
100
AcDbEntity
  8
Linee visibili 2D
 62
   255
100
AcDbSpline
210
0.0
220
0.0
230
1.0
 70
     8
 71
     3
 72
    37
 73
    33
 74
     0
 42
0.0000000001
 43
0.0000000001
 40
0.0
 40
0.0
 40
0.0
 40
0.0
 40
43.15765184383714
 40
88.01716755633042
 40
188.9596637397758
 40
238.0782740430571
 40
291.4410633799096
 40
346.6449305577523
 40
396.4206402862416
 40
433.0331935152507
 40
467.4915053835474
 40
505.6413184082546
 40
552.1751415454157
 40
615.7607993792748
 40
679.1208477138795
 40
732.1699291157005
 40
774.4866981644559
 40
803.6933754767832
 40
830.8297582510038
 40
859.7635558587917
 40
890.5161974003265
 40
923.3491429874782
 40
960.0327330168301
 40
1035.677634258101
 40
1063.386884249944
 40
1113.913877808395
 40
1151.050496082639
 40
1169.824505790069
 40
1188.654345453695
 40
1256.725503318614
 40
1291.58027202651
 40
1331.759178484263
 40
1331.759178484263
 40
1331.759178484263
 40
1331.759178484263
 10
1743.66407304825
 20
684.4913981046049
 30
0.0
 10
1756.802958571423
 20
678.73398653142
 30
0.0
 10
1782.168921425035
 20
663.1614345362561
 30
0.0
 10
1823.729202802932
 20
615.1534983541243
 30
0.0
 10
1847.50254158553
 20
552.8315004206745
 30
0.0
 10
1849.63147178499
 20
484.690580047002
 30
0.0
 10
1840.001573420183
 20
432.7341702221748
 30
0.0
 10
1821.875797182945
 20
383.0053992681885
 30
0.0
 10
1797.283060500213
 20
342.3600737417358
 30
0.0
 10
1769.169192271091
 20
313.1710420069349
 30
0.0
 10
1738.182216675799
 20
293.5495535553609
 30
0.0
 10
1700.285024446366
 20
280.8740681654277
 30
0.0
 10
1651.516870028065
 20
272.6895532358687
 30
0.0
 10
1593.643531567163
 20
269.4532221326863
 30
0.0
 10
1533.687360313029
 20
272.5815370083509
 30
0.0
 10
1481.243167591352
 20
280.3761290824771
 30
0.0
 10
1441.707816816056
 20
293.881572284175
 30
0.0
 10
1413.659445864372
 20
311.4946208499662
 30
0.0
 10
1394.164323814341
 20
332.5255350846492
 30
0.0
 10
1380.392614098827
 20
358.2294386777463
 30
0.0
 10
1372.199944962037
 20
388.1294447009921
 30
0.0
 10
1370.312996326107
 20
421.6780902712978
 30
0.0
 10
1375.845189150542
 20
469.8796693786952
 30
0.0
 10
1391.483676534508
 20
514.37695227993
 30
0.0
 10
1416.743507875477
 20
559.0389065311707
 30
0.0
 10
1439.690008349177
 20
590.0818771367317
 30
0.0
 10
1464.803674931271
 20
615.2348803693494
 30
0.0
 10
1484.013466318567
 20
631.132077789485
 30
0.0
 10
1512.535212752714
 20
651.7808253779524
 30
0.0
 10
1549.069221849959
 20
670.4057416484336
 30
0.0
 10
1595.599841085336
 20
681.5942091995837
 30
0.0
 10
1620.424975389077
 20
684.6610455994104
 30
0.0
 10
1633.764054062477
 20
685.9351885609879
 30
0.0
  0
LINE
  5
126
330
1F
100
AcDbEntity
  8
Linee visibili 2D
 62
   255
100
AcDbLine
 10
1596.098823097242
 20
380.3500453135534
 30
0.0
 11
1671.38218715726
 21
379.4531935496052
 31
0.0
  0
LINE
  5
127
330
1F
100
AcDbEntity
  8
Linee visibili 2D
 62
   255
100
AcDbLine
 10
1671.38218715726
 20
379.4531935496052
 30
0.0
 11
1671.422084611157
 21
379.3537315601676
 31
0.0
  0
LINE
  5
128
330
1F
100
AcDbEntity
  8
Linee visibili 2D
 62
   255
100
AcDbLine
 10
1548.271058024839
 20
477.3865735875443
 30
0.0
 11
1568.200783825378
 21
485.4641869460566
 31
0.0
  0
LINE
  5
129
330
1F
100
AcDbEntity
  8
Linee visibili 2D
 62
   255
100
AcDbLine
 10
1620.12362066848
 20
421.8192675742574
 30
0.0
 11
1618.17263259113
 21
421.2108396008899
 31
0.0
  0
LINE
  5
12A
330
1F
100
AcDbEntity
  8
Linee visibili 2D
 62
   255
100
AcDbLine
 10
1563.399803869807
 20
483.5183321941152
 30
0.0
 11
1562.515691011331
 21
486.3940794236806
 31
0.0
  0
ARC
  5
12B
330
1F
100
AcDbEntity
  8
Linee visibili 2D
 62
   255
100
AcDbCircle
 10
1620.033299494703
 20
441.31875981446
 30
0.0
 40
2.162517200623899
100
AcDbArc
 50
178.629957178109
 51
262.7364408295955
  0
LINE
  5
12C
330
1F
100
AcDbEntity
  8
Linee visibili 2D
 62
   255
100
AcDbLine
 10
1577.942278112342
 20
835.2980981809922
 30
0.0
 11
1617.942278112342
 21
835.2980981809922
 31
0.0
  0
LINE
  5
12D
330
1F
100
AcDbEntity
  8
Linee visibili 2D
 62
   255
100
AcDbLine
 10
1617.942278112342
 20
835.2980981809922
 30
0.0
 11
1617.942278112342
 21
910.2980981809922
 31
0.0
  0
LINE
  5
12E
330
1F
100
AcDbEntity
  8
Linee visibili 2D
 62
   255
100
AcDbLine
 10
1577.942278112342
 20
910.2980981809922
 30
0.0
 11
1617.942278112342
 21
910.2980981809922
 31
0.0
  0
LINE
  5
12F
330
1F
100
AcDbEntity
  8
Linee visibili 2D
 62
   255
100
AcDbLine
 10
1577.942278112342
 20
835.2980981809922
 30
0.0
 11
1577.942278112342
 21
910.2980981809922
 31
0.0
  0
LINE
  5
130
330
1F
100
AcDbEntity
  8
Linee visibili 2D
 62
   255
100
AcDbLine
 10
1569.437832401577
 20
2.967026415536111
 30
0.0
 11
1564.042026420664
 21
3.783849139816128
 31
0.0
  0
LINE
  5
131
330
1F
100
AcDbEntity
  8
Linee visibili 2D
 62
   255
100
AcDbLine
 10
1693.315340438992
 20
539.3965668812021
 30
0.0
 11
1694.200256159564
 21
536.5182081881482
 31
0.0
  0
ARC
  5
132
330
1F
100
AcDbEntity
  8
Linee visibili 2D
 62
   255
100
AcDbCircle
 10
1618.814138720692
 20
429.4995306850133
 30
0.0
 40
2.296390249164375
100
AcDbArc
 50
173.0537716170113
 51
252.0285412496247
  0
ARC
  5
133
330
1F
100
AcDbEntity
  8
Linee visibili 2D
 62
   255
100
AcDbCircle
 10
1619.309810037274
 20
434.6882561444642
 30
0.0
 40
2.207054329493986
100
AcDbArc
 50
175.1751081960525
 51
257.5376162146541
  0
LINE
  5
134
330
1F
100
AcDbEntity
  8
Linee visibili 2D
 62
   255
100
AcDbLine
 10
1616.968855202155
 20
430.7601847313708
 30
0.0
 11
1616.534603774107
 21
429.7772510547323
 31
0.0
  0
ARC
  5
135
330
1F
100
AcDbEntity
  8
Linee visibili 2D
 62
   255
100
AcDbCircle
 10
1618.459339445249
 20
423.9739588813702
 30
0.0
 40
2.493849052506429
100
AcDbArc
 50
177.1637800424379
 51
263.1927758772202
  0
LINE
  5
136
330
1F
100
AcDbEntity
  8
Linee visibili 2D
 62
   255
100
AcDbLine
 10
1616.136066864218
 20
426.0379482564568
 30
0.0
 11
1617.587209541669
 21
423.5991464055315
 31
0.0
  0
LINE
  5
137
330
1F
100
AcDbEntity
  8
Linee visibili 2D
 62
   255
100
AcDbLine
 10
1618.163745599043
 20
421.4976900399935
 30
0.0
 11
1619.78077620183
 21
421.8513119226256
 31
0.0
  0
LINE
  5
138
330
1F
100
AcDbEntity
  8
Linee visibili 2D
 62
   255
100
AcDbLine
 10
1616.082086442897
 20
424.7216920408744
 30
0.0
 11
1616.011835929347
 21
424.4479428199387
 31
0.0
  0
LINE
  5
139
330
1F
100
AcDbEntity
  8
Linee visibili 2D
 62
   255
100
AcDbLine
 10
1545.582955978924
 20
476.297329802542
 30
0.0
 11
1548.271058041426
 21
477.38657354635
 31
0.0
  0
LINE
  5
13A
330
1F
100
AcDbEntity
  8
Linee visibili 2D
 62
   255
100
AcDbLine
 10
1515.540397967484
 20
135.2066848152206
 30
0.0
 11
1515.36008058985
 21
133.6565154071641
 31
0.0
  0
LINE
  5
13B
330
1F
100
AcDbEntity
  8
Linee visibili 2D
 62
   255
100
AcDbLine
 10
1681.841890702704
 20
131.5556759592769
 30
0.0
 11
1680.677698214198
 21
132.2088587967035
 31
0.0
  0
LINE
  5
13C
330
1F
100
AcDbEntity
  8
Linee visibili 2D
 62
   255
100
AcDbLine
 10
1680.550196772229
 20
132.7660955006066
 30
0.0
 11
1680.653312732318
 21
132.2982026015827
 31
0.0
  0
LINE
  5
13D
330
1F
100
AcDbEntity
  8
Linee visibili 2D
 62
   255
100
AcDbLine
 10
1625.180999975875
 20
1208.396809961176
 30
0.0
 11
1624.928968310754
 21
1202.735550527901
 31
0.0
  0
LINE
  5
13E
330
1F
100
AcDbEntity
  8
Linee visibili 2D
 62
   255
100
AcDbLine
 10
1663.747658713838
 20
1398.476149888435
 30
0.0
 11
1663.447375228504
 21
1398.460706187334
 31
0.0
  0
ARC
  5
13F
330
1F
100
AcDbEntity
  8
Linee visibili 2D
 62
   255
100
AcDbCircle
 10
1597.689470386985
 20
2265.041666870383
 30
0.0
 40
867.652084951588
100
AcDbArc
 50
258.4230000894441
 51
267.7577099884971
  0
LINE
  5
140
330
1F
100
AcDbEntity
  8
Linee visibili 2D
 62
   255
100
AcDbLine
 10
1371.217001734504
 20
1207.301813067501
 30
0.0
 11
1371.205771598049
 21
1210.820184956601
 31
0.0
  0
LINE
  5
141
330
1F
100
AcDbEntity
  8
Linee visibili 2D
 62
   255
100
AcDbLine
 10
1848.517769557156
 20
1235.737318542381
 30
0.0
 11
1848.528269614382
 21
1232.447678534282
 31
0.0
  0
LINE
  5
142
330
1F
100
AcDbEntity
  8
Linee visibili 2D
 62
   255
100
AcDbLine
 10
1634.568669499321
 20
1284.951186330258
 30
0.0
 11
1743.330225288916
 21
1284.949498673437
 31
0.0
  0
LINE
  5
143
330
1F
100
AcDbEntity
  8
Linee visibili 2D
 62
   255
100
AcDbLine
 10
1619.924065431884
 20
1202.73555053226
 30
0.0
 11
1620.18587760463
 21
1208.617625292885
 31
0.0
  0
LINE
  5
144
330
1F
100
AcDbEntity
  8
Linee visibili 2D
 62
   255
100
AcDbLine
 10
1718.327634172365
 20
1641.787142657495
 30
0.0
 11
1718.327582318779
 21
1636.936417869417
 31
0.0
  0
LINE
  5
145
330
1F
100
AcDbEntity
  8
Linee visibili 2D
 62
   255
100
AcDbLine
 10
1693.827953896317
 20
1668.787663265087
 30
0.0
 11
1693.827953896317
 21
1641.787453974888
 31
0.0
  0
LINE
  5
146
330
1F
100
AcDbEntity
  8
Linee visibili 2D
 62
   255
100
AcDbLine
 10
1562.827891711327
 20
1641.78885434816
 30
0.0
 11
1562.827891711327
 21
1668.787663265089
 31
0.0
  0
ARC
  5
147
330
1F
100
AcDbEntity
  8
Linee visibili 2D
 62
   255
100
AcDbCircle
 10
1618.423384280262
 20
1417.731473851536
 30
0.0
 40
256.6579532727438
100
AcDbArc
 50
255.4819357011063
 51
268.3359018795624
  0
SPLINE
  5
148
330
1F
100
AcDbEntity
  8
Linee visibili 2D
 62
   255
100
AcDbSpline
210
0.0
220
0.0
230
1.0
 70
     8
 71
     3
 72
    10
 73
     6
 74
     0
 42
0.0000000001
 43
0.0000000001
 40
1.0
 40
1.0
 40
1.0
 40
1.0
 40
1.0625
 40
1.15625
 40
1.209869491856851
 40
1.209869491856851
 40
1.209869491856851
 40
1.209869491856851
 10
2119.426681839332
 20
1549.485385349599
 30
0.0
 10
2128.253580151579
 20
1566.213821412785
 30
0.0
 10
2122.486520829709
 20
1611.400482450696
 30
0.0
 10
1932.839320653293
 20
1644.978610177056
 30
0.0
 10
1790.900369223765
 20
1652.216011486152
 30
0.0
 10
1738.545852141385
 20
1653.104160306087
 30
0.0
  0
LINE
  5
149
330
1F
100
AcDbEntity
  8
Linee visibili 2D
 62
   255
100
AcDbLine
 10
1616.68901275053
 20
1474.736640448585
 30
0.0
 11
1618.936090985277
 21
1474.061072468321
 31
0.0
  0
LINE
  5
14A
330
1F
100
AcDbEntity
  8
Linee visibili 2D
 62
   255
100
AcDbLine
 10
1617.202954367963
 20
1464.55566364735
 30
0.0
 11
1619.477032125004
 21
1463.721298913878
 31
0.0
  0
LINE
  5
14B
330
1F
100
AcDbEntity
  8
Linee visibili 2D
 62
   255
100
AcDbLine
 10
1618.16374559923
 20
1506.932898640495
 30
0.0
 11
1620.896802723234
 21
1506.742847382052
 31
0.0
  0
LINE
  5
14C
330
1F
100
AcDbEntity
  8
Linee visibili 2D
 62
   255
100
AcDbLine
 10
1618.321159027019
 20
1517.389315906279
 30
0.0
 11
1621.120853898446
 21
1516.642741341996
 31
0.0
  0
LINE
  5
14D
330
1F
100
AcDbEntity
  8
Linee visibili 2D
 62
   255
100
AcDbLine
 10
1616.124306892929
 20
1516.792970875125
 30
0.0
 11
1618.321159027019
 21
1517.389315906279
 31
0.0
  0
ARC
  5
14E
330
1F
100
AcDbEntity
  8
Linee visibili 2D
 62
   255
100
AcDbCircle
 10
1617.445247321717
 20
1503.662787275701
 30
0.0
 40
3.348114112891578
100
AcDbArc
 50
77.60806159249476
 51
115.728397973185
  0
SPLINE
  5
14F
330
1F
100
AcDbEntity
  8
Linee visibili 2D
 62
   255
100
AcDbSpline
210
0.0
220
0.0
230
1.0
 70
    12
 71
     2
 72
    10
 73
     7
 74
     0
 42
0.0000000001
 43
0.0000000001
 40
0.0
 40
0.0
 40
0.0
 40
2.973119132076627
 40
2.973119132076627
 40
5.769394395850495
 40
5.769394395850495
 40
6.746627285849884
 40
6.746627285849884
 40
6.746627285849884
 10
1623.469076757105
 20
1305.301712271225
 30
0.0
 41
1.0
 10
1623.227035064624
 20
1305.43037042163
 30
0.0
 41
0.8282252625289078
 10
1624.69096859289
 20
1305.477581306271
 30
0.0
 41
1.0
 10
1626.089488147177
 20
1305.519224497226
 30
0.0
 41
0.9989263480710141
 10
1627.485859062712
 20
1305.431250834551
 30
0.0
 41
1.0
 10
1627.981302772276
 20
1305.45513629339
 30
0.0
 41
0.9777632993067507
 10
1628.442963655869
 20
1305.273741108642
 30
0.0
 41
1.0
  0
ARC
  5
150
330
1F
100
AcDbEntity
  8
Linee visibili 2D
 62
   255
100
AcDbCircle
 10
1625.095640273051
 20
1267.412311778118
 30
0.0
 40
4.86694827682337
100
AcDbArc
 50
57.37229213985817
 51
119.1890340369847
  0
ARC
  5
151
330
1F
100
AcDbEntity
  8
Linee visibili 2D
 62
   255
100
AcDbCircle
 10
1624.543554860297
 20
1251.95311986148
 30
0.0
 40
4.021556869843144
100
AcDbArc
 50
49.42035177151639
 51
126.292772436665
  0
ARC
  5
152
330
1F
100
AcDbEntity
  8
Linee visibili 2D
 62
   255
100
AcDbCircle
 10
1627.80146193405
 20
1608.604948378017
 30
0.0
 40
3.43511388570103
100
AcDbArc
 50
41.11044155509322
 51
134.4828767355187
  0
ARC
  5
153
330
1F
100
AcDbEntity
  8
Linee visibili 2D
 62
   255
100
AcDbCircle
 10
1627.401347891335
 20
1601.918629531855
 30
0.0
 40
3.018565405398409
100
AcDbArc
 50
30.89716406477302
 51
142.6988326893741
  0
SPLINE
  5
154
330
1F
100
AcDbEntity
  8
Linee visibili 2D
 62
   255
100
AcDbSpline
210
0.0
220
0.0
230
1.0
 70
    12
 71
     2
 72
    10
 73
     7
 74
     0
 42
0.0000000001
 43
0.0000000001
 40
2.945243112740431
 40
2.945243112740431
 40
2.945243112740431
 40
3.926990816987241
 40
3.926990816987241
 40
6.663098071408723
 40
6.663098071408723
 40
8.819038322510835
 40
8.819038322510835
 40
8.819038322510835
 10
1628.431009847292
 20
1316.32520223745
 30
0.0
 41
0.8901650429449554
 10
1628.561598893947
 20
1316.324535624994
 30
0.0
 41
0.9267766952966369
 10
1628.514201305777
 20
1316.324535624994
 30
0.0
 41
1.0
 10
1627.146153193808
 20
1316.328475737669
 30
0.0
 41
0.999999825992549
 10
1625.778110682806
 20
1316.334029946691
 30
0.0
 41
1.0
 10
1624.700147791252
 20
1316.33799601397
 30
0.0
 41
0.999999913720538
 10
1623.622188566746
 20
1316.342857655932
 30
0.0
 41
1.0
  0
LINE
  5
155
330
1F
100
AcDbEntity
  8
Linee visibili 2D
 62
   255
100
AcDbLine
 10
1623.561821277039
 20
1323.710476390591
 30
0.0
 11
1628.535659848299
 21
1323.697052114142
 31
0.0
  0
ARC
  5
156
330
1F
100
AcDbEntity
  8
Linee visibili 2D
 62
   255
100
AcDbCircle
 10
1625.431823780565
 20
1362.599851612469
 30
0.0
 40
4.723184301034885
100
AcDbArc
 50
239.4555337833007
 51
303.3610298016891
  0
LINE
  5
157
330
1F
100
AcDbEntity
  8
Linee visibili 2D
 62
   255
100
AcDbLine
 10
1623.399008458164
 20
1341.893872702724
 30
0.0
 11
1628.387220237461
 21
1342.004354625463
 31
0.0
  0
SPLINE
  5
158
330
1F
100
AcDbEntity
  8
Linee visibili 2D
 62
   255
100
AcDbSpline
210
0.0
220
0.0
230
1.0
 70
    12
 71
     2
 72
     8
 73
     5
 74
     0
 42
0.0000000001
 43
0.0000000001
 40
10.79922474671491
 40
10.79922474671491
 40
10.79922474671491
 40
11.78097245096172
 40
11.78097245096172
 40
14.55960521935244
 40
14.55960521935244
 40
14.55960521935244
 10
1620.885981368043
 20
1500.850948631849
 30
0.0
 41
0.8901650429449554
 10
1621.007729915015
 20
1500.852033982724
 30
0.0
 41
0.9267766952966369
 10
1620.951221800308
 20
1500.852033982724
 30
0.0
 41
1.0
 10
1619.561918697431
 20
1500.845832417208
 30
0.0
 41
0.9999993955216715
 10
1618.172632591317
 20
1500.836575720198
 30
0.0
 41
1.0
  0
LINE
  5
159
330
1F
100
AcDbEntity
  8
Linee visibili 2D
 62
   255
100
AcDbLine
 10
1618.172632591317
 20
1500.836575720199
 30
0.0
 11
1616.05178729722
 21
1500.822202808548
 31
0.0
  0
ARC
  5
15A
330
1F
100
AcDbEntity
  8
Linee visibili 2D
 62
   255
100
AcDbCircle
 10
1624.986527244009
 20
1578.188084411187
 30
0.0
 40
2.59670496463113
100
AcDbArc
 50
7.91690243390819
 51
156.4783666624752
  0
ARC
  5
15B
330
1F
100
AcDbEntity
  8
Linee visibili 2D
 62
   255
100
AcDbCircle
 10
1623.848520024074
 20
1570.327002228852
 30
0.0
 40
2.454256249254786
100
AcDbArc
 50
359.9747518420758
 51
95.6702936448628
  0
LINE
  5
15C
330
1F
100
AcDbEntity
  8
Linee visibili 2D
 62
   255
100
AcDbLine
 10
1569.437832401764
 20
1397.826054410513
 30
0.0
 11
1564.042026420851
 21
1398.041158071959
 31
0.0
  0
LINE
  5
15D
330
1F
100
AcDbEntity
  8
Linee visibili 2D
 62
   255
100
AcDbLine
 10
1564.042026420851
 20
1398.041158071959
 30
0.0
 11
1563.742275011867
 21
1398.053934288773
 31
0.0
  0
ARC
  5
15E
330
1F
100
AcDbEntity
  8
Linee visibili 2D
 62
   255
100
AcDbCircle
 10
1641.457646380191
 20
1379.927919139033
 30
0.0
 40
219.2543429189917
100
AcDbArc
 50
268.6118006401156
 51
289.9697482334125
  0
LINE
  5
15F
330
1F
100
AcDbEntity
  8
Linee visibili 2D
 62
   255
100
AcDbLine
 10
1626.519532307051
 20
1238.865257015606
 30
0.0
 11
1625.872515212595
 21
1223.876968510545
 31
0.0
  0
LINE
  5
160
330
1F
100
AcDbEntity
  8
Linee visibili 2D
 62
   255
100
AcDbLine
 10
1627.159621675102
 20
1255.006735656062
 30
0.0
 11
1626.519644621647
 21
1238.867943833716
 31
0.0
  0
LINE
  5
161
330
1F
100
AcDbEntity
  8
Linee visibili 2D
 62
   255
100
AcDbLine
 10
1617.112932371686
 20
1536.356773116372
 30
0.0
 11
1617.856951325927
 21
1544.953105337087
 31
0.0
  0
LINE
  5
162
330
1F
100
AcDbEntity
  8
Linee visibili 2D
 62
   255
100
AcDbLine
 10
1622.783289719757
 20
1454.769435775508
 30
0.0
 11
1623.49734792537
 21
1443.571698033169
 31
0.0
  0
LINE
  5
163
330
1F
100
AcDbEntity
  8
Linee visibili 2D
 62
   255
100
AcDbLine
 10
1620.689226000465
 20
1567.008296216016
 30
0.0
 11
1621.374121054502
 21
1571.167558524993
 31
0.0
  0
LINE
  5
164
330
1F
100
AcDbEntity
  8
Linee visibili 2D
 62
   255
100
AcDbLine
 10
1711.072312375715
 20
546.5918026723512
 30
0.0
 11
1708.384183245782
 21
545.5025568586116
 31
0.0
  0
ARC
  5
165
330
1F
100
AcDbEntity
  8
Linee visibili 2D
 62
   255
100
AcDbCircle
 10
1618.470395229828
 20
423.6982819181198
 30
0.0
 40
2.505200964104618
100
AcDbArc
 50
203.0577317692022
 51
263.173813273281
  0
LINE
  5
166
330
1F
100
AcDbEntity
  8
Linee visibili 2D
 62
   255
100
AcDbLine
 10
1688.454266883433
 20
537.4268283396959
 30
0.0
 11
1708.384183103
 21
545.5025568421692
 31
0.0
  0
LINE
  5
167
330
1F
100
AcDbEntity
  8
Linee visibili 2D
 62
   255
100
AcDbLine
 10
1696.006404292555
 20
456.7766381409176
 30
0.0
 11
1698.293789264089
 21
454.993285101583
 31
0.0
  0
LINE
  5
168
330
1F
100
AcDbEntity
  8
Linee visibili 2D
 62
   255
100
AcDbLine
 10
1617.869951904192
 20
441.370636399951
 30
0.0
 11
1618.505422653511
 21
446.6852444065505
 31
0.0
  0
LINE
  5
169
330
1F
100
AcDbEntity
  8
Linee visibili 2D
 62
   255
100
AcDbLine
 10
1679.047562301159
 20
469.9985718540847
 30
0.0
 11
1696.006404147239
 21
456.7766381317443
 31
0.0
  0
LINE
  5
16A
330
1F
100
AcDbEntity
  8
Linee visibili 2D
 62
   255
100
AcDbLine
 10
1558.804253339767
 20
563.746586304158
 30
0.0
 11
1575.763381951672
 21
550.524289976826
 31
0.0
  0
SPLINE
  5
16B
330
1F
100
AcDbEntity
  8
Linee visibili 2D
 62
   255
100
AcDbSpline
210
0.0
220
0.0
230
1.0
 70
     8
 71
     3
 72
    13
 73
     9
 74
     0
 42
0.0000000001
 43
0.0000000001
 40
0.2438204865355736
 40
0.2438204865355736
 40
0.2438204865355736
 40
0.2438204865355736
 40
0.3125
 40
0.375
 40
0.4375
 40
0.5
 40
0.59375
 40
0.65625
 40
0.65625
 40
0.65625
 40
0.65625
 10
1638.541480463206
 20
922.4300140504392
 30
0.0
 10
1571.07120091181
 20
916.9803503434991
 30
0.0
 10
1443.540222231235
 20
886.5716160580171
 30
0.0
 10
1284.771901490966
 20
777.0747279003223
 30
0.0
 10
1189.548287723162
 20
619.5688839998124
 30
0.0
 10
1176.235772090877
 20
404.3322431940724
 30
0.0
 10
1271.20531924346
 20
212.426320408556
 30
0.0
 10
1374.387596078896
 20
102.4183805191319
 30
0.0
 10
1423.564992214227
 20
66.19240710126542
 30
0.0
  0
ARC
  5
16C
330
1F
100
AcDbEntity
  8
Linee visibili 2D
 62
   255
100
AcDbCircle
 10
1678.006420718747
 20
880.473478556256
 30
0.0
 40
1.994155785471373
100
AcDbArc
 50
198.5842210072475
 51
15.13499503113079
  0
SPLINE
  5
16D
330
1F
100
AcDbEntity
  8
Linee visibili 2D
 62
   255
100
AcDbSpline
210
0.0
220
0.0
230
1.0
 70
     8
 71
     3
 72
    23
 73
    19
 74
     0
 42
0.0000000001
 43
0.0000000001
 40
0.0
 40
0.0
 40
0.0
 40
0.0
 40
11.76573786274732
 40
26.99274090278148
 40
46.27849262117412
 40
69.0752889006407
 40
118.4971538343057
 40
149.4090859611609
 40
186.3773737055253
 40
312.8929982420476
 40
376.0090632175944
 40
422.6515825185623
 40
455.5415776155285
 40
479.7219254290881
 40
489.3707597582034
 40
497.3625838978355
 40
504.0127239524053
 40
509.7645046117209
 40
509.7645046117209
 40
509.7645046117209
 40
509.7645046117209
 10
1848.528742697053
 20
1232.447610304625
 30
0.0
 10
1848.579142012965
 20
1228.469754031047
 30
0.0
 10
1845.150563634269
 20
1219.866611753685
 30
0.0
 10
1834.156745457176
 20
1208.792479634201
 30
0.0
 10
1818.129404693672
 20
1198.318234451717
 30
0.0
 10
1790.048413426279
 20
1186.121461427276
 30
0.0
 10
1756.422921600404
 20
1178.283011468144
 30
0.0
 10
1717.595762824271
 20
1173.673863837177
 30
0.0
 10
1652.91362564677
 20
1169.416424750453
 30
0.0
 10
1577.349293934231
 20
1168.646156513932
 30
0.0
 10
1498.613367565966
 20
1170.518604329887
 30
0.0
 10
1451.154402850694
 20
1173.792552949672
 30
0.0
 10
1416.898964921824
 20
1178.693908271978
 30
0.0
 10
1395.387369178649
 20
1184.642048663279
 30
0.0
 10
1382.851691196863
 20
1190.880417084675
 30
0.0
 10
1376.32802542798
 20
1195.737410936113
 30
0.0
 10
1372.173227995489
 20
1201.258929221354
 30
0.0
 10
1371.2106653698
 20
1205.384970013412
 30
0.0
 10
1371.216980482692
 20
1207.30166374012
 30
0.0
  0
LINE
  5
16E
330
1F
100
AcDbEntity
  8
Linee visibili 2D
 62
   255
100
AcDbLine
 10
1634.659645530925
 20
1284.744254533533
 30
0.0
 11
1633.949222037415
 21
1284.468640361928
 31
0.0
  0
SPLINE
  5
16F
330
1F
100
AcDbEntity
  8
Linee visibili 2D
 62
   255
100
AcDbSpline
210
0.0
220
0.0
230
1.0
 70
     8
 71
     3
 72
    14
 73
    10
 74
     0
 42
0.0000000001
 43
0.0000000001
 40
0.0
 40
0.0
 40
0.0
 40
0.0
 40
55.42131472025226
 40
109.0551694544332
 40
220.3991253280416
 40
274.7703343549993
 40
334.9831279633212
 40
400.9831259976834
 40
467.949226941407
 40
467.949226941407
 40
467.949226941407
 40
467.949226941407
 10
1681.849908758187
 20
132.6237559546714
 30
0.0
 10
1699.914667337976
 20
136.4335142719907
 30
0.0
 10
1735.094007428877
 20
146.1282830724334
 30
0.0
 10
1801.219911530397
 20
179.0184222961546
 30
0.0
 10
1855.681345569346
 20
229.5862315238387
 30
0.0
 10
1896.780553896378
 20
292.8934966625181
 30
0.0
 10
1921.104829733295
 20
348.1933209219282
 30
0.0
 10
1938.772124386393
 20
410.2102897128045
 30
0.0
 10
1945.71987278955
 20
454.0880509827351
 30
0.0
 10
1947.915160437287
 20
476.2935387769884
 30
0.0
  0
SPLINE
  5
170
330
1F
100
AcDbEntity
  8
Linee visibili 2D
 62
   255
100
AcDbSpline
210
0.0
220
0.0
230
1.0
 70
     8
 71
     3
 72
    11
 73
     7
 74
     0
 42
0.0000000001
 43
0.0000000001
 40
-0.4652141168078522
 40
-0.4652141168078522
 40
-0.4652141168078522
 40
-0.4652141168078522
 40
-0.4375
 40
-0.375
 40
-0.3125
 40
-0.2438204865355734
 40
-0.2438204865355734
 40
-0.2438204865355734
 40
-0.2438204865355734
 10
1187.983875151434
 20
538.2870880684321
 30
0.0
 10
1190.510290361508
 20
564.7058741335201
 30
0.0
 10
1207.222646728215
 20
649.8581906755052
 30
0.0
 10
1284.779929220029
 20
778.1428086747815
 30
0.0
 10
1443.548252050529
 20
887.6396970008137
 30
0.0
 10
1571.079231589592
 20
918.0484313554343
 30
0.0
 10
1638.549511443491
 20
923.4980950867366
 30
0.0
  0
LINE
  5
171
330
1F
100
AcDbEntity
  8
Linee visibili 2D
 62
   255
100
AcDbLine
 10
1431.177889372566
 20
164.3075296597203
 30
0.0
 11
1451.969951681798
 21
152.9641516978135
 31
0.0
  0
SPLINE
  5
172
330
1F
100
AcDbEntity
  8
Linee visibili 2D
 62
   255
100
AcDbSpline
210
0.0
220
0.0
230
1.0
 70
     8
 71
     3
 72
    12
 73
     8
 74
     0
 42
0.0000000001
 43
0.0000000001
 40
0.0
 40
0.0
 40
0.0
 40
0.0
 40
15.29553859559511
 40
32.88648048468144
 40
69.34718511444291
 40
109.5650459776805
 40
154.7994603958213
 40
154.7994603958213
 40
154.7994603958213
 40
154.7994603958213
 10
1487.466624815879
 20
479.9380503599725
 30
0.0
 10
1487.893128697635
 20
474.8652063347903
 30
0.0
 10
1490.244241827758
 20
464.0583920349552
 30
0.0
 10
1499.747651330091
 20
442.9265843309116
 30
0.0
 10
1519.610153858212
 20
417.9573810699873
 30
0.0
 10
1553.86890147243
 20
395.4922495013041
 30
0.0
 10
1580.27697197112
 20
384.6158320472074
 30
0.0
 10
1594.836652929321
 20
380.5822344823438
 30
0.0
  0
LINE
  5
173
330
1F
100
AcDbEntity
  8
Linee visibili 2D
 62
   255
100
AcDbLine
 10
1672.733797262272
 20
379.8384420421963
 30
0.0
 11
1672.721464877661
 21
378.803239317116
 31
0.0
  0
LINE
  5
174
330
1F
100
AcDbEntity
  8
Linee visibili 2D
 62
   255
100
AcDbLine
 10
1698.372663765199
 20
454.9317904293319
 30
0.0
 11
1698.293789264089
 21
454.993285101583
 31
0.0
  0
ARC
  5
175
330
1F
100
AcDbEntity
  8
Linee visibili 2D
 62
   255
100
AcDbCircle
 10
1678.041232948076
 20
880.3586069347595
 30
0.0
 40
1.994155785471194
100
AcDbArc
 50
18.58422100725265
 51
195.1349950311245
  0
ARC
  5
176
330
1F
100
AcDbEntity
  8
Linee visibili 2D
 62
   255
100
AcDbCircle
 10
1256.143824674888
 20
350.9910549499229
 30
0.0
 40
1.994155785471426
100
AcDbArc
 50
18.58422100723146
 51
195.1349950311069
  0
ARC
  5
177
330
1F
100
AcDbEntity
  8
Linee visibili 2D
 62
   255
100
AcDbCircle
 10
1256.109012445558
 20
351.10592657142
 30
0.0
 40
1.994155785471373
100
AcDbArc
 50
198.5842210072475
 51
15.13499503109269
  0
SPLINE
  5
178
330
1F
100
AcDbEntity
  8
Linee visibili 2D
 62
   255
100
AcDbSpline
210
0.0
220
0.0
230
1.0
 70
     8
 71
     3
 72
    11
 73
     7
 74
     0
 42
0.0000000001
 43
0.0000000001
 40
0.75
 40
0.75
 40
0.75
 40
0.75
 40
0.8124999999999817
 40
0.8749999999999878
 40
0.937499999999994
 40
1.0
 40
1.0
 40
1.0
 40
1.0
 10
1684.50132154634
 20
9.107054641669379
 30
0.0
 10
1743.711734292192
 20
24.27016710756106
 30
0.0
 10
1850.629704521284
 20
92.42851027109691
 30
0.0
 10
1974.105643742479
 20
221.5865645368211
 30
0.0
 10
2070.678541714285
 20
375.1464008323246
 30
0.0
 10
2110.599783067581
 20
485.8770691821802
 30
0.0
 10
2119.426681839144
 20
546.1845912102244
 30
0.0
  0
SPLINE
  5
179
330
1F
100
AcDbEntity
  8
Linee visibili 2D
 62
   255
100
AcDbSpline
210
0.0
220
0.0
230
1.0
 70
     8
 71
     3
 72
    35
 73
    31
 74
     0
 42
0.0000000001
 43
0.0000000001
 40
0.0
 40
0.0
 40
0.0
 40
0.0
 40
58.05176591381249
 40
121.3819473100841
 40
176.9321969344567
 40
230.4750813281135
 40
294.1874310252041
 40
361.9801910869031
 40
430.3642176897741
 40
495.7265032058524
 40
558.5461310086663
 40
618.3085393496062
 40
742.1214571029536
 40
870.2206391477246
 40
937.6598706169998
 40
995.910870376547
 40
1101.67707746125
 40
1150.170998018132
 40
1195.430928684459
 40
1246.308905300891
 40
1304.285122167268
 40
1342.608578735966
 40
1380.945763379068
 40
1455.026888595257
 40
1587.906803547535
 40
1647.593440585272
 40
1704.462252260789
 40
1814.757862049315
 40
1867.810800765191
 40
1922.637336405406
 40
1922.637336405406
 40
1922.637336405406
 40
1922.637336405406
 10
1433.581067447906
 20
167.6589178759507
 30
0.0
 10
1417.251801961956
 20
178.0801020956204
 30
0.0
 10
1385.818400937539
 20
203.7983920287875
 30
0.0
 10
1347.0995362664
 20
248.600179525223
 30
0.0
 10
1318.028675395063
 20
298.5252023834962
 30
0.0
 10
1300.806301703279
 20
353.8718016125118
 30
0.0
 10
1294.351907845746
 20
415.4351904320915
 30
0.0
 10
1298.061991004987
 20
482.1744267125385
 30
0.0
 10
1312.433353572691
 20
548.0137711477088
 30
0.0
 10
1336.025534998194
 20
609.3380598488695
 30
0.0
 10
1367.388891499673
 20
663.8090247596144
 30
0.0
 10
1419.512328403804
 20
727.6098133530999
 30
0.0
 10
1503.166871265124
 20
791.3671583326715
 30
0.0
 10
1604.78888152657
 20
827.0705058890651
 30
0.0
 10
1688.960563535439
 20
837.1804204706813
 30
0.0
 10
1766.351196782249
 20
835.019009077327
 30
0.0
 10
1835.014642705871
 20
812.1168826319467
 30
0.0
 10
1888.024241581119
 20
770.9705871200147
 30
0.0
 10
1916.662582843628
 20
731.628369498113
 30
0.0
 10
1935.366748547094
 20
683.4063247756665
 30
0.0
 10
1944.516931754651
 20
635.1136846687431
 30
0.0
 10
1948.457848373695
 20
590.3644988145151
 30
0.0
 10
1950.471430973319
 20
540.1593215561305
 30
0.0
 10
1947.418625013302
 20
458.330202833463
 30
0.0
 10
1928.824825128134
 20
370.7332137584788
 30
0.0
 10
1895.556223840123
 20
294.2459384239814
 30
0.0
 10
1854.267187155478
 20
230.6493090428573
 30
0.0
 10
1799.401302110702
 20
180.070273883096
 30
0.0
 10
1733.768511664985
 20
147.8918375343513
 30
0.0
 10
1698.912168186778
 20
138.4659467247
 30
0.0
 10
1681.01815130185
 20
134.8221140919327
 30
0.0
  0
SPLINE
  5
17A
330
1F
100
AcDbEntity
  8
Linee visibili 2D
 62
   255
100
AcDbSpline
210
0.0
220
0.0
230
1.0
 70
     8
 71
     3
 72
    10
 73
     6
 74
     0
 42
0.0000000001
 43
0.0000000001
 40
1.0
 40
1.0
 40
1.0
 40
1.0
 40
1.0625
 40
1.15625
 40
1.209869491856851
 40
1.209869491856851
 40
1.209869491856851
 40
1.209869491856851
 10
2119.426681839144
 20
546.1845912102244
 30
0.0
 10
2128.253580151391
 20
606.4921132435849
 30
0.0
 10
2122.486520829521
 20
769.6163879637104
 30
0.0
 10
1932.839320653105
 20
892.2252528381471
 30
0.0
 10
1790.900369223577
 20
919.4109380150662
 30
0.0
 10
1738.545852141197
 20
923.0093367220853
 30
0.0
  0
ARC
  5
17B
330
1F
100
AcDbEntity
  8
Linee visibili 2D
 62
   255
100
AcDbCircle
 10
1628.32763418029
 20
511.4445662339375
 30
0.0
 40
89.99999999672367
100
AcDbArc
 50
203.0131374520336
 51
261.1031574576575
  0
LINE
  5
17C
330
1F
100
AcDbEntity
  8
Linee visibili 2D
 62
   255
100
AcDbLine
 10
1732.555811495385
 20
924.4620397318922
 30
0.0
 11
1732.855721887974
 21
924.4441153102997
 31
0.0
  0
LINE
  5
17D
330
1F
100
AcDbEntity
  8
Linee visibili 2D
 62
   255
100
AcDbLine
 10
1738.245955402843
 20
923.0298787608399
 30
0.0
 11
1738.545852141197
 21
923.0093367220853
 31
0.0
  0
ARC
  5
17E
330
1F
100
AcDbEntity
  8
Linee visibili 2D
 62
   255
100
AcDbCircle
 10
1943.013200942845
 20
263.3119335530994
 30
0.0
 40
1.994155785471283
100
AcDbArc
 50
18.58422100723973
 51
195.1349950311133
  0
ARC
  5
17F
330
1F
100
AcDbEntity
  8
Linee visibili 2D
 62
   255
100
AcDbCircle
 10
1623.238692779928
 20
1221.238623511019
 30
0.0
 40
3.482948081263807
100
AcDbArc
 50
41.3236793616375
 51
132.9959142661062
  0
LINE
  5
180
330
1F
100
AcDbEntity
  8
Linee visibili 2D
 62
   255
100
AcDbLine
 10
1619.928313902043
 20
1562.001586892129
 30
0.0
 11
1622.158974654565
 21
1563.554047012238
 31
0.0
  0
LINE
  5
181
330
1F
100
AcDbEntity
  8
Linee visibili 2D
 62
   255
100
AcDbLine
 10
1623.170930930789
 20
1288.390071274367
 30
0.0
 11
1628.15856133626
 21
1288.240463851551
 31
0.0
  0
LINE
  5
182
330
1F
100
AcDbEntity
  8
Linee visibili 2D
 62
   255
100
AcDbLine
 10
1680.550196772417
 20
1434.022044536758
 30
0.0
 11
1680.653312732506
 21
1433.892614752239
 31
0.0
  0
LINE
  5
183
330
1F
100
AcDbEntity
  8
Linee visibili 2D
 62
   255
100
AcDbLine
 10
1616.687039031641
 20
1474.758893055923
 30
0.0
 11
1616.27494346369
 21
1485.32673356547
 31
0.0
  0
ARC
  5
184
330
1F
100
AcDbEntity
  8
Linee visibili 2D
 62
   255
100
AcDbCircle
 10
1626.069817919256
 20
1586.936223233398
 30
0.0
 40
2.669495668219282
100
AcDbArc
 50
14.44386181497522
 51
153.3835952651406
  0
ARC
  5
185
330
1F
100
AcDbEntity
  8
Linee visibili 2D
 62
   255
100
AcDbCircle
 10
1622.419674522034
 20
1561.097658910524
 30
0.0
 40
2.470183581667531
100
AcDbArc
 50
5.002478933406702
 51
96.05820199931944
  0
ARC
  5
186
330
1F
100
AcDbEntity
  8
Linee visibili 2D
 62
   255
100
AcDbCircle
 10
1623.112252234817
 20
1565.80702379722
 30
0.0
 40
2.476912530019844
100
AcDbArc
 50
3.535382430987369
 51
95.61272104795837
  0
LINE
  5
187
330
1F
100
AcDbEntity
  8
Linee visibili 2D
 62
   255
100
AcDbLine
 10
1620.638791290933
 20
1566.69056623137
 30
0.0
 11
1622.870000623815
 21
1568.272061289498
 31
0.0
  0
LINE
  5
188
330
1F
100
AcDbEntity
  8
Linee visibili 2D
 62
   255
100
AcDbLine
 10
1658.042561227605
 20
1398.197955662353
 30
0.0
 11
1657.742309733462
 21
1398.184202500456
 31
0.0
  0
LINE
  5
189
330
1F
100
AcDbEntity
  8
Linee visibili 2D
 62
   255
100
AcDbLine
 10
1621.529674002275
 20
1239.212390603587
 30
0.0
 11
1622.163142533449
 21
1255.194342124575
 31
0.0
  0
ARC
  5
18A
330
1F
100
AcDbEntity
  8
Linee visibili 2D
 62
   255
100
AcDbCircle
 10
1256.336823623818
 20
1491.176017746324
 30
0.0
 40
3.11267890444604
100
AcDbArc
 50
56.95856170652765
 51
132.8778573572131
  0
LINE
  5
18B
330
1F
100
AcDbEntity
  8
Linee visibili 2D
 62
   255
100
AcDbLine
 10
1709.510825980455
 20
542.7221475616097
 30
0.0
 11
1689.580914650282
 21
534.6464210363357
 31
0.0
  0
LINE
  5
18C
330
1F
100
AcDbEntity
  8
Linee visibili 2D
 62
   255
100
AcDbLine
 10
1712.198955257244
 20
543.8113933828031
 30
0.0
 11
1709.510826127311
 21
542.7221475690635
 31
0.0
  0
LINE
  5
18D
330
1F
100
AcDbEntity
  8
Linee visibili 2D
 62
   255
100
AcDbLine
 10
1712.291642810228
 20
543.8489510805774
 30
0.0
 11
1712.198955257244
 21
543.8113933828031
 31
0.0
  0
LINE
  5
18E
330
1F
100
AcDbEntity
  8
Linee visibili 2D
 62
   255
100
AcDbLine
 10
1616.136060695707
 20
426.0379211377608
 30
0.0
 11
1616.522240382616
 21
429.684474669417
 31
0.0
  0
SPLINE
  5
18F
330
1F
100
AcDbEntity
  8
Linee visibili 2D
 62
   255
100
AcDbSpline
210
0.0
220
0.0
230
1.0
 70
     8
 71
     3
 72
    13
 73
     9
 74
     0
 42
0.0000000001
 43
0.0000000001
 40
0.0
 40
0.0
 40
0.0
 40
0.0
 40
19.57201392126621
 40
36.71040293091264
 40
72.08378988411476
 40
95.90976238269617
 40
120.5821413967038
 40
164.3881226728834
 40
164.3881226728834
 40
164.3881226728834
 40
164.3881226728834
 10
1672.733797262272
 20
379.8384420421963
 30
0.0
 10
1678.854056287593
 20
382.1508100580868
 30
0.0
 10
1689.989988462088
 20
387.1650294777316
 30
0.0
 10
1710.426568940932
 20
400.1035213886681
 30
0.0
 10
1727.503051363295
 20
419.3875788790249
 30
0.0
 10
1741.244194263481
 20
443.7762162410557
 30
0.0
 10
1753.736496961129
 20
471.9405377914321
 30
0.0
 10
1759.266204511632
 20
494.2594808579354
 30
0.0
 10
1760.775587224226
 20
508.7928110597769
 30
0.0
  0
LINE
  5
190
330
1F
100
AcDbEntity
  8
Linee visibili 2D
 62
   255
100
AcDbLine
 10
1680.3441582572
 20
134.3183474724599
 30
0.0
 11
1515.542743811956
 21
135.2066721704773
 31
0.0
  0
LINE
  5
191
330
1F
100
AcDbEntity
  8
Linee visibili 2D
 62
   255
100
AcDbLine
 10
1680.550196772229
 20
132.7660955006066
 30
0.0
 11
1680.3441582572
 21
134.3183474724599
 31
0.0
  0
ARC
  5
192
330
1F
100
AcDbEntity
  8
Linee visibili 2D
 62
   255
100
AcDbCircle
 10
1692.438205622206
 20
249.7482434719514
 30
0.0
 40
675.9054143624658
100
AcDbArc
 50
86.59727353230373
 51
94.06266768619572
  0
LINE
  5
193
330
1F
100
AcDbEntity
  8
Linee visibili 2D
 62
   255
100
AcDbLine
 10
1638.841610762269
 20
922.4541862807027
 30
0.0
 11
1644.243832371755
 21
922.8655907199419
 31
0.0
  0
LINE
  5
194
330
1F
100
AcDbEntity
  8
Linee visibili 2D
 62
   255
100
AcDbLine
 10
1638.849641742554
 20
923.5222673170001
 30
0.0
 11
1644.251863372892
 21
923.9336716445046
 31
0.0
  0
LINE
  5
195
330
1F
100
AcDbEntity
  8
Linee visibili 2D
 62
   255
100
AcDbLine
 10
1644.243832371755
 20
922.8655907199418
 30
0.0
 11
1644.543948933717
 21
922.8871326640686
 31
0.0
  0
LINE
  5
196
330
1F
100
AcDbEntity
  8
Linee visibili 2D
 62
   255
100
AcDbLine
 10
1644.251863372892
 20
923.9336716445046
 30
0.0
 11
1644.55197993319
 21
923.9552135885151
 31
0.0
  0
LINE
  5
197
330
1F
100
AcDbEntity
  8
Linee visibili 2D
 62
   255
100
AcDbLine
 10
1638.541480463206
 20
922.4300140504392
 30
0.0
 11
1638.841610762269
 21
922.4541862807027
 31
0.0
  0
LINE
  5
198
330
1F
100
AcDbEntity
  8
Linee visibili 2D
 62
   255
100
AcDbLine
 10
1638.549511443491
 20
923.4980950867366
 30
0.0
 11
1638.849641742554
 21
923.5222673170001
 31
0.0
  0
LINE
  5
199
330
1F
100
AcDbEntity
  8
Linee visibili 2D
 62
   255
100
AcDbLine
 10
1732.547780450263
 20
923.3939605125382
 30
0.0
 11
1732.847690853906
 21
923.3760358519899
 31
0.0
  0
LINE
  5
19A
330
1F
100
AcDbEntity
  8
Linee visibili 2D
 62
   255
100
AcDbLine
 10
1617.889792716637
 20
1545.283539304474
 30
0.0
 11
1618.748662706508
 21
1553.112823020041
 31
0.0
  0
LINE
  5
19B
330
1F
100
AcDbEntity
  8
Linee visibili 2D
 62
   255
100
AcDbLine
 10
1538.327582327862
 20
1636.938229593818
 30
0.0
 11
1538.327634182649
 21
1641.789066832921
 31
0.0
  0
ARC
  5
19C
330
1F
100
AcDbEntity
  8
Linee visibili 2D
 62
   255
100
AcDbCircle
 10
1628.329727727931
 20
1873.389416727217
 30
0.0
 40
253.0013643442553
100
AcDbArc
 50
275.0964509017211
 51
290.7857316293509
  0
LINE
  5
19D
330
1F
100
AcDbEntity
  8
Linee visibili 2D
 62
   255
100
AcDbLine
 10
1623.161273007469
 20
1288.415349343707
 30
0.0
 11
1623.443043266438
 21
1305.3020082542
 31
0.0
  0
LINE
  5
19E
330
1F
100
AcDbEntity
  8
Linee visibili 2D
 62
   255
100
AcDbLine
 10
1621.502492898402
 20
1526.478009200789
 30
0.0
 11
1621.126800890992
 21
1516.81915783199
 31
0.0
  0
SPLINE
  5
19F
330
1F
100
AcDbEntity
  8
Linee visibili 2D
 62
   255
100
AcDbSpline
210
0.0
220
0.0
230
1.0
 70
     8
 71
     3
 72
    13
 73
     9
 74
     0
 42
0.0000000001
 43
0.0000000001
 40
0.2696987503679413
 40
0.2696987503679413
 40
0.2696987503679413
 40
0.2696987503679413
 40
0.3125
 40
0.375
 40
0.4375
 40
0.5
 40
0.59375
 40
0.65625
 40
0.65625
 40
0.65625
 40
0.65625
 10
1562.827891711326
 20
1649.612934512195
 30
0.0
 10
1521.532409682507
 20
1647.186108476929
 30
0.0
 10
1422.326576973617
 20
1638.296424660782
 30
0.0
 10
1284.771901491154
 20
1611.72456480318
 30
0.0
 10
1189.548287723349
 20
1567.88460039695
 30
0.0
 10
1176.235772091064
 20
1508.218900818852
 30
0.0
 10
1271.205319243647
 20
1455.242933941942
 30
0.0
 10
1374.387596079084
 20
1424.976434520231
 30
0.0
 10
1423.564992214414
 20
1415.041192387005
 30
0.0
  0
LINE
  5
1A0
330
1F
100
AcDbEntity
  8
Linee visibili 2D
 62
   255
100
AcDbLine
 10
1626.302780018425
 20
1570.325938897266
 30
0.0
 11
1625.585346703657
 21
1565.959620461795
 31
0.0
  0
LINE
  5
1A1
330
1F
100
AcDbEntity
  8
Linee visibili 2D
 62
   255
100
AcDbLine
 10
1629.381671254654
 20
1595.198046596472
 30
0.0
 11
1628.671894383101
 21
1587.760543980508
 31
0.0
  0
LINE
  5
1A2
330
1F
100
AcDbEntity
  8
Linee visibili 2D
 62
   255
100
AcDbLine
 10
1622.82961093946
 20
1544.430028804038
 30
0.0
 11
1622.103072210639
 21
1536.037910005355
 31
0.0
  0
ARC
  5
1A3
330
1F
100
AcDbEntity
  8
Linee visibili 2D
 62
   255
100
AcDbCircle
 10
1628.330480612329
 20
1873.389340163136
 30
0.0
 40
253.0012870856494
100
AcDbArc
 50
249.1884719237147
 51
264.9034511313486
  0
LINE
  5
1A4
330
1F
100
AcDbEntity
  8
Linee visibili 2D
 62
   255
100
AcDbLine
 10
1681.841890702892
 20
1433.689346932617
 30
0.0
 11
1680.677698214385
 21
1433.867909993721
 31
0.0
  0
LINE
  5
1A5
330
1F
100
AcDbEntity
  8
Linee visibili 2D
 62
   255
100
AcDbLine
 10
1618.508316944196
 20
1443.240681731497
 30
0.0
 11
1617.794098482373
 21
1454.440086557872
 31
0.0
  0
LINE
  5
1A6
330
1F
100
AcDbEntity
  8
Linee visibili 2D
 62
   255
100
AcDbLine
 10
1634.478635673877
 20
1284.746742726313
 30
0.0
 11
1634.658697112418
 21
1284.746739356813
 31
0.0
  0
LINE
  5
1A7
330
1F
100
AcDbEntity
  8
Linee visibili 2D
 62
   255
100
AcDbLine
 10
1633.947062317506
 20
1284.468468587986
 30
0.0
 11
1633.773685449181
 21
1284.45895212664
 31
0.0
  0
LINE
  5
1A8
330
1F
100
AcDbEntity
  8
Linee visibili 2D
 62
   255
100
AcDbLine
 10
1633.382948100491
 20
1284.515446421601
 30
0.0
 11
1628.07661702464
 21
1284.674294026175
 31
0.0
  0
SPLINE
  5
1A9
330
1F
100
AcDbEntity
  8
Linee visibili 2D
 62
   255
100
AcDbSpline
210
0.0
220
0.0
230
1.0
 70
     8
 71
     3
 72
    16
 73
    12
 74
     0
 42
0.0000000001
 43
0.0000000001
 40
0.0
 40
0.0
 40
0.0
 40
0.0
 40
25.56855152700013
 40
48.53658992284419
 40
73.14584660712815
 40
93.47241727767131
 40
110.5451526389353
 40
124.0166970058262
 40
133.6786549273303
 40
137.1658166303434
 40
139.8261811470701
 40
139.8261811470701
 40
139.8261811470701
 40
139.8261811470701
 10
1622.307528209531
 20
1259.132186145181
 30
0.0
 10
1613.821548685822
 20
1258.341528906702
 30
0.0
 10
1597.730807320514
 20
1256.637057393104
 30
0.0
 10
1573.567836950062
 20
1253.359186853837
 30
0.0
 10
1551.249867750114
 20
1249.559268378885
 30
0.0
 10
1531.000702423071
 20
1245.405676970334
 30
0.0
 10
1514.557898249268
 20
1241.21804237244
 30
0.0
 10
1501.828378606974
 20
1237.010200540884
 30
0.0
 10
1493.720099186509
 20
1233.328776481128
 30
0.0
 10
1489.439102117059
 20
1230.207944921141
 30
0.0
 10
1488.131024003292
 20
1228.599331921794
 30
0.0
 10
1487.733183230238
 20
1227.804410034092
 30
0.0
  0
LINE
  5
1AA
330
1F
100
AcDbEntity
  8
Linee visibili 2D
 62
   255
100
AcDbLine
 10
1514.106106809405
 20
1433.57594996047
 30
0.0
 11
1515.271432505324
 21
1433.793496329909
 31
0.0
  0
SPLINE
  5
1AB
330
1F
100
AcDbEntity
  8
Linee visibili 2D
 62
   255
100
AcDbSpline
210
0.0
220
0.0
230
1.0
 70
     8
 71
     3
 72
    20
 73
    16
 74
     0
 42
0.0000000001
 43
0.0000000001
 40
0.0
 40
0.0
 40
0.0
 40
0.0
 40
103.0226330615258
 40
189.6273570390927
 40
225.5739364736263
 40
255.9317006148589
 40
282.2573202180459
 40
303.5468456495945
 40
320.0139417152947
 40
335.0863822686902
 40
350.1413198509922
 40
368.2056471970506
 40
391.1193339108073
 40
421.3252494378161
 40
496.424436622687
 40
496.424436622687
 40
496.424436622687
 40
496.424436622687
 10
1582.62279802297
 20
1624.478058898369
 30
0.0
 10
1548.39433828733
 20
1621.624995535737
 30
0.0
 10
1485.601146508795
 20
1614.068574191894
 30
0.0
 10
1412.015601073532
 20
1597.953802085778
 30
0.0
 10
1363.721615078906
 20
1581.465546437872
 30
0.0
 10
1335.686764066375
 20
1568.394931617743
 30
0.0
 10
1313.791291546394
 20
1554.245585329977
 30
0.0
 10
1298.431846951318
 20
1539.162223497836
 30
0.0
 10
1290.051150496323
 20
1523.346154579612
 30
0.0
 10
1289.477221024348
 20
1507.308484235117
 30
0.0
 10
1296.80563910877
 20
1492.561834537045
 30
0.0
 10
1311.003786728809
 20
1480.083347506128
 30
0.0
 10
1332.070911234264
 20
1469.007318079361
 30
0.0
 10
1372.236238250534
 20
1454.237298258992
 30
0.0
 10
1406.51446366879
 20
1446.235147530642
 30
0.0
 10
1431.169871317273
 20
1441.946913925526
 30
0.0
  0
LINE
  5
1AC
330
1F
100
AcDbEntity
  8
Linee visibili 2D
 62
   255
100
AcDbLine
 10
1629.990188229504
 20
1603.431700565348
 30
0.0
 11
1629.390758086593
 21
1595.304548762306
 31
0.0
  0
LINE
  5
1AD
330
1F
100
AcDbEntity
  8
Linee visibili 2D
 62
   255
100
AcDbLine
 10
1743.993162944218
 20
1284.771605416854
 30
0.0
 11
1743.66176200965
 21
1284.942344095862
 31
0.0
  0
LINE
  5
1AE
330
1F
100
AcDbEntity
  8
Linee visibili 2D
 62
   255
100
AcDbLine
 10
1624.414604624207
 20
1595.797167835422
 30
0.0
 11
1625.00016477779
 21
1603.747399712226
 31
0.0
  0
LINE
  5
1AF
330
1F
100
AcDbEntity
  8
Linee visibili 2D
 62
   255
100
AcDbLine
 10
1634.478059036524
 20
1284.567823144211
 30
0.0
 11
1634.478627655913
 21
1284.744254904853
 31
0.0
  0
LINE
  5
1B0
330
1F
100
AcDbEntity
  8
Linee visibili 2D
 62
   255
100
AcDbLine
 10
1634.477687178267
 20
1284.744257935905
 30
0.0
 11
1634.364194916341
 21
1284.647893622809
 31
0.0
  0
SPLINE
  5
1B1
330
1F
100
AcDbEntity
  8
Linee visibili 2D
 62
   255
100
AcDbSpline
210
0.0
220
0.0
230
1.0
 70
     8
 71
     3
 72
    22
 73
    18
 74
     0
 42
0.0000000001
 43
0.0000000001
 40
0.0
 40
0.0
 40
0.0
 40
0.0
 40
51.48616522068231
 40
96.23464322656207
 40
112.9450935544886
 40
126.7180624229359
 40
135.4847315072648
 40
138.4824677487904
 40
140.8735630902275
 40
143.0192707876753
 40
145.398856249432
 40
148.4978013810948
 40
152.5088528722172
 40
163.0510331594273
 40
176.9137349724115
 40
211.8503282260336
 40
255.9280186852866
 40
255.9280186852866
 40
255.9280186852866
 40
255.9280186852866
 10
1622.443025864213
 20
1263.00944591982
 30
0.0
 10
1605.351922700135
 20
1261.436419491648
 30
0.0
 10
1573.495041856726
 20
1257.587711063445
 30
0.0
 10
1536.45249572904
 20
1250.701990064694
 30
0.0
 10
1512.16413095052
 20
1244.422080303299
 30
0.0
 10
1499.801842173354
 20
1240.086309278607
 30
0.0
 10
1492.142810460011
 20
1236.297087768599
 30
0.0
 10
1488.55141815485
 20
1233.168833054397
 30
0.0
 10
1487.227252582572
 20
1230.973432809
 30
0.0
 10
1487.207933947849
 20
1228.575040196708
 30
0.0
 10
1488.537602498303
 20
1226.327422509285
 30
0.0
 10
1490.827785195494
 20
1224.149822504466
 30
0.0
 10
1495.769061553516
 20
1220.903584217304
 30
0.0
 10
1504.45809499838
 20
1217.076573694796
 30
0.0
 10
1523.414631827169
 20
1211.307336239683
 30
0.0
 10
1553.979831618971
 20
1206.101795589291
 30
0.0
 10
1580.160277274824
 20
1203.26394613346
 30
0.0
 10
1594.824320544897
 20
1202.243737541567
 30
0.0
  0
SPLINE
  5
1B2
330
1F
100
AcDbEntity
  8
Linee visibili 2D
 62
   255
100
AcDbSpline
210
0.0
220
0.0
230
1.0
 70
     8
 71
     3
 72
    13
 73
     9
 74
     0
 42
0.0000000001
 43
0.0000000001
 40
0.0
 40
0.0
 40
0.0
 40
0.0
 40
7.349837699939097
 40
16.78187149202865
 40
28.58006888995
 40
44.40876424766844
 40
88.30853685295754
 40
141.7028258017885
 40
141.7028258017885
 40
141.7028258017885
 40
141.7028258017885
 10
1761.543146081984
 20
1239.943534624765
 30
0.0
 10
1761.154743318124
 20
1242.377449545859
 30
0.0
 10
1758.350484981175
 20
1247.444160350442
 30
0.0
 10
1750.401853568831
 20
1252.961902890089
 30
0.0
 10
1738.72424417811
 20
1257.145883648329
 30
0.0
 10
1715.215469913803
 20
1261.417379316554
 30
0.0
 10
1677.448412222156
 20
1262.974831562028
 30
0.0
 10
1645.061839591939
 20
1261.140583901495
 30
0.0
 10
1627.326813132819
 20
1259.583888743154
 30
0.0
  0
LINE
  5
1B3
330
1F
100
AcDbEntity
  8
Linee visibili 2D
 62
   255
100
AcDbLine
 10
1515.271432505324
 20
1433.793496329909
 30
0.0
 11
1515.360080590037
 21
1433.925160618704
 31
0.0
  0
LINE
  5
1B4
330
1F
100
AcDbEntity
  8
Linee visibili 2D
 62
   255
100
AcDbLine
 10
1431.169871317272
 20
1441.946913925526
 30
0.0
 11
1451.961933626503
 21
1438.847126449367
 31
0.0
  0
ARC
  5
1B5
330
1F
100
AcDbEntity
  8
Linee visibili 2D
 62
   255
100
AcDbCircle
 10
1551.014330263739
 20
2237.660734491726
 30
0.0
 40
804.931399358499
100
AcDbArc
 50
262.9314395502545
 51
267.3719162338676
  0
LINE
  5
1B6
330
1F
100
AcDbEntity
  8
Linee visibili 2D
 62
   255
100
AcDbLine
 10
1617.782198047817
 20
1454.665909464898
 30
0.0
 11
1620.088198452233
 21
1453.744927655368
 31
0.0
  0
ARC
  5
1B7
330
1F
100
AcDbEntity
  8
Linee visibili 2D
 62
   255
100
AcDbCircle
 10
1626.789301374308
 20
1594.224114450092
 30
0.0
 40
2.769575130837227
100
AcDbArc
 50
20.61407961889763
 51
149.6247601118815
  0
LINE
  5
1B8
330
1F
100
AcDbEntity
  8
Linee visibili 2D
 62
   255
100
AcDbLine
 10
1663.447375228504
 20
1398.460706187334
 30
0.0
 11
1658.042561227605
 21
1398.197955662353
 31
0.0
  0
LINE
  5
1B9
330
1F
100
AcDbEntity
  8
Linee visibili 2D
 62
   255
100
AcDbLine
 10
1569.737614942779
 20
1397.814928597432
 30
0.0
 11
1569.437832401764
 21
1397.826054410513
 31
0.0
  0
LINE
  5
1BA
330
1F
100
AcDbEntity
  8
Linee visibili 2D
 62
   255
100
AcDbLine
 10
1743.664073048437
 20
1284.422611807168
 30
0.0
 11
1743.077337620455
 21
1284.654113476382
 31
0.0
  0
LINE
  5
1BB
330
1F
100
AcDbEntity
  8
Linee visibili 2D
 62
   255
100
AcDbLine
 10
1743.621359853639
 20
1284.947619794978
 30
0.0
 11
1743.163621486727
 21
1284.770802956897
 31
0.0
  0
LINE
  5
1BC
330
1F
100
AcDbEntity
  8
Linee visibili 2D
 62
   255
100
AcDbLine
 10
1745.319945316919
 20
1284.628059866156
 30
0.0
 11
1744.026114280896
 21
1284.745043120753
 31
0.0
  0
LINE
  5
1BD
330
1F
100
AcDbEntity
  8
Linee visibili 2D
 62
   255
100
AcDbLine
 10
1744.02494154541
 20
1284.381165647094
 30
0.0
 11
1744.026114280896
 21
1284.745043120753
 31
0.0
  0
LINE
  5
1BE
330
1F
100
AcDbEntity
  8
Linee visibili 2D
 62
   255
100
AcDbLine
 10
1743.13764029929
 20
1284.655374038538
 30
0.0
 11
1743.137354046323
 21
1284.745056332054
 31
0.0
  0
SPLINE
  5
1BF
330
1F
100
AcDbEntity
  8
Linee visibili 2D
 62
   255
100
AcDbSpline
210
0.0
220
0.0
230
1.0
 70
     8
 71
     3
 72
    11
 73
     7
 74
     0
 42
0.0000000001
 43
0.0000000001
 40
0.75
 40
0.75
 40
0.75
 40
0.75
 40
0.8124999999999817
 40
0.8749999999999878
 40
0.937499999999994
 40
1.0
 40
1.0
 40
1.0
 40
1.0
 10
1684.501321546527
 20
1399.766677750804
 30
0.0
 10
1743.711734292379
 20
1404.091250082183
 30
0.0
 10
1850.629704521471
 20
1423.199033938934
 30
0.0
 10
1974.105643742666
 20
1459.243127234025
 30
0.0
 10
2070.678541714472
 20
1501.992534109814
 30
0.0
 10
2110.599783067768
 20
1532.756949388488
 30
0.0
 10
2119.426681839332
 20
1549.485385349599
 30
0.0
  0
ARC
  5
1C0
330
1F
100
AcDbEntity
  8
Linee visibili 2D
 62
   255
100
AcDbCircle
 10
1609.234218998024
 20
2471.800243591285
 30
0.0
 40
1074.711328010616
100
AcDbArc
 50
267.8938544911733
 51
272.5869769463729
  0
SPLINE
  5
1C1
330
1F
100
AcDbEntity
  8
Linee visibili 2D
 62
   255
100
AcDbSpline
210
0.0
220
0.0
230
1.0
 70
     8
 71
     3
 72
    13
 73
     9
 74
     0
 42
0.0000000001
 43
0.0000000001
 40
0.0
 40
0.0
 40
0.0
 40
0.0
 40
14.34889868072661
 40
30.02080341435202
 40
45.95126615001646
 40
65.95480312472658
 40
112.1036997328959
 40
170.1620232558708
 40
170.1620232558708
 40
170.1620232558708
 40
170.1620232558708
 10
1949.722724533401
 20
1323.23070435386
 30
0.0
 10
1949.74007107752
 20
1328.009240512215
 30
0.0
 10
1948.315522473106
 20
1338.038271895799
 30
0.0
 10
1941.56110565734
 20
1351.974117221639
 30
0.0
 10
1930.548249344106
 20
1365.267700267065
 30
0.0
 10
1909.332146621199
 20
1382.795353257111
 30
0.0
 10
1871.904561347789
 20
1401.145741762252
 30
0.0
 10
1838.445121878761
 20
1410.698583830108
 30
0.0
 10
1819.609238662446
 20
1415.155465878682
 30
0.0
  0
ARC
  5
1C2
330
1F
100
AcDbEntity
  8
Linee visibili 2D
 62
   255
100
AcDbCircle
 10
1624.189395998158
 20
1392.519356344206
 30
0.0
 40
3.491303481224664
100
AcDbArc
 50
226.6299575369389
 51
318.0260789713672
  0
LINE
  5
1C3
330
1F
100
AcDbEntity
  8
Linee visibili 2D
 62
   255
100
AcDbLine
 10
1619.477032125004
 20
1463.721298913878
 30
0.0
 11
1622.185484411628
 21
1464.918861571372
 31
0.0
  0
LINE
  5
1C4
330
1F
100
AcDbEntity
  8
Linee visibili 2D
 62
   255
100
AcDbLine
 10
1618.936090985277
 20
1474.061072468322
 30
0.0
 11
1621.677572547679
 21
1475.022391008275
 31
0.0
  0
ARC
  5
1C5
330
1F
100
AcDbEntity
  8
Linee visibili 2D
 62
   255
100
AcDbCircle
 10
1621.202395483433
 20
1444.768643412322
 30
0.0
 40
2.58559822841156
100
AcDbArc
 50
263.9802852530249
 51
332.419106028012
  0
LINE
  5
1C6
330
1F
100
AcDbEntity
  8
Linee visibili 2D
 62
   255
100
AcDbLine
 10
1619.36944151034
 20
1557.994329185294
 30
0.0
 11
1619.928211944106
 21
1562.000885137029
 31
0.0
  0
LINE
  5
1C7
330
1F
100
AcDbEntity
  8
Linee visibili 2D
 62
   255
100
AcDbLine
 10
1618.514029022802
 20
1443.18945244586
 30
0.0
 11
1620.931242092346
 21
1442.197302509745
 31
0.0
  0
LINE
  5
1C8
330
1F
100
AcDbEntity
  8
Linee visibili 2D
 62
   255
100
AcDbLine
 10
1624.876444274576
 20
1561.283252359283
 30
0.0
 11
1624.282426946166
 21
1557.010759922973
 31
0.0
  0
LINE
  5
1C9
330
1F
100
AcDbEntity
  8
Linee visibili 2D
 62
   255
100
AcDbLine
 10
1628.654945985061
 20
1587.601232869085
 30
0.0
 11
1627.592781738698
 21
1578.791201153682
 31
0.0
  0
LINE
  5
1CA
330
1F
100
AcDbEntity
  8
Linee visibili 2D
 62
   255
100
AcDbLine
 10
1622.623999263871
 20
1579.359289342999
 30
0.0
 11
1623.683133321461
 21
1588.131401557396
 31
0.0
  0
LINE
  5
1CB
330
1F
100
AcDbEntity
  8
Linee visibili 2D
 62
   255
100
AcDbLine
 10
1615.968928581744
 20
1500.821694141466
 30
0.0
 11
1615.965171301068
 21
1506.695886260574
 31
0.0
  0
LINE
  5
1CC
330
1F
100
AcDbEntity
  8
Linee visibili 2D
 62
   255
100
AcDbLine
 10
1620.965194739932
 20
1506.688420155423
 30
0.0
 11
1620.968837211695
 21
1500.85192506745
 31
0.0
  0
LINE
  5
1CD
330
1F
100
AcDbEntity
  8
Linee visibili 2D
 62
   255
100
AcDbLine
 10
1630.663964936013
 20
1618.720599430133
 30
0.0
 11
1630.39090570383
 21
1610.863521171947
 31
0.0
  0
LINE
  5
1CE
330
1F
100
AcDbEntity
  8
Linee visibili 2D
 62
   255
100
AcDbLine
 10
1625.401028505663
 20
1611.200977209722
 30
0.0
 11
1625.665526376725
 21
1618.845547295349
 31
0.0
  0
LINE
  5
1CF
330
1F
100
AcDbEntity
  8
Linee visibili 2D
 62
   255
100
AcDbLine
 10
1619.976028760861
 20
1562.329601759525
 30
0.0
 11
1620.638636343199
 21
1566.689589848351
 31
0.0
  0
LINE
  5
1D0
330
1F
100
AcDbEntity
  8
Linee visibili 2D
 62
   255
100
AcDbLine
 10
1625.577121334753
 20
1565.907690885442
 30
0.0
 11
1624.880761268068
 21
1561.313010748535
 31
0.0
  0
LINE
  5
1D1
330
1F
100
AcDbEntity
  8
Linee visibili 2D
 62
   255
100
AcDbLine
 10
1628.158576286743
 20
1288.238093455031
 30
0.0
 11
1627.719814992538
 21
1271.51121478211
 31
0.0
  0
LINE
  5
1D2
330
1F
100
AcDbEntity
  8
Linee visibili 2D
 62
   255
100
AcDbLine
 10
1622.725002273488
 20
1271.7578353876
 30
0.0
 11
1623.159799613102
 21
1288.348690774499
 31
0.0
  0
LINE
  5
1D3
330
1F
100
AcDbEntity
  8
Linee visibili 2D
 62
   255
100
AcDbLine
 10
1625.857416536295
 20
1223.538319742589
 30
0.0
 11
1625.193632019307
 21
1208.679203160262
 31
0.0
  0
LINE
  5
1D4
330
1F
100
AcDbEntity
  8
Linee visibili 2D
 62
   255
100
AcDbLine
 10
1620.197582118781
 20
1208.87928268922
 30
0.0
 11
1620.863487263995
 21
1223.785872215492
 31
0.0
  0
LINE
  5
1D5
330
1F
100
AcDbEntity
  8
Linee visibili 2D
 62
   255
100
AcDbLine
 10
1630.721368792043
 20
1621.388097484219
 30
0.0
 11
1630.6643017935
 21
1618.734084938027
 31
0.0
  0
LINE
  5
1D6
330
1F
100
AcDbEntity
  8
Linee visibili 2D
 62
   255
100
AcDbLine
 10
1625.668063305742
 20
1618.947602880107
 30
0.0
 11
1625.72054053857
 21
1621.388150994836
 31
0.0
  0
LINE
  5
1D7
330
1F
100
AcDbEntity
  8
Linee visibili 2D
 62
   255
100
AcDbLine
 10
1617.108892138234
 20
434.8740874385552
 30
0.0
 11
1617.862245390704
 21
441.3056968685435
 31
0.0
  0
LINE
  5
1D8
330
1F
100
AcDbEntity
  8
Linee visibili 2D
 62
   255
100
AcDbLine
 10
1620.100328670491
 20
421.7988962292361
 30
0.0
 11
1620.014813588685
 21
421.7282666739822
 31
0.0
  0
LINE
  5
1D9
330
1F
100
AcDbEntity
  8
Linee visibili 2D
 62
   255
100
AcDbLine
 10
1732.847690853906
 20
923.3760358519901
 30
0.0
 11
1738.245955402843
 21
923.02987876084
 31
0.0
  0
LINE
  5
1DA
330
1F
100
AcDbEntity
  8
Linee visibili 2D
 62
   255
100
AcDbLine
 10
1732.855721887974
 20
924.4441153102996
 30
0.0
 11
1738.253986431004
 21
924.0979592994877
 31
0.0
  0
ARC
  5
1DB
330
1F
100
AcDbEntity
  8
Linee visibili 2D
 62
   255
100
AcDbCircle
 10
1692.430187667749
 20
248.6801637447026
 30
0.0
 40
675.9054140924837
100
AcDbArc
 50
86.59727464258431
 51
94.06266879641893
  0
ARC
  5
1DC
330
1F
100
AcDbEntity
  8
Linee visibili 2D
 62
   255
100
AcDbCircle
 10
1611.479127160065
 20
299.3017949322013
 30
0.0
 40
299.3021624617181
100
AcDbArc
 50
261.983239044567
 51
278.8918676915279
  0
LINE
  5
1DD
330
1F
100
AcDbEntity
  8
Linee visibili 2D
 62
   255
100
AcDbLine
 10
1569.737614942592
 20
2.924618665102003
 30
0.0
 11
1569.437832401577
 21
2.967026415536111
 31
0.0
  0
ARC
  5
1DE
330
1F
100
AcDbEntity
  8
Linee visibili 2D
 62
   255
100
AcDbCircle
 10
1617.178068641722
 20
312.678534890485
 30
0.0
 40
313.4348968386303
100
AcDbArc
 50
231.8506208850433
 51
260.1840095401553
  0
LINE
  5
1DF
330
1F
100
AcDbEntity
  8
Linee visibili 2D
 62
   255
100
AcDbLine
 10
1616.532486424371
 20
429.7774844480056
 30
0.0
 11
1617.100044210187
 21
434.7973552468313
 31
0.0
  0
LINE
  5
1E0
330
1F
100
AcDbEntity
  8
Linee visibili 2D
 62
   255
100
AcDbLine
 10
1697.850987784564
 20
459.142544131726
 30
0.0
 11
1680.892161255114
 21
472.3644789936187
 31
0.0
  0
LINE
  5
1E1
330
1F
100
AcDbEntity
  8
Linee visibili 2D
 62
   255
100
AcDbLine
 10
1697.850987929312
 20
459.1425441421229
 30
0.0
 11
1700.138372900847
 21
457.3591911027883
 31
0.0
  0
LINE
  5
1E2
330
1F
100
AcDbEntity
  8
Linee visibili 2D
 62
   255
100
AcDbLine
 10
1663.747658713651
 20
4.605264983503503
 30
0.0
 11
1663.447375228317
 21
4.551766916036854
 31
0.0
  0
LINE
  5
1E3
330
1F
100
AcDbEntity
  8
Linee visibili 2D
 62
   255
100
AcDbLine
 10
1663.447375228317
 20
4.551766916036797
 30
0.0
 11
1658.042561227418
 21
3.644075774422587
 31
0.0
  0
LINE
  5
1E4
330
1F
100
AcDbEntity
  8
Linee visibili 2D
 62
   255
100
AcDbLine
 10
1658.042561227418
 20
3.644075774422618
 30
0.0
 11
1657.742309733275
 21
3.596701312800633
 31
0.0
  0
LINE
  5
1E5
330
1F
100
AcDbEntity
  8
Linee visibili 2D
 62
   255
100
AcDbLine
 10
1663.747658713651
 20
4.605264983503503
 30
0.0
 11
1684.50132154634
 21
9.107054641669427
 31
0.0
  0
LINE
  5
1E6
330
1F
100
AcDbEntity
  8
Linee visibili 2D
 62
   255
100
AcDbLine
 10
1596.060709404816
 20
380.2172868399396
 30
0.0
 11
1596.098823097242
 21
380.3500453135534
 31
0.0
  0
SPLINE
  5
1E7
330
1F
100
AcDbEntity
  8
Linee visibili 2D
 62
   255
100
AcDbSpline
210
0.0
220
0.0
230
1.0
 70
     8
 71
     3
 72
    14
 73
    10
 74
     0
 42
0.0000000001
 43
0.0000000001
 40
0.0
 40
0.0
 40
0.0
 40
0.0
 40
49.08151827558601
 40
98.02690392304699
 40
199.3855372678834
 40
247.2528812800096
 40
294.3446986355787
 40
339.5701341446103
 40
390.0933869832378
 40
390.0933869832378
 40
390.0933869832378
 40
390.0933869832378
 10
1372.521596274795
 20
439.6429463878245
 30
0.0
 10
1374.355881378108
 20
455.8877452371783
 30
0.0
 10
1381.283234384429
 20
488.0207806015766
 30
0.0
 10
1407.280149693999
 20
549.3954620756358
 30
0.0
 10
1447.455055140531
 20
603.0115119069025
 30
0.0
 10
1498.638477506892
 20
644.1080585485039
 30
0.0
 10
1539.615288510498
 20
667.0188104444472
 30
0.0
 10
1585.253342486323
 20
681.3921361147569
 30
0.0
 10
1617.040967958975
 20
685.2765548376185
 30
0.0
 10
1633.776386447087
 20
686.9703912860685
 30
0.0
  0
ARC
  5
1E8
330
1F
100
AcDbEntity
  8
Linee visibili 2D
 62
   255
100
AcDbCircle
 10
1672.365818689304
 20
380.7800221070004
 30
0.0
 40
1.010177607673361
100
AcDbArc
 50
202.7771298676248
 51
286.4314302665343
  0
LINE
  5
1E9
330
1F
100
AcDbEntity
  8
Linee visibili 2D
 62
   255
100
AcDbLine
 10
1594.836652929321
 20
380.5822344823439
 30
0.0
 11
1595.39413692058
 21
380.585153034811
 31
0.0
  0
LINE
  5
1EA
330
1F
100
AcDbEntity
  8
Linee visibili 2D
 62
   255
100
AcDbLine
 10
1595.39413692058
 20
380.5851530348109
 30
0.0
 11
1596.073041789427
 21
381.25248956502
 31
0.0
  0
LINE
  5
1EB
330
1F
100
AcDbEntity
  8
Linee visibili 2D
 62
   255
100
AcDbLine
 10
1681.005699027943
 20
133.7869127985666
 30
0.0
 11
1680.607083937855
 21
133.612429900875
 31
0.0
  0
LINE
  5
1EC
330
1F
100
AcDbEntity
  8
Linee visibili 2D
 62
   255
100
AcDbLine
 10
1515.488099887445
 20
135.319360306814
 30
0.0
 11
1514.832218117329
 21
135.7497820478939
 31
0.0
  0
LINE
  5
1ED
330
1F
100
AcDbEntity
  8
Linee visibili 2D
 62
   255
100
AcDbLine
 10
1671.273181855488
 20
383.0695863233069
 30
0.0
 11
1670.676319184646
 21
382.0217007760916
 31
0.0
  0
ARC
  5
1EE
330
1F
100
AcDbEntity
  8
Linee visibili 2D
 62
   255
100
AcDbCircle
 10
1594.415021268988
 20
513.9378534572006
 30
0.0
 40
157.6762511032151
100
AcDbArc
 50
320.3638939458568
 51
335.2577497502363
  0
ARC
  5
1EF
330
1F
100
AcDbEntity
  8
Linee visibili 2D
 62
   255
100
AcDbCircle
 10
1652.31153006349
 20
576.356126446075
 30
0.0
 40
200.5194490256954
100
AcDbArc
 50
235.4130207574874
 51
253.6638095894063
  0
ARC
  5
1F0
330
1F
100
AcDbEntity
  8
Linee visibili 2D
 62
   255
100
AcDbCircle
 10
1646.851881717306
 20
561.906850056436
 30
0.0
 40
182.8122169301365
100
AcDbArc
 50
245.0011682202651
 51
254.0219413837146
  0
ARC
  5
1F1
330
1F
100
AcDbEntity
  8
Linee visibili 2D
 62
   255
100
AcDbCircle
 10
1626.240456242325
 20
500.3704695755994
 30
0.0
 40
123.3386415722779
100
AcDbArc
 50
290.9989594189929
 51
305.246707177407
  0
ARC
  5
1F2
330
1F
100
AcDbEntity
  8
Linee visibili 2D
 62
   255
100
AcDbCircle
 10
1632.901168884952
 20
487.3900993932801
 30
0.0
 40
111.1538610512178
100
AcDbArc
 50
290.1949387447011
 51
316.0440884025465
  0
ARC
  5
1F3
330
1F
100
AcDbEntity
  8
Linee visibili 2D
 62
   255
100
AcDbCircle
 10
1622.557379968054
 20
493.6586455466876
 30
0.0
 40
122.9800385754763
100
AcDbArc
 50
317.286777880848
 51
327.8764319427381
  0
LINE
  5
1F4
330
1F
100
AcDbEntity
  8
Linee visibili 2D
 62
   255
100
AcDbLine
 10
1737.568732876267
 20
447.9675098945978
 30
0.0
 11
1742.224003721429
 21
458.2473243219404
 31
0.0
  0
LINE
  5
1F5
330
1F
100
AcDbEntity
  8
Linee visibili 2D
 62
   255
100
AcDbLine
 10
1671.38218715726
 20
379.4531935496052
 30
0.0
 11
1670.802371100389
 21
381.5308001825039
 31
0.0
  0
LINE
  5
1F6
330
1F
100
AcDbEntity
  8
Linee visibili 2D
 62
   255
100
AcDbLine
 10
1671.394519541774
 20
380.4883962665234
 30
0.0
 11
1670.802371100389
 21
381.530800182504
 31
0.0
  0
LINE
  5
1F7
330
1F
100
AcDbEntity
  8
Linee visibili 2D
 62
   255
100
AcDbLine
 10
1596.522911820613
 20
382.4156924247106
 30
0.0
 11
1596.111155481874
 21
381.3852480404331
 31
0.0
  0
LINE
  5
1F8
330
1F
100
AcDbEntity
  8
Linee visibili 2D
 62
   255
100
AcDbLine
 10
1596.522911820613
 20
382.4156924247106
 30
0.0
 11
1596.098823097242
 21
380.3500453135534
 31
0.0
  0
SPLINE
  5
1F9
330
1F
100
AcDbEntity
  8
Linee visibili 2D
 62
   255
100
AcDbSpline
210
0.0
220
0.0
230
1.0
 70
     8
 71
     3
 72
    23
 73
    19
 74
     0
 42
0.0000000001
 43
0.0000000001
 40
0.0
 40
0.0
 40
0.0
 40
0.0
 40
26.62008117835218
 40
51.89974608857867
 40
79.1663591662447
 40
110.80037840876
 40
141.273955900757
 40
172.5846534869758
 40
201.8314274384376
 40
228.865397957647
 40
248.2386763251524
 40
266.5276395603235
 40
286.2207417651385
 40
307.7735997449534
 40
330.412196819952
 40
356.0232206555201
 40
385.0624409378843
 40
416.5789070536705
 40
416.5789070536705
 40
416.5789070536705
 40
416.5789070536705
 10
1672.721464877661
 20
378.803239317116
 30
0.0
 10
1680.995671916726
 20
381.9719588753176
 30
0.0
 10
1696.787767395153
 20
389.3139690423408
 30
0.0
 10
1717.476397379593
 20
406.0417240549205
 30
0.0
 10
1734.113845388028
 20
428.8753226417275
 30
0.0
 10
1747.468986642928
 20
455.5477346449035
 30
0.0
 10
1757.791419092307
 20
485.029290434135
 30
0.0
 10
1762.260320453432
 20
515.2015734511601
 30
0.0
 10
1761.460827076223
 20
544.478430621171
 30
0.0
 10
1755.841295456927
 20
569.2404249256981
 30
0.0
 10
1745.955350866787
 20
588.6211270100223
 30
0.0
 10
1732.364432894968
 20
602.4152431607063
 30
0.0
 10
1714.646998577772
 20
611.7913310747643
 30
0.0
 10
1693.797364028744
 20
616.7566930051337
 30
0.0
 10
1670.41102288386
 20
617.0813565714412
 30
0.0
 10
1644.906184841727
 20
613.0056716625427
 30
0.0
 10
1617.33617292985
 20
604.7886815982616
 30
0.0
 10
1598.640580471484
 20
597.1166520457936
 30
0.0
 10
1589.162092195831
 20
592.5820461649944
 30
0.0
  0
ARC
  5
1FA
330
1F
100
AcDbEntity
  8
Linee visibili 2D
 62
   255
100
AcDbCircle
 10
1672.353486304693
 20
379.7448193819197
 30
0.0
 40
1.010177607673331
100
AcDbArc
 50
202.7771298676019
 51
286.4314302665352
  0
LINE
  5
1FB
330
1F
100
AcDbEntity
  8
Linee visibili 2D
 62
   255
100
AcDbLine
 10
1595.381804535969
 20
379.5499503097303
 30
0.0
 11
1594.82432054471
 21
379.5470317572631
 31
0.0
  0
LINE
  5
1FC
330
1F
100
AcDbEntity
  8
Linee visibili 2D
 62
   255
100
AcDbLine
 10
1596.060709404816
 20
380.2172868399396
 30
0.0
 11
1595.381804535969
 21
379.5499503097304
 31
0.0
  0
SPLINE
  5
1FD
330
1F
100
AcDbEntity
  8
Linee visibili 2D
 62
   255
100
AcDbSpline
210
0.0
220
0.0
230
1.0
 70
     8
 71
     3
 72
    14
 73
    10
 74
     0
 42
0.0000000001
 43
0.0000000001
 40
0.0
 40
0.0
 40
0.0
 40
0.0
 40
67.0806746708821
 40
132.8994860864627
 40
192.5870526153986
 40
246.475607836052
 40
356.7712176245796
 40
409.8241563404547
 40
464.6506919806699
 40
464.6506919806699
 40
464.6506919806699
 40
464.6506919806699
 10
1946.320394483778
 20
474.0960242764332
 30
0.0
 10
1944.013402877818
 20
451.8637138452965
 30
0.0
 10
1936.852245089302
 20
408.0417016759251
 30
0.0
 10
1918.924205036139
 20
346.3064366160556
 30
0.0
 10
1894.50803487141
 20
291.4829678829678
 30
0.0
 10
1853.524808234554
 20
228.9237228485803
 30
0.0
 10
1799.383260753738
 20
179.0564439716507
 30
0.0
 10
1733.758299764106
 20
146.8256571571269
 30
0.0
 10
1698.898357202144
 20
137.448837530538
 30
0.0
 10
1681.005699027943
 20
133.7869127985666
 30
0.0
  0
LINE
  5
1FE
330
1F
100
AcDbEntity
  8
Linee visibili 2D
 62
   255
100
AcDbLine
 10
1681.018151301851
 20
134.8221140919329
 30
0.0
 11
1680.350399311063
 21
134.3502026863467
 31
0.0
  0
SPLINE
  5
1FF
330
1F
100
AcDbEntity
  8
Linee visibili 2D
 62
   255
100
AcDbSpline
210
0.0
220
0.0
230
1.0
 70
     8
 71
     3
 72
    12
 73
     8
 74
     0
 42
0.0000000001
 43
0.0000000001
 40
350.1806501193789
 40
350.1806501193789
 40
350.1806501193789
 40
350.1806501193789
 40
374.2135660423739
 40
399.1611371118655
 40
424.108708181357
 40
449.0562792508487
 40
472.1029550688818
 40
472.1029550688818
 40
472.1029550688818
 40
472.1029550688818
 10
1745.059063618548
 20
465.2362466040092
 30
0.0
 10
1747.933140952953
 20
472.6932905830098
 30
0.0
 10
1753.015227118259
 20
488.2578008414564
 30
0.0
 10
1757.410431709527
 20
512.829279284635
 30
0.0
 10
1758.254215716509
 20
538.3377758716681
 30
0.0
 10
1755.314880029424
 20
563.2228305020387
 30
0.0
 10
1750.142841100113
 20
579.0465732507622
 30
0.0
 10
1746.524804635657
 20
586.0866128575454
 30
0.0
  0
LINE
  5
200
330
1F
100
AcDbEntity
  8
Linee visibili 2D
 62
   255
100
AcDbLine
 10
1670.438981073629
 20
385.2231252396077
 30
0.0
 11
1669.928774706009
 21
383.7874239692247
 31
0.0
  0
SPLINE
  5
201
330
1F
100
AcDbEntity
  8
Linee visibili 2D
 62
   255
100
AcDbSpline
210
0.0
220
0.0
230
1.0
 70
     8
 71
     3
 72
    12
 73
     8
 74
     0
 42
0.0000000001
 43
0.0000000001
 40
0.0
 40
0.0
 40
0.0
 40
0.0
 40
12.4737855347458
 40
24.94757106949159
 40
49.89514213898318
 40
74.84271320847478
 40
97.62584148337636
 40
97.62584148337636
 40
97.62584148337636
 40
97.62584148337636
 10
1491.500241184263
 20
492.3203990087453
 30
0.0
 10
1491.143295853873
 20
488.2743373343434
 30
0.0
 10
1491.441337658719
 20
479.9443148514877
 30
0.0
 10
1495.301873729105
 20
463.6265300229478
 30
0.0
 10
1504.651673574419
 20
444.8452768522051
 30
0.0
 10
1519.940200771444
 20
425.8262248407602
 30
0.0
 10
1532.249757226915
 20
415.6213533335103
 30
0.0
 10
1538.485327667588
 20
411.2754035081875
 30
0.0
  0
LINE
  5
202
330
1F
100
AcDbEntity
  8
Linee visibili 2D
 62
   255
100
AcDbLine
 10
1597.178996677783
 20
384.7783927246028
 30
0.0
 11
1596.522911820613
 21
382.4156924247106
 31
0.0
  0
ARC
  5
203
330
1F
100
AcDbEntity
  8
Linee visibili 2D
 62
   255
100
AcDbCircle
 10
1578.888673933338
 20
479.0484404322752
 30
0.0
 40
88.39051455215694
100
AcDbArc
 50
136.8856446478821
 51
171.3643001009145
  0
LINE
  5
204
330
1F
100
AcDbEntity
  8
Linee visibili 2D
 62
   255
100
AcDbLine
 10
1669.928774706009
 20
383.7874239692247
 30
0.0
 11
1670.802371100389
 21
381.5308001825039
 31
0.0
  0
LINE
  5
205
330
1F
100
AcDbEntity
  8
Linee visibili 2D
 62
   255
100
AcDbLine
 10
1671.394519541774
 20
380.4883962665234
 30
0.0
 11
1671.38218715726
 21
379.4531935496052
 31
0.0
  0
LINE
  5
206
330
1F
100
AcDbEntity
  8
Linee visibili 2D
 62
   255
100
AcDbLine
 10
1596.111155481874
 20
381.3852480404331
 30
0.0
 11
1596.098823097242
 21
380.3500453135534
 31
0.0
  0
CIRCLE
  5
207
330
1F
100
AcDbEntity
  8
Linee visibili 2D
 62
   255
100
AcDbCircle
 10
1628.327922803634
 20
511.4445878553332
 30
0.0
 40
65.500031092495
  0
LINE
  5
208
330
1F
100
AcDbEntity
  8
Linee visibili 2D
 62
   255
100
AcDbLine
 10
1639.261573652188
 20
600.6771778070095
 30
0.0
 11
1639.275392349997
 21
600.7762324648098
 31
0.0
  0
LINE
  5
209
330
1F
100
AcDbEntity
  8
Linee visibili 2D
 62
   255
100
AcDbLine
 10
1638.860815878958
 20
597.80457793409
 30
0.0
 11
1635.889552846136
 21
576.5066799228557
 31
0.0
  0
LINE
  5
20A
330
1F
100
AcDbEntity
  8
Linee visibili 2D
 62
   255
100
AcDbLine
 10
1638.860816024562
 20
597.8045779451005
 30
0.0
 11
1639.261573652188
 21
600.6771778070095
 31
0.0
  0
LINE
  5
20B
330
1F
100
AcDbEntity
  8
Linee visibili 2D
 62
   255
100
AcDbLine
 10
1638.860791943967
 20
576.0921921483241
 30
0.0
 11
1641.83204239696
 21
597.3900746452774
 31
0.0
  0
LINE
  5
20C
330
1F
100
AcDbEntity
  8
Linee visibili 2D
 62
   255
100
AcDbLine
 10
1641.832042542847
 20
597.3900746567579
 30
0.0
 11
1642.232800170475
 21
600.2626745186668
 31
0.0
  0
LINE
  5
20D
330
1F
100
AcDbEntity
  8
Linee visibili 2D
 62
   255
100
AcDbLine
 10
1617.956249802496
 20
426.2449314308904
 30
0.0
 11
1617.976041862931
 21
426.3868075368891
 31
0.0
  0
ARC
  5
20E
330
1F
100
AcDbEntity
  8
Linee visibili 2D
 62
   255
100
AcDbCircle
 10
1558.731737129695
 20
383.5084865195492
 30
0.0
 40
255.0374514411019
100
AcDbArc
 50
245.2510164745586
 51
259.9226935400997
  0
SPLINE
  5
20F
330
1F
100
AcDbEntity
  8
Linee visibili 2D
 62
   255
100
AcDbSpline
210
0.0
220
0.0
230
1.0
 70
     8
 71
     3
 72
    36
 73
    32
 74
     0
 42
0.0000000001
 43
0.0000000001
 40
0.0
 40
0.0
 40
0.0
 40
0.0
 40
55.4213147202523
 40
109.0551694544345
 40
220.3991253280414
 40
277.7771841504072
 40
337.9873841138861
 40
471.9986564443373
 40
546.6972575010989
 40
585.3568258036809
 40
624.0146653501133
 40
682.5200097396497
 40
733.8210365010784
 40
779.5302830298806
 40
828.7559045404838
 40
935.6820327065441
 40
994.8545490746077
 40
1028.851988207382
 40
1062.811982620083
 40
1192.333211175316
 40
1317.579098487397
 40
1378.255080692953
 40
1441.527025367967
 40
1507.637508606625
 40
1576.394478545912
 40
1645.141058265562
 40
1709.498510137537
 40
1765.26159641569
 40
1819.347756040373
 40
1883.298290082529
 40
1941.509262872233
 40
1941.509262872233
 40
1941.509262872233
 40
1941.509262872233
 10
1681.841890702704
 20
131.5556759592769
 30
0.0
 10
1699.907842156861
 20
135.3468528822279
 30
0.0
 10
1735.084040094213
 20
145.0920878455564
 30
0.0
 10
1801.216843687504
 20
177.9110473510455
 30
0.0
 10
1856.415909621316
 20
229.2488026471134
 30
0.0
 10
1897.792412685666
 20
293.5543992914202
 30
0.0
 10
1931.046987584781
 20
370.8899253728296
 30
0.0
 10
1949.188079900041
 20
459.3551870907211
 30
0.0
 10
1951.755049106906
 20
541.8688917307791
 30
0.0
 10
1949.320703814066
 20
592.511502521472
 30
0.0
 10
1944.949255255145
 20
637.5762590983687
 30
0.0
 10
1935.318942352239
 20
686.2749490958043
 30
0.0
 10
1915.788640271132
 20
734.6351092330673
 30
0.0
 10
1886.521448855399
 20
774.1876885226
 30
0.0
 10
1832.510770828298
 20
815.3265906106496
 30
0.0
 10
1762.891512163189
 20
838.2184543270706
 30
0.0
 10
1695.942932871327
 20
839.7443324187373
 30
0.0
 10
1653.721742346258
 20
836.1154968431464
 30
0.0
 10
1588.725427561832
 20
825.4666066960922
 30
0.0
 10
1497.009095311839
 20
792.8003897204633
 30
0.0
 10
1412.660212226088
 20
727.7831217017424
 30
0.0
 10
1360.327483109454
 20
662.9891790943901
 30
0.0
 10
1328.976506973247
 20
607.666297938872
 30
0.0
 10
1305.632140101543
 20
545.7027862047918
 30
0.0
 10
1291.617443310432
 20
479.0660035309868
 30
0.0
 10
1288.454815038422
 20
411.6450510250806
 30
0.0
 10
1295.68198739796
 20
348.8545472245093
 30
0.0
 10
1313.88572353388
 20
293.3342591316345
 30
0.0
 10
1343.873524188635
 20
243.4192560593276
 30
0.0
 10
1382.85193688754
 20
199.1587768717029
 30
0.0
 10
1414.708226242913
 20
173.551789916561
 30
0.0
 10
1431.169871317085
 20
163.2394496643251
 30
0.0
  0
LINE
  5
210
330
1F
100
AcDbEntity
  8
Linee visibili 2D
 62
   255
100
AcDbLine
 10
1515.542927232063
 20
135.2407001483768
 30
0.0
 11
1515.368098645288
 21
134.724595396927
 31
0.0
  0
LINE
  5
211
330
1F
100
AcDbEntity
  8
Linee visibili 2D
 62
   255
100
AcDbLine
 10
1515.271432505137
 20
133.1819976362452
 30
0.0
 11
1515.36008058985
 21
133.6565154071641
 31
0.0
  0
LINE
  5
212
330
1F
100
AcDbEntity
  8
Linee visibili 2D
 62
   255
100
AcDbLine
 10
1514.106106809218
 20
132.4056096820416
 30
0.0
 11
1515.271432505137
 21
133.1819976362453
 31
0.0
  0
LINE
  5
213
330
1F
100
AcDbEntity
  8
Linee visibili 2D
 62
   255
100
AcDbLine
 10
1612.002243041863
 20
1161.137262095471
 30
0.0
 11
1610.970155432345
 21
1161.181761106678
 31
0.0
  0
LINE
  5
214
330
1F
100
AcDbEntity
  8
Linee visibili 2D
 62
   255
100
AcDbLine
 10
1620.870035426335
 20
1223.932696156343
 30
0.0
 11
1621.524007388438
 21
1239.076770638231
 31
0.0
  0
LINE
  5
215
330
1F
100
AcDbEntity
  8
Linee visibili 2D
 62
   255
100
AcDbLine
 10
1663.747658713838
 20
1398.476149888435
 30
0.0
 11
1684.501321546527
 21
1399.766677750804
 31
0.0
  0
LINE
  5
216
330
1F
100
AcDbEntity
  8
Linee visibili 2D
 62
   255
100
AcDbLine
 10
1623.712009723319
 20
1552.50847996649
 30
0.0
 11
1622.876432087478
 21
1544.900655481181
 31
0.0
  0
LINE
  5
217
330
1F
100
AcDbEntity
  8
Linee visibili 2D
 62
   255
100
AcDbLine
 10
3.596658289824518
 20
1398.184202663169
 30
0.0
 11
0.0087373724955326
 21
1397.098696078421
 31
0.0
  0
LINE
  5
218
330
1F
100
AcDbEntity
  8
Linee visibili 2D
 62
   255
100
AcDbLine
 10
4.605221960527388
 20
1398.476150051147
 30
0.0
 11
9.10701161869328
 21
1399.766677913516
 31
0.0
  0
LINE
  5
219
330
1F
100
AcDbEntity
  8
Linee visibili 2D
 62
   255
100
AcDbLine
 10
427.1660742191336
 20
1527.694918122123
 30
0.0
 11
431.674750211343
 21
1525.576321246899
 31
0.0
  0
LINE
  5
21A
330
1F
100
AcDbEntity
  8
Linee visibili 2D
 62
   255
100
AcDbLine
 10
924.5642512789368
 20
1653.427845329694
 30
0.0
 11
923.3939174895621
 21
1653.198254274289
 31
0.0
  0
LINE
  5
21B
330
1F
100
AcDbEntity
  8
Linee visibili 2D
 62
   255
100
AcDbLine
 10
836.1223341530165
 20
1245.388240656563
 30
0.0
 11
835.0924756069811
 21
1241.54447819925
 31
0.0
  0
LINE
  5
21C
330
1F
100
AcDbEntity
  8
Linee visibili 2D
 62
   255
100
AcDbLine
 10
463.6158237852845
 20
1225.567553992653
 30
0.0
 11
469.9239093536764
 21
1239.941046238949
 31
0.0
  0
LINE
  5
21D
330
1F
100
AcDbEntity
  8
Linee visibili 2D
 62
   255
100
AcDbLine
 10
423.0074427406117
 20
1484.990018456567
 30
0.0
 11
427.8678177122539
 21
1486.093824479437
 31
0.0
  0
LINE
  5
21E
330
1F
100
AcDbEntity
  8
Linee visibili 2D
 62
   255
100
AcDbLine
 10
271.6003378493944
 20
1169.185122142138
 30
0.0
 11
270.5683538592241
 21
1173.036812112699
 31
0.0
  0
LINE
  5
21F
330
1F
100
AcDbEntity
  8
Linee visibili 2D
 62
   255
100
AcDbLine
 10
687.770803537664
 20
1284.950176607476
 30
0.0
 11
688.5460052849709
 21
1284.951181444511
 31
0.0
  0
LINE
  5
220
330
1F
100
AcDbEntity
  8
Linee visibili 2D
 62
   255
100
AcDbLine
 10
460.736332825852
 20
1207.451133269116
 30
0.0
 11
456.2903470404422
 21
1209.493917488051
 31
0.0
  0
LINE
  5
221
330
1F
100
AcDbEntity
  8
Linee visibili 2D
 62
   255
100
AcDbLine
 10
546.1845481872483
 20
1549.485385512311
 30
0.0
 11
923.0092936991092
 21
1653.104160468799
 31
0.0
  0
SPLINE
  5
222
330
1F
100
AcDbEntity
  8
Linee visibili 2D
 62
   255
100
AcDbSpline
210
0.0
220
0.0
230
1.0
 70
    12
 71
     2
 72
    10
 73
     7
 74
     0
 42
0.0000000001
 43
0.0000000001
 40
3.735132767056311
 40
3.735132767056311
 40
3.735132767056311
 40
5.976212427290099
 40
5.976212427290099
 40
8.676596673060928
 40
8.676596673060928
 40
10.40989737378225
 40
10.40989737378225
 40
10.40989737378225
 10
469.9864919284792
 20
1239.93731906179
 30
0.0
 41
0.9349235083278444
 10
469.7269462612515
 20
1239.996916530719
 30
0.0
 41
0.8698470166556889
 10
470.4215342769619
 20
1239.665747585107
 30
0.0
 41
1.0
 10
471.6461077321155
 20
1239.096307983097
 30
0.0
 41
0.9996616285149154
 10
472.8986386212679
 20
1238.591324835732
 30
0.0
 41
1.0
 10
473.6904623450577
 20
1238.235143616144
 30
0.0
 41
0.9972468357101512
 10
474.5262567581055
 20
1237.999989262875
 30
0.0
 41
1.0
  0
LINE
  5
223
330
1F
100
AcDbEntity
  8
Linee visibili 2D
 62
   255
100
AcDbLine
 10
439.2008927559049
 20
1455.975330761315
 30
0.0
 11
445.1487714229585
 21
1444.611415706524
 31
0.0
  0
LINE
  5
224
330
1F
100
AcDbEntity
  8
Linee visibili 2D
 62
   255
100
AcDbLine
 10
565.9026103583313
 20
1626.441973331177
 30
0.0
 11
565.9026103623064
 21
1626.446937862224
 31
0.0
  0
LINE
  5
225
330
1F
100
AcDbEntity
  8
Linee visibili 2D
 62
   255
100
AcDbLine
 10
835.298055158016
 20
1668.787663427801
 30
0.0
 11
910.298055158016
 21
1668.787663427801
 31
0.0
  0
LINE
  5
226
330
1F
100
AcDbEntity
  8
Linee visibili 2D
 62
   255
100
AcDbLine
 10
910.298055158016
 20
1668.787663427801
 30
0.0
 11
910.298055158016
 21
1649.768096296336
 31
0.0
  0
LINE
  5
227
330
1F
100
AcDbEntity
  8
Linee visibili 2D
 62
   255
100
AcDbLine
 10
835.298055158016
 20
1629.357486481151
 30
0.0
 11
835.298055158016
 21
1668.787663427801
 31
0.0
  0
LINE
  5
228
330
1F
100
AcDbEntity
  8
Linee visibili 2D
 62
   255
100
AcDbLine
 10
452.7786599432234
 20
1202.183403394344
 30
0.0
 11
456.2055616793843
 21
1209.565869023779
 31
0.0
  0
LINE
  5
229
330
1F
100
AcDbEntity
  8
Linee visibili 2D
 62
   255
100
AcDbLine
 10
474.5309361131008
 20
1237.998022416801
 30
0.0
 11
469.8634826996901
 21
1227.244482059293
 31
0.0
  0
ARC
  5
22A
330
1F
100
AcDbEntity
  8
Linee visibili 2D
 62
   255
100
AcDbCircle
 10
511.4726769582509
 20
1873.214293162268
 30
0.0
 40
252.8244148286157
100
AcDbArc
 50
275.0936540004116
 51
282.4467868458985
  0
LINE
  5
22B
330
1F
100
AcDbEntity
  8
Linee visibili 2D
 62
   255
100
AcDbLine
 10
471.0297426050791
 20
1568.708182080413
 30
0.0
 11
465.2531883082229
 21
1564.330754309883
 31
0.0
  0
LINE
  5
22C
330
1F
100
AcDbEntity
  8
Linee visibili 2D
 62
   255
100
AcDbLine
 10
426.0682867452122
 20
1474.067184078021
 30
0.0
 11
422.9930136973954
 21
1484.98677371493
 31
0.0
  0
LINE
  5
22D
330
1F
100
AcDbEntity
  8
Linee visibili 2D
 62
   255
100
AcDbLine
 10
431.6757038911981
 20
1525.575877139692
 30
0.0
 11
428.3967866244841
 21
1516.781731541257
 31
0.0
  0
LINE
  5
22E
330
1F
100
AcDbEntity
  8
Linee visibili 2D
 62
   255
100
AcDbLine
 10
492.9069573325251
 20
1316.334030109404
 30
0.0
 11
490.1708505622867
 21
1316.324535787706
 31
0.0
  0
LINE
  5
22F
330
1F
100
AcDbEntity
  8
Linee visibili 2D
 62
   255
100
AcDbLine
 10
492.4986031501735
 20
1305.109914541041
 30
0.0
 11
490.2331395897151
 21
1287.832397707807
 31
0.0
  0
LINE
  5
230
330
1F
100
AcDbEntity
  8
Linee visibili 2D
 62
   255
100
AcDbLine
 10
439.1154648682856
 20
1546.315181507653
 30
0.0
 11
442.9286863562781
 21
1543.103648852937
 31
0.0
  0
LINE
  5
231
330
1F
100
AcDbEntity
  8
Linee visibili 2D
 62
   255
100
AcDbLine
 10
498.0676393562382
 20
1593.814321731645
 30
0.0
 11
491.230329322892
 21
1586.132135015431
 31
0.0
  0
LINE
  5
232
330
1F
100
AcDbEntity
  8
Linee visibili 2D
 62
   255
100
AcDbLine
 10
1.065124387549853
 20
1393.24707577767
 30
0.0
 11
0.0
 21
1397.091164449788
 31
0.0
  0
LINE
  5
233
330
1F
100
AcDbEntity
  8
Linee visibili 2D
 62
   255
100
AcDbLine
 10
427.8693869697531
 20
1486.091787196465
 30
0.0
 11
430.8011293082305
 21
1475.679700148468
 31
0.0
  0
LINE
  5
234
330
1F
100
AcDbEntity
  8
Linee visibili 2D
 62
   255
100
AcDbLine
 10
432.420122811431
 20
1537.241705977727
 30
0.0
 11
439.0914672152688
 21
1546.308808230914
 31
0.0
  0
LINE
  5
235
330
1F
100
AcDbEntity
  8
Linee visibili 2D
 62
   255
100
AcDbLine
 10
450.1723079502662
 20
1551.048857233489
 30
0.0
 11
442.9379590161265
 21
1543.114338715167
 31
0.0
  0
LINE
  5
236
330
1F
100
AcDbEntity
  8
Linee visibili 2D
 62
   255
100
AcDbLine
 10
426.0834598667634
 20
1474.061072631034
 30
0.0
 11
430.8004593965202
 21
1475.679472306918
 31
0.0
  0
SPLINE
  5
237
330
1F
100
AcDbEntity
  8
Linee visibili 2D
 62
   255
100
AcDbSpline
210
0.0
220
0.0
230
1.0
 70
     8
 71
     3
 72
    13
 73
     9
 74
     0
 42
0.0000000001
 43
0.0000000001
 40
0.0
 40
0.0
 40
0.0
 40
0.0
 40
12.85385441128222
 40
26.76084328687156
 40
52.19703612827978
 40
66.91085473819255
 40
85.53384281629113
 40
121.188729115265
 40
121.188729115265
 40
121.188729115265
 40
121.188729115265
 10
499.0790425555259
 20
1160.737927494639
 30
0.0
 10
494.7941413029514
 20
1160.742590062391
 30
0.0
 10
485.8796742757501
 20
1161.227468846095
 30
0.0
 10
468.5916394925479
 20
1163.225563595159
 30
0.0
 10
450.9886019954256
 20
1167.383100584653
 30
0.0
 10
432.6941069620201
 20
1174.433835506087
 30
0.0
 10
411.6253405285775
 20
1183.658182049644
 30
0.0
 10
395.601138210986
 20
1192.107531267154
 30
0.0
 10
385.3235789029875
 20
1198.072013954441
 30
0.0
  0
LINE
  5
238
330
1F
100
AcDbEntity
  8
Linee visibili 2D
 62
   255
100
AcDbLine
 10
485.6778233177671
 20
1341.537458630803
 30
0.0
 11
481.8192093021515
 21
1357.880051003106
 31
0.0
  0
LINE
  5
239
330
1F
100
AcDbEntity
  8
Linee visibili 2D
 62
   255
100
AcDbLine
 10
601.4445232144416
 20
1641.788032848298
 30
0.0
 11
601.4445193306024
 21
1636.937250790596
 31
0.0
  0
SPLINE
  5
23A
330
1F
100
AcDbEntity
  8
Linee visibili 2D
 62
   255
100
AcDbSpline
210
0.0
220
0.0
230
1.0
 70
    12
 71
     2
 72
    10
 73
     7
 74
     0
 42
0.0000000001
 43
0.0000000001
 40
3.728100902695703
 40
3.728100902695703
 40
3.728100902695703
 40
5.964961444313126
 40
5.964961444313126
 40
8.656296089313843
 40
8.656296089313843
 40
10.40500981031579
 40
10.40500981031579
 40
10.40500981031579
 10
476.2708027354448
 20
1255.95439528788
 30
0.0
 41
0.9351225954064251
 10
476.0059509825052
 20
1256.006661187646
 30
0.0
 41
0.8702451908128501
 10
476.7104543144084
 20
1255.714362916733
 30
0.0
 41
1.0
 10
477.958218206044
 20
1255.20978949203
 30
0.0
 41
0.999714933574078
 10
479.2286467907498
 20
1254.76535695345
 30
0.0
 41
1.0
 10
480.0446085034221
 20
1254.447658200695
 30
0.0
 41
0.997822308412919
 10
480.8952894658581
 20
1254.240130096096
 30
0.0
 41
1.0
  0
LINE
  5
23B
330
1F
100
AcDbEntity
  8
Linee visibili 2D
 62
   255
100
AcDbLine
 10
489.2726174625437
 20
1316.325202400163
 30
0.0
 11
488.0149106342101
 21
1316.330535299816
 31
0.0
  0
LINE
  5
23C
330
1F
100
AcDbEntity
  8
Linee visibili 2D
 62
   255
100
AcDbLine
 10
440.768924542748
 20
1442.199582108219
 30
0.0
 11
434.7229266461266
 21
1453.750961295673
 31
0.0
  0
SPLINE
  5
23D
330
1F
100
AcDbEntity
  8
Linee visibili 2D
 62
   255
100
AcDbSpline
210
0.0
220
0.0
230
1.0
 70
    12
 71
     2
 72
    10
 73
     7
 74
     0
 42
0.0000000001
 43
0.0000000001
 40
3.706983103424896
 40
3.706983103424896
 40
3.706983103424896
 40
5.931172965479833
 40
5.931172965479833
 40
8.58700635746985
 40
8.58700635746985
 40
10.39270352385466
 40
10.39270352385466
 40
10.39270352385466
 10
485.7493525243403
 20
1341.535244867124
 30
0.0
 41
0.9358952752858964
 10
485.4680929347213
 20
1341.502536618208
 30
0.0
 41
0.8717905505717929
 10
486.190997217896
 20
1341.646157568255
 30
0.0
 41
1.0
 10
487.494550715981
 20
1341.899598030148
 30
0.0
 41
0.9999485228613569
 10
488.8029786148255
 20
1342.126534637198
 30
0.0
 41
1.0
 10
489.6906941106393
 20
1342.292173892048
 30
0.0
 41
0.9996876634297674
 10
490.5855772800016
 20
1342.413249395133
 30
0.0
 41
1.0
  0
LINE
  5
23E
330
1F
100
AcDbEntity
  8
Linee visibili 2D
 62
   255
100
AcDbLine
 10
485.8957855762862
 20
1340.287767052961
 30
0.0
 11
268.19946147044
 21
1397.980442300155
 31
0.0
  0
LINE
  5
23F
330
1F
100
AcDbEntity
  8
Linee visibili 2D
 62
   255
100
AcDbLine
 10
450.6939085080588
 20
1198.735463329336
 30
0.0
 11
447.9674171129309
 21
1198.735459779594
 31
0.0
  0
LINE
  5
240
330
1F
100
AcDbEntity
  8
Linee visibili 2D
 62
   255
100
AcDbLine
 10
461.1878988980102
 20
1198.730228887782
 30
0.0
 11
462.6732124997741
 21
1198.732721627431
 31
0.0
  0
LINE
  5
241
330
1F
100
AcDbEntity
  8
Linee visibili 2D
 62
   255
100
AcDbLine
 10
465.2362035810331
 20
1198.735481828729
 30
0.0
 11
462.7907333525471
 21
1198.735478766287
 31
0.0
  0
LINE
  5
242
330
1F
100
AcDbEntity
  8
Linee visibili 2D
 62
   255
100
AcDbLine
 10
501.0402944482506
 20
1160.737927814971
 30
0.0
 11
500.8557021606152
 21
1160.737927494641
 31
0.0
  0
LINE
  5
243
330
1F
100
AcDbEntity
  8
Linee visibili 2D
 62
   255
100
AcDbLine
 10
399.6378556263509
 20
1202.735550691032
 30
0.0
 11
395.8718083896535
 21
1202.735550691032
 31
0.0
  0
LINE
  5
244
330
1F
100
AcDbEntity
  8
Linee visibili 2D
 62
   255
100
AcDbLine
 10
465.2362035810331
 20
1198.735481828451
 30
0.0
 11
621.6913656861326
 21
1198.735503579219
 31
0.0
  0
LINE
  5
245
330
1F
100
AcDbEntity
  8
Linee visibili 2D
 62
   255
100
AcDbLine
 10
381.5307571595279
 20
1198.896461757504
 30
0.0
 11
381.5307571595279
 21
1198.735550700018
 31
0.0
  0
LINE
  5
246
330
1F
100
AcDbEntity
  8
Linee visibili 2D
 62
   255
100
AcDbLine
 10
380.5210632257811
 20
1198.607811028117
 30
0.0
 11
381.5307571595279
 21
1198.735550700018
 31
0.0
  0
LINE
  5
247
330
1F
100
AcDbEntity
  8
Linee visibili 2D
 62
   255
100
AcDbLine
 10
567.6098622747622
 20
1626.782031371593
 30
0.0
 11
567.2153173270108
 21
1626.692441486886
 31
0.0
  0
LINE
  5
248
330
1F
100
AcDbEntity
  8
Linee visibili 2D
 62
   255
100
AcDbLine
 10
565.94731422648
 20
1626.440626681613
 30
0.0
 11
567.1953589864195
 21
1626.781999941465
 31
0.0
  0
LINE
  5
249
330
1F
100
AcDbEntity
  8
Linee visibili 2D
 62
   255
100
AcDbLine
 10
600.7761894418337
 20
1641.787916353368
 30
0.0
 11
600.7763794149764
 21
1636.937150136049
 31
0.0
  0
ARC
  5
24A
330
1F
100
AcDbEntity
  8
Linee visibili 2D
 62
   255
100
AcDbCircle
 10
511.514486660904
 20
1869.227288985659
 30
0.0
 40
248.8501438713882
100
AcDbArc
 50
283.0274767363142
 51
291.0202187444757
  0
LINE
  5
24B
330
1F
100
AcDbEntity
  8
Linee visibili 2D
 62
   255
100
AcDbLine
 10
600.3616817636066
 20
1641.649550502189
 30
0.0
 11
600.6771347841067
 21
1641.787916580383
 31
0.0
  0
ARC
  5
24C
330
1F
100
AcDbEntity
  8
Linee visibili 2D
 62
   255
100
AcDbCircle
 10
511.0974994384588
 20
1869.235369959925
 30
0.0
 40
248.8586074042268
100
AcDbArc
 50
283.0276128780762
 51
291.0199977918837
  0
LINE
  5
24D
330
1F
100
AcDbEntity
  8
Linee visibili 2D
 62
   255
100
AcDbLine
 10
457.2976534075611
 20
1641.787379771135
 30
0.0
 11
457.2976756543699
 21
1636.936522683611
 31
0.0
  0
LINE
  5
24E
330
1F
100
AcDbEntity
  8
Linee visibili 2D
 62
   255
100
AcDbLine
 10
543.8489220994521
 20
1636.93635737896
 30
0.0
 11
457.29767565437
 21
1636.936522705623
 31
0.0
  0
LINE
  5
24F
330
1F
100
AcDbEntity
  8
Linee visibili 2D
 62
   255
100
AcDbLine
 10
543.8489103453765
 20
1641.787181398831
 30
0.0
 11
457.2976534075611
 21
1641.787379770603
 31
0.0
  0
LINE
  5
250
330
1F
100
AcDbEntity
  8
Linee visibili 2D
 62
   255
100
AcDbLine
 10
600.7763794149764
 20
1636.937150136052
 30
0.0
 11
601.4446037646451
 21
1636.937250790528
 31
0.0
  0
LINE
  5
251
330
1F
100
AcDbEntity
  8
Linee visibili 2D
 62
   255
100
AcDbLine
 10
546.6293751287496
 20
1636.936408468522
 30
0.0
 11
600.3615322162641
 21
1636.936986557283
 31
0.0
  0
SPLINE
  5
252
330
1F
100
AcDbEntity
  8
Linee visibili 2D
 62
   255
100
AcDbSpline
210
0.0
220
0.0
230
1.0
 70
     8
 71
     3
 72
    19
 73
    15
 74
     0
 42
0.0000000001
 43
0.0000000001
 40
0.0
 40
0.0
 40
0.0
 40
0.0
 40
0.0524210687993143
 40
0.0679209611922929
 40
0.164182999375537
 40
0.3973887207986471
 40
1.178550399379718
 40
4.80256195826909
 40
20.11335464850938
 40
77.82962281671057
 40
303.1353263900078
 40
577.0425056841952
 40
669.525816237797
 40
720.6321603105316
 40
720.6321603105316
 40
720.6321603105316
 40
720.6321603105316
 10
836.0678065233474
 20
1245.424222562228
 30
0.0
 10
836.0653143392843
 20
1245.42080000173
 30
0.0
 10
836.1289457197987
 20
1245.403157393093
 30
0.0
 10
836.1044056686457
 20
1245.375263945525
 30
0.0
 10
835.97607067443
 20
1245.394808644641
 30
0.0
 10
835.6194263552977
 20
1245.46098153817
 30
0.0
 10
834.1081534304946
 20
1245.797871626123
 30
0.0
 10
827.7328228541529
 20
1247.391564324008
 30
0.0
 10
802.9957646674387
 20
1253.788011642042
 30
0.0
 10
706.8648313337877
 20
1279.244189730451
 30
0.0
 10
527.5432847597557
 20
1327.277191070989
 30
0.0
 10
337.044157660416
 20
1378.370878358979
 30
0.0
 10
202.7057625847033
 20
1414.706688658015
 30
0.0
 10
156.5307463181566
 20
1427.306742858635
 30
0.0
 10
140.1209830922197
 20
1431.881491837589
 30
0.0
  0
LINE
  5
253
330
1F
100
AcDbEntity
  8
Linee visibili 2D
 62
   255
100
AcDbLine
 10
399.6428756494935
 20
1202.735550691032
 30
0.0
 11
619.598951988015
 21
1202.202913335035
 31
0.0
  0
LINE
  5
254
330
1F
100
AcDbEntity
  8
Linee visibili 2D
 62
   255
100
AcDbLine
 10
459.5301261801958
 20
1198.727633851522
 30
0.0
 11
461.0982138310021
 21
1198.729772733496
 31
0.0
  0
LINE
  5
255
330
1F
100
AcDbEntity
  8
Linee visibili 2D
 62
   255
100
AcDbLine
 10
462.7907230314457
 20
1198.734069791751
 30
0.0
 11
462.6731503638263
 21
1198.733612171864
 31
0.0
  0
LINE
  5
256
330
1F
100
AcDbEntity
  8
Linee visibili 2D
 62
   255
100
AcDbLine
 10
461.0982131417618
 20
1198.729773965135
 30
0.0
 11
461.1086476080837
 21
1198.729787060777
 31
0.0
  0
LINE
  5
257
330
1F
100
AcDbEntity
  8
Linee visibili 2D
 62
   255
100
AcDbLine
 10
447.3665965810405
 20
1198.735458999872
 30
0.0
 11
410.2376454756201
 21
1198.735406555005
 31
0.0
  0
LINE
  5
258
330
1F
100
AcDbEntity
  8
Linee visibili 2D
 62
   255
100
AcDbLine
 10
459.5301208121993
 20
1198.735474646091
 30
0.0
 11
453.0299735369728
 21
1198.735466354028
 31
0.0
  0
LINE
  5
259
330
1F
100
AcDbEntity
  8
Linee visibili 2D
 62
   255
100
AcDbLine
 10
500.7930248748497
 20
1160.737927337177
 30
0.0
 11
500.1828460804299
 21
1160.737927494634
 31
0.0
  0
LINE
  5
25A
330
1F
100
AcDbEntity
  8
Linee visibili 2D
 62
   255
100
AcDbLine
 10
500.1828460804299
 20
1160.737927494644
 30
0.0
 11
499.0790590063821
 21
1160.73792749464
 31
0.0
  0
LINE
  5
25B
330
1F
100
AcDbEntity
  8
Linee visibili 2D
 62
   255
100
AcDbLine
 10
410.2376454756201
 20
1198.735406553373
 30
0.0
 11
383.0695433003308
 21
1198.735470130904
 31
0.0
  0
LINE
  5
25C
330
1F
100
AcDbEntity
  8
Linee visibili 2D
 62
   255
100
AcDbLine
 10
447.3665965760009
 20
1198.735458957909
 30
0.0
 11
447.9674171128586
 21
1198.735459744487
 31
0.0
  0
LINE
  5
25D
330
1F
100
AcDbEntity
  8
Linee visibili 2D
 62
   255
100
AcDbLine
 10
450.6939085028699
 20
1198.735463297691
 30
0.0
 11
453.0299734660572
 21
1198.735466321368
 31
0.0
  0
SPLINE
  5
25E
330
1F
100
AcDbEntity
  8
Linee visibili 2D
 62
   255
100
AcDbSpline
210
0.0
220
0.0
230
1.0
 70
    28
 71
     2
 72
    10
 73
     7
 74
     0
 42
0.0000000001
 43
0.0000000001
 40
112.5328840180158
 40
112.5328840180158
 40
112.5328840180158
 40
205.7744164900861
 40
205.7744164900861
 40
308.6616247351292
 40
308.6616247351292
 40
318.307300508102
 40
318.307300508102
 40
318.307300508102
 10
446.016850438314
 20
1668.7876634278
 30
0.0
 41
0.9502310350844329
 10
443.3321388608588
 20
1668.7876634278
 30
0.0
 41
0.7345655204503088
 10
499.5172936417263
 20
1668.7876634278
 30
0.0
 41
1.0
 10
563.9222216531249
 20
1668.787663427799
 30
0.0
 41
0.7071067811865476
 10
575.8494728437557
 20
1668.7876634278
 30
0.0
 41
1.0
 10
576.6624692177566
 20
1668.7876634278
 30
0.0
 41
0.9725412607362387
 10
576.8722392264002
 20
1668.7876634278
 30
0.0
 41
0.9502310350844327
  0
LINE
  5
25F
330
1F
100
AcDbEntity
  8
Linee visibili 2D
 62
   255
100
AcDbLine
 10
600.3615322162641
 20
1636.936986557427
 30
0.0
 11
600.3616861534911
 21
1641.787884923239
 31
0.0
  0
ARC
  5
260
330
1F
100
AcDbEntity
  8
Linee visibili 2D
 62
   255
100
AcDbCircle
 10
511.380461230058
 20
1869.24268943598
 30
0.0
 40
248.8662868064794
100
AcDbArc
 50
248.9798475805196
 51
256.8574122046826
  0
LINE
  5
261
330
1F
100
AcDbEntity
  8
Linee visibili 2D
 62
   255
100
AcDbLine
 10
519.8838901667949
 20
1621.387875510845
 30
0.0
 11
488.9730240947043
 21
1621.388121443322
 31
0.0
  0
LINE
  5
262
330
1F
100
AcDbEntity
  8
Linee visibili 2D
 62
   255
100
AcDbLine
 10
533.9159876849307
 20
1621.388088845648
 30
0.0
 11
519.9810498042009
 21
1621.387875856776
 31
0.0
  0
LINE
  5
263
330
1F
100
AcDbEntity
  8
Linee visibili 2D
 62
   255
100
AcDbLine
 10
543.8489220994521
 20
1636.936357373577
 30
0.0
 11
543.8489103453765
 21
1641.787181399094
 31
0.0
  0
ARC
  5
264
330
1F
100
AcDbEntity
  8
Linee visibili 2D
 62
   255
100
AcDbCircle
 10
498.8955232532718
 20
1683.187311958704
 30
0.0
 40
66.46553007782218
100
AcDbArc
 50
301.9352402756115
 51
315.9039724922503
  0
LINE
  5
265
330
1F
100
AcDbEntity
  8
Linee visibili 2D
 62
   255
100
AcDbLine
 10
534.0531567807454
 20
1626.781572062185
 30
0.0
 11
532.2221566944866
 21
1626.439455166001
 31
0.0
  0
ARC
  5
266
330
1F
100
AcDbEntity
  8
Linee visibili 2D
 62
   255
100
AcDbCircle
 10
531.78392491856
 20
1626.711727413067
 30
0.0
 40
0.5159256399464829
100
AcDbArc
 50
172.2206592769377
 51
328.1474247387604
  0
LINE
  5
267
330
1F
100
AcDbEntity
  8
Linee visibili 2D
 62
   255
100
AcDbLine
 10
466.9349034452903
 20
1220.82174272237
 30
0.0
 11
686.7792688588954
 21
1280.537492077632
 31
0.0
  0
LINE
  5
268
330
1F
100
AcDbEntity
  8
Linee visibili 2D
 62
   255
100
AcDbLine
 10
380.5851100118348
 20
1198.382595776041
 30
0.0
 11
381.2523881167859
 21
1198.56354663238
 31
0.0
  0
ARC
  5
269
330
1F
100
AcDbEntity
  8
Linee visibili 2D
 62
   255
100
AcDbCircle
 10
516.4381528516951
 20
1735.696120869149
 30
0.0
 40
116.3464201915326
100
AcDbArc
 50
238.0857157077344
 51
249.4101339395554
  0
LINE
  5
26A
330
1F
100
AcDbEntity
  8
Linee visibili 2D
 62
   255
100
AcDbLine
 10
454.931620880496
 20
1636.936635166456
 30
0.0
 11
454.9317474063558
 21
1641.787401383775
 31
0.0
  0
LINE
  5
26B
330
1F
100
AcDbEntity
  8
Linee visibili 2D
 62
   255
100
AcDbLine
 10
476.2640574511863
 20
1626.584835163742
 30
0.0
 11
476.2640580924592
 21
1627.401642411042
 31
0.0
  0
LINE
  5
26C
330
1F
100
AcDbEntity
  8
Linee visibili 2D
 62
   255
100
AcDbLine
 10
475.5219003730008
 20
1627.694983518752
 30
0.0
 11
475.5218997045387
 21
1626.781706213501
 31
0.0
  0
LINE
  5
26D
330
1F
100
AcDbEntity
  8
Linee visibili 2D
 62
   255
100
AcDbLine
 10
533.6730638261668
 20
1627.709948024254
 30
0.0
 11
533.2575183381931
 21
1627.616145943882
 31
0.0
  0
LINE
  5
26E
330
1F
100
AcDbEntity
  8
Linee visibili 2D
 62
   255
100
AcDbLine
 10
534.0531576444641
 20
1627.860327197564
 30
0.0
 11
533.6730638261668
 21
1627.709948024254
 31
0.0
  0
LINE
  5
26F
330
1F
100
AcDbEntity
  8
Linee visibili 2D
 62
   255
100
AcDbLine
 10
534.0531576444641
 20
1627.860327197564
 30
0.0
 11
534.0531567807454
 21
1626.781572062185
 31
0.0
  0
LINE
  5
270
330
1F
100
AcDbEntity
  8
Linee visibili 2D
 62
   255
100
AcDbLine
 10
543.8489172779626
 20
1638.926152003977
 30
0.0
 11
545.5025138247197
 21
1640.513588515965
 31
0.0
  0
LINE
  5
271
330
1F
100
AcDbEntity
  8
Linee visibili 2D
 62
   255
100
AcDbLine
 10
546.5917596493964
 20
1641.787192237534
 30
0.0
 11
545.5025138356202
 21
1640.527221845324
 31
0.0
  0
LINE
  5
272
330
1F
100
AcDbEntity
  8
Linee visibili 2D
 62
   255
100
AcDbLine
 10
427.1503488980942
 20
1527.702245163739
 30
0.0
 11
432.4105771707511
 21
1537.226920976437
 31
0.0
  0
LINE
  5
273
330
1F
100
AcDbEntity
  8
Linee visibili 2D
 62
   255
100
AcDbLine
 10
436.6095355418457
 20
1534.512374695096
 30
0.0
 11
431.677122887507
 21
1525.578924175445
 31
0.0
  0
LINE
  5
274
330
1F
100
AcDbEntity
  8
Linee visibili 2D
 62
   255
100
AcDbLine
 10
422.9911183146453
 20
1484.995203898863
 30
0.0
 11
421.3438978992501
 21
1496.329520085227
 31
0.0
  0
LINE
  5
275
330
1F
100
AcDbEntity
  8
Linee visibili 2D
 62
   255
100
AcDbLine
 10
426.3322310611623
 20
1496.670911845078
 30
0.0
 11
427.8688756039693
 21
1486.094062242757
 31
0.0
  0
LINE
  5
276
330
1F
100
AcDbEntity
  8
Linee visibili 2D
 62
   255
100
AcDbLine
 10
446.6454754001365
 20
1554.593146717658
 30
0.0
 11
451.4201322549388
 21
1559.172907374922
 31
0.0
  0
LINE
  5
277
330
1F
100
AcDbEntity
  8
Linee visibili 2D
 62
   255
100
AcDbLine
 10
454.7968590735037
 20
1555.485399114876
 30
0.0
 11
450.18414297867
 21
1551.060744041796
 31
0.0
  0
LINE
  5
278
330
1F
100
AcDbEntity
  8
Linee visibili 2D
 62
   255
100
AcDbLine
 10
481.464523792881
 20
1576.962569428032
 30
0.0
 11
471.0607313909966
 21
1568.730889890135
 31
0.0
  0
LINE
  5
279
330
1F
100
AcDbEntity
  8
Linee visibili 2D
 62
   255
100
AcDbLine
 10
468.1246136980549
 20
1572.778083631792
 30
0.0
 11
478.2423314848014
 21
1580.785976025913
 31
0.0
  0
LINE
  5
27A
330
1F
100
AcDbEntity
  8
Linee visibili 2D
 62
   255
100
AcDbLine
 10
421.3436175029418
 20
1496.333665990043
 30
0.0
 11
421.1931808648529
 21
1500.836588295919
 31
0.0
  0
LINE
  5
27B
330
1F
100
AcDbEntity
  8
Linee visibili 2D
 62
   255
100
AcDbLine
 10
685.5265578067095
 20
1280.558908664724
 30
0.0
 11
271.6284798948842
 21
1169.192662245474
 31
0.0
  0
LINE
  5
27C
330
1F
100
AcDbEntity
  8
Linee visibili 2D
 62
   255
100
AcDbLine
 10
271.8057140776227
 20
1169.182204640764
 30
0.0
 11
384.0133783664854
 21
1198.595404391918
 31
0.0
  0
LINE
  5
27D
330
1F
100
AcDbEntity
  8
Linee visibili 2D
 62
   255
100
AcDbLine
 10
133.7868697755905
 20
1429.510672817619
 30
0.0
 11
132.7159585555839
 21
1429.800139579547
 31
0.0
  0
ARC
  5
27E
330
1F
100
AcDbEntity
  8
Linee visibili 2D
 62
   255
100
AcDbCircle
 10
496.1068094620758
 20
1683.197569223646
 30
0.0
 40
66.47863597364929
100
AcDbArc
 50
301.9366336622825
 51
315.9025462366722
  0
ARC
  5
27F
330
1F
100
AcDbEntity
  8
Linee visibili 2D
 62
   255
100
AcDbCircle
 10
476.9757067290904
 20
1627.509982714826
 30
0.0
 40
1.167194365140811
100
AcDbArc
 50
232.4315124203085
 51
321.3931303455237
  0
LINE
  5
280
330
1F
100
AcDbEntity
  8
Linee visibili 2D
 62
   255
100
AcDbLine
 10
421.4447361976929
 20
1636.937277911231
 30
0.0
 11
454.9316208804961
 21
1636.936635166434
 31
0.0
  0
LINE
  5
281
330
1F
100
AcDbEntity
  8
Linee visibili 2D
 62
   255
100
AcDbLine
 10
454.9317474063558
 20
1641.787401383801
 30
0.0
 11
421.4445894304312
 21
1641.788175800466
 31
0.0
  0
LINE
  5
282
330
1F
100
AcDbEntity
  8
Linee visibili 2D
 62
   255
100
AcDbLine
 10
546.6293196349245
 20
1641.787191216583
 30
0.0
 11
546.6293751214478
 21
1636.937046725245
 31
0.0
  0
LINE
  5
283
330
1F
100
AcDbEntity
  8
Linee visibili 2D
 62
   255
100
AcDbLine
 10
457.2976606829079
 20
1640.201009895829
 30
0.0
 11
456.7765951070225
 21
1640.513791872247
 31
0.0
  0
LINE
  5
284
330
1F
100
AcDbEntity
  8
Linee visibili 2D
 62
   255
100
AcDbLine
 10
456.7765951179317
 20
1640.52742520161
 30
0.0
 11
454.9932420786388
 21
1641.787402177706
 31
0.0
  0
LINE
  5
285
330
1F
100
AcDbEntity
  8
Linee visibili 2D
 62
   255
100
AcDbLine
 10
399.8039372376006
 20
1202.818855640566
 30
0.0
 11
460.6506151058817
 21
1219.133690383045
 31
0.0
  0
LINE
  5
286
330
1F
100
AcDbEntity
  8
Linee visibili 2D
 62
   255
100
AcDbLine
 10
381.385205017457
 20
1198.599254005054
 30
0.0
 11
380.5186800242272
 21
1198.599254004875
 31
0.0
  0
ARC
  5
287
330
1F
100
AcDbEntity
  8
Linee visibili 2D
 62
   255
100
AcDbCircle
 10
518.8050285314607
 20
1735.698048044513
 30
0.0
 40
116.3485855073407
100
AcDbArc
 50
238.0859035513226
 51
249.4100244212619
  0
LINE
  5
288
330
1F
100
AcDbEntity
  8
Linee visibili 2D
 62
   255
100
AcDbLine
 10
476.2640574511863
 20
1626.584835163742
 30
0.0
 11
475.5218997045387
 21
1626.781706213501
 31
0.0
  0
LINE
  5
289
330
1F
100
AcDbEntity
  8
Linee visibili 2D
 62
   255
100
AcDbLine
 10
600.3616861820012
 20
1641.788182507331
 30
0.0
 11
600.677134792657
 21
1641.78815883118
 31
0.0
  0
LINE
  5
28A
330
1F
100
AcDbEntity
  8
Linee visibili 2D
 62
   255
100
AcDbLine
 10
601.4444569985097
 20
1641.788034015404
 30
0.0
 11
600.7761894418338
 21
1641.78791635337
 31
0.0
  0
LINE
  5
28B
330
1F
100
AcDbEntity
  8
Linee visibili 2D
 62
   255
100
AcDbLine
 10
600.3616861534911
 20
1641.787884923164
 30
0.0
 11
546.6293196349245
 21
1641.787191216523
 31
0.0
  0
LINE
  5
28C
330
1F
100
AcDbEntity
  8
Linee visibili 2D
 62
   255
100
AcDbLine
 10
532.7855832423757
 20
1627.549764059855
 30
0.0
 11
533.2575183381931
 21
1627.616145943882
 31
0.0
  0
LINE
  5
28D
330
1F
100
AcDbEntity
  8
Linee visibili 2D
 62
   255
100
AcDbLine
 10
532.7823574308909
 20
1627.549427103532
 30
0.0
 11
532.3066296143793
 21
1627.516237789285
 31
0.0
  0
LINE
  5
28E
330
1F
100
AcDbEntity
  8
Linee visibili 2D
 62
   255
100
AcDbLine
 10
426.1931780896563
 20
1500.830830474315
 30
0.0
 11
426.3321487646898
 21
1496.672129375571
 31
0.0
  0
LINE
  5
28F
330
1F
100
AcDbEntity
  8
Linee visibili 2D
 62
   255
100
AcDbLine
 10
486.6105182783463
 20
1359.309601791065
 30
0.0
 11
490.6000635920643
 21
1342.415841010139
 31
0.0
  0
LINE
  5
290
330
1F
100
AcDbEntity
  8
Linee visibili 2D
 62
   255
100
AcDbLine
 10
459.6171276707747
 20
1559.735469835829
 30
0.0
 11
454.7976443953812
 21
1555.486118563346
 31
0.0
  0
LINE
  5
291
330
1F
100
AcDbEntity
  8
Linee visibili 2D
 62
   255
100
AcDbLine
 10
504.1671485864721
 20
1602.230591665609
 30
0.0
 11
498.0797381217881
 21
1593.829126053959
 31
0.0
  0
ARC
  5
292
330
1F
100
AcDbEntity
  8
Linee visibili 2D
 62
   255
100
AcDbCircle
 10
472.604991634926
 20
1573.192261604246
 30
0.0
 40
11.51413493476004
100
AcDbArc
 50
205.2974904360048
 51
230.3197422198428
  0
SPLINE
  5
293
330
1F
100
AcDbEntity
  8
Linee visibili 2D
 62
   255
100
AcDbSpline
210
0.0
220
0.0
230
1.0
 70
    12
 71
     2
 72
    10
 73
     7
 74
     0
 42
0.0000000001
 43
0.0000000001
 40
3.719391995000484
 40
3.719391995000484
 40
3.719391995000484
 40
5.951027192000774
 40
5.951027192000774
 40
8.626057490022582
 40
8.626057490022582
 40
10.40226680807088
 40
10.40226680807088
 40
10.40226680807088
 10
485.3861345849589
 20
1288.754399417227
 30
0.0
 41
0.9354391868739004
 10
485.1103061911583
 20
1288.780140018279
 30
0.0
 41
0.8708783737478009
 10
485.8433233950505
 20
1288.621669276281
 30
0.0
 41
1.0
 10
487.1523457471258
 20
1288.346589508809
 30
0.0
 41
0.9998903325784976
 10
488.4689406247101
 20
1288.110398219756
 30
0.0
 41
1.0
 10
489.340198646127
 20
1287.93595952222
 30
0.0
 41
0.9992499866262324
 10
490.2223432448098
 20
1287.829468648922
 30
0.0
 41
1.0
  0
LINE
  5
294
330
1F
100
AcDbEntity
  8
Linee visibili 2D
 62
   255
100
AcDbLine
 10
379.8383990192202
 20
1198.429386424374
 30
0.0
 11
617.7580072855711
 21
1262.207887710449
 31
0.0
  0
LINE
  5
295
330
1F
100
AcDbEntity
  8
Linee visibili 2D
 62
   255
100
AcDbLine
 10
440.7733802260424
 20
1442.197302672457
 30
0.0
 11
445.1478865778483
 21
1444.610079371906
 31
0.0
  0
ARC
  5
296
330
1F
100
AcDbEntity
  8
Linee visibili 2D
 62
   255
100
AcDbCircle
 10
925.6820736638765
 20
1646.221861640294
 30
0.0
 40
3.351597275349615
100
AcDbArc
 50
90.85037887787638
 51
111.3478076432883
  0
LINE
  5
297
330
1F
100
AcDbEntity
  8
Linee visibili 2D
 62
   255
100
AcDbLine
 10
923.3759928290137
 20
1653.193913456118
 30
0.0
 11
923.0298357378638
 21
1653.109232103383
 31
0.0
  0
ARC
  5
298
330
1F
100
AcDbEntity
  8
Linee visibili 2D
 62
   255
100
AcDbCircle
 10
466.9603291663733
 20
1569.164828877121
 30
0.0
 40
11.95137652633236
100
AcDbArc
 50
207.9997300769469
 51
232.0899727599828
  0
LINE
  5
299
330
1F
100
AcDbEntity
  8
Linee visibili 2D
 62
   255
100
AcDbLine
 10
4.035061583055949
 20
1393.971298487143
 30
0.0
 11
4.851884066360275
 21
1394.186402081654
 31
0.0
  0
LINE
  5
29A
330
1F
100
AcDbEntity
  8
Linee visibili 2D
 62
   255
100
AcDbLine
 10
5.619807740695904
 20
1394.605945568149
 30
0.0
 11
4.712115014363691
 21
1394.343199823366
 31
0.0
  0
LINE
  5
29B
330
1F
100
AcDbEntity
  8
Linee visibili 2D
 62
   255
100
AcDbLine
 10
378.3037988429678
 20
1498.703981333441
 30
0.0
 11
10.17509161409157
 21
1395.911922300733
 31
0.0
  0
LINE
  5
29C
330
1F
100
AcDbEntity
  8
Linee visibili 2D
 62
   255
100
AcDbLine
 10
492.0115041462468
 20
1332.671367540672
 30
0.0
 11
492.7275668650282
 21
1323.822692462683
 31
0.0
  0
LINE
  5
29D
330
1F
100
AcDbEntity
  8
Linee visibili 2D
 62
   255
100
AcDbLine
 10
487.7340416877097
 20
1323.568317922758
 30
0.0
 11
486.8124542477651
 21
1334.06567026949
 31
0.0
  0
LINE
  5
29E
330
1F
100
AcDbEntity
  8
Linee visibili 2D
 62
   255
100
AcDbLine
 10
616.8884755205536
 20
1261.91661546586
 30
0.0
 11
467.1238612342454
 21
1221.232189745218
 31
0.0
  0
LINE
  5
29F
330
1F
100
AcDbEntity
  8
Linee visibili 2D
 62
   255
100
AcDbLine
 10
156.4046042128002
 20
1428.32394010441
 30
0.0
 11
167.6588748529752
 21
1425.373878938131
 31
0.0
  0
LINE
  5
2A0
330
1F
100
AcDbEntity
  8
Linee visibili 2D
 62
   255
100
AcDbLine
 10
689.0678816268728
 20
1284.745394996197
 30
0.0
 11
690.1078914018973
 21
1284.746742889025
 31
0.0
  0
LINE
  5
2A1
330
1F
100
AcDbEntity
  8
Linee visibili 2D
 62
   255
100
AcDbLine
 10
487.9193374726636
 20
1316.333086410671
 30
0.0
 11
487.7340792603995
 21
1323.567579363104
 31
0.0
  0
LINE
  5
2A2
330
1F
100
AcDbEntity
  8
Linee visibili 2D
 62
   255
100
AcDbLine
 10
451.453975544302
 20
1433.34017056365
 30
0.0
 11
459.108818684748
 21
1419.883688118841
 31
0.0
  0
LINE
  5
2A3
330
1F
100
AcDbEntity
  8
Linee visibili 2D
 62
   255
100
AcDbLine
 10
454.7747490610036
 20
1417.39043560756
 30
0.0
 11
447.0995146688009
 21
1430.882756726183
 31
0.0
  0
LINE
  5
2A4
330
1F
100
AcDbEntity
  8
Linee visibili 2D
 62
   255
100
AcDbLine
 10
508.4370818730299
 20
1609.836334643965
 30
0.0
 11
504.175032269863
 21
1602.242920635715
 31
0.0
  0
LINE
  5
2A5
330
1F
100
AcDbEntity
  8
Linee visibili 2D
 62
   255
100
AcDbLine
 10
499.9786654397976
 20
1604.961648819864
 30
0.0
 11
503.9482948225645
 21
1612.038810612536
 31
0.0
  0
LINE
  5
2A6
330
1F
100
AcDbEntity
  8
Linee visibili 2D
 62
   255
100
AcDbLine
 10
486.274319273387
 20
1270.902995784775
 30
0.0
 11
480.9037672123337
 21
1254.243878177022
 31
0.0
  0
LINE
  5
2A7
330
1F
100
AcDbEntity
  8
Linee visibili 2D
 62
   255
100
AcDbLine
 10
476.2131251935632
 20
1255.975427288908
 30
0.0
 11
481.4623887919189
 21
1272.261436100996
 31
0.0
  0
LINE
  5
2A8
330
1F
100
AcDbEntity
  8
Linee visibili 2D
 62
   255
100
AcDbLine
 10
490.6007705165769
 20
1342.41188923818
 30
0.0
 11
491.4265598681007
 21
1337.277817254951
 31
0.0
  0
LINE
  5
2A9
330
1F
100
AcDbEntity
  8
Linee visibili 2D
 62
   255
100
AcDbLine
 10
132.6237129316953
 20
1429.834591482554
 30
0.0
 11
840.0205397115783
 21
1625.904658450556
 31
0.0
  0
LINE
  5
2AA
330
1F
100
AcDbEntity
  8
Linee visibili 2D
 62
   255
100
AcDbLine
 10
4.664740284139725
 20
1394.329447630866
 30
0.0
 11
1.076817467088826
 21
1393.243940519834
 31
0.0
  0
LINE
  5
2AB
330
1F
100
AcDbEntity
  8
Linee visibili 2D
 62
   255
100
AcDbLine
 10
10.17509161408765
 20
1395.911922300741
 30
0.0
 11
5.673304465157157
 21
1394.621394116229
 31
0.0
  0
LINE
  5
2AC
330
1F
100
AcDbEntity
  8
Linee visibili 2D
 62
   255
100
AcDbLine
 10
924.0773730450823
 20
1649.249403776324
 30
0.0
 11
547.2526281826408
 21
1545.630629899536
 31
0.0
  0
LINE
  5
2AD
330
1F
100
AcDbEntity
  8
Linee visibili 2D
 62
   255
100
AcDbLine
 10
133.9591521985034
 20
1430.153686085603
 30
0.0
 11
133.8341324672676
 21
1430.167289107387
 31
0.0
  0
LINE
  5
2AE
330
1F
100
AcDbEntity
  8
Linee visibili 2D
 62
   255
100
AcDbLine
 10
460.846324768781
 20
1219.556988381877
 30
0.0
 11
397.6068222632904
 21
1202.807267399006
 31
0.0
  0
LINE
  5
2AF
330
1F
100
AcDbEntity
  8
Linee visibili 2D
 62
   255
100
AcDbLine
 10
141.1691689390213
 20
1432.271775309087
 30
0.0
 11
156.4046042128001
 21
1428.32394010441
 31
0.0
  0
LINE
  5
2B0
330
1F
100
AcDbEntity
  8
Linee visibili 2D
 62
   255
100
AcDbLine
 10
690.1078914018973
 20
1284.746742889025
 30
0.0
 11
688.5537881435846
 21
1284.950125756887
 31
0.0
  0
LINE
  5
2B1
330
1F
100
AcDbEntity
  8
Linee visibili 2D
 62
   255
100
AcDbLine
 10
421.7234532553848
 20
1509.123735242145
 30
0.0
 11
164.3074866367456
 21
1438.092158475453
 31
0.0
  0
LINE
  5
2B2
330
1F
100
AcDbEntity
  8
Linee visibili 2D
 62
   255
100
AcDbLine
 10
2.082527085869188
 20
1393.466527449275
 30
0.0
 11
3.992653832622415
 21
1393.960172674063
 31
0.0
  0
LINE
  5
2B3
330
1F
100
AcDbEntity
  8
Linee visibili 2D
 62
   255
100
AcDbLine
 10
547.2526281826431
 20
1545.630629899533
 30
0.0
 11
378.3037988429742
 21
1498.703981333423
 31
0.0
  0
LINE
  5
2B4
330
1F
100
AcDbEntity
  8
Linee visibili 2D
 62
   255
100
AcDbLine
 10
4.900247974967442
 20
1394.199178298468
 30
0.0
 11
67.26044407368408
 21
1411.18643693694
 31
0.0
  0
LINE
  5
2B5
330
1F
100
AcDbEntity
  8
Linee visibili 2D
 62
   255
100
AcDbLine
 10
67.26044407368317
 20
1411.186436936943
 30
0.0
 11
133.6799768818915
 21
1429.435080062954
 31
0.0
  0
LINE
  5
2B6
330
1F
100
AcDbEntity
  8
Linee visibili 2D
 62
   255
100
AcDbLine
 10
142.6288683031817
 20
1431.897487631679
 30
0.0
 11
347.8137311480962
 21
1488.486252996754
 31
0.0
  0
LINE
  5
2B7
330
1F
100
AcDbEntity
  8
Linee visibili 2D
 62
   255
100
AcDbLine
 10
350.0912037713642
 20
1489.115574200696
 30
0.0
 11
421.6968144841732
 21
1508.91523934246
 31
0.0
  0
LINE
  5
2B8
330
1F
100
AcDbEntity
  8
Linee visibili 2D
 62
   255
100
AcDbLine
 10
426.9592238152177
 20
1510.371369930139
 30
0.0
 11
923.4980520637605
 21
1648.880870514758
 31
0.0
  0
LINE
  5
2B9
330
1F
100
AcDbEntity
  8
Linee visibili 2D
 62
   255
100
AcDbLine
 10
877.1588122501254
 20
1636.12259633005
 30
0.0
 11
882.7848034278545
 21
1637.691051147616
 31
0.0
  0
LINE
  5
2BA
330
1F
100
AcDbEntity
  8
Linee visibili 2D
 62
   255
100
AcDbLine
 10
882.7848034278545
 20
1637.691051147616
 30
0.0
 11
885.8093526136322
 21
1638.52084020439
 31
0.0
  0
LINE
  5
2BB
330
1F
100
AcDbEntity
  8
Linee visibili 2D
 62
   255
100
AcDbLine
 10
350.8158075721768
 20
1489.397067111922
 30
0.0
 11
349.3843811428428
 21
1489.002107888961
 31
0.0
  0
LINE
  5
2BC
330
1F
100
AcDbEntity
  8
Linee visibili 2D
 62
   255
100
AcDbLine
 10
347.7915068610409
 20
1488.567339557957
 30
0.0
 11
350.1110720226556
 21
1489.219027415689
 31
0.0
  0
LINE
  5
2BD
330
1F
100
AcDbEntity
  8
Linee visibili 2D
 62
   255
100
AcDbLine
 10
265.738130046193
 20
1467.27022188779
 30
0.0
 11
268.7626792319715
 21
1468.100010944564
 31
0.0
  0
LINE
  5
2BE
330
1F
100
AcDbEntity
  8
Linee visibili 2D
 62
   255
100
AcDbLine
 10
260.1121388684645
 20
1465.701767070224
 30
0.0
 11
265.738130046193
 21
1467.27022188779
 31
0.0
  0
LINE
  5
2BF
330
1F
100
AcDbEntity
  8
Linee visibili 2D
 62
   255
100
AcDbLine
 10
164.3074866367442
 20
1438.092158475463
 30
0.0
 11
152.964108674837
 21
1434.992370999305
 31
0.0
  0
LINE
  5
2C0
330
1F
100
AcDbEntity
  8
Linee visibili 2D
 62
   255
100
AcDbLine
 10
152.9641086748375
 20
1434.992370999304
 30
0.0
 11
142.0876231321898
 21
1432.036431915047
 31
0.0
  0
LINE
  5
2C1
330
1F
100
AcDbEntity
  8
Linee visibili 2D
 62
   255
100
AcDbLine
 10
690.1171778319749
 20
1284.744258098617
 30
0.0
 11
690.9475803579795
 21
1284.524044013807
 31
0.0
  0
LINE
  5
2C2
330
1F
100
AcDbEntity
  8
Linee visibili 2D
 62
   255
100
AcDbLine
 10
686.1149571419397
 20
1280.714834647841
 30
0.0
 11
685.5265578067095
 21
1280.558908664724
 31
0.0
  0
LINE
  5
2C3
330
1F
100
AcDbEntity
  8
Linee visibili 2D
 62
   255
100
AcDbLine
 10
492.727583454624
 20
1323.822366386818
 30
0.0
 11
492.9193371164367
 21
1316.334973808137
 31
0.0
  0
SPLINE
  5
2C4
330
1F
100
AcDbEntity
  8
Linee visibili 2D
 62
   255
100
AcDbSpline
210
0.0
220
0.0
230
1.0
 70
    12
 71
     2
 72
    10
 73
     7
 74
     0
 42
0.0000000001
 43
0.0000000001
 40
3.699767940567384
 40
3.699767940567384
 40
3.699767940567384
 40
5.919628704907815
 40
5.919628704907815
 40
8.5706081760131
 40
8.5706081760131
 40
9.800578513884028
 40
9.800578513884028
 40
9.800578513884028
 10
481.8862770463261
 20
1357.899823806389
 30
0.0
 41
0.9360720857089815
 10
481.6070042538462
 20
1357.850191486533
 30
0.0
 41
0.872144171417963
 10
482.3044151200895
 20
1358.082512657126
 30
0.0
 41
1.0
 10
483.5651901212165
 20
1358.492105798358
 30
0.0
 41
0.9998305197823488
 10
484.8401892329188
 20
1358.855007176105
 30
0.0
 41
1.0
 10
485.4310864447785
 20
1359.025535193541
 30
0.0
 41
0.9999354341835083
 10
486.025706369513
 20
1359.182590804149
 30
0.0
 41
1.0
  0
LINE
  5
2C5
330
1F
100
AcDbEntity
  8
Linee visibili 2D
 62
   255
100
AcDbLine
 10
432.4335246259375
 20
1537.233051554486
 30
0.0
 11
436.6090127174441
 21
1534.512712139662
 31
0.0
  0
LINE
  5
2C6
330
1F
100
AcDbEntity
  8
Linee visibili 2D
 62
   255
100
AcDbLine
 10
839.370222749737
 20
1625.660594782548
 30
0.0
 11
426.9945481588584
 21
1510.584202463712
 31
0.0
  0
LINE
  5
2C7
330
1F
100
AcDbEntity
  8
Linee visibili 2D
 62
   255
100
AcDbLine
 10
442.9288945095109
 20
1543.103475191337
 30
0.0
 11
436.6114215971284
 21
1534.515296720503
 31
0.0
  0
LINE
  5
2C8
330
1F
100
AcDbEntity
  8
Linee visibili 2D
 62
   255
100
AcDbLine
 10
421.4445193306133
 20
1636.937336411058
 30
0.0
 11
421.4445232144985
 21
1641.788175800493
 31
0.0
  0
ARC
  5
2C9
330
1F
100
AcDbEntity
  8
Linee visibili 2D
 62
   255
100
AcDbCircle
 10
511.4450825981659
 20
1873.389362081691
 30
0.0
 40
253.0013090044377
100
AcDbArc
 50
249.1969464755587
 51
264.9035948488398
  0
SPLINE
  5
2CA
330
1F
100
AcDbEntity
  8
Linee visibili 2D
 62
   255
100
AcDbSpline
210
0.0
220
0.0
230
1.0
 70
    12
 71
     2
 72
    10
 73
     7
 74
     0
 42
0.0000000001
 43
0.0000000001
 40
3.69521325990802
 40
3.69521325990802
 40
3.69521325990802
 40
5.912341215852833
 40
5.912341215852833
 40
8.558490578040207
 40
8.558490578040207
 40
10.37260704748474
 40
10.37260704748474
 40
10.37260704748474
 10
494.2808607138208
 20
1596.981111714704
 30
0.0
 41
0.9365908405866712
 10
494.0245669776896
 20
1597.091223944102
 30
0.0
 41
0.8731816811733422
 10
494.5563684008777
 20
1596.576505331729
 30
0.0
 41
1.0
 10
495.5237662482338
 20
1595.67261590727
 30
0.0
 41
0.9989952987677991
 10
496.5682126556259
 20
1594.858978156914
 30
0.0
 41
1.0
 10
497.2552768257601
 20
1594.261358855562
 30
0.0
 41
0.994163721450188
 10
498.0545402131435
 20
1593.825028658557
 30
0.0
 41
1.0
  0
ARC
  5
2CB
330
1F
100
AcDbEntity
  8
Linee visibili 2D
 62
   255
100
AcDbCircle
 10
521.4864726334293
 20
1658.383193384556
 30
0.0
 40
41.50949179893676
100
AcDbArc
 50
249.5022486571443
 51
256.2941123586103
  0
ARC
  5
2CC
330
1F
100
AcDbEntity
  8
Linee visibili 2D
 62
   255
100
AcDbCircle
 10
517.1035457869634
 20
1632.849070090067
 30
0.0
 40
24.5891810007693
100
AcDbArc
 50
237.8502270316221
 51
249.3307462654196
  0
LINE
  5
2CD
330
1F
100
AcDbEntity
  8
Linee visibili 2D
 62
   255
100
AcDbLine
 10
434.7229266461274
 20
1453.750961295672
 30
0.0
 11
430.073153877627
 21
1463.727662279398
 31
0.0
  0
LINE
  5
2CE
330
1F
100
AcDbEntity
  8
Linee visibili 2D
 62
   255
100
AcDbLine
 10
434.6562936401307
 20
1465.726369340815
 30
0.0
 11
439.2002033559858
 21
1455.97671863227
 31
0.0
  0
LINE
  5
2CF
330
1F
100
AcDbEntity
  8
Linee visibili 2D
 62
   255
100
AcDbLine
 10
385.323939942395
 20
1198.072636218786
 30
0.0
 11
383.4737640772443
 21
1198.69532989283
 31
0.0
  0
LINE
  5
2D0
330
1F
100
AcDbEntity
  8
Linee visibili 2D
 62
   255
100
AcDbLine
 10
4.551723893060739
 20
1398.460706350046
 30
0.0
 11
3.644032751446514
 21
1398.197955825065
 31
0.0
  0
SPLINE
  5
2D1
330
1F
100
AcDbEntity
  8
Linee visibili 2D
 62
   255
100
AcDbSpline
210
0.0
220
0.0
230
1.0
 70
    12
 71
     2
 72
    10
 73
     7
 74
     0
 42
0.0000000001
 43
0.0000000001
 40
3.716398915095784
 40
3.716398915095784
 40
3.716398915095784
 40
5.946238264153254
 40
5.946238264153254
 40
8.613950631076642
 40
8.613950631076642
 40
10.40197801045938
 40
10.40197801045938
 40
10.40197801045938
 10
487.5813872469617
 20
1305.490158968502
 30
0.0
 41
0.9355844734483404
 10
487.3015680507436
 20
1305.497948721084
 30
0.0
 41
0.8711689468966809
 10
488.0429641251782
 20
1305.431250997263
 30
0.0
 41
1.0
 10
489.3718417880821
 20
1305.315806851491
 30
0.0
 41
0.9999701239535788
 10
490.702345334703
 20
1305.220920044256
 30
0.0
 41
1.0
 10
491.5935166509221
 20
1305.148243595812
 30
0.0
 41
0.999805147025264
 10
492.4868621537898
 20
1305.110800391937
 30
0.0
 41
1.0
  0
SPLINE
  5
2D2
330
1F
100
AcDbEntity
  8
Linee visibili 2D
 62
   255
100
AcDbSpline
210
0.0
220
0.0
230
1.0
 70
    12
 71
     2
 72
    10
 73
     7
 74
     0
 42
0.0000000001
 43
0.0000000001
 40
3.67071140831636
 40
3.67071140831636
 40
3.67071140831636
 40
5.873138253306175
 40
5.873138253306175
 40
8.490178853733859
 40
8.490178853733859
 40
10.34100571120799
 40
10.34100571120799
 40
10.34100571120799
 10
478.321113497312
 20
1580.769776149177
 30
0.0
 41
0.9376433683745495
 10
478.0721735778855
 20
1580.90423308736
 30
0.0
 41
0.8752867367490992
 10
478.4792944744228
 20
1580.299767497752
 30
0.0
 41
1.0
 10
479.2368406505558
 20
1579.230906019609
 30
0.0
 41
0.9982014325396421
 10
480.1168659064321
 20
1578.260392435237
 30
0.0
 41
1.0
 10
480.6962799091044
 20
1577.531695094636
 30
0.0
 41
0.9910580696687855
 10
481.4477854013735
 20
1576.982186317837
 30
0.0
 41
1.0
  0
LINE
  5
2D3
330
1F
100
AcDbEntity
  8
Linee visibili 2D
 62
   255
100
AcDbLine
 10
494.2313570818524
 20
1597.021525798608
 30
0.0
 11
499.9623900855663
 21
1604.936179967283
 31
0.0
  0
LINE
  5
2D4
330
1F
100
AcDbEntity
  8
Linee visibili 2D
 62
   255
100
AcDbLine
 10
923.955170565539
 20
1649.020015823341
 30
0.0
 11
925.2859212188998
 21
1649.441758682541
 31
0.0
  0
LINE
  5
2D5
330
1F
100
AcDbEntity
  8
Linee visibili 2D
 62
   255
100
AcDbLine
 10
434.7595949445232
 20
1453.80119984553
 30
0.0
 11
439.2000352224511
 21
1455.97663511663
 31
0.0
  0
LINE
  5
2D6
330
1F
100
AcDbEntity
  8
Linee visibili 2D
 62
   255
100
AcDbLine
 10
476.3307412542019
 20
1373.875225591665
 30
0.0
 11
469.7494653668796
 21
1389.005060164381
 31
0.0
  0
ARC
  5
2D7
330
1F
100
AcDbEntity
  8
Linee visibili 2D
 62
   255
100
AcDbCircle
 10
473.631401235713
 20
1388.278607031518
 30
0.0
 40
19.26182623757671
100
AcDbArc
 50
111.3606977206306
 51
125.978038395233
  0
LINE
  5
2D8
330
1F
100
AcDbEntity
  8
Linee visibili 2D
 62
   255
100
AcDbLine
 10
451.4428456136628
 20
1433.333846614757
 30
0.0
 11
448.0619171783323
 21
1431.570224072287
 31
0.0
  0
LINE
  5
2D9
330
1F
100
AcDbEntity
  8
Linee visibili 2D
 62
   255
100
AcDbLine
 10
439.104454116848
 20
1546.324371189538
 30
0.0
 11
446.630140364702
 21
1554.577745447291
 31
0.0
  0
LINE
  5
2DA
330
1F
100
AcDbEntity
  8
Linee visibili 2D
 62
   255
100
AcDbLine
 10
448.0619171783324
 20
1431.570224072287
 30
0.0
 11
447.1525556266279
 21
1430.954949564802
 31
0.0
  0
ARC
  5
2DB
330
1F
100
AcDbEntity
  8
Linee visibili 2D
 62
   255
100
AcDbCircle
 10
530.226501065519
 20
541.4411699045103
 30
0.0
 40
783.2796150330028
100
AcDbArc
 50
92.74502244391677
 51
93.10469825091818
  0
SPLINE
  5
2DC
330
1F
100
AcDbEntity
  8
Linee visibili 2D
 62
   255
100
AcDbSpline
210
0.0
220
0.0
230
1.0
 70
    12
 71
     2
 72
    10
 73
     7
 74
     0
 42
0.0000000001
 43
0.0000000001
 40
3.70056457079288
 40
3.70056457079288
 40
3.70056457079288
 40
5.920903313268608
 40
5.920903313268608
 40
8.57389664107215
 40
8.57389664107215
 40
10.38029116510296
 40
10.38029116510296
 40
10.38029116510296
 10
500.0338528289109
 20
1604.926398883711
 30
0.0
 41
0.9362556816585705
 10
499.7708154139766
 20
1605.020828012185
 30
0.0
 41
0.8725113633171411
 10
500.3666998904629
 20
1604.580265518529
 30
0.0
 41
1.0
 10
501.44495980344
 20
1603.806645129103
 30
0.0
 41
0.9993443505074184
 10
502.5763753579923
 20
1603.113080575664
 30
0.0
 41
1.0
 10
503.3264278764295
 20
1602.605637031343
 30
0.0
 41
0.9960555478512053
 10
504.1543671744126
 20
1602.238766141325
 30
0.0
 41
1.0
  0
LINE
  5
2DD
330
1F
100
AcDbEntity
  8
Linee visibili 2D
 62
   255
100
AcDbLine
 10
487.6633947829092
 20
1589.636178181073
 30
0.0
 11
494.207927751094
 21
1596.992839766258
 31
0.0
  0
LINE
  5
2DE
330
1F
100
AcDbEntity
  8
Linee visibili 2D
 62
   255
100
AcDbLine
 10
924.5877472189887
 20
1653.434355611036
 30
0.0
 11
925.6528049572726
 21
1649.590507479546
 31
0.0
  0
LINE
  5
2DF
330
1F
100
AcDbEntity
  8
Linee visibili 2D
 62
   255
100
AcDbLine
 10
460.736333326618
 20
1207.451133039039
 30
0.0
 11
458.2925396695044
 21
1202.194768899888
 31
0.0
  0
LINE
  5
2E0
330
1F
100
AcDbEntity
  8
Linee visibili 2D
 62
   255
100
AcDbLine
 10
486.4113036842971
 20
1359.278321306771
 30
0.0
 11
486.5930590111648
 21
1359.312357998149
 31
0.0
  0
LINE
  5
2E1
330
1F
100
AcDbEntity
  8
Linee visibili 2D
 62
   255
100
AcDbLine
 10
601.4446125331332
 20
1636.937227753509
 30
0.0
 11
601.441241919781
 21
1636.935944828675
 31
0.0
  0
LINE
  5
2E2
330
1F
100
AcDbEntity
  8
Linee visibili 2D
 62
   255
100
AcDbLine
 10
423.3769443344389
 20
1517.394138486311
 30
0.0
 11
427.144583859277
 21
1527.68986945128
 31
0.0
  0
ARC
  5
2E3
330
1F
100
AcDbEntity
  8
Linee visibili 2D
 62
   255
100
AcDbCircle
 10
444.6999508702902
 20
1727.725311651607
 30
0.0
 40
222.0081901090992
100
AcDbArc
 50
264.0010045518139
 51
265.2862998107572
  0
ARC
  5
2E4
330
1F
100
AcDbEntity
  8
Linee visibili 2D
 62
   255
100
AcDbCircle
 10
511.4910128443499
 20
1873.235467070439
 30
0.0
 40
252.8408690865508
100
AcDbArc
 50
282.9407838228748
 51
290.8055336434554
  0
SPLINE
  5
2E5
330
1F
100
AcDbEntity
  8
Linee visibili 2D
 62
   255
100
AcDbSpline
210
0.0
220
0.0
230
1.0
 70
     8
 71
     3
 72
    19
 73
    15
 74
     0
 42
0.0000000001
 43
0.0000000001
 40
0.0
 40
0.0
 40
0.0
 40
0.0
 40
0.0524210687994126
 40
0.0679209611922192
 40
0.1641829993756371
 40
0.397388720798763
 40
1.450258339655842
 40
5.376415015503338
 40
21.31635412416747
 40
82.64959195162515
 40
324.5906004497498
 40
595.2190003339745
 40
681.3818598170312
 40
726.1258233276018
 40
726.1258233276018
 40
726.1258233276018
 40
726.1258233276018
 10
835.0326052299815
 20
1241.560519258002
 30
0.0
 10
835.0299537820205
 20
1241.557298607989
 30
0.0
 10
835.093941984259
 20
1241.539203625141
 30
0.0
 10
835.068939645804
 20
1241.511896293542
 30
0.0
 10
834.9415676385146
 20
1241.53021924466
 30
0.0
 10
834.495458811155
 20
1241.615411854142
 30
0.0
 10
832.7988994217491
 20
1242.000122735539
 30
0.0
 10
826.0360975218432
 20
1243.697201243767
 30
0.0
 10
799.8331363142263
 20
1250.480589537225
 30
0.0
 10
696.9790012862499
 20
1277.73874818422
 30
0.0
 10
512.196270780254
 20
1327.250502771293
 30
0.0
 10
319.4354167232141
 20
1378.965119898393
 30
0.0
 10
190.2426225407766
 20
1413.947312718469
 30
0.0
 10
148.1538022077932
 20
1425.462763668091
 30
0.0
 10
133.7979660666234
 20
1429.507521522863
 30
0.0
  0
LINE
  5
2E6
330
1F
100
AcDbEntity
  8
Linee visibili 2D
 62
   255
100
AcDbLine
 10
491.1504007898853
 20
1339.127453153076
 30
0.0
 11
835.85830413614
 21
1245.50515822331
 31
0.0
  0
LINE
  5
2E7
330
1F
100
AcDbEntity
  8
Linee visibili 2D
 62
   255
100
AcDbLine
 10
689.3928065369503
 20
1284.989575799232
 30
0.0
 11
491.1912534115178
 21
1338.863578068832
 31
0.0
  0
LINE
  5
2E8
330
1F
100
AcDbEntity
  8
Linee visibili 2D
 62
   255
100
AcDbLine
 10
511.6643909592234
 20
1618.051722158383
 30
0.0
 11
508.4418339703305
 21
1609.84607124647
 31
0.0
  0
LINE
  5
2E9
330
1F
100
AcDbEntity
  8
Linee visibili 2D
 62
   255
100
AcDbLine
 10
383.0612974648426
 20
1198.735470898578
 30
0.0
 11
381.6428161885173
 21
1198.735550299255
 31
0.0
  0
LINE
  5
2EA
330
1F
100
AcDbEntity
  8
Linee visibili 2D
 62
   255
100
AcDbLine
 10
481.4668325356596
 20
1272.277251900624
 30
0.0
 11
485.3188811485123
 21
1288.754386847148
 31
0.0
  0
LINE
  5
2EB
330
1F
100
AcDbEntity
  8
Linee visibili 2D
 62
   255
100
AcDbLine
 10
503.9585190088512
 20
1612.059775311023
 30
0.0
 11
506.8812968777268
 21
1619.508446750906
 31
0.0
  0
LINE
  5
2EC
330
1F
100
AcDbEntity
  8
Linee visibili 2D
 62
   255
100
AcDbLine
 10
167.6588748529794
 20
1425.373878938131
 30
0.0
 11
485.8510013947454
 21
1340.549919619474
 31
0.0
  0
ARC
  5
2ED
330
1F
100
AcDbEntity
  8
Linee visibili 2D
 62
   255
100
AcDbCircle
 10
11205.35978718892
 20
41195.3754474224
 30
0.0
 40
41272.9573003569
100
AcDbArc
 50
254.632964140379
 51
255.2385630539321
  0
LINE
  5
2EE
330
1F
100
AcDbEntity
  8
Linee visibili 2D
 62
   255
100
AcDbLine
 10
421.1931821720141
 20
1500.838407732314
 30
0.0
 11
421.479338623054
 21
1506.933126280502
 31
0.0
  0
LINE
  5
2EF
330
1F
100
AcDbEntity
  8
Linee visibili 2D
 62
   255
100
AcDbLine
 10
426.4576437565697
 20
1506.46785409429
 30
0.0
 11
426.193180829745
 21
1500.834744033507
 31
0.0
  0
LINE
  5
2F0
330
1F
100
AcDbEntity
  8
Linee visibili 2D
 62
   255
100
AcDbLine
 10
491.2087686785785
 20
1586.109875461888
 30
0.0
 11
481.4884439624554
 21
1576.982983285668
 31
0.0
  0
LINE
  5
2F1
330
1F
100
AcDbEntity
  8
Linee visibili 2D
 62
   255
100
AcDbLine
 10
478.2798847984996
 20
1580.818042143379
 30
0.0
 11
487.6337544413184
 21
1589.605562249076
 31
0.0
  0
LINE
  5
2F2
330
1F
100
AcDbEntity
  8
Linee visibili 2D
 62
   255
100
AcDbLine
 10
451.4366272171461
 20
1559.18801665366
 30
0.0
 11
456.3827040710318
 21
1563.548408878432
 31
0.0
  0
LINE
  5
2F3
330
1F
100
AcDbEntity
  8
Linee visibili 2D
 62
   255
100
AcDbLine
 10
678.2956139444622
 20
1282.802681468233
 30
0.0
 11
270.7439131049276
 21
1173.128628099824
 31
0.0
  0
LINE
  5
2F4
330
1F
100
AcDbEntity
  8
Linee visibili 2D
 62
   255
100
AcDbLine
 10
133.9776736138652
 20
1430.222813949132
 30
0.0
 11
133.7868697755905
 21
1429.510672817619
 31
0.0
  0
LINE
  5
2F5
330
1F
100
AcDbEntity
  8
Linee visibili 2D
 62
   255
100
AcDbLine
 10
486.1577677152459
 20
1338.690601342221
 30
0.0
 11
485.6804238706522
 21
1341.522919476748
 31
0.0
  0
LINE
  5
2F6
330
1F
100
AcDbEntity
  8
Linee visibili 2D
 62
   255
100
AcDbLine
 10
492.9193374678946
 20
1316.334034703845
 30
0.0
 11
492.4988094789777
 21
1305.112649514267
 31
0.0
  0
LINE
  5
2F7
330
1F
100
AcDbEntity
  8
Linee visibili 2D
 62
   255
100
AcDbLine
 10
487.5134670552698
 20
1305.495279143631
 30
0.0
 11
487.9193384247879
 21
1316.330500988603
 31
0.0
  0
LINE
  5
2F8
330
1F
100
AcDbEntity
  8
Linee visibili 2D
 62
   255
100
AcDbLine
 10
421.4794758614487
 20
1506.934595905585
 30
0.0
 11
421.9222199673168
 21
1510.530431023782
 31
0.0
  0
LINE
  5
2F9
330
1F
100
AcDbEntity
  8
Linee visibili 2D
 62
   255
100
AcDbLine
 10
422.830794645967
 20
1515.234855988313
 30
0.0
 11
423.3748762203501
 21
1517.386540411924
 31
0.0
  0
LINE
  5
2FA
330
1F
100
AcDbEntity
  8
Linee visibili 2D
 62
   255
100
AcDbLine
 10
427.2528297402763
 20
1512.009586314849
 30
0.0
 11
426.4576847180112
 21
1506.468292806217
 31
0.0
  0
LINE
  5
2FB
330
1F
100
AcDbEntity
  8
Linee visibili 2D
 62
   255
100
AcDbLine
 10
430.0731538776263
 20
1463.727662279398
 30
0.0
 11
426.0757751783818
 21
1474.045174772241
 31
0.0
  0
LINE
  5
2FC
330
1F
100
AcDbEntity
  8
Linee visibili 2D
 62
   255
100
AcDbLine
 10
426.0733794552216
 20
1474.052214655466
 30
0.0
 11
426.0717240840582
 21
1474.057079769751
 31
0.0
  0
LINE
  5
2FD
330
1F
100
AcDbEntity
  8
Linee visibili 2D
 62
   255
100
AcDbLine
 10
430.8019489142115
 20
1475.677290431584
 30
0.0
 11
434.6554109340162
 21
1465.728393480217
 31
0.0
  0
LINE
  5
2FE
330
1F
100
AcDbEntity
  8
Linee visibili 2D
 62
   255
100
AcDbLine
 10
466.6478945809635
 20
1406.213236067848
 30
0.0
 11
474.2416975098292
 21
1391.200870116661
 31
0.0
  0
LINE
  5
2FF
330
1F
100
AcDbEntity
  8
Linee visibili 2D
 62
   255
100
AcDbLine
 10
469.7260993622895
 20
1389.053885945588
 30
0.0
 11
462.2513255892527
 21
1403.831818025293
 31
0.0
  0
LINE
  5
300
330
1F
100
AcDbEntity
  8
Linee visibili 2D
 62
   255
100
AcDbLine
 10
445.1491301917912
 20
1444.610764189311
 30
0.0
 11
451.4467788825938
 21
1433.352836452856
 31
0.0
  0
LINE
  5
301
330
1F
100
AcDbEntity
  8
Linee visibili 2D
 62
   255
100
AcDbLine
 10
445.4725621144015
 20
1433.757534463433
 30
0.0
 11
440.7709244434482
 21
1442.195950342564
 31
0.0
  0
LINE
  5
302
330
1F
100
AcDbEntity
  8
Linee visibili 2D
 62
   255
100
AcDbLine
 10
459.1195183970959
 20
1419.864901088581
 30
0.0
 11
466.6390443506521
 21
1406.229819040216
 31
0.0
  0
LINE
  5
303
330
1F
100
AcDbEntity
  8
Linee visibili 2D
 62
   255
100
AcDbLine
 10
462.2216937831001
 20
1403.887343062592
 30
0.0
 11
454.7758140379744
 21
1417.388565668592
 31
0.0
  0
LINE
  5
304
330
1F
100
AcDbEntity
  8
Linee visibili 2D
 62
   255
100
AcDbLine
 10
480.9922525465771
 20
1375.683749825532
 30
0.0
 11
486.6083730061732
 21
1359.316875158283
 31
0.0
  0
LINE
  5
305
330
1F
100
AcDbEntity
  8
Linee visibili 2D
 62
   255
100
AcDbLine
 10
481.8107405984953
 20
1357.908766454499
 30
0.0
 11
476.3463386785461
 21
1373.835515885916
 31
0.0
  0
LINE
  5
306
330
1F
100
AcDbEntity
  8
Linee visibili 2D
 62
   255
100
AcDbLine
 10
512.5454797405868
 20
1621.387864110498
 30
0.0
 11
511.6662038501952
 21
1618.057700300001
 31
0.0
  0
LINE
  5
307
330
1F
100
AcDbEntity
  8
Linee visibili 2D
 62
   255
100
AcDbLine
 10
506.8853263689768
 20
1619.521744916395
 30
0.0
 11
507.4043205501067
 21
1621.387871887015
 31
0.0
  0
LINE
  5
308
330
1F
100
AcDbEntity
  8
Linee visibili 2D
 62
   255
100
AcDbLine
 10
456.2099261706549
 20
1209.575220213017
 30
0.0
 11
461.2784132232904
 21
1220.492161700288
 31
0.0
  0
LINE
  5
309
330
1F
100
AcDbEntity
  8
Linee visibili 2D
 62
   255
100
AcDbLine
 10
490.2322415290881
 20
1287.827611327289
 30
0.0
 11
486.2759390433565
 21
1270.908759503695
 31
0.0
  0
LINE
  5
30A
330
1F
100
AcDbEntity
  8
Linee visibili 2D
 62
   255
100
AcDbLine
 10
456.4001168220935
 20
1563.563180293407
 30
0.0
 11
462.1697022388634
 21
1568.266756571323
 31
0.0
  0
LINE
  5
30B
330
1F
100
AcDbEntity
  8
Linee visibili 2D
 62
   255
100
AcDbLine
 10
465.2528948999564
 20
1564.330524487898
 30
0.0
 11
459.6174330723962
 21
1559.735728943303
 31
0.0
  0
LINE
  5
30C
330
1F
100
AcDbEntity
  8
Linee visibili 2D
 62
   255
100
AcDbLine
 10
485.321168764296
 20
1288.766582649228
 30
0.0
 11
487.5129740153814
 21
1305.488740899374
 31
0.0
  0
SPLINE
  5
30D
330
1F
100
AcDbEntity
  8
Linee visibili 2D
 62
   255
100
AcDbSpline
210
0.0
220
0.0
230
1.0
 70
    12
 71
     2
 72
    10
 73
     7
 74
     0
 42
0.0000000001
 43
0.0000000001
 40
3.680569698073541
 40
3.680569698073541
 40
3.680569698073541
 40
5.888911516917665
 40
5.888911516917665
 40
8.524636976833465
 40
8.524636976833465
 40
10.35229044157651
 40
10.35229044157651
 40
10.35229044157651
 10
487.7087929370977
 20
1589.59224266605
 30
0.0
 41
0.9369985951954809
 10
487.4562604779177
 20
1589.713470271845
 30
0.0
 41
0.8739971903909618
 10
487.9329476538857
 20
1589.15210729175
 30
0.0
 41
1.0
 10
488.8070453295813
 20
1588.164269046414
 30
0.0
 41
0.9986597671419724
 10
489.778575969501
 20
1587.272081083424
 30
0.0
 41
1.0
 10
490.4165570292149
 20
1586.611532998747
 30
0.0
 41
0.9926485728769551
 10
491.1945665732309
 20
1586.123634695673
 30
0.0
 41
1.0
  0
LINE
  5
30E
330
1F
100
AcDbEntity
  8
Linee visibili 2D
 62
   255
100
AcDbLine
 10
462.1879870975562
 20
1568.281077346048
 30
0.0
 11
468.050496583352
 21
1572.72376760428
 31
0.0
  0
LINE
  5
30F
330
1F
100
AcDbEntity
  8
Linee visibili 2D
 62
   255
100
AcDbLine
 10
447.081552319638
 20
1430.914609575037
 30
0.0
 11
445.4727961261551
 21
1433.757675155546
 31
0.0
  0
LINE
  5
310
330
1F
100
AcDbEntity
  8
Linee visibili 2D
 62
   255
100
AcDbLine
 10
480.9015650931375
 20
1254.237840956864
 30
0.0
 11
474.5333092845772
 21
1238.003668558423
 31
0.0
  0
LINE
  5
311
330
1F
100
AcDbEntity
  8
Linee visibili 2D
 62
   255
100
AcDbLine
 10
454.7760702837525
 20
1417.3887116224
 30
0.0
 11
455.7382527502098
 21
1418.075967186219
 31
0.0
  0
LINE
  5
312
330
1F
100
AcDbEntity
  8
Linee visibili 2D
 62
   255
100
AcDbLine
 10
923.522224294024
 20
1648.888193480573
 30
0.0
 11
923.9336286215284
 21
1649.01342168876
 31
0.0
  0
LINE
  5
313
330
1F
100
AcDbEntity
  8
Linee visibili 2D
 62
   255
100
AcDbLine
 10
924.4440722873236
 20
1649.339156794801
 30
0.0
 11
924.0979162765117
 21
1649.25447110647
 31
0.0
  0
LINE
  5
314
330
1F
100
AcDbEntity
  8
Linee visibili 2D
 62
   255
100
AcDbLine
 10
469.9319720250397
 20
1239.960230505133
 30
0.0
 11
476.2064777200741
 21
1255.957199929036
 31
0.0
  0
LINE
  5
315
330
1F
100
AcDbEntity
  8
Linee visibili 2D
 62
   255
100
AcDbLine
 10
567.6273907689252
 20
1626.705084915383
 30
0.0
 11
566.9794406958836
 21
1626.558359970072
 31
0.0
  0
LINE
  5
316
330
1F
100
AcDbEntity
  8
Linee visibili 2D
 62
   255
100
AcDbLine
 10
460.7363328257993
 20
1207.451133269346
 30
0.0
 11
467.5613882711515
 21
1222.183226490547
 31
0.0
  0
LINE
  5
317
330
1F
100
AcDbEntity
  8
Linee visibili 2D
 62
   255
100
AcDbLine
 10
430.10769242122
 20
1463.76994430666
 30
0.0
 11
434.6550327510154
 21
1465.728228563804
 31
0.0
  0
LINE
  5
318
330
1F
100
AcDbEntity
  8
Linee visibili 2D
 62
   255
100
AcDbLine
 10
490.1708505622867
 20
1316.324535787706
 30
0.0
 11
489.2726174625437
 21
1316.325202400163
 31
0.0
  0
ARC
  5
319
330
1F
100
AcDbEntity
  8
Linee visibili 2D
 62
   255
100
AcDbCircle
 10
493.2552837978342
 20
1304.311004003025
 30
0.0
 40
34.12902119680704
100
AcDbArc
 50
249.9031672044735
 51
258.183220717931
  0
SPLINE
  5
31A
330
1F
100
AcDbEntity
  8
Linee visibili 2D
 62
   255
100
AcDbSpline
210
0.0
220
0.0
230
1.0
 70
    12
 71
     2
 72
     8
 73
     5
 74
     0
 42
0.0000000001
 43
0.0000000001
 40
3.988574698006118
 40
3.988574698006118
 40
3.988574698006118
 40
6.918421840491829
 40
6.918421840491829
 40
9.334084365820988
 40
9.334084365820988
 40
9.334084365820988
 10
423.3946573113064
 20
1517.389316068991
 30
0.0
 41
1.0
 10
423.1897821828277
 20
1517.400641018426
 30
0.0
 41
0.8332454118883812
 10
424.5729511856744
 20
1517.001993753189
 30
0.0
 41
1.0
 10
425.73397099992
 20
1516.668730381985
 30
0.0
 41
0.9999099787525929
 10
426.9035152109527
 20
1516.366740610476
 30
0.0
 41
1.0
  0
LINE
  5
31B
330
1F
100
AcDbEntity
  8
Linee visibili 2D
 62
   255
100
AcDbLine
 10
459.0827982871145
 20
1419.868868836217
 30
0.0
 11
455.7382527502098
 21
1418.075967186219
 31
0.0
  0
SPLINE
  5
31C
330
1F
100
AcDbEntity
  8
Linee visibili 2D
 62
   255
100
AcDbSpline
210
0.0
220
0.0
230
1.0
 70
    12
 71
     2
 72
    10
 73
     7
 74
     0
 42
0.0000000001
 43
0.0000000001
 40
6.872233929727672
 40
6.872233929727672
 40
6.872233929727672
 40
7.853981633974483
 40
7.853981633974483
 40
10.63269494069879
 40
10.63269494069879
 40
12.81901182184125
 40
12.81901182184125
 40
12.81901182184125
 10
426.1103205749996
 20
1500.830885778256
 30
0.0
 41
0.8901650429449554
 10
426.2320734582972
 20
1500.833627318733
 30
0.0
 41
0.9267766952966369
 10
426.1755664238455
 20
1500.836575882911
 30
0.0
 41
1.0
 10
424.7863221319842
 20
1500.857104795449
 30
0.0
 41
0.9999575629004988
 10
423.3969354229548
 20
1500.852034145436
 30
0.0
 41
1.0
 10
422.3037237572118
 20
1500.864421339254
 30
0.0
 41
0.9998306982284414
 10
421.2107965779137
 20
1500.836575882911
 30
0.0
 41
1.0
  0
ARC
  5
31D
330
1F
100
AcDbEntity
  8
Linee visibili 2D
 62
   255
100
AcDbCircle
 10
457.5072875615926
 20
1561.865190284949
 30
0.0
 40
13.06883954041903
100
AcDbArc
 50
213.8588292470778
 51
235.8568936486947
  0
ARC
  5
31E
330
1F
100
AcDbEntity
  8
Linee visibili 2D
 62
   255
100
AcDbCircle
 10
462.1355168276414
 20
1565.51291070818
 30
0.0
 40
12.426051018599
100
AcDbArc
 50
210.6467322337019
 51
233.8012493699895
  0
ARC
  5
31F
330
1F
100
AcDbEntity
  8
Linee visibili 2D
 62
   255
100
AcDbCircle
 10
478.9301701907289
 20
1577.433825709232
 30
0.0
 40
11.76496574185194
100
AcDbArc
 50
203.3573320599652
 51
227.7003642866552
  0
ARC
  5
320
330
1F
100
AcDbEntity
  8
Linee visibili 2D
 62
   255
100
AcDbCircle
 10
429.0856554595981
 20
1420.215270487684
 30
0.0
 40
76.50637887326194
100
AcDbArc
 50
92.06364873182572
 51
95.79496637410327
  0
LINE
  5
321
330
1F
100
AcDbEntity
  8
Linee visibili 2D
 62
   255
100
AcDbLine
 10
486.0257063695131
 20
1359.182590804149
 30
0.0
 11
486.4113036842971
 21
1359.278321306771
 31
0.0
  0
LINE
  5
322
330
1F
100
AcDbEntity
  8
Linee visibili 2D
 62
   255
100
AcDbLine
 10
471.0122563512502
 20
1568.732040872916
 30
0.0
 11
471.0153923802529
 21
1568.73088268381
 31
0.0
  0
LINE
  5
323
330
1F
100
AcDbEntity
  8
Linee visibili 2D
 62
   255
100
AcDbLine
 10
9.107011618693264
 20
1399.766677913516
 30
0.0
 11
546.1845481872483
 21
1549.485385512311
 31
0.0
  0
SPLINE
  5
324
330
1F
100
AcDbEntity
  8
Linee visibili 2D
 62
   255
100
AcDbSpline
210
0.0
220
0.0
230
1.0
 70
    12
 71
     2
 72
    10
 73
     7
 74
     0
 42
0.0000000001
 43
0.0000000001
 40
3.695094976409147
 40
3.695094976409147
 40
3.695094976409147
 40
5.912151962254634
 40
5.912151962254634
 40
8.557923320720466
 40
8.557923320720466
 40
10.37700366979593
 40
10.37700366979593
 40
10.37700366979593
 10
476.4111561291179
 20
1373.860967516691
 30
0.0
 41
0.9362709521231547
 10
476.1339454142981
 20
1373.798529686477
 30
0.0
 41
0.8725419042463094
 10
476.8027076290061
 20
1374.099034859977
 30
0.0
 41
1.0
 10
478.0151389997795
 20
1374.628929985478
 30
0.0
 41
0.9996777888136661
 10
479.2529004310235
 20
1375.096610765701
 30
0.0
 41
1.0
 10
480.0945302872129
 20
1375.444411388328
 30
0.0
 41
0.9981524747602899
 10
480.9721320032549
 20
1375.687560141006
 30
0.0
 41
1.0
  0
ARC
  5
325
330
1F
100
AcDbEntity
  8
Linee visibili 2D
 62
   255
100
AcDbCircle
 10
481.538410175086
 20
1370.644486423403
 30
0.0
 40
21.81085981804486
100
AcDbArc
 50
109.5962730020219
 51
122.5203714452006
  0
LINE
  5
326
330
1F
100
AcDbEntity
  8
Linee visibili 2D
 62
   255
100
AcDbLine
 10
474.2479787719084
 20
1391.187745739498
 30
0.0
 11
480.988266018848
 21
1375.693898320568
 31
0.0
  0
LINE
  5
327
330
1F
100
AcDbEntity
  8
Linee visibili 2D
 62
   255
100
AcDbLine
 10
445.9445137398619
 20
1641.787497539142
 30
0.0
 11
445.9445137398618
 21
1668.7876634278
 31
0.0
  0
LINE
  5
328
330
1F
100
AcDbEntity
  8
Linee visibili 2D
 62
   255
100
AcDbLine
 10
619.6923620278969
 20
1202.200092821854
 30
0.0
 11
621.6923291397378
 21
1198.736059840586
 31
0.0
  0
SPLINE
  5
329
330
1F
100
AcDbEntity
  8
Linee visibili 2D
 62
   255
100
AcDbSpline
210
0.0
220
0.0
230
1.0
 70
     8
 71
     3
 72
    12
 73
     8
 74
     0
 42
0.0000000001
 43
0.0000000001
 40
0.0
 40
0.0
 40
0.0
 40
0.0
 40
20.09214453840459
 40
42.66775498614832
 40
70.1597974265048
 40
98.70822583097124
 40
128.199591013574
 40
128.199591013574
 40
128.199591013574
 40
128.199591013574
 10
621.6916390632678
 20
1198.73502238971
 30
0.0
 10
615.9007708132842
 20
1195.379287381023
 30
0.0
 10
603.3076986540095
 20
1188.725975111968
 30
0.0
 10
582.4377604114983
 20
1178.236293117527
 30
0.0
 10
558.2778106496606
 20
1167.868910499315
 30
0.0
 10
530.235037269286
 20
1161.994301756712
 30
0.0
 10
510.9219675145808
 20
1160.676932646366
 30
0.0
 10
501.0815850174291
 20
1160.73792750218
 30
0.0
  0
LINE
  5
32A
330
1F
100
AcDbEntity
  8
Linee visibili 2D
 62
   255
100
AcDbLine
 10
576.9445759248524
 20
1668.7876634278
 30
0.0
 11
576.9445759248524
 21
1641.787392652799
 31
0.0
  0
LINE
  5
32B
330
1F
100
AcDbEntity
  8
Linee visibili 2D
 62
   255
100
AcDbLine
 10
425.3015597629759
 20
287.0287786291919
 30
0.0
 11
430.8729179176565
 21
276.1047423217549
 31
0.0
  0
LINE
  5
32C
330
1F
100
AcDbEntity
  8
Linee visibili 2D
 62
   255
100
AcDbLine
 10
496.87864775819
 20
439.8660047669688
 30
0.0
 11
493.7063718684878
 21
432.157825197859
 31
0.0
  0
LINE
  5
32D
330
1F
100
AcDbEntity
  8
Linee visibili 2D
 62
   255
100
AcDbLine
 10
451.7346739707148
 20
389.6170412992532
 30
0.0
 11
446.2646437859422
 21
385.3309603946922
 31
0.0
  0
LINE
  5
32E
330
1F
100
AcDbEntity
  8
Linee visibili 2D
 62
   255
100
AcDbLine
 10
413.7300839389072
 20
335.2373331427356
 30
0.0
 11
413.400398710005
 21
329.895435953726
 31
0.0
  0
LINE
  5
32F
330
1F
100
AcDbEntity
  8
Linee visibili 2D
 62
   255
100
AcDbLine
 10
449.7536001872322
 20
62.23807810046333
 30
0.0
 11
446.4977172903902
 21
55.43321458221762
 31
0.0
  0
LINE
  5
330
330
1F
100
AcDbEntity
  8
Linee visibili 2D
 62
   255
100
AcDbLine
 10
410.954923285199
 20
345.6614718358157
 30
0.0
 11
414.7131706400558
 21
355.3874919877027
 31
0.0
  0
LINE
  5
331
330
1F
100
AcDbEntity
  8
Linee visibili 2D
 62
   255
100
AcDbLine
 10
452.0881246722697
 20
78.98043523253716
 30
0.0
 11
458.3736691907118
 21
94.36462899356336
 31
0.0
  0
LINE
  5
332
330
1F
100
AcDbEntity
  8
Linee visibili 2D
 62
   255
100
AcDbLine
 10
464.4607336769513
 20
405.085484345308
 30
0.0
 11
473.5754680755529
 21
413.3150783428564
 31
0.0
  0
LINE
  5
333
330
1F
100
AcDbEntity
  8
Linee visibili 2D
 62
   255
100
AcDbLine
 10
448.8761054941511
 20
393.423034882496
 30
0.0
 11
454.6264633995918
 21
397.6081999737109
 31
0.0
  0
LINE
  5
334
330
1F
100
AcDbEntity
  8
Linee visibili 2D
 62
   255
100
AcDbLine
 10
467.607248517409
 20
125.8854669024245
 30
0.0
 11
469.9421077600963
 21
141.9847650939453
 31
0.0
  0
ARC
  5
335
330
1F
100
AcDbEntity
  8
Linee visibili 2D
 62
   255
100
AcDbCircle
 10
498.5863315630665
 20
676.7655472368864
 30
0.0
 40
236.6799836783198
100
AcDbArc
 50
249.7955607626757
 51
266.073826175446
  0
LINE
  5
336
330
1F
100
AcDbEntity
  8
Linee visibili 2D
 62
   255
100
AcDbLine
 10
411.3267222571766
 20
458.8283903883338
 30
0.0
 11
411.3952231060309
 21
463.3984454908763
 31
0.0
  0
ARC
  5
337
330
1F
100
AcDbEntity
  8
Linee visibili 2D
 62
   255
100
AcDbCircle
 10
498.6203243265047
 20
679.5493319366516
 30
0.0
 40
239.4683458182753
100
AcDbArc
 50
269.5349071401345
 51
289.1627201728275
  0
LINE
  5
338
330
1F
100
AcDbEntity
  8
Linee visibili 2D
 62
   255
100
AcDbLine
 10
491.9639744517382
 20
440.1757456432274
 30
0.0
 11
482.3806057258222
 21
440.6410268582144
 31
0.0
  0
LINE
  5
339
330
1F
100
AcDbEntity
  8
Linee visibili 2D
 62
   255
100
AcDbLine
 10
582.940271188278
 20
462.0537608706341
 30
0.0
 11
582.8992429965299
 21
457.4937937343145
 31
0.0
  0
LINE
  5
33A
330
1F
100
AcDbEntity
  8
Linee visibili 2D
 62
   255
100
AcDbLine
 10
422.5294928106463
 20
33.44601736404479
 30
0.0
 11
424.8536249854221
 21
33.33572694713872
 31
0.0
  0
LINE
  5
33B
330
1F
100
AcDbEntity
  8
Linee visibili 2D
 62
   255
100
AcDbLine
 10
469.7338425258181
 20
193.7861149734291
 30
0.0
 11
471.3396563299283
 21
187.5886704731863
 31
0.0
  0
ARC
  5
33C
330
1F
100
AcDbEntity
  8
Linee visibili 2D
 62
   255
100
AcDbCircle
 10
538.6715020781443
 20
555.1541750300747
 30
0.0
 40
122.7974896478231
100
AcDbArc
 50
224.9586062849197
 51
235.0458504168521
  0
LINE
  5
33D
330
1F
100
AcDbEntity
  8
Linee visibili 2D
 62
   255
100
AcDbLine
 10
468.9653387064606
 20
454.2333227456541
 30
0.0
 11
468.318274184346
 21
454.5080286123876
 31
0.0
  0
ARC
  5
33E
330
1F
100
AcDbEntity
  8
Linee visibili 2D
 62
   255
100
AcDbCircle
 10
469.7197094896159
 20
455.2080333399333
 30
0.0
 40
1.232532361067496
100
AcDbArc
 50
232.2621587458379
 51
334.7381576420574
  0
ARC
  5
33F
330
1F
100
AcDbEntity
  8
Linee visibili 2D
 62
   255
100
AcDbCircle
 10
541.2582710554695
 20
555.2179383826636
 30
0.0
 40
122.7476758292726
100
AcDbArc
 50
224.9009259230369
 51
234.989328935898
  0
ARC
  5
340
330
1F
100
AcDbEntity
  8
Linee visibili 2D
 62
   255
100
AcDbCircle
 10
453.8962006928944
 20
559.37548119631
 30
0.0
 40
126.0053713792735
100
AcDbArc
 50
303.4377230606602
 51
313.4223241396733
  0
ARC
  5
341
330
1F
100
AcDbEntity
  8
Linee visibili 2D
 62
   255
100
AcDbCircle
 10
523.6005278669849
 20
453.8889818556002
 30
0.0
 40
0.4326959417446531
100
AcDbArc
 50
128.8719893891542
 51
320.6783365215116
  0
LINE
  5
342
330
1F
100
AcDbEntity
  8
Linee visibili 2D
 62
   255
100
AcDbLine
 10
525.8348096992671
 20
454.0078831844511
 30
0.0
 11
523.9352617390374
 21
453.6147939402883
 31
0.0
  0
ARC
  5
343
330
1F
100
AcDbEntity
  8
Linee visibili 2D
 62
   255
100
AcDbCircle
 10
456.4803146394889
 20
559.2785345544311
 30
0.0
 40
126.063301657765
100
AcDbArc
 50
303.3777231025196
 51
313.3627427537048
  0
SPLINE
  5
344
330
1F
100
AcDbEntity
  8
Linee visibili 2D
 62
   255
100
AcDbSpline
210
0.0
220
0.0
230
1.0
 70
    12
 71
     2
 72
     6
 73
     3
 74
     0
 42
0.0000000001
 43
0.0000000001
 40
0.0
 40
0.0
 40
0.0
 40
91.24764070144091
 40
91.24764070144091
 40
91.24764070144091
 10
543.0372561470343
 20
467.6278286012493
 30
0.0
 41
2198.193977220903
 10
584.2709903475622
 20
463.7571865730096
 30
0.0
 41
1941.820711497674
 10
582.8631834062913
 20
457.1380495291964
 30
0.0
 41
2270.844331629769
  0
ARC
  5
345
330
1F
100
AcDbEntity
  8
Linee visibili 2D
 62
   255
100
AcDbCircle
 10
575.335171394182
 20
462.5715485018173
 30
0.0
 40
9.413574398742316
100
AcDbArc
 50
281.5893233817072
 51
321.8024445945957
  0
ARC
  5
346
330
1F
100
AcDbEntity
  8
Linee visibili 2D
 62
   255
100
AcDbCircle
 10
492.7393532638212
 20
-105.8913979096966
 30
0.0
 40
580.4632366305985
100
AcDbArc
 50
85.27458412178495
 51
93.78945324460413
  0
LINE
  5
347
330
1F
100
AcDbEntity
  8
Linee visibili 2D
 62
   255
100
AcDbLine
 10
540.5085825925269
 20
467.8569097580448
 30
0.0
 11
540.5582627936606
 21
472.5988102797326
 31
0.0
  0
ARC
  5
348
330
1F
100
AcDbEntity
  8
Linee visibili 2D
 62
   255
100
AcDbCircle
 10
492.5307745549165
 20
-119.6312565785472
 30
0.0
 40
589.4439885600837
100
AcDbArc
 50
85.3312436965588
 51
93.71753238945539
  0
LINE
  5
349
330
1F
100
AcDbEntity
  8
Linee visibili 2D
 62
   255
100
AcDbLine
 10
454.3764053961242
 20
473.3027433854043
 30
0.0
 11
454.312602492568
 21
468.572438559313
 31
0.0
  0
SPLINE
  5
34A
330
1F
100
AcDbEntity
  8
Linee visibili 2D
 62
   255
100
AcDbSpline
210
0.0
220
0.0
230
1.0
 70
    12
 71
     2
 72
     8
 73
     5
 74
     0
 42
0.0000000001
 43
0.0000000001
 40
-129.2893331753937
 40
-129.2893331753937
 40
-129.2893331753937
 40
-105.897771462565
 40
-105.897771462565
 40
-70.59851430837668
 40
-70.59851430837668
 40
-70.59851430837668
 10
496.3380495352936
 20
440.2753696039068
 30
0.0
 41
2047.713932230383
 10
508.7450011811669
 20
440.1444444523311
 30
0.0
 41
1872.289611536279
 10
515.1080230846835
 20
441.4667361308468
 30
0.0
 41
2286.672436534593
 10
526.1374992976764
 20
443.7587578833995
 30
0.0
 41
1602.738410609004
 10
507.6231160214584
 20
445.3239986741801
 30
0.0
 41
2256.622778039836
  0
LINE
  5
34B
330
1F
100
AcDbEntity
  8
Linee visibili 2D
 62
   255
100
AcDbLine
 10
487.613805483094
 20
440.6091997168058
 30
0.0
 11
492.03371268726
 21
440.3774217494849
 31
0.0
  0
LINE
  5
34C
330
1F
100
AcDbEntity
  8
Linee visibili 2D
 62
   255
100
AcDbLine
 10
487.613805483094
 20
440.6091997168048
 30
0.0
 11
485.9842247486245
 21
440.7327071903791
 31
0.0
  0
SPLINE
  5
34D
330
1F
100
AcDbEntity
  8
Linee visibili 2D
 62
   255
100
AcDbSpline
210
0.0
220
0.0
230
1.0
 70
    12
 71
     2
 72
     8
 73
     5
 74
     0
 42
0.0000000001
 43
0.0000000001
 40
-70.59851430837668
 40
-70.59851430837668
 40
-70.59851430837668
 40
-35.29925715418834
 40
-35.29925715418834
 40
0.0
 40
0.0
 40
0.0
 10
507.6231160214584
 20
445.3239986741801
 30
0.0
 41
2256.622778039836
 10
488.9440518038996
 20
446.9031619015335
 30
0.0
 41
1588.608127254984
 10
478.1464639436626
 20
444.5631085266683
 30
0.0
 41
2266.689201645062
 10
467.5382966499553
 20
442.2641063793285
 30
0.0
 41
1616.974483396107
 10
485.9842247486245
 20
440.7327071903802
 30
0.0
 41
2296.738863609718
  0
LINE
  5
34E
330
1F
100
AcDbEntity
  8
Linee visibili 2D
 62
   255
100
AcDbLine
 10
411.5015316549345
 20
463.1780929828807
 30
0.0
 11
411.4066884742364
 21
463.1788957696071
 31
0.0
  0
SPLINE
  5
34F
330
1F
100
AcDbEntity
  8
Linee visibili 2D
 62
   255
100
AcDbSpline
210
0.0
220
0.0
230
1.0
 70
    12
 71
     2
 72
    10
 73
     7
 74
     0
 42
0.0000000001
 43
0.0000000001
 40
107.8342102980882
 40
107.8342102980882
 40
107.8342102980882
 40
205.7744164900861
 40
205.7744164900861
 40
308.6616247351292
 40
308.6616247351292
 40
308.7652419756802
 40
308.7652419756802
 40
308.7652419756802
 10
435.019998732815
 20
488.4049778244442
 30
0.0
 41
2221.452485192878
 10
435.1465244945072
 20
497.3344875321999
 30
0.0
 41
1602.291918716959
 10
494.7924536538891
 20
497.2972275391072
 30
0.0
 41
2215.287901915169
 10
559.085480853899
 20
497.2570645676664
 30
0.0
 41
1561.560968208218
 10
559.7082639671377
 20
487.627108154964
 30
0.0
 41
2273.329820781979
 10
559.7116120866666
 20
487.5753840547395
 30
0.0
 41
2271.769026069451
 10
559.7111209439464
 20
487.5235540322888
 30
0.0
 41
2273.329820781979
  0
LINE
  5
350
330
1F
100
AcDbEntity
  8
Linee visibili 2D
 62
   255
100
AcDbLine
 10
365.3663011102822
 20
45.45501059573597
 30
0.0
 11
363.362772387519
 21
45.24057182696414
 31
0.0
  0
LINE
  5
351
330
1F
100
AcDbEntity
  8
Linee visibili 2D
 62
   255
100
AcDbLine
 10
368.6655122853538
 20
41.09644538811608
 30
0.0
 11
370.6640535132508
 21
41.37478459401972
 31
0.0
  0
LINE
  5
352
330
1F
100
AcDbEntity
  8
Linee visibili 2D
 62
   255
100
AcDbLine
 10
372.8074403950691
 20
41.39656863551271
 30
0.0
 11
370.6640535132508
 21
41.37478459401972
 31
0.0
  0
SPLINE
  5
353
330
1F
100
AcDbEntity
  8
Linee visibili 2D
 62
   255
100
AcDbSpline
210
0.0
220
0.0
230
1.0
 70
     8
 71
     3
 72
    20
 73
    16
 74
     0
 42
0.0000000001
 43
0.0000000001
 40
0.0
 40
0.0
 40
0.0
 40
0.0
 40
0.6500361074780775
 40
1.928734373007285
 40
6.252137504554299
 40
23.0568077871558
 40
48.94490749825108
 40
85.73998420249963
 40
204.5552563066258
 40
364.1162440739054
 40
498.5531720728428
 40
605.2151215095074
 40
684.4914221898101
 40
711.126467716962
 40
728.2312656828144
 40
728.2312656828144
 40
728.2312656828144
 40
728.2312656828144
 10
834.8461859344445
 20
75.46194991389471
 30
0.0
 10
834.8943128041456
 20
75.69264599122752
 30
0.0
 10
834.529633422631
 20
76.24760902232715
 30
0.0
 10
832.8499239066778
 20
77.50226876854586
 30
0.0
 10
826.131316056866
 20
80.79056913850954
 30
0.0
 10
811.4749697874647
 20
86.36150312384503
 30
0.0
 10
786.3743134984505
 20
94.84993845698483
 30
0.0
 10
728.6448582723722
 20
112.9556546910781
 30
0.0
 10
627.8947473608581
 20
142.7350541553064
 30
0.0
 10
495.6937223938141
 20
180.9167478493936
 30
0.0
 10
367.0594899798467
 20
216.8387460996398
 30
0.0
 10
263.9204466762381
 20
244.5323022440483
 30
0.0
 10
195.1912077106174
 20
261.7917968745392
 30
0.0
 10
155.1659892413433
 20
270.7184137505919
 30
0.0
 10
140.8078616570918
 20
273.2877779737456
 30
0.0
 10
135.1491827738176
 20
273.9944970514254
 30
0.0
  0
SPLINE
  5
354
330
1F
100
AcDbEntity
  8
Linee visibili 2D
 62
   255
100
AcDbSpline
210
0.0
220
0.0
230
1.0
 70
    12
 71
     2
 72
     8
 73
     5
 74
     0
 42
0.0000000001
 43
0.0000000001
 40
-137.6017582272329
 40
-137.6017582272329
 40
-137.6017582272329
 40
-103.2013186704247
 40
-103.2013186704247
 40
-68.80087911361646
 40
-68.80087911361646
 40
-68.80087911361646
 10
486.2549699169525
 20
440.7901526593993
 30
0.0
 41
2296.228123012649
 10
468.2778643959333
 20
442.2829700929062
 30
0.0
 41
1616.793233480399
 10
478.6211332857729
 20
444.523344381054
 30
0.0
 41
2266.943612683259
 10
489.1443286423936
 20
446.8026911288979
 30
0.0
 41
1589.149168711327
 10
507.3427887785442
 20
445.2645194593286
 30
0.0
 41
2257.133511697107
  0
LINE
  5
355
330
1F
100
AcDbEntity
  8
Linee visibili 2D
 62
   255
100
AcDbLine
 10
498.2861071122106
 20
445.5225474270414
 30
0.0
 11
501.9857635494574
 21
445.5963847017073
 31
0.0
  0
LINE
  5
356
330
1F
100
AcDbEntity
  8
Linee visibili 2D
 62
   255
100
AcDbLine
 10
491.495778874587
 20
445.6840413999828
 30
0.0
 11
493.4542320150189
 21
445.597374015175
 31
0.0
  0
ARC
  5
357
330
1F
100
AcDbEntity
  8
Linee visibili 2D
 62
   255
100
AcDbCircle
 10
498.411078529768
 20
682.1000723067218
 30
0.0
 40
240.1782662688044
100
AcDbArc
 50
248.7682140935387
 51
256.6730388276029
  0
ARC
  5
358
330
1F
100
AcDbEntity
  8
Linee visibili 2D
 62
   255
100
AcDbCircle
 10
498.4298301521895
 20
682.7893426561867
 30
0.0
 40
240.5002563733461
100
AcDbArc
 50
248.7691787096543
 51
256.6736182465203
  0
LINE
  5
359
330
1F
100
AcDbEntity
  8
Linee visibili 2D
 62
   255
100
AcDbLine
 10
411.4066884742364
 20
463.1788957696071
 30
0.0
 11
411.3448849434807
 21
459.0443170560936
 31
0.0
  0
LINE
  5
35A
330
1F
100
AcDbEntity
  8
Linee visibili 2D
 62
   255
100
AcDbLine
 10
367.667507019814
 20
45.3914129305618
 30
0.0
 11
365.3663011102822
 21
45.45501059573597
 31
0.0
  0
SPLINE
  5
35B
330
1F
100
AcDbEntity
  8
Linee visibili 2D
 62
   255
100
AcDbSpline
210
0.0
220
0.0
230
1.0
 70
     8
 71
     3
 72
    16
 73
    12
 74
     0
 42
0.0000000001
 43
0.0000000001
 40
0.0
 40
0.0
 40
0.0
 40
0.0
 40
28.03522095597081
 40
56.47259486106793
 40
109.2768516477642
 40
126.0404988367615
 40
137.6171640467462
 40
144.5546279491033
 40
146.3189138127279
 40
146.7903610285405
 40
147.1082571271708
 40
147.1082571271708
 40
147.1082571271708
 40
147.1082571271708
 10
462.0774772333761
 20
31.8406708467041
 30
0.0
 10
471.4169235395332
 20
31.52102271862155
 30
0.0
 10
490.2325100984563
 20
30.93190522808639
 30
0.0
 10
526.6503514493223
 20
30.18587397501421
 30
0.0
 10
559.3192779349074
 20
29.88552761129068
 30
0.0
 10
586.3671279065128
 20
30.23836009642828
 30
0.0
 10
598.1169260589235
 20
30.72687374757366
 30
0.0
 10
604.8535447253229
 20
31.35828717937744
 30
0.0
 10
607.8382882597679
 20
32.06733856442121
 30
0.0
 10
608.5698923254372
 20
32.55378099748788
 30
0.0
 10
608.59724391857
 20
32.8531244572463
 30
0.0
 10
608.5287214055346
 20
32.94160295080975
 30
0.0
  0
LINE
  5
35C
330
1F
100
AcDbEntity
  8
Linee visibili 2D
 62
   255
100
AcDbLine
 10
492.0576397382853
 20
440.4473032494855
 30
0.0
 11
486.2549699169524
 21
440.7901526593993
 31
0.0
  0
SPLINE
  5
35D
330
1F
100
AcDbEntity
  8
Linee visibili 2D
 62
   255
100
AcDbSpline
210
0.0
220
0.0
230
1.0
 70
    12
 71
     2
 72
     8
 73
     5
 74
     0
 42
0.0000000001
 43
0.0000000001
 40
-68.80087911361646
 40
-68.80087911361646
 40
-68.80087911361646
 40
-34.40043955680823
 40
-34.40043955680823
 40
-11.32898816289249
 40
-11.32898816289249
 40
-11.32898816289249
 10
507.3427887785442
 20
445.2645194593286
 30
0.0
 41
2257.133511697107
 10
525.3849081672719
 20
443.7395620346288
 30
0.0
 41
1602.919655617533
 10
514.6415113136529
 20
441.5058171195525
 30
0.0
 41
2286.418022026497
 10
508.3868722887127
 20
440.2053654739551
 30
0.0
 41
1846.554147124915
 10
496.1887000623126
 20
440.3460451814753
 30
0.0
 41
2001.112667119993
  0
LINE
  5
35E
330
1F
100
AcDbEntity
  8
Linee visibili 2D
 62
   255
100
AcDbLine
 10
411.4325036351078
 20
458.2243766692036
 30
0.0
 11
411.4377458724407
 21
458.5734734681448
 31
0.0
  0
SPLINE
  5
35F
330
1F
100
AcDbEntity
  8
Linee visibili 2D
 62
   255
100
AcDbSpline
210
0.0
220
0.0
230
1.0
 70
     8
 71
     3
 72
    12
 73
     8
 74
     0
 42
0.0000000001
 43
0.0000000001
 40
0.0
 40
0.0
 40
0.0
 40
0.0
 40
1.0809852437377
 40
1.559806717128051
 40
1.677282384277367
 40
1.98590676124489
 40
2.98746827790717
 40
2.98746827790717
 40
2.98746827790717
 40
2.98746827790717
 10
442.9950473930752
 20
448.7650743075921
 30
0.0
 10
443.4077832439142
 20
448.6661714842603
 30
0.0
 10
443.7343052977743
 20
448.5705795178172
 30
0.0
 10
444.4745657035686
 20
448.3101876145686
 30
0.0
 10
444.3246515866848
 20
448.1569340852089
 30
0.0
 10
443.7444789608741
 20
448.2569715665196
 30
0.0
 10
443.4073844156336
 20
448.2948302829724
 30
0.0
 10
443.0481503233378
 20
448.3896836452453
 30
0.0
  0
LINE
  5
360
330
1F
100
AcDbEntity
  8
Linee visibili 2D
 62
   255
100
AcDbLine
 10
368.7110286907106
 20
40.91308442306209
 30
0.0
 11
368.6655122853538
 21
41.09644538811608
 31
0.0
  0
LINE
  5
361
330
1F
100
AcDbEntity
  8
Linee visibili 2D
 62
   255
100
AcDbLine
 10
370.6640535132508
 20
41.37478459401972
 30
0.0
 11
370.659759589187
 21
41.10926027216429
 31
0.0
  0
LINE
  5
362
330
1F
100
AcDbEntity
  8
Linee visibili 2D
 62
   255
100
AcDbLine
 10
408.6542085980294
 20
34.17984223275494
 30
0.0
 11
426.5646531556695
 21
33.25999793398288
 31
0.0
  0
LINE
  5
363
330
1F
100
AcDbEntity
  8
Linee visibili 2D
 62
   255
100
AcDbLine
 10
368.9262677055895
 20
45.40934500563804
 30
0.0
 11
376.2054945389616
 21
46.70717610868406
 31
0.0
  0
SPLINE
  5
364
330
1F
100
AcDbEntity
  8
Linee visibili 2D
 62
   255
100
AcDbSpline
210
0.0
220
0.0
230
1.0
 70
     8
 71
     3
 72
    17
 73
    13
 74
     0
 42
0.0000000001
 43
0.0000000001
 40
0.0
 40
0.0
 40
0.0
 40
0.0
 40
28.95166384361959
 40
68.54116622511991
 40
102.6069635528195
 40
131.0399525470513
 40
155.9623660090581
 40
172.3102931185032
 40
182.0577753067295
 40
184.5475602481194
 40
185.1479387869543
 40
185.5631823521806
 40
185.5631823521806
 40
185.5631823521806
 40
185.5631823521806
 10
421.6413493688603
 20
37.14157872169077
 30
0.0
 10
431.2794959316751
 20
36.64975179119354
 30
0.0
 10
454.1089168704897
 20
35.74003483874377
 30
0.0
 10
488.295831762166
 20
34.71117401021456
 30
0.0
 10
522.3181783000516
 20
33.97719048778887
 30
0.0
 10
551.4566660043678
 20
33.6751228957368
 30
0.0
 10
574.6932038696322
 20
33.70522004029806
 30
0.0
 10
591.6935107246778
 20
34.10911713686361
 30
0.0
 10
601.2106709858583
 20
34.7092427979801
 30
0.0
 10
605.4306969232769
 20
35.4574549164884
 30
0.0
 10
606.5084829359394
 20
35.97237622653249
 30
0.0
 10
606.6478188420315
 20
36.32037154026875
 30
0.0
 10
606.5630945866234
 20
36.44788266601773
 30
0.0
  0
LINE
  5
365
330
1F
100
AcDbEntity
  8
Linee visibili 2D
 62
   255
100
AcDbLine
 10
498.31864949511
 20
445.7057594845259
 30
0.0
 11
497.1596913933056
 21
440.7780363903725
 31
0.0
  0
LINE
  5
366
330
1F
100
AcDbEntity
  8
Linee visibili 2D
 62
   255
100
AcDbLine
 10
476.9315089976777
 20
409.9407531114214
 30
0.0
 11
467.4875914152026
 21
401.4124307124988
 31
0.0
  0
LINE
  5
367
330
1F
100
AcDbEntity
  8
Linee visibili 2D
 62
   255
100
AcDbLine
 10
420.9967175178732
 20
284.958169751032
 30
0.0
 11
416.6633841557274
 21
294.5252700617453
 31
0.0
  0
LINE
  5
368
330
1F
100
AcDbEntity
  8
Linee visibili 2D
 62
   255
100
AcDbLine
 10
462.8730703254066
 20
92.61504972636516
 30
0.0
 11
456.5004260798647
 21
77.01170032057405
 31
0.0
  0
LINE
  5
369
330
1F
100
AcDbEntity
  8
Linee visibili 2D
 62
   255
100
AcDbLine
 10
438.4394084506454
 20
384.9378262830438
 30
0.0
 11
443.2513466854934
 21
389.015955807221
 31
0.0
  0
LINE
  5
36A
330
1F
100
AcDbEntity
  8
Linee visibili 2D
 62
   255
100
AcDbLine
 10
474.7333262649659
 20
141.5335514870675
 30
0.0
 11
472.324212829302
 21
124.9050239929988
 31
0.0
  0
LINE
  5
36B
330
1F
100
AcDbEntity
  8
Linee visibili 2D
 62
   255
100
AcDbLine
 10
559.7111168362833
 20
487.5231289144835
 30
0.0
 11
559.5427556632221
 21
470.3693035282689
 31
0.0
  0
LINE
  5
36C
330
1F
100
AcDbEntity
  8
Linee visibili 2D
 62
   255
100
AcDbLine
 10
606.5937061157168
 20
36.39435521583388
 30
0.0
 11
608.532406925164
 21
32.94367359095926
 31
0.0
  0
LINE
  5
36D
330
1F
100
AcDbEntity
  8
Linee visibili 2D
 62
   255
100
AcDbLine
 10
434.777783457089
 20
471.3166649404788
 30
0.0
 11
435.0199987328247
 21
488.4049778263264
 31
0.0
  0
LINE
  5
36E
330
1F
100
AcDbEntity
  8
Linee visibili 2D
 62
   255
100
AcDbLine
 10
412.9513086471708
 20
304.4343135695112
 30
0.0
 11
410.1436266143111
 21
314.8735634642214
 31
0.0
  0
LINE
  5
36F
330
1F
100
AcDbEntity
  8
Linee visibili 2D
 62
   255
100
AcDbLine
 10
470.4735079541947
 20
152.4254413940891
 30
0.0
 11
470.3871797703024
 21
159.3948959288929
 31
0.0
  0
LINE
  5
370
330
1F
100
AcDbEntity
  8
Linee visibili 2D
 62
   255
100
AcDbLine
 10
414.8119572156598
 20
315.8596544193951
 30
0.0
 11
417.4864780357199
 21
305.9228751632215
 31
0.0
  0
LINE
  5
371
330
1F
100
AcDbEntity
  8
Linee visibili 2D
 62
   255
100
AcDbLine
 10
431.5721767056253
 20
378.454207383466
 30
0.0
 11
433.7736697277336
 21
380.6350171990375
 31
0.0
  0
LINE
  5
372
330
1F
100
AcDbEntity
  8
Linee visibili 2D
 62
   255
100
AcDbLine
 10
426.6613916528235
 20
273.8456809969557
 30
0.0
 11
420.9996418750213
 21
284.9521197076796
 31
0.0
  0
LINE
  5
373
330
1F
100
AcDbEntity
  8
Linee visibili 2D
 62
   255
100
AcDbLine
 10
445.4072017192285
 20
64.35625789399197
 30
0.0
 11
452.0878201287402
 21
78.97973824453031
 31
0.0
  0
LINE
  5
374
330
1F
100
AcDbEntity
  8
Linee visibili 2D
 62
   255
100
AcDbLine
 10
418.9949063238544
 20
353.2984330423551
 30
0.0
 11
415.5321121452724
 21
344.3336456754656
 31
0.0
  0
ARC
  5
375
330
1F
100
AcDbEntity
  8
Linee visibili 2D
 62
   255
100
AcDbCircle
 10
-574.8043143753749
 20
4033.979248902397
 30
0.0
 40
3838.603058489341
100
AcDbArc
 50
281.1538622751671
 51
284.8480482535435
  0
LINE
  5
376
330
1F
100
AcDbEntity
  8
Linee visibili 2D
 62
   255
100
AcDbLine
 10
468.2825049288622
 20
108.6314311415576
 30
0.0
 11
462.8736038967
 21
92.61645167965533
 31
0.0
  0
SPLINE
  5
377
330
1F
100
AcDbEntity
  8
Linee visibili 2D
 62
   255
100
AcDbSpline
210
0.0
220
0.0
230
1.0
 70
     8
 71
     3
 72
    12
 73
     8
 74
     0
 42
0.0000000001
 43
0.0000000001
 40
0.0
 40
0.0
 40
0.0
 40
0.0
 40
9.733301919968005
 40
24.67667939165063
 40
63.47364918436497
 40
108.3824193916218
 40
148.994090500493
 40
148.994090500493
 40
148.994090500493
 40
148.994090500493
 10
601.0600219095355
 20
96.88500378878533
 30
0.0
 10
597.8138100125523
 20
96.96659171062916
 30
0.0
 10
589.5983746715474
 20
96.47796136601929
 30
0.0
 10
568.5589554943123
 20
94.19869269628815
 30
0.0
 10
536.0520252746718
 20
89.18928850825701
 30
0.0
 10
495.3074973444562
 20
81.61657809436242
 30
0.0
 10
467.4755837103806
 20
75.41910975362482
 30
0.0
 10
454.3411834201589
 20
72.14104299956277
 30
0.0
  0
ARC
  5
378
330
1F
100
AcDbEntity
  8
Linee visibili 2D
 62
   255
100
AcDbCircle
 10
585.213179816431
 20
-481.8805516813477
 30
0.0
 40
569.1966975973639
100
AcDbArc
 50
103.9143818033667
 51
111.908382442772
  0
LINE
  5
379
330
1F
100
AcDbEntity
  8
Linee visibili 2D
 62
   255
100
AcDbLine
 10
458.3739529328495
 20
94.36537421751625
 30
0.0
 11
463.6669637578796
 21
110.0300028806279
 31
0.0
  0
LINE
  5
37A
330
1F
100
AcDbEntity
  8
Linee visibili 2D
 62
   255
100
AcDbLine
 10
473.3722293380443
 20
177.4800465011778
 30
0.0
 11
475.1912860734998
 21
159.5564089652908
 31
0.0
  0
LINE
  5
37B
330
1F
100
AcDbEntity
  8
Linee visibili 2D
 62
   255
100
AcDbLine
 10
469.9421233119078
 20
141.9849397741637
 30
0.0
 11
470.4735051643023
 21
152.4252253071424
 31
0.0
  0
SPLINE
  5
37C
330
1F
100
AcDbEntity
  8
Linee visibili 2D
 62
   255
100
AcDbSpline
210
0.0
220
0.0
230
1.0
 70
     8
 71
     3
 72
    28
 73
    24
 74
     0
 42
0.0000000001
 43
0.0000000001
 40
0.0
 40
0.0
 40
0.0
 40
0.0
 40
97.66821364353414
 40
171.7617158105145
 40
193.6517656577054
 40
209.416077299316
 40
218.8747635681383
 40
221.5056316560295
 40
222.3422593773918
 40
223.0130102839813
 40
223.4392504157542
 40
224.1933068237216
 40
226.1458114089168
 40
233.8537692608713
 40
245.4508354118845
 40
261.4683145358698
 40
292.0966928595813
 40
334.8895468377129
 40
447.4497020924013
 40
590.5984989380554
 40
642.570497831772
 40
658.1348003411563
 40
668.1741341258078
 40
668.1741341258078
 40
668.1741341258078
 40
668.1741341258078
 10
470.2109993310253
 20
162.8887318692627
 30
0.0
 10
438.815006876384
 20
171.5034559742033
 30
0.0
 10
383.696053043862
 20
186.9929018394617
 30
0.0
 10
321.7855264298695
 20
205.2766630387351
 30
0.0
 10
286.3146659987801
 20
216.6570259326754
 30
0.0
 10
271.5346566080764
 20
221.9710983014645
 30
0.0
 10
262.987092041353
 20
225.6309313635306
 30
0.0
 10
259.3629635147272
 20
227.9990205355419
 30
0.0
 10
258.4530767552679
 20
229.0592504689321
 30
0.0
 10
258.1821979845308
 20
229.6616533700445
 30
0.0
 10
258.4156478931524
 20
230.2877409024371
 30
0.0
 10
259.3968950318928
 20
230.7555246746619
 30
0.0
 10
262.8555195399607
 20
231.1149641619553
 30
0.0
 10
269.9452085446122
 20
230.5068630507855
 30
0.0
 10
281.5473814641341
 20
228.5588669030238
 30
0.0
 10
300.5292482906967
 20
224.4283457277848
 30
0.0
 10
329.464988639038
 20
217.2653416122346
 30
0.0
 10
389.4291232142869
 20
201.516499621865
 30
0.0
 10
485.3347617179708
 20
175.0120812675238
 30
0.0
 10
583.8179898011534
 20
146.3619434676989
 30
0.0
 10
650.7985819977893
 20
125.2347138098311
 30
0.0
 10
675.2588644230815
 20
116.8431791301116
 30
0.0
 10
683.2205540200399
 20
113.7581132366354
 30
0.0
 10
686.2539225971472
 20
112.3417723052776
 30
0.0
  0
LINE
  5
37D
330
1F
100
AcDbEntity
  8
Linee visibili 2D
 62
   255
100
AcDbLine
 10
489.4652529939572
 20
434.3165525458732
 30
0.0
 11
492.340510306152
 21
441.3022972460158
 31
0.0
  0
LINE
  5
37E
330
1F
100
AcDbEntity
  8
Linee visibili 2D
 62
   255
100
AcDbLine
 10
443.2598038315286
 20
389.0228519442842
 30
0.0
 11
448.8717377343486
 21
393.4197479050229
 31
0.0
  0
LINE
  5
37F
330
1F
100
AcDbEntity
  8
Linee visibili 2D
 62
   255
100
AcDbLine
 10
463.6671910806106
 20
110.0307705336278
 30
0.0
 11
467.6072236020395
 21
125.8853435183862
 31
0.0
  0
LINE
  5
380
330
1F
100
AcDbEntity
  8
Linee visibili 2D
 62
   255
100
AcDbLine
 10
460.0346912232876
 20
207.9050833486926
 30
0.0
 11
453.8661776442556
 21
222.5565612094658
 31
0.0
  0
LINE
  5
381
330
1F
100
AcDbEntity
  8
Linee visibili 2D
 62
   255
100
AcDbLine
 10
473.5777548064186
 20
413.317348866988
 30
0.0
 11
479.9626286471569
 21
420.2165875639679
 31
0.0
  0
LINE
  5
382
330
1F
100
AcDbEntity
  8
Linee visibili 2D
 62
   255
100
AcDbLine
 10
834.8462031862234
 20
75.46194537439031
 30
0.0
 11
833.8025447970326
 21
71.49566696321057
 31
0.0
  0
LINE
  5
383
330
1F
100
AcDbEntity
  8
Linee visibili 2D
 62
   255
100
AcDbLine
 10
662.5455930173588
 20
118.9997378269455
 30
0.0
 11
671.6611634056217
 21
118.0456467143197
 31
0.0
  0
LINE
  5
384
330
1F
100
AcDbEntity
  8
Linee visibili 2D
 62
   255
100
AcDbLine
 10
258.5077695364371
 20
15.28929238773514
 30
0.0
 11
257.5942276220775
 21
19.01550907647976
 31
0.0
  0
LINE
  5
385
330
1F
100
AcDbEntity
  8
Linee visibili 2D
 62
   255
100
AcDbLine
 10
458.2129547687349
 20
224.5693255857209
 30
0.0
 11
464.5196948656543
 21
209.5971442213784
 31
0.0
  0
LINE
  5
386
330
1F
100
AcDbEntity
  8
Linee visibili 2D
 62
   255
100
AcDbLine
 10
483.5920409329909
 20
417.1387332617589
 30
0.0
 11
476.933594246228
 21
409.9428238578669
 31
0.0
  0
LINE
  5
387
330
1F
100
AcDbEntity
  8
Linee visibili 2D
 62
   255
100
AcDbLine
 10
457.3683187041456
 20
393.7174597260979
 30
0.0
 11
451.7353715966751
 21
389.6175663353628
 31
0.0
  0
LINE
  5
388
330
1F
100
AcDbEntity
  8
Linee visibili 2D
 62
   255
100
AcDbLine
 10
464.5201982763389
 20
209.5958167865305
 30
0.0
 11
469.7338040789004
 21
193.7862514309663
 31
0.0
  0
LINE
  5
389
330
1F
100
AcDbEntity
  8
Linee visibili 2D
 62
   255
100
AcDbLine
 10
439.8163943636646
 20
249.9375128544179
 30
0.0
 11
432.6050495272338
 21
262.9452171861955
 31
0.0
  0
LINE
  5
38A
330
1F
100
AcDbEntity
  8
Linee visibili 2D
 62
   255
100
AcDbLine
 10
421.0608827611331
 20
296.3862057225205
 30
0.0
 11
425.2995641676615
 21
287.0329051260949
 31
0.0
  0
LINE
  5
38B
330
1F
100
AcDbEntity
  8
Linee visibili 2D
 62
   255
100
AcDbLine
 10
440.4914648966233
 20
54.10311153716953
 30
0.0
 11
445.407150057712
 21
64.35614959774058
 31
0.0
  0
LINE
  5
38C
330
1F
100
AcDbEntity
  8
Linee visibili 2D
 62
   255
100
AcDbLine
 10
475.1912885967212
 20
159.5563423192902
 30
0.0
 11
475.2818026830567
 21
152.342799618635
 31
0.0
  0
ARC
  5
38D
330
1F
100
AcDbEntity
  8
Linee visibili 2D
 62
   255
100
AcDbCircle
 10
-524.3695655602709
 20
3834.897225479
 30
0.0
 40
3629.923487774034
100
AcDbArc
 50
280.901774644486
 51
284.8944053447772
  0
LINE
  5
38E
330
1F
100
AcDbEntity
  8
Linee visibili 2D
 62
   255
100
AcDbLine
 10
485.5711060221749
 20
427.6579420199672
 30
0.0
 11
489.4543001476079
 21
434.295056454409
 31
0.0
  0
LINE
  5
38F
330
1F
100
AcDbEntity
  8
Linee visibili 2D
 62
   255
100
AcDbLine
 10
446.8281381782198
 20
236.8778652803226
 30
0.0
 11
439.8171363923445
 21
249.9361756560995
 31
0.0
  0
LINE
  5
390
330
1F
100
AcDbEntity
  8
Linee visibili 2D
 62
   255
100
AcDbLine
 10
408.6321857701065
 20
329.964152077691
 30
0.0
 11
408.9897339344679
 21
335.7471326359901
 31
0.0
  0
LINE
  5
391
330
1F
100
AcDbEntity
  8
Linee visibili 2D
 62
   255
100
AcDbLine
 10
492.3418557788587
 20
441.3065007511716
 30
0.0
 11
493.4787390133729
 21
445.7207977634169
 31
0.0
  0
LINE
  5
392
330
1F
100
AcDbEntity
  8
Linee visibili 2D
 62
   255
100
AcDbLine
 10
436.7882624229353
 20
265.2610041282601
 30
0.0
 11
433.7715406328053
 21
263.6945739855649
 31
0.0
  0
LINE
  5
393
330
1F
100
AcDbEntity
  8
Linee visibili 2D
 62
   255
100
AcDbLine
 10
443.9995761868665
 20
252.256754471451
 30
0.0
 11
440.9933483774057
 21
250.6696372958426
 31
0.0
  0
ARC
  5
394
330
1F
100
AcDbEntity
  8
Linee visibili 2D
 62
   255
100
AcDbCircle
 10
493.8101766820091
 20
206.1601924032997
 30
0.0
 40
206.1797896072653
100
AcDbArc
 50
238.9754732847967
 51
268.4516323258345
  0
SPLINE
  5
395
330
1F
100
AcDbEntity
  8
Linee visibili 2D
 62
   255
100
AcDbSpline
210
0.0
220
0.0
230
1.0
 70
     8
 71
     3
 72
    12
 73
     8
 74
     0
 42
0.0000000001
 43
0.0000000001
 40
0.0
 40
0.0
 40
0.0
 40
0.0
 40
20.2943548579879
 40
42.82888294849445
 40
69.51492781736776
 40
96.739244935824
 40
125.3854832252562
 40
125.3854832252562
 40
125.3854832252562
 40
125.3854832252562
 10
607.9982037579767
 20
32.21470385577008
 30
0.0
 10
601.9431559020153
 20
29.21394506512784
 30
0.0
 10
588.8868676282606
 20
23.37590296310953
 30
0.0
 10
567.6127341710848
 20
14.27741053952977
 30
0.0
 10
543.6194270275091
 20
5.47548479334289
 30
0.0
 10
516.4112150836856
 20
0.736966290066288
 30
0.0
 10
497.793033826153
 20
-0.1681182389862438
 30
0.0
 10
488.2390287162547
 20
0.0556850463769355
 30
0.0
  0
LINE
  5
396
330
1F
100
AcDbEntity
  8
Linee visibili 2D
 62
   255
100
AcDbLine
 10
454.628906568027
 20
397.6099191009801
 30
0.0
 11
464.460152024364
 21
405.085007165612
 31
0.0
  0
LINE
  5
397
330
1F
100
AcDbEntity
  8
Linee visibili 2D
 62
   255
100
AcDbLine
 10
453.3357699533226
 20
471.5095959308092
 30
0.0
 11
451.8925454174298
 21
473.1000897111188
 31
0.0
  0
LINE
  5
398
330
1F
100
AcDbEntity
  8
Linee visibili 2D
 62
   255
100
AcDbLine
 10
451.8421503007468
 20
473.1126639643491
 30
0.0
 11
451.8925454174542
 21
473.1000897111319
 31
0.0
  0
LINE
  5
399
330
1F
100
AcDbEntity
  8
Linee visibili 2D
 62
   255
100
AcDbLine
 10
454.3389554341135
 20
470.526228058122
 30
0.0
 11
453.3355904521154
 21
471.4963271958503
 31
0.0
  0
LINE
  5
39A
330
1F
100
AcDbEntity
  8
Linee visibili 2D
 62
   255
100
AcDbLine
 10
1.33385816904577
 20
241.6731903415025
 30
0.0
 11
1.304643513343928
 21
241.6487331942241
 31
0.0
  0
LINE
  5
39B
330
1F
100
AcDbEntity
  8
Linee visibili 2D
 62
   255
100
AcDbLine
 10
1.33385816904577
 20
241.6731903415025
 30
0.0
 11
4.190103848990271
 21
243.5867791190801
 31
0.0
  0
SPLINE
  5
39C
330
1F
100
AcDbEntity
  8
Linee visibili 2D
 62
   255
100
AcDbSpline
210
0.0
220
0.0
230
1.0
 70
    12
 71
     3
 72
    11
 73
     7
 74
     0
 42
0.0000000001
 43
0.0000000001
 40
0.75
 40
0.75
 40
0.75
 40
0.75
 40
0.8124999999999817
 40
0.8749999999999878
 40
0.937499999999994
 40
1.0
 40
1.0
 40
1.0
 40
1.0
 10
4.19010384899027
 20
243.5867791190801
 30
0.0
 41
2165.585821124917
 10
15.06157840833836
 20
249.8600745547779
 30
0.0
 41
2108.208187193733
 10
80.91187355644432
 20
273.3712007278347
 30
0.0
 41
2008.582277461488
 10
223.6756486042238
 20
318.2490271095589
 30
0.0
 41
1898.454318594526
 10
410.1193645206137
 20
372.9352225524911
 30
0.0
 41
1817.452713250353
 10
549.055000722169
 20
411.3143266920594
 30
0.0
 41
1788.583194969147
 10
623.4310836662652
 20
430.7989649064897
 30
0.0
 41
1785.698669107
  0
SPLINE
  5
39D
330
1F
100
AcDbEntity
  8
Linee visibili 2D
 62
   255
100
AcDbSpline
210
0.0
220
0.0
230
1.0
 70
    12
 71
     3
 72
     9
 73
     5
 74
     0
 42
0.0000000001
 43
0.0000000001
 40
1.0
 40
1.0
 40
1.0
 40
1.0
 40
1.0625
 40
1.152691144434261
 40
1.152691144434261
 40
1.152691144434261
 40
1.152691144434261
 10
623.4310836662652
 20
430.7989649064897
 30
0.0
 41
1785.698669107
 10
698.0478418641643
 20
450.346653986746
 30
0.0
 41
1782.814143709581
 10
885.0448494025616
 20
496.8965641839019
 30
0.0
 41
1803.984973704543
 10
935.2943627349146
 20
498.6762884914831
 30
0.0
 41
1947.015229001371
 10
936.8497360836323
 20
493.0165624454675
 30
0.0
 41
2034.181901275853
  0
LINE
  5
39E
330
1F
100
AcDbEntity
  8
Linee visibili 2D
 62
   255
100
AcDbLine
 10
915.1127714683148
 20
473.0512618537805
 30
0.0
 11
915.1923355455408
 21
473.0883487342804
 31
0.0
  0
LINE
  5
39F
330
1F
100
AcDbEntity
  8
Linee visibili 2D
 62
   255
100
AcDbLine
 10
913.5799927488008
 20
472.3421687163357
 30
0.0
 11
913.6616553714612
 21
472.3796999175725
 31
0.0
  0
LINE
  5
3A0
330
1F
100
AcDbEntity
  8
Linee visibili 2D
 62
   255
100
AcDbLine
 10
882.9779144281346
 20
459.5270974412558
 30
0.0
 11
883.0910732893499
 21
459.5712733629545
 31
0.0
  0
LINE
  5
3A1
330
1F
100
AcDbEntity
  8
Linee visibili 2D
 62
   255
100
AcDbLine
 10
885.1110353915603
 20
460.3628203795664
 30
0.0
 11
885.2223168420389
 21
460.4065962621767
 31
0.0
  0
LINE
  5
3A2
330
1F
100
AcDbEntity
  8
Linee visibili 2D
 62
   255
100
AcDbLine
 10
883.0910732893499
 20
459.5712733629546
 30
0.0
 11
885.1110353915602
 21
460.3628203795665
 31
0.0
  0
LINE
  5
3A3
330
1F
100
AcDbEntity
  8
Linee visibili 2D
 62
   255
100
AcDbLine
 10
408.7145574910999
 20
325.6916009400967
 30
0.0
 11
408.6321386795602
 21
329.9610305038651
 31
0.0
  0
LINE
  5
3A4
330
1F
100
AcDbEntity
  8
Linee visibili 2D
 62
   255
100
AcDbLine
 10
468.3436673413379
 20
456.4618097647554
 30
0.0
 11
468.318274184346
 21
454.5080286123876
 31
0.0
  0
LINE
  5
3A5
330
1F
100
AcDbEntity
  8
Linee visibili 2D
 62
   255
100
AcDbLine
 10
885.2223168420389
 20
460.4065962621767
 30
0.0
 11
913.5799927488008
 21
472.3421687163357
 31
0.0
  0
LINE
  5
3A6
330
1F
100
AcDbEntity
  8
Linee visibili 2D
 62
   255
100
AcDbLine
 10
913.6616553714612
 20
472.3796999175725
 30
0.0
 11
915.1127714683148
 21
473.0512618537805
 31
0.0
  0
LINE
  5
3A7
330
1F
100
AcDbEntity
  8
Linee visibili 2D
 62
   255
100
AcDbLine
 10
796.09765420593
 20
473.7338688649978
 30
0.0
 11
796.1037535256905
 21
477.6684956163506
 31
0.0
  0
LINE
  5
3A8
330
1F
100
AcDbEntity
  8
Linee visibili 2D
 62
   255
100
AcDbLine
 10
796.0467882008311
 20
440.9205794726349
 30
0.0
 11
796.0655074554437
 21
452.9962342762568
 31
0.0
  0
LINE
  5
3A9
330
1F
100
AcDbEntity
  8
Linee visibili 2D
 62
   255
100
AcDbLine
 10
785.7357471934085
 20
471.3372394745377
 30
0.0
 11
785.7378212674778
 21
472.421964404448
 31
0.0
  0
LINE
  5
3AA
330
1F
100
AcDbEntity
  8
Linee visibili 2D
 62
   255
100
AcDbLine
 10
785.670256468873
 20
437.0860897023384
 30
0.0
 11
785.6967068370158
 21
450.9194306404754
 31
0.0
  0
LINE
  5
3AB
330
1F
100
AcDbEntity
  8
Linee visibili 2D
 62
   255
100
AcDbLine
 10
796.1037535256905
 20
477.6684956163506
 30
0.0
 11
811.5155751009258
 21
477.2280797091428
 31
0.0
  0
LINE
  5
3AC
330
1F
100
AcDbEntity
  8
Linee visibili 2D
 62
   255
100
AcDbLine
 10
785.7378212674778
 20
472.421964404448
 30
0.0
 11
796.1037535256905
 21
477.6684956163506
 31
0.0
  0
LINE
  5
3AD
330
1F
100
AcDbEntity
  8
Linee visibili 2D
 62
   255
100
AcDbLine
 10
452.0883093481186
 20
78.98035454014585
 30
0.0
 11
456.5003365172766
 21
77.01154998213131
 31
0.0
  0
LINE
  5
3AE
330
1F
100
AcDbEntity
  8
Linee visibili 2D
 62
   255
100
AcDbLine
 10
420.9993036571111
 20
284.9594197408254
 30
0.0
 11
425.2982952026636
 21
287.0322914658795
 31
0.0
  0
LINE
  5
3AF
330
1F
100
AcDbEntity
  8
Linee visibili 2D
 62
   255
100
AcDbLine
 10
420.9996713639315
 20
284.9521339180333
 30
0.0
 11
420.9993036571111
 21
284.9594197408254
 31
0.0
  0
LINE
  5
3B0
330
1F
100
AcDbEntity
  8
Linee visibili 2D
 62
   255
100
AcDbLine
 10
413.4003585547963
 20
329.8927508964281
 30
0.0
 11
413.4777304094816
 21
325.9366400023612
 31
0.0
  0
SPLINE
  5
3B1
330
1F
100
AcDbEntity
  8
Linee visibili 2D
 62
   255
100
AcDbSpline
210
0.0
220
0.0
230
1.0
 70
     8
 71
     3
 72
    13
 73
     9
 74
     0
 42
0.0000000001
 43
0.0000000001
 40
0.0
 40
0.0
 40
0.0
 40
0.0
 40
1.019745936836922
 40
3.669927057852522
 40
7.586759498858234
 40
13.7828316042537
 40
47.77337578813075
 40
137.2199430404952
 40
137.2199430404952
 40
137.2199430404952
 40
137.2199430404952
 10
606.5614808535607
 20
36.45069728260099
 30
0.0
 10
606.3519794014965
 20
36.73092287065726
 30
0.0
 10
605.2361691529117
 20
37.27141763557023
 30
0.0
 10
602.7864998566693
 20
37.90160172165189
 30
0.0
 10
598.6129094607654
 20
38.7345047987347
 30
0.0
 10
584.0627267630093
 20
40.867592884545
 30
0.0
 10
541.0607913649626
 20
45.17529958576606
 30
0.0
 10
499.9764540963557
 20
47.66467777519921
 30
0.0
 10
470.1749128285899
 20
48.61061083673901
 30
0.0
  0
ARC
  5
3B2
330
1F
100
AcDbEntity
  8
Linee visibili 2D
 62
   255
100
AcDbCircle
 10
1259.964516583834
 20
2938.011736788164
 30
0.0
 40
2881.793950583794
100
AcDbArc
 50
254.190795920208
 51
258.0167273127774
  0
LINE
  5
3B3
330
1F
100
AcDbEntity
  8
Linee visibili 2D
 62
   255
100
AcDbLine
 10
473.2620064317226
 20
178.1354379422381
 30
0.0
 11
473.3722280087686
 21
177.4800545111998
 31
0.0
  0
SPLINE
  5
3B4
330
1F
100
AcDbEntity
  8
Linee visibili 2D
 62
   255
100
AcDbSpline
210
0.0
220
0.0
230
1.0
 70
     8
 71
     3
 72
    30
 73
    26
 74
     0
 42
0.0000000001
 43
0.0000000001
 40
0.0
 40
0.0
 40
0.0
 40
0.0
 40
64.65398169715752
 40
117.4204253894187
 40
138.1717498520813
 40
153.7546598720029
 40
159.2533496335394
 40
163.3540444406037
 40
165.6168305859437
 40
166.2943202936604
 40
166.7142351469066
 40
167.4744607133623
 40
169.0476385100179
 40
174.8996868023789
 40
184.3173482729275
 40
196.8828721585286
 40
249.6825213939063
 40
335.2950324770522
 40
537.7233058014089
 40
713.3094702639497
 40
782.8917648963667
 40
839.624484010803
 40
877.3044614095459
 40
889.6795124213672
 40
898.8392942384053
 40
898.8392942384053
 40
898.8392942384053
 40
898.8392942384053
 10
671.1994285940506
 20
106.3927613742995
 30
0.0
 10
692.0782707181363
 20
101.0506963307488
 30
0.0
 10
730.048084754654
 20
91.54866523182757
 30
0.0
 10
774.9119351387185
 20
81.11915913480823
 30
0.0
 10
803.9908585046293
 20
75.06778045112372
 30
0.0
 10
817.7075291714804
 20
72.54976775575354
 30
0.0
 10
826.0129505140924
 20
71.32471805212525
 30
0.0
 10
829.9499746035814
 20
70.93933021863035
 30
0.0
 10
832.3011126916804
 20
70.90498172221942
 30
0.0
 10
833.4041163867925
 20
71.10744124677687
 30
0.0
 10
833.9654182955883
 20
71.51863351305391
 30
0.0
 10
833.3597119717635
 20
72.41234500374387
 30
0.0
 10
831.088972921197
 20
73.82800268816908
 30
0.0
 10
825.9602211953718
 20
76.23051733361409
 30
0.0
 10
817.342964864786
 20
79.60264831111975
 30
0.0
 10
793.8354688303446
 20
87.94509719284804
 30
0.0
 10
745.8315773969267
 20
103.0465965286998
 30
0.0
 10
636.9582888755605
 20
135.5370260122694
 30
0.0
 10
488.4715878524482
 20
178.3716072516796
 30
0.0
 10
344.7494324690792
 20
218.4387174901923
 30
0.0
 10
247.4691363450881
 20
244.2077949499716
 30
0.0
 10
194.4485892190851
 20
257.5166694163881
 30
0.0
 10
159.7699548164718
 20
265.5655157249357
 30
0.0
 10
140.3826098463669
 20
269.2863171699634
 30
0.0
 10
133.2721579053037
 20
270.2984832390812
 30
0.0
 10
130.2281669327343
 20
270.5472390608169
 30
0.0
  0
LINE
  5
3B5
330
1F
100
AcDbEntity
  8
Linee visibili 2D
 62
   255
100
AcDbLine
 10
363.2328719233492
 20
45.20990128265537
 30
0.0
 11
362.5413840800145
 21
45.080286711418
 31
0.0
  0
SPLINE
  5
3B6
330
1F
100
AcDbEntity
  8
Linee visibili 2D
 62
   255
100
AcDbSpline
210
0.0
220
0.0
230
1.0
 70
     8
 71
     3
 72
    29
 73
    25
 74
     0
 42
0.0000000001
 43
0.0000000001
 40
0.0
 40
0.0
 40
0.0
 40
0.0
 40
6.182794810261679
 40
14.49203412691795
 40
37.72701089068442
 40
108.591600864588
 40
281.1465272338035
 40
350.740445578207
 40
377.703037041638
 40
398.6007772874182
 40
413.3952237336913
 40
424.3619864905911
 40
432.5272920518089
 40
435.1267581967905
 40
437.0183851679238
 40
439.1353914116318
 40
442.3823741039167
 40
446.3249082775104
 40
451.1352693088177
 40
465.1112009763868
 40
485.5560090998778
 40
515.6838902817209
 40
553.6659732761987
 40
645.5096042600177
 40
645.5096042600177
 40
645.5096042600177
 40
645.5096042600177
 10
680.153895735952
 20
114.9174632507339
 30
0.0
 10
678.3403402729639
 20
113.9374462487423
 30
0.0
 10
673.964120814431
 20
111.8847658508543
 30
0.0
 10
662.2860233832229
 20
107.2090140739175
 30
0.0
 10
629.9674054769359
 20
96.1953238019685
 30
0.0
 10
544.7005080510588
 20
71.02941088507437
 30
0.0
 10
443.363863494966
 20
46.04724554901662
 30
0.0
 10
355.7572520843262
 20
26.7792371480402
 30
0.0
 10
317.2915717238588
 20
19.44479481355335
 30
0.0
 10
296.677066972509
 20
16.08632498840463
 30
0.0
 10
281.207680499775
 20
14.39264643757504
 30
0.0
 10
269.8862092109803
 20
14.14978055458749
 30
0.0
 10
262.6680672449351
 20
15.21543681369105
 30
0.0
 10
258.8044261635291
 20
17.03340476361148
 30
0.0
 10
257.3739819349365
 20
18.85384394366826
 30
0.0
 10
257.6711261032166
 20
21.40867986011587
 30
0.0
 10
259.5591120638793
 20
23.93120052936273
 30
0.0
 10
262.6394314182039
 20
26.49138941355012
 30
0.0
 10
269.1993952319962
 20
30.32780791394939
 30
0.0
 10
281.2552861738818
 20
35.43368372056872
 30
0.0
 10
301.6368485942556
 20
42.34670659843619
 30
0.0
 10
329.9472859901877
 20
50.71718174259983
 30
0.0
 10
381.4197276916028
 20
64.63221685377943
 30
0.0
 10
423.4764222602347
 20
74.85167266974975
 30
0.0
 10
453.2961966979856
 20
81.77932106947267
 30
0.0
  0
LINE
  5
3B7
330
1F
100
AcDbEntity
  8
Linee visibili 2D
 62
   255
100
AcDbLine
 10
408.9912429857442
 20
335.7609856960547
 30
0.0
 11
410.9534644858139
 21
345.6564537506352
 31
0.0
  0
LINE
  5
3B8
330
1F
100
AcDbEntity
  8
Linee visibili 2D
 62
   255
100
AcDbLine
 10
475.2817936949027
 20
152.3420946645518
 30
0.0
 11
474.7333989943652
 21
141.5343697864218
 31
0.0
  0
LINE
  5
3B9
330
1F
100
AcDbEntity
  8
Linee visibili 2D
 62
   255
100
AcDbLine
 10
470.387179463653
 20
159.3949040627936
 30
0.0
 11
468.6327436776263
 21
176.7098949670266
 31
0.0
  0
LINE
  5
3BA
330
1F
100
AcDbEntity
  8
Linee visibili 2D
 62
   255
100
AcDbLine
 10
582.9046256469006
 20
461.7272756684793
 30
0.0
 11
582.8088603592365
 21
461.7280862602497
 31
0.0
  0
LINE
  5
3BB
330
1F
100
AcDbEntity
  8
Linee visibili 2D
 62
   255
100
AcDbLine
 10
582.8689953911241
 20
457.7816564462944
 30
0.0
 11
582.9046256469006
 21
461.7272756684793
 31
0.0
  0
ARC
  5
3BC
330
1F
100
AcDbEntity
  8
Linee visibili 2D
 62
   255
100
AcDbCircle
 10
498.8203326952329
 20
686.6693547022039
 30
0.0
 40
244.4336736418834
100
AcDbArc
 50
282.2598995965576
 51
290.1101964465769
  0
ARC
  5
3BD
330
1F
100
AcDbEntity
  8
Linee visibili 2D
 62
   255
100
AcDbCircle
 10
498.8053997923104
 20
685.9678694369067
 30
0.0
 40
244.0993653181775
100
AcDbArc
 50
282.2593712039886
 51
290.1101553923304
  0
LINE
  5
3BE
330
1F
100
AcDbEntity
  8
Linee visibili 2D
 62
   255
100
AcDbLine
 10
582.7361996763991
 20
457.0915899532428
 30
0.0
 11
582.7331420967062
 21
456.750430701491
 31
0.0
  0
LINE
  5
3BF
330
1F
100
AcDbEntity
  8
Linee visibili 2D
 62
   255
100
AcDbLine
 10
550.6368496638861
 20
447.4348508567792
 30
0.0
 11
550.0334495077071
 21
447.3204900564658
 31
0.0
  0
SPLINE
  5
3C0
330
1F
100
AcDbEntity
  8
Linee visibili 2D
 62
   255
100
AcDbSpline
210
0.0
220
0.0
230
1.0
 70
     8
 71
     3
 72
    10
 73
     6
 74
     0
 42
0.0000000001
 43
0.0000000001
 40
0.0
 40
0.0
 40
0.0
 40
0.0
 40
0.8083230652092298
 40
1.310250669431267
 40
2.393391098946237
 40
2.393391098946237
 40
2.393391098946237
 40
2.393391098946237
 10
550.0334495077071
 20
447.3204900564658
 30
0.0
 10
549.9106290991664
 20
447.2588029481939
 30
0.0
 10
548.9280566396131
 20
447.2044410447314
 30
0.0
 10
549.9627647828445
 20
447.6867292110502
 30
0.0
 10
550.3220091444173
 20
447.689267362898
 30
0.0
 10
550.7249715690892
 20
447.810129899306
 30
0.0
  0
LINE
  5
3C1
330
1F
100
AcDbEntity
  8
Linee visibili 2D
 62
   255
100
AcDbLine
 10
363.2328719233492
 20
45.20990128265537
 30
0.0
 11
363.362772387519
 21
45.24057182696414
 31
0.0
  0
LINE
  5
3C2
330
1F
100
AcDbEntity
  8
Linee visibili 2D
 62
   255
100
AcDbLine
 10
444.0016768385659
 20
252.25523330772
 30
0.0
 11
451.0785320466911
 21
239.0800826526628
 31
0.0
  0
LINE
  5
3C3
330
1F
100
AcDbEntity
  8
Linee visibili 2D
 62
   255
100
AcDbLine
 10
432.6038228446532
 20
262.9474319521127
 30
0.0
 11
426.6618723553295
 21
273.8447853695909
 31
0.0
  0
LINE
  5
3C4
330
1F
100
AcDbEntity
  8
Linee visibili 2D
 62
   255
100
AcDbLine
 10
430.8738083043756
 20
276.1030841268314
 30
0.0
 11
436.788258118304
 21
265.261011916973
 31
0.0
  0
LINE
  5
3C5
330
1F
100
AcDbEntity
  8
Linee visibili 2D
 62
   255
100
AcDbLine
 10
453.8655243270687
 20
222.5579682390425
 30
0.0
 11
446.8283260167217
 21
236.877503470609
 31
0.0
  0
LINE
  5
3C6
330
1F
100
AcDbEntity
  8
Linee visibili 2D
 62
   255
100
AcDbLine
 10
451.079090538767
 20
239.0790073766563
 30
0.0
 11
458.2129369192003
 21
224.5693640096101
 31
0.0
  0
LINE
  5
3C7
330
1F
100
AcDbEntity
  8
Linee visibili 2D
 62
   255
100
AcDbLine
 10
416.660463541263
 20
294.5321717425497
 30
0.0
 11
412.9524140555638
 21
304.430938334705
 31
0.0
  0
LINE
  5
3C8
330
1F
100
AcDbEntity
  8
Linee visibili 2D
 62
   255
100
AcDbLine
 10
415.5305716353845
 20
344.3283437227944
 30
0.0
 11
413.730356028913
 21
335.2398350903893
 31
0.0
  0
LINE
  5
3C9
330
1F
100
AcDbEntity
  8
Linee visibili 2D
 62
   255
100
AcDbLine
 10
417.4903763072349
 20
305.9109799669677
 30
0.0
 11
421.0584584313828
 21
296.3919317112911
 31
0.0
  0
LINE
  5
3CA
330
1F
100
AcDbEntity
  8
Linee visibili 2D
 62
   255
100
AcDbLine
 10
660.5986602303491
 20
118.8505488438384
 30
0.0
 11
659.4836732774827
 21
118.6153116081314
 31
0.0
  0
LINE
  5
3CB
330
1F
100
AcDbEntity
  8
Linee visibili 2D
 62
   255
100
AcDbLine
 10
659.4836732774827
 20
118.6153116081314
 30
0.0
 11
659.4116265197848
 21
118.6101613859632
 31
0.0
  0
LINE
  5
3CC
330
1F
100
AcDbEntity
  8
Linee visibili 2D
 62
   255
100
AcDbLine
 10
684.3178580440045
 20
112.5364868067074
 30
0.0
 11
683.2384566649484
 21
112.2154339979834
 31
0.0
  0
LINE
  5
3CD
330
1F
100
AcDbEntity
  8
Linee visibili 2D
 62
   255
100
AcDbLine
 10
660.5986602303491
 20
118.8505488438384
 30
0.0
 11
660.6072503966816
 21
118.8528246083334
 31
0.0
  0
LINE
  5
3CE
330
1F
100
AcDbEntity
  8
Linee visibili 2D
 62
   255
100
AcDbLine
 10
684.356403144611
 20
112.5440258045244
 30
0.0
 11
684.3178580440045
 21
112.5364868067074
 31
0.0
  0
LINE
  5
3CF
330
1F
100
AcDbEntity
  8
Linee visibili 2D
 62
   255
100
AcDbLine
 10
684.3178580440045
 20
112.5364868067074
 30
0.0
 11
684.1199282734339
 21
113.306549556235
 31
0.0
  0
LINE
  5
3D0
330
1F
100
AcDbEntity
  8
Linee visibili 2D
 62
   255
100
AcDbLine
 10
135.707504166146
 20
263.2239025428658
 30
0.0
 11
154.4851285306558
 21
255.8931710065462
 31
0.0
  0
LINE
  5
3D1
330
1F
100
AcDbEntity
  8
Linee visibili 2D
 62
   255
100
AcDbLine
 10
154.4851285306559
 20
255.8931710065463
 30
0.0
 11
164.7220731796815
 21
252.3251806936266
 31
0.0
  0
LINE
  5
3D2
330
1F
100
AcDbEntity
  8
Linee visibili 2D
 62
   255
100
AcDbLine
 10
362.4945033230663
 20
45.10763867768868
 30
0.0
 11
362.5013371897721
 21
45.08009360102447
 31
0.0
  0
SPLINE
  5
3D3
330
1F
100
AcDbEntity
  8
Linee visibili 2D
 62
   255
100
AcDbSpline
210
0.0
220
0.0
230
1.0
 70
     8
 71
     3
 72
    26
 73
    22
 74
     0
 42
0.0000000001
 43
0.0000000001
 40
0.0
 40
0.0
 40
0.0
 40
0.0
 40
20.62294350675988
 40
49.60297889130915
 40
142.0070304783823
 40
185.3356277034523
 40
218.1382295580435
 40
229.1650244848077
 40
237.1487641620152
 40
242.15414467445
 40
243.5383896683206
 40
244.3566767756643
 40
244.8748400283575
 40
245.6289448166762
 40
248.3395795284659
 40
252.7542245736376
 40
258.7993311402802
 40
276.5793587604524
 40
297.7905136876229
 40
348.0716697868655
 40
395.0722313715157
 40
395.0722313715157
 40
395.0722313715157
 40
395.0722313715157
 10
368.1362896676725
 20
40.85898996541413
 30
0.0
 10
374.9808348999101
 20
41.50245986609638
 30
0.0
 10
391.3563885875667
 20
43.86507429533737
 30
0.0
 10
437.7712252687683
 20
53.17570887806016
 30
0.0
 10
491.2781790354048
 20
65.52671680448768
 30
0.0
 10
545.6934363259614
 20
79.49217895778742
 30
0.0
 10
573.6723429860859
 20
87.33237833587806
 30
0.0
 10
590.1469625344565
 20
92.52193569838687
 30
0.0
 10
597.6609913023616
 20
95.29027846316272
 30
0.0
 10
602.0324904048797
 20
97.27321535455401
 30
0.0
 10
604.0076884282303
 20
98.65664601160697
 30
0.0
 10
604.5319199003001
 20
99.47602178565265
 30
0.0
 10
604.0550076043451
 20
100.1211326107491
 30
0.0
 10
602.7780935587656
 20
100.5062073316514
 30
0.0
 10
600.1571236623253
 20
100.7633729273382
 30
0.0
 10
595.7634952141017
 20
100.6697948587928
 30
0.0
 10
586.3726964067201
 20
100.0189381587179
 30
0.0
 10
571.4550065260056
 20
98.29189552957018
 30
0.0
 10
542.0148105231967
 20
93.95082203214592
 30
0.0
 10
503.131411919827
 20
86.97265497003153
 30
0.0
 10
471.4331823003762
 20
80.10587287973395
 30
0.0
 10
456.2181936074273
 20
76.366818221542
 30
0.0
  0
LINE
  5
3D4
330
1F
100
AcDbEntity
  8
Linee visibili 2D
 62
   255
100
AcDbLine
 10
685.5352811704801
 20
112.4991749849444
 30
0.0
 11
685.4942529402805
 21
112.5094552334616
 31
0.0
  0
LINE
  5
3D5
330
1F
100
AcDbEntity
  8
Linee visibili 2D
 62
   255
100
AcDbLine
 10
684.356403144611
 20
112.5440258045244
 30
0.0
 11
685.4942529402805
 21
112.5094552334616
 31
0.0
  0
LINE
  5
3D6
330
1F
100
AcDbEntity
  8
Linee visibili 2D
 62
   255
100
AcDbLine
 10
662.5455093846629
 20
118.9989382929762
 30
0.0
 11
660.6072503966816
 21
118.8528246083334
 31
0.0
  0
LINE
  5
3D7
330
1F
100
AcDbEntity
  8
Linee visibili 2D
 62
   255
100
AcDbLine
 10
686.253922597147
 20
112.3417723052776
 30
0.0
 11
685.5352811704801
 21
112.4991749849444
 31
0.0
  0
LINE
  5
3D8
330
1F
100
AcDbEntity
  8
Linee visibili 2D
 62
   255
100
AcDbLine
 10
685.5352811704801
 20
112.4991749849444
 30
0.0
 11
685.5785295538885
 21
112.6594008053669
 31
0.0
  0
ARC
  5
3D9
330
1F
100
AcDbEntity
  8
Linee visibili 2D
 62
   255
100
AcDbCircle
 10
555.9243718865424
 20
-380.9178772186856
 30
0.0
 40
467.8812394692221
100
AcDbArc
 50
103.0503788329733
 51
114.4196413963263
  0
LINE
  5
3DA
330
1F
100
AcDbEntity
  8
Linee visibili 2D
 62
   255
100
AcDbLine
 10
493.7013881740653
 20
432.14804269044
 30
0.0
 11
489.5392366751478
 21
425.0313489571701
 31
0.0
  0
LINE
  5
3DB
330
1F
100
AcDbEntity
  8
Linee visibili 2D
 62
   255
100
AcDbLine
 10
446.2643114899749
 20
385.3306894155751
 30
0.0
 11
441.5817649074297
 21
381.3618904689974
 31
0.0
  0
LINE
  5
3DC
330
1F
100
AcDbEntity
  8
Linee visibili 2D
 62
   255
100
AcDbLine
 10
489.5296461967522
 20
425.016937245674
 30
0.0
 11
483.5928513853249
 21
417.139687070834
 31
0.0
  0
LINE
  5
3DD
330
1F
100
AcDbEntity
  8
Linee visibili 2D
 62
   255
100
AcDbLine
 10
472.3241593602198
 20
124.9047590081416
 30
0.0
 11
468.2825204320461
 21
108.6314835215715
 31
0.0
  0
LINE
  5
3DE
330
1F
100
AcDbEntity
  8
Linee visibili 2D
 62
   255
100
AcDbLine
 10
416.6618204710359
 20
294.5327459032181
 30
0.0
 11
421.0608484537237
 21
296.3861868158651
 31
0.0
  0
LINE
  5
3DF
330
1F
100
AcDbEntity
  8
Linee visibili 2D
 62
   255
100
AcDbLine
 10
412.9518192924576
 20
304.434480798871
 30
0.0
 11
417.4896415777583
 21
305.9107391343642
 31
0.0
  0
LINE
  5
3E0
330
1F
100
AcDbEntity
  8
Linee visibili 2D
 62
   255
100
AcDbLine
 10
448.8669609292863
 20
393.3996693530377
 30
0.0
 11
448.8683712086774
 21
393.4153632095827
 31
0.0
  0
LINE
  5
3E1
330
1F
100
AcDbEntity
  8
Linee visibili 2D
 62
   255
100
AcDbLine
 10
467.6072821509956
 20
125.885460110692
 30
0.0
 11
472.3240634047922
 21
124.9047783702278
 31
0.0
  0
LINE
  5
3E2
330
1F
100
AcDbEntity
  8
Linee visibili 2D
 62
   255
100
AcDbLine
 10
445.4082462279548
 20
64.3557596049795
 30
0.0
 11
449.7448865305471
 21
62.25105700370437
 31
0.0
  0
LINE
  5
3E3
330
1F
100
AcDbEntity
  8
Linee visibili 2D
 62
   255
100
AcDbLine
 10
492.342060553479
 20
441.3064352190025
 30
0.0
 11
496.8791330714568
 21
439.8676414169945
 31
0.0
  0
LINE
  5
3E4
330
1F
100
AcDbEntity
  8
Linee visibili 2D
 62
   255
100
AcDbLine
 10
460.0363992715456
 20
207.9048331953894
 30
0.0
 11
464.5156969593041
 21
209.5956280543843
 31
0.0
  0
LINE
  5
3E5
330
1F
100
AcDbEntity
  8
Linee visibili 2D
 62
   255
100
AcDbLine
 10
426.6670297686127
 20
273.8610057992465
 30
0.0
 11
430.87127482758
 21
276.1038600527376
 31
0.0
  0
LINE
  5
3E6
330
1F
100
AcDbEntity
  8
Linee visibili 2D
 62
   255
100
AcDbLine
 10
426.6633077539349
 20
273.8455557799383
 30
0.0
 11
426.6670297686128
 21
273.8610057992465
 31
0.0
  0
LINE
  5
3E7
330
1F
100
AcDbEntity
  8
Linee visibili 2D
 62
   255
100
AcDbLine
 10
446.8284943570408
 20
236.8775908666931
 30
0.0
 11
451.0779662126695
 21
239.0797887604014
 31
0.0
  0
LINE
  5
3E8
330
1F
100
AcDbEntity
  8
Linee visibili 2D
 62
   255
100
AcDbLine
 10
453.8678976549832
 20
222.5573598444466
 30
0.0
 11
458.2128314553545
 21
224.5693150232141
 31
0.0
  0
LINE
  5
3E9
330
1F
100
AcDbEntity
  8
Linee visibili 2D
 62
   255
100
AcDbLine
 10
483.6008157081995
 20
417.1624533107638
 30
0.0
 11
483.591948355389
 21
417.1388119258765
 31
0.0
  0
LINE
  5
3EA
330
1F
100
AcDbEntity
  8
Linee visibili 2D
 62
   255
100
AcDbLine
 10
479.9627654063529
 20
420.2165701590494
 30
0.0
 11
483.6008157081995
 21
417.1624533107637
 31
0.0
  0
LINE
  5
3EB
330
1F
100
AcDbEntity
  8
Linee visibili 2D
 62
   255
100
AcDbLine
 10
476.9396525179238
 20
409.9689820414014
 30
0.0
 11
476.9334330305108
 21
409.9429861984106
 31
0.0
  0
LINE
  5
3EC
330
1F
100
AcDbEntity
  8
Linee visibili 2D
 62
   255
100
AcDbLine
 10
473.5779494102704
 20
413.3171528796605
 30
0.0
 11
476.9396525179238
 21
409.9689820414014
 31
0.0
  0
LINE
  5
3ED
330
1F
100
AcDbEntity
  8
Linee visibili 2D
 62
   255
100
AcDbLine
 10
443.2507641773362
 20
388.9997659713949
 30
0.0
 11
446.2646377199454
 21
385.3309678333321
 31
0.0
  0
LINE
  5
3EE
330
1F
100
AcDbEntity
  8
Linee visibili 2D
 62
   255
100
AcDbLine
 10
448.8717382746639
 20
393.4197464769035
 30
0.0
 11
451.7353470704754
 21
389.6175989239813
 31
0.0
  0
SPLINE
  5
3EF
330
1F
100
AcDbEntity
  8
Linee visibili 2D
 62
   255
100
AcDbSpline
210
0.0
220
0.0
230
1.0
 70
    12
 71
     3
 72
    10
 73
     6
 74
     0
 42
0.0000000001
 43
0.0000000001
 40
-0.9375
 40
-0.9375
 40
-0.9375
 40
-0.9375
 40
-0.8749999999999885
 40
-0.8124999999999821
 40
-0.75
 40
-0.75
 40
-0.75
 40
-0.75
 10
413.0310158723355
 20
368.2718454838145
 30
0.0
 41
1823.520488429192
 10
347.3251366469404
 20
349.6366987367358
 30
0.0
 41
1844.238135556857
 10
224.8016094649276
 20
313.8378995955095
 30
0.0
 41
1898.239205786306
 10
81.96080164612607
 20
269.1971487259437
 30
0.0
 41
2008.367164653272
 10
16.05421330686558
 20
245.8808932991785
 30
0.0
 41
2107.993074385517
 10
5.155356075798224
 20
239.7124143451851
 30
0.0
 41
2165.370708316701
  0
ARC
  5
3F0
330
1F
100
AcDbEntity
  8
Linee visibili 2D
 62
   255
100
AcDbCircle
 10
3361.928104171936
 20
-10004.06638199748
 30
0.0
 40
10783.38510592345
100
AcDbArc
 50
104.7048458372931
 51
105.8706622418594
  0
LINE
  5
3F1
330
1F
100
AcDbEntity
  8
Linee visibili 2D
 62
   255
100
AcDbLine
 10
5.155356075798224
 20
239.7124143451851
 30
0.0
 11
2.289913544148361
 21
237.8344294328692
 31
0.0
  0
LINE
  5
3F2
330
1F
100
AcDbEntity
  8
Linee visibili 2D
 62
   255
100
AcDbLine
 10
2.26056894213215
 20
237.810480095418
 30
0.0
 11
1.789216801015472
 21
237.3945795100973
 31
0.0
  0
SPLINE
  5
3F3
330
1F
100
AcDbEntity
  8
Linee visibili 2D
 62
   255
100
AcDbSpline
210
0.0
220
0.0
230
1.0
 70
    12
 71
     3
 72
     8
 73
     4
 74
     0
 42
0.0000000001
 43
0.0000000001
 40
-0.7407033060914283
 40
-0.7407033060914283
 40
-0.7407033060914283
 40
-0.7407033060914283
 40
-0.7108234875585512
 40
-0.7108234875585512
 40
-0.7108234875585512
 40
-0.7108234875585512
 10
1.766163704700975
 20
237.3723091018465
 30
0.0
 41
2191.432516174233
 10
-0.4149711177713004
 20
235.2544382659802
 30
0.0
 41
2219.796062327199
 10
1.76671125677657
 20
234.2372859304721
 30
0.0
 41
2249.42808729513
 10
8.039201611372544
 20
234.3301149345002
 30
0.0
 41
2278.84857405397
  0
LINE
  5
3F4
330
1F
100
AcDbEntity
  8
Linee visibili 2D
 62
   255
100
AcDbLine
 10
8.102926418058741
 20
234.3310930561496
 30
0.0
 11
9.298610108453488
 21
234.3617451003156
 31
0.0
  0
LINE
  5
3F5
330
1F
100
AcDbEntity
  8
Linee visibili 2D
 62
   255
100
AcDbLine
 10
162.1428266833621
 20
270.4834921436667
 30
0.0
 11
158.5116580373509
 21
269.868110050548
 31
0.0
  0
LINE
  5
3F6
330
1F
100
AcDbEntity
  8
Linee visibili 2D
 62
   255
100
AcDbLine
 10
0.8127213860956446
 20
241.2008308901808
 30
0.0
 11
0.024993262788664
 21
239.5727638629149
 31
0.0
  0
LINE
  5
3F7
330
1F
100
AcDbEntity
  8
Linee visibili 2D
 62
   255
100
AcDbLine
 10
0.8356441317276635
 20
241.2236134442668
 30
0.0
 11
0.8127213860956446
 21
241.2008308901808
 31
0.0
  0
LINE
  5
3F8
330
1F
100
AcDbEntity
  8
Linee visibili 2D
 62
   255
100
AcDbLine
 10
1.304643513343927
 20
241.6487331942241
 30
0.0
 11
0.8356441317276628
 21
241.2236134442668
 31
0.0
  0
LINE
  5
3F9
330
1F
100
AcDbEntity
  8
Linee visibili 2D
 62
   255
100
AcDbLine
 10
468.6327415141434
 20
176.7099080172594
 30
0.0
 11
468.1271654105775
 21
179.5825638507217
 31
0.0
  0
LINE
  5
3FA
330
1F
100
AcDbEntity
  8
Linee visibili 2D
 62
   255
100
AcDbLine
 10
466.0288820777765
 20
189.0874791488365
 30
0.0
 11
465.1129119880513
 21
192.4971264373021
 31
0.0
  0
LINE
  5
3FB
330
1F
100
AcDbEntity
  8
Linee visibili 2D
 62
   255
100
AcDbLine
 10
467.4801265011821
 20
401.4063057077673
 30
0.0
 11
457.3745630292628
 21
393.7218537947481
 31
0.0
  0
LINE
  5
3FC
330
1F
100
AcDbEntity
  8
Linee visibili 2D
 62
   255
100
AcDbLine
 10
413.4777510949854
 20
325.936257600209
 30
0.0
 11
414.8091139669267
 21
315.8730534972614
 31
0.0
  0
LINE
  5
3FD
330
1F
100
AcDbEntity
  8
Linee visibili 2D
 62
   255
100
AcDbLine
 10
441.5817527146799
 20
381.3618797305386
 30
0.0
 11
441.4445869448723
 21
381.2409065321604
 31
0.0
  0
LINE
  5
3FE
330
1F
100
AcDbEntity
  8
Linee visibili 2D
 62
   255
100
AcDbLine
 10
523.9730853152928
 20
454.6498516011553
 30
0.0
 11
524.0120179109527
 21
454.6484553919251
 31
0.0
  0
LINE
  5
3FF
330
1F
100
AcDbEntity
  8
Linee visibili 2D
 62
   255
100
AcDbLine
 10
524.4769399936047
 20
454.6626310555677
 30
0.0
 11
524.0120179109527
 21
454.6484553919251
 31
0.0
  0
LINE
  5
400
330
1F
100
AcDbEntity
  8
Linee visibili 2D
 62
   255
100
AcDbLine
 10
524.4800883811318
 20
454.6629042310079
 30
0.0
 11
524.9530584295294
 21
454.7295737640113
 31
0.0
  0
LINE
  5
401
330
1F
100
AcDbEntity
  8
Linee visibili 2D
 62
   255
100
AcDbLine
 10
525.3951025466309
 20
454.8435031978296
 30
0.0
 11
524.9530584295294
 21
454.7295737640114
 31
0.0
  0
LINE
  5
402
330
1F
100
AcDbEntity
  8
Linee visibili 2D
 62
   255
100
AcDbLine
 10
455.9552341305593
 20
32.05704768381611
 30
0.0
 11
408.6221138799546
 21
34.17279152164713
 31
0.0
  0
SPLINE
  5
403
330
1F
100
AcDbEntity
  8
Linee visibili 2D
 62
   255
100
AcDbSpline
210
0.0
220
0.0
230
1.0
 70
     8
 71
     3
 72
    14
 73
    10
 74
     0
 42
0.0000000001
 43
0.0000000001
 40
0.0
 40
0.0
 40
0.0
 40
0.0
 40
2.412182976150638
 40
4.206795725889287
 40
5.435788451390757
 40
6.31593738707123
 40
7.054299564915771
 40
8.212113323260505
 40
12.31233010726099
 40
12.31233010726099
 40
12.31233010726099
 40
12.31233010726099
 10
376.2054945389616
 20
46.70717610868405
 30
0.0
 10
375.4091284511731
 20
46.5625071007624
 30
0.0
 10
374.0459672798593
 20
46.30574335920569
 30
0.0
 10
372.2863962233762
 20
45.77147626392031
 30
0.0
 10
371.1561521193389
 20
45.16682470381263
 30
0.0
 10
370.5727267822646
 20
44.27702886761856
 30
0.0
 10
371.0397912714936
 20
43.38982167925657
 30
0.0
 10
372.8449636275623
 20
42.45969159208171
 30
0.0
 10
374.5357151515428
 20
42.02200802195525
 30
0.0
 10
375.8736505971297
 20
41.72133341735533
 30
0.0
  0
SPLINE
  5
404
330
1F
100
AcDbEntity
  8
Linee visibili 2D
 62
   255
100
AcDbSpline
210
0.0
220
0.0
230
1.0
 70
     8
 71
     3
 72
    14
 73
    10
 74
     0
 42
0.0000000001
 43
0.0000000001
 40
0.0
 40
0.0
 40
0.0
 40
0.0
 40
43.47898423926684
 40
87.07813470523432
 40
157.3430357595913
 40
181.3697561419988
 40
198.8265710431839
 40
211.1577344013161
 40
218.489649602128
 40
218.489649602128
 40
218.489649602128
 40
218.489649602128
 10
469.9284181273401
 20
166.5738202300924
 30
0.0
 10
455.9508896133269
 20
170.4040883055984
 30
0.0
 10
427.9777993725174
 20
178.1535464909478
 30
0.0
 10
377.524306727402
 20
192.4763712085203
 30
0.0
 10
333.4177882219885
 20
205.4179884767215
 30
0.0
 10
297.8763332729869
 20
216.5708877663005
 30
0.0
 10
280.8804522257863
 20
222.317003278392
 30
0.0
 10
269.3163010764813
 20
226.7215403558762
 30
0.0
 10
263.3873120155589
 20
229.5487100886249
 30
0.0
 10
261.361252715205
 20
230.9255331010521
 30
0.0
  0
ARC
  5
405
330
1F
100
AcDbEntity
  8
Linee visibili 2D
 62
   255
100
AcDbCircle
 10
1469.536548043498
 20
3718.049203771649
 30
0.0
 40
3692.91166636854
100
AcDbArc
 50
254.3784547108232
 51
257.1201877776535
  0
LINE
  5
406
330
1F
100
AcDbEntity
  8
Linee visibili 2D
 62
   255
100
AcDbLine
 10
134.6538878253644
 20
263.5536789381329
 30
0.0
 11
135.707504166146
 21
263.2239025428658
 31
0.0
  0
LINE
  5
407
330
1F
100
AcDbEntity
  8
Linee visibili 2D
 62
   255
100
AcDbLine
 10
134.3034390399775
 20
263.6524940022541
 30
0.0
 11
134.6538878253644
 21
263.5536789381329
 31
0.0
  0
LINE
  5
408
330
1F
100
AcDbEntity
  8
Linee visibili 2D
 62
   255
100
AcDbLine
 10
433.7817951922492
 20
380.642863118397
 30
0.0
 11
438.4311112463122
 21
384.9305194064688
 31
0.0
  0
LINE
  5
409
330
1F
100
AcDbEntity
  8
Linee visibili 2D
 62
   255
100
AcDbLine
 10
410.1433213894004
 20
314.8750028765909
 30
0.0
 11
409.3715600809959
 21
319.1657078882495
 31
0.0
  0
LINE
  5
40A
330
1F
100
AcDbEntity
  8
Linee visibili 2D
 62
   255
100
AcDbLine
 10
409.371559852025
 20
319.1657094348304
 30
0.0
 11
408.7152887210271
 21
325.6780144969999
 31
0.0
  0
LINE
  5
40B
330
1F
100
AcDbEntity
  8
Linee visibili 2D
 62
   255
100
AcDbLine
 10
423.5181012485056
 20
361.2127142827802
 30
0.0
 11
418.9984492163916
 21
353.3056854221347
 31
0.0
  0
LINE
  5
40C
330
1F
100
AcDbEntity
  8
Linee visibili 2D
 62
   255
100
AcDbLine
 10
414.7139931362757
 20
355.3891753324831
 30
0.0
 11
416.8407235827461
 21
359.425877489526
 31
0.0
  0
LINE
  5
40D
330
1F
100
AcDbEntity
  8
Linee visibili 2D
 62
   255
100
AcDbLine
 10
540.5582627936606
 20
472.5988102797326
 30
0.0
 11
540.5065933214248
 21
472.5870229841504
 31
0.0
  0
LINE
  5
40E
330
1F
100
AcDbEntity
  8
Linee visibili 2D
 62
   255
100
AcDbLine
 10
541.5231804576833
 20
470.7847915606461
 30
0.0
 11
541.5230414892529
 21
470.7714894216548
 31
0.0
  0
LINE
  5
40F
330
1F
100
AcDbEntity
  8
Linee visibili 2D
 62
   255
100
AcDbLine
 10
525.8462461606081
 20
455.0486318143906
 30
0.0
 11
525.8348096992671
 21
454.0078831844511
 31
0.0
  0
LINE
  5
410
330
1F
100
AcDbEntity
  8
Linee visibili 2D
 62
   255
100
AcDbLine
 10
459.0760956092864
 20
31.94545236217164
 30
0.0
 11
456.0411841926789
 21
32.05393760900927
 31
0.0
  0
LINE
  5
411
330
1F
100
AcDbEntity
  8
Linee visibili 2D
 62
   255
100
AcDbLine
 10
459.4786504385226
 20
31.9284911905861
 30
0.0
 11
462.0774772333761
 21
31.84067084670444
 31
0.0
  0
LINE
  5
412
330
1F
100
AcDbEntity
  8
Linee visibili 2D
 62
   255
100
AcDbLine
 10
459.4787230966751
 20
31.93061754462916
 30
0.0
 11
459.3536468766057
 21
31.93469124525573
 31
0.0
  0
LINE
  5
413
330
1F
100
AcDbEntity
  8
Linee visibili 2D
 62
   255
100
AcDbLine
 10
456.0412140845402
 20
32.05476334970717
 30
0.0
 11
457.5777102642137
 21
31.99925340005765
 31
0.0
  0
LINE
  5
414
330
1F
100
AcDbEntity
  8
Linee visibili 2D
 62
   255
100
AcDbLine
 10
455.9552636693094
 20
32.05786374214085
 30
0.0
 11
457.774317387425
 21
31.99216399015773
 31
0.0
  0
LINE
  5
415
330
1F
100
AcDbEntity
  8
Linee visibili 2D
 62
   255
100
AcDbLine
 10
457.7741550971754
 20
31.98765221707924
 30
0.0
 11
459.3536137794151
 21
31.93370985838085
 31
0.0
  0
LINE
  5
416
330
1F
100
AcDbEntity
  8
Linee visibili 2D
 62
   255
100
AcDbLine
 10
456.0106468684418
 20
32.0487171202094
 30
0.0
 11
457.690209930487
 21
31.99005738491106
 31
0.0
  0
LINE
  5
417
330
1F
100
AcDbEntity
  8
Linee visibili 2D
 62
   255
100
AcDbLine
 10
449.0848073110315
 20
32.29958939322159
 30
0.0
 11
456.0106468684418
 21
32.04871712020992
 31
0.0
  0
LINE
  5
418
330
1F
100
AcDbEntity
  8
Linee visibili 2D
 62
   255
100
AcDbLine
 10
130.5858541143776
 20
271.7572115435981
 30
0.0
 11
130.2281669327343
 21
270.5472390608169
 31
0.0
  0
ARC
  5
419
330
1F
100
AcDbEntity
  8
Linee visibili 2D
 62
   255
100
AcDbCircle
 10
3182.590436722836
 20
9798.7610008629
 30
0.0
 40
10012.52389497053
100
AcDbArc
 50
254.3119267877864
 51
255.2398776433443
  0
LINE
  5
41A
330
1F
100
AcDbEntity
  8
Linee visibili 2D
 62
   255
100
AcDbLine
 10
543.0346875456162
 20
472.3550667817472
 30
0.0
 11
541.5231804576414
 21
470.784791560718
 31
0.0
  0
LINE
  5
41B
330
1F
100
AcDbEntity
  8
Linee visibili 2D
 62
   255
100
AcDbLine
 10
540.5296177290221
 20
469.8646819286357
 30
0.0
 11
541.5230414892529
 21
470.7714894216548
 31
0.0
  0
LINE
  5
41C
330
1F
100
AcDbEntity
  8
Linee visibili 2D
 62
   255
100
AcDbLine
 10
543.0346875456693
 20
472.3550667817349
 30
0.0
 11
543.0864283199653
 21
472.3668375077012
 31
0.0
  0
LINE
  5
41D
330
1F
100
AcDbEntity
  8
Linee visibili 2D
 62
   255
100
AcDbLine
 10
525.8462461606081
 20
455.0486318143906
 30
0.0
 11
525.3951025466309
 21
454.8435031978296
 31
0.0
  0
LINE
  5
41E
330
1F
100
AcDbEntity
  8
Linee visibili 2D
 62
   255
100
AcDbLine
 10
435.7913364897448
 20
32.82464265403769
 30
0.0
 11
449.0848073110315
 21
32.29958939322102
 31
0.0
  0
LINE
  5
41F
330
1F
100
AcDbEntity
  8
Linee visibili 2D
 62
   255
100
AcDbLine
 10
367.667507019814
 20
45.3914129305618
 30
0.0
 11
368.9262677055895
 21
45.40934500563804
 31
0.0
  0
LINE
  5
420
330
1F
100
AcDbEntity
  8
Linee visibili 2D
 62
   255
100
AcDbLine
 10
373.2305401714924
 20
41.3961839264115
 30
0.0
 11
372.8074403950691
 21
41.39656863551271
 31
0.0
  0
ARC
  5
421
330
1F
100
AcDbEntity
  8
Linee visibili 2D
 62
   255
100
AcDbCircle
 10
2302.858735969088
 20
6820.374583564334
 30
0.0
 40
6907.307821960339
100
AcDbArc
 50
251.9680650967232
 51
254.6151097670164
  0
LINE
  5
422
330
1F
100
AcDbEntity
  8
Linee visibili 2D
 62
   255
100
AcDbLine
 10
130.2281669327343
 20
270.5472390608169
 30
0.0
 11
129.117959125475
 21
270.8391595345321
 31
0.0
  0
SPLINE
  5
423
330
1F
100
AcDbEntity
  8
Linee visibili 2D
 62
   255
100
AcDbSpline
210
0.0
220
0.0
230
1.0
 70
     8
 71
     3
 72
    22
 73
    18
 74
     0
 42
0.0000000001
 43
0.0000000001
 40
0.0
 40
0.0
 40
0.0
 40
0.0
 40
5.435674252665519
 40
13.23835926254769
 40
36.45854068599743
 40
110.8820387870033
 40
198.3122585888655
 40
295.9965190519652
 40
364.5089895639212
 40
389.5854932345175
 40
407.4209257928958
 40
421.7626781225587
 40
431.336129020272
 40
435.0174987472363
 40
437.7928723076187
 40
439.737809645211
 40
441.9099243300543
 40
441.9099243300543
 40
441.9099243300543
 40
441.9099243300543
 10
683.2384566649484
 20
112.2154339979834
 30
0.0
 10
681.717142653401
 20
111.2290482064912
 30
0.0
 10
677.806437004369
 20
109.1720712347095
 30
0.0
 10
666.6247703510799
 20
104.3955803563186
 30
0.0
 10
633.4297646080618
 20
92.8048949730098
 30
0.0
 10
574.2695061003145
 20
75.26395256639378
 30
0.0
 10
490.6140828689593
 20
53.19745395160383
 30
0.0
 10
408.3076853822867
 20
33.83878984093971
 30
0.0
 10
345.9721942076504
 20
20.43977701658605
 30
0.0
 10
309.411803669954
 20
13.85466240941195
 30
0.0
 10
290.5150176453825
 20
11.16276806922292
 30
0.0
 10
276.6210008984706
 20
10.13639372124865
 30
0.0
 10
267.4021290731829
 20
10.62089051943562
 30
0.0
 10
262.2158327062344
 20
12.01280593025765
 30
0.0
 10
259.6857061531513
 20
13.28301488421575
 30
0.0
 10
258.2634462676131
 20
15.21747599326657
 30
0.0
 10
258.4437820276637
 20
16.69726173385853
 30
0.0
 10
258.6946031452268
 20
17.35873844300083
 30
0.0
  0
SPLINE
  5
424
330
1F
100
AcDbEntity
  8
Linee visibili 2D
 62
   255
100
AcDbSpline
210
0.0
220
0.0
230
1.0
 70
     8
 71
     3
 72
    14
 73
    10
 74
     0
 42
0.0000000001
 43
0.0000000001
 40
0.0
 40
0.0
 40
0.0
 40
0.0
 40
7.487526845113684
 40
18.91594719679323
 40
54.48751543270202
 40
100.5649482524125
 40
156.3871936652859
 40
287.6607053418923
 40
441.7427423622723
 40
441.7427423622723
 40
441.7427423622723
 40
441.7427423622723
 10
835.0443317607454
 20
458.1091419685953
 30
0.0
 10
832.9904738106636
 20
456.6867691143967
 30
0.0
 10
827.4209568162088
 20
453.708933386707
 30
0.0
 10
810.7832477035511
 20
446.4117902340105
 30
0.0
 10
781.7521129005362
 20
435.4416334177714
 30
0.0
 10
738.3879666679194
 20
420.6239148583253
 30
0.0
 10
664.2716947891691
 20
397.2001395406632
 30
0.0
 10
555.0263668315939
 20
365.5609978642747
 30
0.0
 10
463.1302659296626
 20
340.9983592693085
 30
0.0
 10
413.4008374183098
 20
328.1562663225142
 30
0.0
  0
SPLINE
  5
425
330
1F
100
AcDbEntity
  8
Linee visibili 2D
 62
   255
100
AcDbSpline
210
0.0
220
0.0
230
1.0
 70
    12
 71
     3
 72
    10
 73
     6
 74
     0
 42
0.0000000001
 43
0.0000000001
 40
-1.209869491856851
 40
-1.209869491856851
 40
-1.209869491856851
 40
-1.209869491856851
 40
-1.15625
 40
-1.0625
 40
-1.0
 40
-1.0
 40
-1.0
 40
-1.0
 10
915.1923355455408
 20
473.0883487342804
 30
0.0
 41
2200.903335294721
 10
929.4110522700042
 20
479.7184121434388
 30
0.0
 41
2148.508517100323
 10
953.3711043212886
 20
494.808769223373
 30
0.0
 41
2004.758007102153
 10
890.6149369743731
 20
493.3490465206697
 30
0.0
 41
1804.263297037303
 10
699.304090139326
 20
445.665310027723
 30
0.0
 41
1782.599029979036
 10
624.6763124763268
 20
426.1228287268785
 30
0.0
 41
1785.483556298784
  0
SPLINE
  5
426
330
1F
100
AcDbEntity
  8
Linee visibili 2D
 62
   255
100
AcDbSpline
210
0.0
220
0.0
230
1.0
 70
     8
 71
     3
 72
    31
 73
    27
 74
     0
 42
0.0000000001
 43
0.0000000001
 40
0.0
 40
0.0
 40
0.0
 40
0.0
 40
17.17694804120122
 40
41.73528147102908
 40
77.72917541891508
 40
120.7570014731772
 40
227.3792589708273
 40
359.0562384610708
 40
518.8210536395326
 40
645.3604189348886
 40
683.6993729876648
 40
710.4143886746909
 40
720.3860591165533
 40
727.9017876221386
 40
732.7063039107229
 40
733.9921546973757
 40
734.9038050053007
 40
736.0519660741763
 40
738.0415027507421
 40
745.7382508433761
 40
758.4390395931908
 40
777.037978250209
 40
822.6323642972425
 40
879.7389374339429
 40
1016.059305269041
 40
1180.876743753505
 40
1180.876743753505
 40
1180.876743753505
 40
1180.876743753505
 10
129.05556556805
 20
270.9323632813721
 30
0.0
 10
134.0879391226009
 20
273.6730383316554
 30
0.0
 10
146.8762425361731
 20
279.1849053821056
 30
0.0
 10
171.2460840172992
 20
287.9933577471687
 30
0.0
 10
204.0677495072497
 20
298.7202368253029
 30
0.0
 10
263.2280692045964
 20
316.8729643411236
 30
0.0
 10
353.4391608805971
 20
342.5038967475164
 30
0.0
 10
481.5978155145947
 20
376.8821134972652
 30
0.0
 10
616.6274552384982
 20
411.2296585646891
 30
0.0
 10
721.7468415757584
 20
436.9374500259934
 30
0.0
 10
784.1006040528796
 20
450.7638183697647
 30
0.0
 10
808.6703193857619
 20
455.4547626006477
 30
0.0
 10
823.2542294142568
 20
457.5752221250846
 30
0.0
 10
830.659771639449
 20
458.2248592537237
 30
0.0
 10
835.2077474599495
 20
458.2167619045568
 30
0.0
 10
837.4942835201329
 20
457.6870899510108
 30
0.0
 10
838.4367454444523
 20
456.9083098155367
 30
0.0
 10
837.7766678486389
 20
455.4798245111626
 30
0.0
 10
834.9186874154432
 20
453.3576274886577
 30
0.0
 10
828.2729758439835
 20
449.8384265960863
 30
0.0
 10
816.3556133054618
 20
444.7106862441906
 30
0.0
 10
792.4604431387243
 20
435.38750818305
 30
0.0
 10
754.2887579285064
 20
422.0585120022146
 30
0.0
 10
678.3959010676991
 20
397.7799511032556
 30
0.0
 10
563.7217725308697
 20
364.4305073784727
 30
0.0
 10
466.7472322067147
 20
338.4937632761635
 30
0.0
 10
413.5521926086267
 20
324.7596602707587
 30
0.0
  0
LINE
  5
427
330
1F
100
AcDbEntity
  8
Linee visibili 2D
 62
   255
100
AcDbLine
 10
436.7882624314243
 20
265.2610041329517
 30
0.0
 11
444.0005364188577
 21
252.2572875480371
 31
0.0
  0
LINE
  5
428
330
1F
100
AcDbEntity
  8
Linee visibili 2D
 62
   255
100
AcDbLine
 10
453.3355904521161
 20
471.4963271958497
 30
0.0
 11
453.3357699533375
 21
471.5095959307882
 31
0.0
  0
LINE
  5
429
330
1F
100
AcDbEntity
  8
Linee visibili 2D
 62
   255
100
AcDbLine
 10
454.4267426476527
 20
473.2901525261834
 30
0.0
 11
454.3764053961242
 21
473.3027433854043
 31
0.0
  0
LINE
  5
42A
330
1F
100
AcDbEntity
  8
Linee visibili 2D
 62
   255
100
AcDbLine
 10
468.9653387064606
 20
454.2333227456541
 30
0.0
 11
468.9881415281758
 21
455.9908638732954
 31
0.0
  0
LINE
  5
42B
330
1F
100
AcDbEntity
  8
Linee visibili 2D
 62
   255
100
AcDbLine
 10
543.0864283199653
 20
472.3668375077012
 30
0.0
 11
543.0372561470341
 21
467.6278286012521
 31
0.0
  0
SPLINE
  5
42C
330
1F
100
AcDbEntity
  8
Linee visibili 2D
 62
   255
100
AcDbSpline
210
0.0
220
0.0
230
1.0
 70
    12
 71
     2
 72
     6
 73
     3
 74
     0
 42
0.0000000001
 43
0.0000000001
 40
-91.24764070144106
 40
-91.24764070144106
 40
-91.24764070144106
 40
0.0
 40
0.0
 40
0.0
 10
582.9046256469005
 20
461.7272756684815
 30
0.0
 41
2271.208263967819
 10
584.3129795943495
 20
468.4479179481756
 30
0.0
 41
1942.138881679911
 10
543.0864283199653
 20
472.3668375077006
 30
0.0
 41
2198.558047116272
  0
LINE
  5
42D
330
1F
100
AcDbEntity
  8
Linee visibili 2D
 62
   255
100
AcDbLine
 10
451.7778555158361
 20
468.3859916279089
 30
0.0
 11
451.8421503007468
 21
473.1126639643491
 31
0.0
  0
ARC
  5
42E
330
1F
100
AcDbEntity
  8
Linee visibili 2D
 62
   255
100
AcDbCircle
 10
362.5114094045751
 20
45.08276303216616
 30
0.0
 40
0.0300767905891247
100
AcDbArc
 50
124.2009615240839
 51
355.2773047211824
  0
LINE
  5
42F
330
1F
100
AcDbEntity
  8
Linee visibili 2D
 62
   255
100
AcDbLine
 10
411.3951141201298
 20
463.3584609997169
 30
0.0
 11
411.4066884742364
 21
463.1788957696083
 31
0.0
  0
SPLINE
  5
430
330
1F
100
AcDbEntity
  8
Linee visibili 2D
 62
   255
100
AcDbSpline
210
0.0
220
0.0
230
1.0
 70
    12
 71
     2
 72
     6
 73
     3
 74
     0
 42
0.0000000001
 43
0.0000000001
 40
-91.24764070144091
 40
-91.24764070144091
 40
-91.24764070144091
 40
-1.742505317745374
 40
-1.742505317745374
 40
-1.742505317745374
 10
451.8421503007467
 20
473.1126639643491
 30
0.0
 41
2204.227269985541
 10
411.4933899391767
 20
469.9547414618834
 30
0.0
 41
1956.506721592671
 10
411.3952231060156
 20
463.3984454756473
 30
0.0
 41
2269.81672684074
  0
ARC
  5
431
330
1F
100
AcDbEntity
  8
Linee visibili 2D
 62
   255
100
AcDbCircle
 10
418.6553921909232
 20
463.2744463643836
 30
0.0
 40
8.813247018884022
100
AcDbArc
 50
214.9603188349124
 51
258.1391000245907
  0
SPLINE
  5
432
330
1F
100
AcDbEntity
  8
Linee visibili 2D
 62
   255
100
AcDbSpline
210
0.0
220
0.0
230
1.0
 70
    12
 71
     2
 72
     6
 73
     3
 74
     0
 42
0.0000000001
 43
0.0000000001
 40
0.0
 40
0.0
 40
0.0
 40
91.24764070144087
 40
91.24764070144087
 40
91.24764070144087
 10
411.3384233767632
 20
458.6120463447081
 30
0.0
 41
2281.864583499386
 10
410.5361206238852
 20
465.2177549336875
 30
0.0
 41
1951.365874240471
 10
451.777855515836
 20
468.385991627903
 30
0.0
 41
2203.863175198055
  0
LINE
  5
433
330
1F
100
AcDbEntity
  8
Linee visibili 2D
 62
   255
100
AcDbLine
 10
415.5704269745929
 20
48.76645717966495
 30
0.0
 11
376.2054945389616
 21
46.70717610868405
 31
0.0
  0
LINE
  5
434
330
1F
100
AcDbEntity
  8
Linee visibili 2D
 62
   255
100
AcDbLine
 10
368.1362896676725
 20
40.85898996541413
 30
0.0
 11
368.1023152759597
 21
40.85648378639714
 31
0.0
  0
ARC
  5
435
330
1F
100
AcDbEntity
  8
Linee visibili 2D
 62
   255
100
AcDbCircle
 10
368.3667518599135
 20
40.89601858998068
 30
0.0
 40
0.2673755928045256
100
AcDbArc
 50
40.32035669544327
 51
188.5030712277639
  0
LINE
  5
436
330
1F
100
AcDbEntity
  8
Linee visibili 2D
 62
   255
100
AcDbLine
 10
368.6655122853538
 20
41.09644538811608
 30
0.0
 11
368.570609301214
 21
41.06902683040304
 31
0.0
  0
LINE
  5
437
330
1F
100
AcDbEntity
  8
Linee visibili 2D
 62
   255
100
AcDbLine
 10
363.362772387519
 20
45.24057182696414
 30
0.0
 11
368.6655122853538
 21
41.09644538811608
 31
0.0
  0
SPLINE
  5
438
330
1F
100
AcDbEntity
  8
Linee visibili 2D
 62
   255
100
AcDbSpline
210
0.0
220
0.0
230
1.0
 70
     8
 71
     3
 72
    12
 73
     8
 74
     0
 42
0.0000000001
 43
0.0000000001
 40
0.0
 40
0.0
 40
0.0
 40
0.0
 40
36.11382029680816
 40
70.61723991922975
 40
132.2993931657613
 40
174.9422991995779
 40
203.6825528076747
 40
203.6825528076747
 40
203.6825528076747
 40
203.6825528076747
 10
459.0984856924697
 20
83.11808991632604
 30
0.0
 10
470.8297608251231
 20
85.82227224506887
 30
0.0
 10
493.7996106288771
 20
90.95693885962854
 30
0.0
 10
536.9203448623745
 20
100.2224469221774
 30
0.0
 10
582.3359244660584
 20
109.0884714508065
 30
0.0
 10
626.1025834543709
 20
116.388789943964
 30
0.0
 10
649.8236128037946
 20
118.5268053215373
 30
0.0
 10
659.4116265197849
 20
118.6101613859632
 30
0.0
  0
LINE
  5
439
330
1F
100
AcDbEntity
  8
Linee visibili 2D
 62
   255
100
AcDbLine
 10
130.3019330595356
 20
271.1761325477658
 30
0.0
 11
130.4210882260601
 21
271.1998468931536
 31
0.0
  0
LINE
  5
43A
330
1F
100
AcDbEntity
  8
Linee visibili 2D
 62
   255
100
AcDbLine
 10
130.2057821166765
 20
271.5568522611634
 30
0.0
 11
130.3019330595356
 21
271.1761325477658
 31
0.0
  0
LINE
  5
43B
330
1F
100
AcDbEntity
  8
Linee visibili 2D
 62
   255
100
AcDbLine
 10
135.0376765137082
 20
263.4424099256665
 30
0.0
 11
133.6170958020159
 21
263.422652538848
 31
0.0
  0
LINE
  5
43C
330
1F
100
AcDbEntity
  8
Linee visibili 2D
 62
   255
100
AcDbLine
 10
129.7394950171606
 20
271.0408157956436
 30
0.0
 11
129.05556556805
 21
270.9323632813721
 31
0.0
  0
LINE
  5
43D
330
1F
100
AcDbEntity
  8
Linee visibili 2D
 62
   255
100
AcDbLine
 10
129.8297729728132
 20
271.0623179093747
 30
0.0
 11
129.7394950171606
 21
271.0408157956436
 31
0.0
  0
LINE
  5
43E
330
1F
100
AcDbEntity
  8
Linee visibili 2D
 62
   255
100
AcDbLine
 10
130.3019330595356
 20
271.1761325477658
 30
0.0
 11
129.8297729728131
 21
271.0623179093747
 31
0.0
  0
LINE
  5
43F
330
1F
100
AcDbEntity
  8
Linee visibili 2D
 62
   255
100
AcDbLine
 10
133.6170958020159
 20
263.422652538848
 30
0.0
 11
134.3034390399775
 21
263.6524940022539
 31
0.0
  0
LINE
  5
440
330
1F
100
AcDbEntity
  8
Linee visibili 2D
 62
   255
100
AcDbLine
 10
9.298610108453488
 20
234.3617451003156
 30
0.0
 11
9.367744779327504
 21
234.3641721355996
 31
0.0
  0
LINE
  5
441
330
1F
100
AcDbEntity
  8
Linee visibili 2D
 62
   255
100
AcDbLine
 10
8.039201611372544
 20
234.3301149345002
 30
0.0
 11
8.102926418058741
 21
234.3310930561496
 31
0.0
  0
LINE
  5
442
330
1F
100
AcDbEntity
  8
Linee visibili 2D
 62
   255
100
AcDbLine
 10
1.789216801015473
 20
237.3945795100973
 30
0.0
 11
1.766163704700975
 21
237.3723091018465
 31
0.0
  0
LINE
  5
443
330
1F
100
AcDbEntity
  8
Linee visibili 2D
 62
   255
100
AcDbLine
 10
2.289913544148361
 20
237.8344294328692
 30
0.0
 11
2.26056894213215
 21
237.810480095418
 31
0.0
  0
SPLINE
  5
444
330
1F
100
AcDbEntity
  8
Linee visibili 2D
 62
   255
100
AcDbSpline
210
0.0
220
0.0
230
1.0
 70
    12
 71
     3
 72
    11
 73
     7
 74
     0
 42
0.0000000001
 43
0.0000000001
 40
-0.4881110203421559
 40
-0.4881110203421559
 40
-0.4881110203421559
 40
-0.4881110203421559
 40
-0.4375
 40
-0.375
 40
-0.3125
 40
-0.2438204865355734
 40
-0.2438204865355734
 40
-0.2438204865355734
 40
-0.2438204865355734
 10
413.9479198850638
 20
320.8839768938129
 30
0.0
 41
2705.105083532746
 10
452.1400935126591
 20
330.4792558739382
 30
0.0
 41
2712.88097016349
 10
540.6395466040257
 20
353.4006293210569
 30
0.0
 41
2711.976222449428
 10
672.9154194879915
 20
390.3770232306166
 30
0.0
 41
2637.727923692587
 10
797.959472291447
 20
428.6852508842598
 30
0.0
 41
2490.597116301747
 10
858.2437479226965
 20
449.8732900572223
 30
0.0
 41
2366.793892830857
 10
882.9779144281346
 20
459.5270974412558
 30
0.0
 41
2300.256817795363
  0
ARC
  5
445
330
1F
100
AcDbEntity
  8
Linee visibili 2D
 62
   255
100
AcDbCircle
 10
-1412.285989134046
 20
7588.150014948173
 30
0.0
 40
7493.215791735773
100
AcDbArc
 50
282.2520911073375
 51
284.0694009273523
  0
LINE
  5
446
330
1F
100
AcDbEntity
  8
Linee visibili 2D
 62
   255
100
AcDbLine
 10
75.76188526006399
 20
244.5565473471888
 30
0.0
 11
146.4227821049183
 21
258.8595510284665
 31
0.0
  0
ARC
  5
447
330
1F
100
AcDbEntity
  8
Linee visibili 2D
 62
   255
100
AcDbCircle
 10
-42.45293817708944
 20
793.2744150447727
 30
0.0
 40
561.3074405447164
100
AcDbArc
 50
275.2971690798115
 51
282.1578790886184
  0
LINE
  5
448
330
1F
100
AcDbEntity
  8
Linee visibili 2D
 62
   255
100
AcDbLine
 10
432.6057479054606
 20
262.945603993935
 30
0.0
 11
432.6158140905214
 21
262.9688113694985
 31
0.0
  0
LINE
  5
449
330
1F
100
AcDbEntity
  8
Linee visibili 2D
 62
   255
100
AcDbLine
 10
433.7715406328053
 20
263.6945739855649
 30
0.0
 11
432.6158140905214
 21
262.9688113694986
 31
0.0
  0
LINE
  5
44A
330
1F
100
AcDbEntity
  8
Linee visibili 2D
 62
   255
100
AcDbLine
 10
439.8175433637479
 20
249.9364014893582
 30
0.0
 11
440.9933483774057
 21
250.6696372958426
 31
0.0
  0
LINE
  5
44B
330
1F
100
AcDbEntity
  8
Linee visibili 2D
 62
   255
100
AcDbLine
 10
475.2803048313925
 20
152.3428187085293
 30
0.0
 11
470.4736478088371
 21
152.425223465299
 31
0.0
  0
LINE
  5
44C
330
1F
100
AcDbEntity
  8
Linee visibili 2D
 62
   255
100
AcDbLine
 10
470.3871990560257
 20
159.3949048020023
 30
0.0
 11
475.1912489205326
 21
159.5563408171591
 31
0.0
  0
LINE
  5
44D
330
1F
100
AcDbEntity
  8
Linee visibili 2D
 62
   255
100
AcDbLine
 10
465.1129685711412
 20
192.4971423791736
 30
0.0
 11
469.7334334577232
 21
193.7861470082815
 31
0.0
  0
LINE
  5
44E
330
1F
100
AcDbEntity
  8
Linee visibili 2D
 62
   255
100
AcDbLine
 10
468.632758008653
 20
176.7099107556452
 30
0.0
 11
473.3722197430986
 21
177.4800449084313
 31
0.0
  0
LINE
  5
44F
330
1F
100
AcDbEntity
  8
Linee visibili 2D
 62
   255
100
AcDbLine
 10
413.4001789002103
 20
329.8954392406634
 30
0.0
 11
408.6324356156306
 21
329.9610260310357
 31
0.0
  0
LINE
  5
450
330
1F
100
AcDbEntity
  8
Linee visibili 2D
 62
   255
100
AcDbLine
 10
457.3698379674483
 20
393.7587730574705
 30
0.0
 11
457.3701795835867
 21
393.7191701977795
 31
0.0
  0
LINE
  5
451
330
1F
100
AcDbEntity
  8
Linee visibili 2D
 62
   255
100
AcDbLine
 10
467.4866701014146
 20
401.4434965789173
 30
0.0
 11
467.479884692019
 21
401.4066004364471
 31
0.0
  0
LINE
  5
452
330
1F
100
AcDbEntity
  8
Linee visibili 2D
 62
   255
100
AcDbLine
 10
464.4604377141083
 20
405.0846589265674
 30
0.0
 11
467.4866701014147
 21
401.4434965789173
 31
0.0
  0
LINE
  5
453
330
1F
100
AcDbEntity
  8
Linee visibili 2D
 62
   255
100
AcDbLine
 10
457.3698379674485
 20
393.7587730574705
 30
0.0
 11
454.6235873738368
 21
397.5891165533729
 31
0.0
  0
LINE
  5
454
330
1F
100
AcDbEntity
  8
Linee visibili 2D
 62
   255
100
AcDbLine
 10
433.7728122714445
 20
380.6199792376547
 30
0.0
 11
435.1286348175752
 21
379.4591219659954
 31
0.0
  0
LINE
  5
455
330
1F
100
AcDbEntity
  8
Linee visibili 2D
 62
   255
100
AcDbLine
 10
438.4304275400619
 20
384.9149158912435
 30
0.0
 11
441.5817520706938
 21
381.361880462398
 31
0.0
  0
LINE
  5
456
330
1F
100
AcDbEntity
  8
Linee visibili 2D
 62
   255
100
AcDbLine
 10
410.1434078205559
 20
314.8750211983143
 30
0.0
 11
414.8116564479915
 21
315.8595905677425
 31
0.0
  0
LINE
  5
457
330
1F
100
AcDbEntity
  8
Linee visibili 2D
 62
   255
100
AcDbLine
 10
408.71538296002
 20
325.6780195782208
 30
0.0
 11
413.477744649211
 21
325.9362572512123
 31
0.0
  0
LINE
  5
458
330
1F
100
AcDbEntity
  8
Linee visibili 2D
 62
   255
100
AcDbLine
 10
414.7141041961575
 20
355.3891210659893
 30
0.0
 11
418.9949016557885
 21
353.2984316122706
 31
0.0
  0
LINE
  5
459
330
1F
100
AcDbEntity
  8
Linee visibili 2D
 62
   255
100
AcDbLine
 10
542.0477856797916
 20
34.71889519389546
 30
0.0
 11
501.2568569380157
 21
34.44250805431358
 31
0.0
  0
LINE
  5
45A
330
1F
100
AcDbEntity
  8
Linee visibili 2D
 62
   255
100
AcDbLine
 10
490.2557845240561
 20
34.71169383661299
 30
0.0
 11
441.4936619065347
 21
41.75846189203011
 31
0.0
  0
LINE
  5
45B
330
1F
100
AcDbEntity
  8
Linee visibili 2D
 62
   255
100
AcDbLine
 10
445.1365072667405
 20
42.61673857644255
 30
0.0
 11
483.1145419037787
 21
42.81404138831579
 31
0.0
  0
LINE
  5
45C
330
1F
100
AcDbEntity
  8
Linee visibili 2D
 62
   255
100
AcDbLine
 10
483.1145419037787
 20
42.81404138831579
 30
0.0
 11
483.1087592464942
 21
42.34395622875892
 31
0.0
  0
LINE
  5
45D
330
1F
100
AcDbEntity
  8
Linee visibili 2D
 62
   255
100
AcDbLine
 10
483.1145419037787
 20
42.81404138831579
 30
0.0
 11
542.0477856797916
 21
34.71889519389546
 31
0.0
  0
LINE
  5
45E
330
1F
100
AcDbEntity
  8
Linee visibili 2D
 62
   255
100
AcDbLine
 10
483.1087592464942
 20
42.34395622875892
 30
0.0
 11
443.0830183925498
 21
42.13251453660205
 31
0.0
  0
LINE
  5
45F
330
1F
100
AcDbEntity
  8
Linee visibili 2D
 62
   255
100
AcDbLine
 10
538.5975303207056
 20
34.69551729496207
 30
0.0
 11
483.1087592464942
 21
42.34395622875892
 31
0.0
  0
LINE
  5
460
330
1F
100
AcDbEntity
  8
Linee visibili 2D
 62
   255
100
AcDbLine
 10
416.6636632308372
 20
294.5253881669602
 30
0.0
 11
416.6618204710359
 21
294.532745903218
 31
0.0
  0
LINE
  5
461
330
1F
100
AcDbEntity
  8
Linee visibili 2D
 62
   255
100
AcDbLine
 10
408.9905165816012
 20
335.747047471878
 30
0.0
 11
413.7301632479396
 21
335.2398560599331
 31
0.0
  0
LINE
  5
462
330
1F
100
AcDbEntity
  8
Linee visibili 2D
 62
   255
100
AcDbLine
 10
410.9534857181837
 20
345.6565218020183
 30
0.0
 11
415.5305945397887
 21
344.3284272737823
 31
0.0
  0
LINE
  5
463
330
1F
100
AcDbEntity
  8
Linee visibili 2D
 62
   255
100
AcDbLine
 10
469.9421861469649
 20
141.9849341799889
 30
0.0
 11
474.7320278095408
 21
141.5336668955252
 31
0.0
  0
LINE
  5
464
330
1F
100
AcDbEntity
  8
Linee visibili 2D
 62
   255
100
AcDbLine
 10
463.6676395941717
 20
110.0306377179428
 30
0.0
 11
468.2824982050784
 21
108.6314331464193
 31
0.0
  0
LINE
  5
465
330
1F
100
AcDbEntity
  8
Linee visibili 2D
 62
   255
100
AcDbLine
 10
458.374268895575
 20
94.36525391627667
 30
0.0
 11
462.8728991020591
 21
92.6151148929708
 31
0.0
  0
LINE
  5
466
330
1F
100
AcDbEntity
  8
Linee visibili 2D
 62
   255
100
AcDbLine
 10
489.5358632652285
 20
425.0335932495902
 30
0.0
 11
489.5296332251984
 21
425.0169417959419
 31
0.0
  0
LINE
  5
467
330
1F
100
AcDbEntity
  8
Linee visibili 2D
 62
   255
100
AcDbLine
 10
493.7050718641514
 20
432.1584873103977
 30
0.0
 11
493.7013974908068
 21
432.1481314965361
 31
0.0
  0
LINE
  5
468
330
1F
100
AcDbEntity
  8
Linee visibili 2D
 62
   255
100
AcDbLine
 10
489.4544701698023
 20
434.2949697729333
 30
0.0
 11
493.7050718641514
 21
432.1584873103977
 31
0.0
  0
LINE
  5
469
330
1F
100
AcDbEntity
  8
Linee visibili 2D
 62
   255
100
AcDbLine
 10
485.5634570840265
 20
427.6464232500418
 30
0.0
 11
489.5358632652285
 21
425.0335932495902
 31
0.0
  0
LINE
  5
46A
330
1F
100
AcDbEntity
  8
Linee visibili 2D
 62
   255
100
AcDbLine
 10
479.9674767983179
 20
420.2222928438252
 30
0.0
 11
485.5634449083878
 21
427.6464328473587
 31
0.0
  0
LINE
  5
46B
330
1F
100
AcDbEntity
  8
Linee visibili 2D
 62
   255
100
AcDbLine
 10
465.1129004968774
 20
192.4971672489621
 30
0.0
 11
460.0349886888874
 21
207.9042985432051
 31
0.0
  0
LINE
  5
46C
330
1F
100
AcDbEntity
  8
Linee visibili 2D
 62
   255
100
AcDbLine
 10
0.9558228356447815
 20
235.8345790561473
 30
0.0
 11
0.0249932662676593
 21
239.5727638817975
 31
0.0
  0
LINE
  5
46D
330
1F
100
AcDbEntity
  8
Linee visibili 2D
 62
   255
100
AcDbLine
 10
456.5003566055682
 20
77.01154126162098
 30
0.0
 11
449.7537975188179
 21
62.23849190147241
 31
0.0
  0
LINE
  5
46E
330
1F
100
AcDbEntity
  8
Linee visibili 2D
 62
   255
100
AcDbLine
 10
936.8497397537146
 20
493.0165549939156
 30
0.0
 11
937.9710393659785
 21
488.9362829474882
 31
0.0
  0
ENDSEC
  0
SECTION
  2
OBJECTS
  0
DICTIONARY
  5
C
330
0
100
AcDbDictionary
281
     1
  3
ACAD_GROUP
350
D
  3
ACAD_LAYOUT
350
1A
  3
ACAD_MLEADERSTYLE
350
470
  3
ACAD_MLINESTYLE
350
17
  3
ACAD_PLOTSETTINGS
350
19
  3
ACAD_PLOTSTYLENAME
350
E
  3
ACAD_TABLESTYLE
350
46F
  3
ACAD_VISUALSTYLE
350
2A
  0
DICTIONARY
  5
D
102
{ACAD_REACTORS
330
C
102
}
330
C
100
AcDbDictionary
281
     1
  0
DICTIONARY
  5
1A
102
{ACAD_REACTORS
330
C
102
}
330
C
100
AcDbDictionary
281
     1
  3
Layout1
350
1E
  3
Layout2
350
26
  3
Model
350
22
  0
DICTIONARY
  5
470
102
{ACAD_REACTORS
330
C
102
}
330
C
100
AcDbDictionary
281
     1
  0
DICTIONARY
  5
17
102
{ACAD_REACTORS
330
C
102
}
330
C
100
AcDbDictionary
281
     1
  3
Standard
350
18
  0
DICTIONARY
  5
19
102
{ACAD_REACTORS
330
C
102
}
330
C
100
AcDbDictionary
281
     1
  0
ACDBDICTIONARYWDFLT
  5
E
102
{ACAD_REACTORS
330
C
102
}
330
C
100
AcDbDictionary
281
     1
  3
Normal
350
F
100
AcDbDictionaryWithDefault
340
F
  0
DICTIONARY
  5
46F
102
{ACAD_REACTORS
330
C
102
}
330
C
100
AcDbDictionary
281
     1
  0
DICTIONARY
  5
2A
102
{ACAD_REACTORS
330
C
102
}
330
C
100
AcDbDictionary
281
     1
  3
2dWireframe
350
2F
  3
3D Hidden
350
31
  3
3dWireframe
350
30
  3
Basic
350
32
  3
Brighten
350
36
  3
ColorChange
350
3A
  3
Conceptual
350
34
  3
Dim
350
35
  3
Facepattern
350
39
  3
Flat
350
2B
  3
FlatWithEdges
350
2C
  3
Gouraud
350
2D
  3
GouraudWithEdges
350
2E
  3
Linepattern
350
38
  3
Realistic
350
33
  3
Thicken
350
37
  0
LAYOUT
  5
1E
102
{ACAD_REACTORS
330
1A
102
}
330
1A
100
AcDbPlotSettings
  1

  2
none_device
  4

  6

 40
0.0
 41
0.0
 42
0.0
 43
0.0
 44
0.0
 45
0.0
 46
0.0
 47
0.0
 48
0.0
 49
0.0
140
0.0
141
0.0
142
1.0
143
1.0
 70
   688
 72
     0
 73
     0
 74
     5
  7

 75
    16
 76
     0
 77
     2
 78
   300
147
1.0
148
0.0
149
0.0
100
AcDbLayout
  1
Layout1
 70
     1
 71
     1
 10
0.0
 20
0.0
 11
12.0
 21
9.0
 12
0.0
 22
0.0
 32
0.0
 14
1.000000000000000E+20
 24
1.000000000000000E+20
 34
1.000000000000000E+20
 15
-1.000000000000000E+20
 25
-1.000000000000000E+20
 35
-1.000000000000000E+20
146
0.0
 13
0.0
 23
0.0
 33
0.0
 16
1.0
 26
0.0
 36
0.0
 17
0.0
 27
1.0
 37
0.0
 76
     0
330
1B
  0
LAYOUT
  5
26
102
{ACAD_REACTORS
330
1A
102
}
330
1A
100
AcDbPlotSettings
  1

  2
none_device
  4

  6

 40
0.0
 41
0.0
 42
0.0
 43
0.0
 44
0.0
 45
0.0
 46
0.0
 47
0.0
 48
0.0
 49
0.0
140
0.0
141
0.0
142
1.0
143
1.0
 70
   688
 72
     0
 73
     0
 74
     5
  7

 75
    16
 76
     0
 77
     2
 78
   300
147
1.0
148
0.0
149
0.0
100
AcDbLayout
  1
Layout2
 70
     1
 71
     2
 10
0.0
 20
0.0
 11
0.0
 21
0.0
 12
0.0
 22
0.0
 32
0.0
 14
0.0
 24
0.0
 34
0.0
 15
0.0
 25
0.0
 35
0.0
146
0.0
 13
0.0
 23
0.0
 33
0.0
 16
1.0
 26
0.0
 36
0.0
 17
0.0
 27
1.0
 37
0.0
 76
     0
330
23
  0
LAYOUT
  5
22
102
{ACAD_REACTORS
330
1A
102
}
330
1A
100
AcDbPlotSettings
  1

  2
none_device
  4

  6

 40
0.0
 41
0.0
 42
0.0
 43
0.0
 44
0.0
 45
0.0
 46
0.0
 47
0.0
 48
0.0
 49
0.0
140
0.0
141
0.0
142
1.0
143
1.0
 70
  1712
 72
     0
 73
     0
 74
     0
  7

 75
     0
 76
     0
 77
     2
 78
   300
147
1.0
148
0.0
149
0.0
100
AcDbLayout
  1
Model
 70
     1
 71
     0
 10
0.0
 20
0.0
 11
12.0
 21
9.0
 12
0.0
 22
0.0
 32
0.0
 14
0.0
 24
-0.0003675295167958
 34
0.0
 15
2124.162919479087
 25
1668.787663427801
 35
0.0
146
0.0
 13
0.0
 23
0.0
 33
0.0
 16
1.0
 26
0.0
 36
0.0
 17
0.0
 27
1.0
 37
0.0
 76
     0
330
1F
331
29
  0
MLINESTYLE
  5
18
102
{ACAD_REACTORS
330
17
102
}
330
17
100
AcDbMlineStyle
  2
Standard
 70
     0
  3

 62
   256
 51
90.0
 52
90.0
 71
     2
 49
0.5
 62
   256
  6
BYLAYER
 49
-0.5
 62
   256
  6
BYLAYER
  0
ACDBPLACEHOLDER
  5
F
102
{ACAD_REACTORS
330
E
102
}
330
E
  0
VISUALSTYLE
  5
2F
102
{ACAD_REACTORS
330
2A
102
}
330
2A
100
AcDbVisualStyle
  2
2dWireframe
 70
     4
 71
     0
 72
     2
 73
     0
 90
        0
 40
-0.6
 41
-30.0
 62
     5
 63
     7
421
 16777215
 74
     1
 91
        4
 64
     7
 65
   257
 75
     1
175
     1
 42
1.0
 92
        0
 66
   257
 43
1.0
 76
     1
 77
     6
 78
     2
 67
     7
 79
     5
170
     0
171
     0
290
     0
174
     0
 93
        1
 44
0.0
173
     0
291
     0
 45
0.0
1001
ACAD
1000
AcDbSavedByObjectVersion
1070
     0
  0
VISUALSTYLE
  5
31
102
{ACAD_REACTORS
330
2A
102
}
330
2A
100
AcDbVisualStyle
  2
3D Hidden
 70
     6
 71
     1
 72
     2
 73
     2
 90
        0
 40
-0.6
 41
-30.0
 62
     5
 63
     7
421
 16777215
 74
     2
 91
        2
 64
     7
 65
   257
 75
     2
175
     1
 42
40.0
 92
        0
 66
   257
 43
1.0
 76
     1
 77
     6
 78
     2
 67
     7
 79
     3
170
     0
171
     0
290
     0
174
     0
 93
        1
 44
0.0
173
     0
291
     0
 45
0.0
1001
ACAD
1000
AcDbSavedByObjectVersion
1070
     0
  0
VISUALSTYLE
  5
30
102
{ACAD_REACTORS
330
2A
102
}
330
2A
100
AcDbVisualStyle
  2
3dWireframe
 70
     5
 71
     0
 72
     2
 73
     0
 90
        0
 40
-0.6
 41
-30.0
 62
     5
 63
     7
421
 16777215
 74
     1
 91
        4
 64
     7
 65
   257
 75
     1
175
     1
 42
1.0
 92
        0
 66
   257
 43
1.0
 76
     1
 77
     6
 78
     2
 67
     7
 79
     5
170
     0
171
     0
290
     0
174
     0
 93
        1
 44
0.0
173
     0
291
     0
 45
0.0
1001
ACAD
1000
AcDbSavedByObjectVersion
1070
     0
  0
VISUALSTYLE
  5
32
102
{ACAD_REACTORS
330
2A
102
}
330
2A
100
AcDbVisualStyle
  2
Basic
 70
     7
 71
     1
 72
     0
 73
     1
 90
        0
 40
-0.6
 41
-30.0
 62
     5
 63
     7
421
 16777215
 74
     0
 91
        4
 64
     7
 65
   257
 75
     1
175
     1
 42
1.0
 92
        8
 66
     7
 43
1.0
 76
     1
 77
     6
 78
     2
 67
     7
 79
     5
170
     0
171
     0
290
     0
174
     0
 93
        1
 44
0.0
173
     0
291
     1
 45
0.0
1001
ACAD
1000
AcDbSavedByObjectVersion
1070
     0
  0
VISUALSTYLE
  5
36
102
{ACAD_REACTORS
330
2A
102
}
330
2A
100
AcDbVisualStyle
  2
Brighten
 70
    12
 71
     2
 72
     2
 73
     0
 90
        0
 40
-0.6
 41
-30.0
 62
     5
 63
     7
421
 16777215
 74
     1
 91
        4
 64
     7
 65
   257
 75
     1
175
     1
 42
1.0
 92
        8
 66
     7
 43
1.0
 76
     1
 77
     6
 78
     2
 67
     7
 79
     5
170
     0
171
     0
290
     0
174
     0
 93
        1
 44
50.0
173
     0
291
     1
 45
0.0
1001
ACAD
1000
AcDbSavedByObjectVersion
1070
     0
  0
VISUALSTYLE
  5
3A
102
{ACAD_REACTORS
330
2A
102
}
330
2A
100
AcDbVisualStyle
  2
ColorChange
 70
    16
 71
     2
 72
     2
 73
     3
 90
        0
 40
-0.6
 41
-30.0
 62
     5
 63
     8
421
  8421504
 74
     1
 91
        4
 64
     7
 65
   257
 75
     1
175
     1
 42
1.0
 92
        8
 66
     8
424
  8421504
 43
1.0
 76
     1
 77
     6
 78
     2
 67
     7
 79
     5
170
     0
171
     0
290
     0
174
     0
 93
        1
 44
0.0
173
     0
291
     1
 45
0.0
1001
ACAD
1000
AcDbSavedByObjectVersion
1070
     0
  0
VISUALSTYLE
  5
34
102
{ACAD_REACTORS
330
2A
102
}
330
2A
100
AcDbVisualStyle
  2
Conceptual
 70
     9
 71
     3
 72
     2
 73
     0
 90
        0
 40
-0.6
 41
-30.0
 62
     5
 63
     7
421
 16777215
 74
     2
 91
        2
 64
     7
 65
   257
 75
     1
175
     1
 42
40.0
 92
        8
 66
     7
 43
1.0
 76
     1
 77
     6
 78
     2
 67
     7
 79
     3
170
     0
171
     0
290
     0
174
     0
 93
        1
 44
0.0
173
     0
291
     0
 45
0.0
1001
ACAD
1000
AcDbSavedByObjectVersion
1070
     0
  0
VISUALSTYLE
  5
35
102
{ACAD_REACTORS
330
2A
102
}
330
2A
100
AcDbVisualStyle
  2
Dim
 70
    11
 71
     2
 72
     2
 73
     0
 90
        0
 40
-0.6
 41
-30.0
 62
     5
 63
     7
421
 16777215
 74
     1
 91
        4
 64
     7
 65
   257
 75
     1
175
     1
 42
1.0
 92
        8
 66
     7
 43
1.0
 76
     1
 77
     6
 78
     2
 67
     7
 79
     5
170
     0
171
     0
290
     0
174
     0
 93
        1
 44
-50.0
173
     0
291
     1
 45
0.0
1001
ACAD
1000
AcDbSavedByObjectVersion
1070
     0
  0
VISUALSTYLE
  5
39
102
{ACAD_REACTORS
330
2A
102
}
330
2A
100
AcDbVisualStyle
  2
Facepattern
 70
    15
 71
     2
 72
     2
 73
     0
 90
        0
 40
-0.6
 41
-30.0
 62
     5
 63
     7
421
 16777215
 74
     1
 91
        4
 64
     7
 65
   257
 75
     1
175
     1
 42
1.0
 92
        8
 66
     7
 43
1.0
 76
     1
 77
     6
 78
     2
 67
     7
 79
     5
170
     0
171
     0
290
     0
174
     0
 93
        1
 44
0.0
173
     0
291
     1
 45
0.0
1001
ACAD
1000
AcDbSavedByObjectVersion
1070
     0
  0
VISUALSTYLE
  5
2B
102
{ACAD_REACTORS
330
2A
102
}
330
2A
100
AcDbVisualStyle
  2
Flat
 70
     0
 71
     2
 72
     1
 73
     1
 90
        2
 40
-0.6
 41
30.0
 62
     5
 63
     7
421
 16777215
 74
     0
 91
        4
 64
     7
 65
   257
 75
     1
175
     1
 42
1.0
 92
        8
 66
     7
 43
1.0
 76
     1
 77
     6
 78
     2
 67
     7
 79
     5
170
     0
171
     0
290
     0
174
     0
 93
       13
 44
0.0
173
     0
291
     1
 45
0.0
1001
ACAD
1000
AcDbSavedByObjectVersion
1070
     0
  0
VISUALSTYLE
  5
2C
102
{ACAD_REACTORS
330
2A
102
}
330
2A
100
AcDbVisualStyle
  2
FlatWithEdges
 70
     1
 71
     2
 72
     1
 73
     1
 90
        2
 40
-0.6
 41
30.0
 62
     5
 63
     7
421
 16777215
 74
     1
 91
        4
 64
     7
 65
   257
 75
     1
175
     1
 42
1.0
 92
        0
 66
   257
 43
1.0
 76
     1
 77
     6
 78
     2
 67
     7
 79
     5
170
     0
171
     0
290
     0
174
     0
 93
       13
 44
0.0
173
     0
291
     1
 45
0.0
1001
ACAD
1000
AcDbSavedByObjectVersion
1070
     0
  0
VISUALSTYLE
  5
2D
102
{ACAD_REACTORS
330
2A
102
}
330
2A
100
AcDbVisualStyle
  2
Gouraud
 70
     2
 71
     2
 72
     2
 73
     1
 90
        2
 40
-0.6
 41
30.0
 62
     5
 63
     7
421
 16777215
 74
     0
 91
        4
 64
     7
 65
   257
 75
     1
175
     1
 42
1.0
 92
        0
 66
     7
 43
1.0
 76
     1
 77
     6
 78
     2
 67
     7
 79
     5
170
     0
171
     0
290
     0
174
     0
 93
       13
 44
0.0
173
     0
291
     1
 45
0.0
1001
ACAD
1000
AcDbSavedByObjectVersion
1070
     0
  0
VISUALSTYLE
  5
2E
102
{ACAD_REACTORS
330
2A
102
}
330
2A
100
AcDbVisualStyle
  2
GouraudWithEdges
 70
     3
 71
     2
 72
     2
 73
     1
 90
        2
 40
-0.6
 41
30.0
 62
     5
 63
     7
421
 16777215
 74
     1
 91
        4
 64
     7
 65
   257
 75
     1
175
     1
 42
1.0
 92
        0
 66
   257
 43
1.0
 76
     1
 77
     6
 78
     2
 67
     7
 79
     5
170
     0
171
     0
290
     0
174
     0
 93
       13
 44
0.0
173
     0
291
     1
 45
0.0
1001
ACAD
1000
AcDbSavedByObjectVersion
1070
     0
  0
VISUALSTYLE
  5
38
102
{ACAD_REACTORS
330
2A
102
}
330
2A
100
AcDbVisualStyle
  2
Linepattern
 70
    14
 71
     2
 72
     2
 73
     0
 90
        0
 40
-0.6
 41
-30.0
 62
     5
 63
     7
421
 16777215
 74
     1
 91
        4
 64
     7
 65
   257
 75
     7
175
     7
 42
1.0
 92
        8
 66
     7
 43
1.0
 76
     1
 77
     6
 78
     2
 67
     7
 79
     5
170
     0
171
     0
290
     0
174
     0
 93
        1
 44
0.0
173
     0
291
     1
 45
0.0
1001
ACAD
1000
AcDbSavedByObjectVersion
1070
     0
  0
VISUALSTYLE
  5
33
102
{ACAD_REACTORS
330
2A
102
}
330
2A
100
AcDbVisualStyle
  2
Realistic
 70
     8
 71
     2
 72
     2
 73
     0
 90
        0
 40
-0.6
 41
-30.0
 62
     5
 63
     7
421
 16777215
 74
     1
 91
        0
 64
     7
 65
   257
 75
     1
175
     1
 42
1.0
 92
        8
 66
     8
424
  7895160
 43
1.0
 76
     1
 77
     6
 78
     2
 67
     7
 79
     5
170
     0
171
     0
290
     0
174
     0
 93
       13
 44
0.0
173
     0
291
     0
 45
0.0
1001
ACAD
1000
AcDbSavedByObjectVersion
1070
     0
  0
VISUALSTYLE
  5
37
102
{ACAD_REACTORS
330
2A
102
}
330
2A
100
AcDbVisualStyle
  2
Thicken
 70
    13
 71
     2
 72
     2
 73
     0
 90
        0
 40
-0.6
 41
-30.0
 62
     5
 63
     7
421
 16777215
 74
     1
 91
        4
 64
     7
 65
   257
 75
     1
175
     1
 42
1.0
 92
       12
 66
     7
 43
1.0
 76
     1
 77
     6
 78
     2
 67
     7
 79
     5
170
     0
171
     0
290
     0
174
     0
 93
        1
 44
0.0
173
     0
291
     1
 45
0.0
1001
ACAD
1000
AcDbSavedByObjectVersion
1070
     0
  0
ENDSEC
  0
EOF
