  0
SECTION
  2
HEADER
  9
$ACADVER
  1
AC1015
  9
$ACADMAINTVER
 70
    20
  9
$DWGCODEPAGE
  3
ANSI_1252
  9
$INSBASE
 10
0.0
 20
0.0
 30
0.0
  9
$EXTMIN
 10
-176.7968749717255
 20
-345.7396086686746
 30
0.0
  9
$EXTMAX
 10
620.7484347146781
 20
373.1819140542284
 30
0.0
  9
$LIMMIN
 10
0.0
 20
0.0
  9
$LIMMAX
 10
0.0
 20
0.0
  9
$ORTHOMODE
 70
     0
  9
$REGENMODE
 70
     1
  9
$FILLMODE
 70
     1
  9
$QTEXTMODE
 70
     0
  9
$MIRRTEXT
 70
     1
  9
$LTSCALE
 40
1.0
  9
$ATTMODE
 70
     1
  9
$TEXTSIZE
 40
0.0
  9
$TRACEWID
 40
0.05
  9
$TEXTSTYLE
  7
STANDARD
  9
$CLAYER
  8
0
  9
$CELTYPE
  6
CONTINUOUS
  9
$CECOLOR
 62
   256
  9
$CELTSCALE
 40
1.0
  9
$DISPSILH
 70
     0
  9
$DIMSCALE
 40
1.0
  9
$DIMASZ
 40
6.0
  9
$DIMEXO
 40
1.0
  9
$DIMDLI
 40
0.38
  9
$DIMRND
 40
0.0
  9
$DIMDLE
 40
1.0
  9
$DIMEXE
 40
0.18
  9
$DIMTP
 40
0.0
  9
$DIMTM
 40
0.0
  9
$DIMTXT
 40
3.5
  9
$DIMCEN
 40
0.09
  9
$DIMTSZ
 40
0.0
  9
$DIMTOL
 70
     0
  9
$DIMLIM
 70
     0
  9
$DIMTIH
 70
     1
  9
$DIMTOH
 70
     1
  9
$DIMSE1
 70
     0
  9
$DIMSE2
 70
     0
  9
$DIMTAD
 70
     1
  9
$DIMZIN
 70
     0
  9
$DIMBLK
  1

  9
$DIMASO
 70
     1
  9
$DIMSHO
 70
     1
  9
$DIMPOST
  1

  9
$DIMAPOST
  1

  9
$DIMALT
 70
     0
  9
$DIMALTD
 70
     2
  9
$DIMALTF
 40
0.0394
  9
$DIMLFAC
 40
5.0
  9
$DIMTOFL
 70
     0
  9
$DIMTVP
 40
0.0
  9
$DIMTIX
 70
     0
  9
$DIMSOXD
 70
     0
  9
$DIMSAH
 70
     0
  9
$DIMBLK1
  1

  9
$DIMBLK2
  1

  9
$DIMSTYLE
  2
STANDARD
  9
$DIMCLRD
 70
     0
  9
$DIMCLRE
 70
     0
  9
$DIMCLRT
 70
     0
  9
$DIMTFAC
 40
1.0
  9
$DIMGAP
 40
1.0
  9
$DIMJUST
 70
     0
  9
$DIMSD1
 70
     0
  9
$DIMSD2
 70
     0
  9
$DIMTOLJ
 70
     1
  9
$DIMTZIN
 70
     0
  9
$DIMALTZ
 70
     0
  9
$DIMALTTZ
 70
     0
  9
$DIMUPT
 70
     0
  9
$DIMDEC
 70
     4
  9
$DIMTDEC
 70
     4
  9
$DIMALTU
 70
     2
  9
$DIMALTTD
 70
     2
  9
$DIMTXSTY
  7
STANDARD
  9
$DIMAUNIT
 70
     0
  9
$DIMADEC
 70
     0
  9
$DIMALTRND
 40
0.0
  9
$DIMAZIN
 70
     0
  9
$DIMDSEP
 70
    46
  9
$DIMATFIT
 70
     3
  9
$DIMFRAC
 70
     0
  9
$DIMLDRBLK
  1

  9
$DIMLUNIT
 70
     2
  9
$DIMLWD
 70
    -2
  9
$DIMLWE
 70
    -2
  9
$DIMTMOVE
 70
     0
  9
$LUNITS
 70
     2
  9
$LUPREC
 70
     2
  9
$SKETCHINC
 40
0.1
  9
$FILLETRAD
 40
0.0
  9
$AUNITS
 70
     0
  9
$AUPREC
 70
     2
  9
$MENU
  1
acad
  9
$ELEVATION
 40
0.0
  9
$PELEVATION
 40
0.0
  9
$THICKNESS
 40
0.0
  9
$LIMCHECK
 70
     0
  9
$CHAMFERA
 40
0.0
  9
$CHAMFERB
 40
0.0
  9
$CHAMFERC
 40
0.0
  9
$CHAMFERD
 40
0.0
  9
$SKPOLY
 70
     0
  9
$TDCREATE
 40
2444972.041666667
  9
$TDUCREATE
 40
2444972.000000000
  9
$TDUPDATE
 40
2453768.829148218
  9
$TDUUPDATE
 40
2453768.787481551
  9
$TDINDWG
 40
0.0033986111
  9
$TDUSRTIMER
 40
0.0033986111
  9
$USRTIMER
 70
     1
  9
$ANGBASE
 50
0.0
  9
$ANGDIR
 70
     0
  9
$PDMODE
 70
     0
  9
$PDSIZE
 40
-1.0
  9
$PLINEWID
 40
0.0
  9
$SPLFRAME
 70
     0
  9
$SPLINETYPE
 70
     6
  9
$SPLINESEGS
 70
     8
  9
$HANDSEED
  5
9B4
  9
$SURFTAB1
 70
     6
  9
$SURFTAB2
 70
     6
  9
$SURFTYPE
 70
     6
  9
$SURFU
 70
     6
  9
$SURFV
 70
     6
  9
$UCSBASE
  2

  9
$UCSNAME
  2

  9
$UCSORG
 10
0.0
 20
0.0
 30
0.0
  9
$UCSXDIR
 10
1.0
 20
0.0
 30
0.0
  9
$UCSYDIR
 10
0.0
 20
1.0
 30
0.0
  9
$UCSORTHOREF
  2

  9
$UCSORTHOVIEW
 70
     1
  9
$UCSORGTOP
 10
0.0
 20
0.0
 30
0.0
  9
$UCSORGBOTTOM
 10
0.0
 20
0.0
 30
0.0
  9
$UCSORGLEFT
 10
0.0
 20
0.0
 30
0.0
  9
$UCSORGRIGHT
 10
0.0
 20
0.0
 30
0.0
  9
$UCSORGFRONT
 10
0.0
 20
0.0
 30
0.0
  9
$UCSORGBACK
 10
0.0
 20
0.0
 30
0.0
  9
$PUCSBASE
  2

  9
$PUCSNAME
  2

  9
$PUCSORG
 10
0.0
 20
0.0
 30
0.0
  9
$PUCSXDIR
 10
1.0
 20
0.0
 30
0.0
  9
$PUCSYDIR
 10
0.0
 20
1.0
 30
0.0
  9
$PUCSORTHOREF
  2

  9
$PUCSORTHOVIEW
 70
     0
  9
$PUCSORGTOP
 10
0.0
 20
0.0
 30
0.0
  9
$PUCSORGBOTTOM
 10
0.0
 20
0.0
 30
0.0
  9
$PUCSORGLEFT
 10
0.0
 20
0.0
 30
0.0
  9
$PUCSORGRIGHT
 10
0.0
 20
0.0
 30
0.0
  9
$PUCSORGFRONT
 10
0.0
 20
0.0
 30
0.0
  9
$PUCSORGBACK
 10
0.0
 20
0.0
 30
0.0
  9
$USERI1
 70
     0
  9
$USERI2
 70
     0
  9
$USERI3
 70
     0
  9
$USERI4
 70
     0
  9
$USERI5
 70
     0
  9
$USERR1
 40
0.0
  9
$USERR2
 40
0.0
  9
$USERR3
 40
0.0
  9
$USERR4
 40
0.0
  9
$USERR5
 40
0.0
  9
$WORLDVIEW
 70
     1
  9
$SHADEDGE
 70
     3
  9
$SHADEDIF
 70
    70
  9
$TILEMODE
 70
     1
  9
$MAXACTVP
 70
    16
  9
$PINSBASE
 10
0.0
 20
0.0
 30
0.0
  9
$PLIMCHECK
 70
     0
  9
$PEXTMIN
 10
1.000000000000000E+20
 20
1.000000000000000E+20
 30
1.000000000000000E+20
  9
$PEXTMAX
 10
-1.000000000000000E+20
 20
-1.000000000000000E+20
 30
-1.000000000000000E+20
  9
$PLIMMIN
 10
0.0
 20
0.0
  9
$PLIMMAX
 10
12.0
 20
9.0
  9
$UNITMODE
 70
     0
  9
$VISRETAIN
 70
     0
  9
$PLINEGEN
 70
     1
  9
$PSLTSCALE
 70
     1
  9
$TREEDEPTH
 70
  3020
  9
$CMLSTYLE
  2
STANDARD
  9
$CMLJUST
 70
     0
  9
$CMLSCALE
 40
1.0
  9
$PROXYGRAPHICS
 70
     0
  9
$MEASUREMENT
 70
     0
  9
$CELWEIGHT
370
    -1
  9
$ENDCAPS
280
     0
  9
$JOINSTYLE
280
     0
  9
$LWDISPLAY
290
     0
  9
$INSUNITS
 70
     0
  9
$HYPERLINKBASE
  1

  9
$STYLESHEET
  1

  9
$XEDIT
290
     1
  9
$CEPSNTYPE
380
     0
  9
$PSTYLEMODE
290
     1
  9
$FINGERPRINTGUID
  2
{C60BDA7A-1FAD-4DB4-82F6-A94E5B23847D}
  9
$VERSIONGUID
  2
{82495D87-9133-4C62-8991-1DF256FEE8BD}
  9
$EXTNAMES
290
     1
  9
$PSVPSCALE
 40
0.0
  9
$OLESTARTUP
290
     0
  0
ENDSEC
  0
SECTION
  2
CLASSES
  0
CLASS
  1
IMAGE
  2
AcDbRasterImage
  3
ISM
 90
    32895
280
     0
281
     1
  0
CLASS
  1
DICTIONARYVAR
  2
AcDbDictionaryVar
  3
ObjectDBX Classes
 90
        0
280
     0
281
     0
  0
CLASS
  1
RASTERVARIABLES
  2
AcDbRasterVariables
  3
ISM
 90
    32768
280
     0
281
     0
  0
CLASS
  1
IMAGEDEF
  2
AcDbRasterImageDef
  3
ISM
 90
    32768
280
     0
281
     0
  0
CLASS
  1
IMAGEDEF_REACTOR
  2
AcDbRasterImageDefReactor
  3
ISM
 90
    32769
280
     0
281
     0
  0
CLASS
  1
IDBUFFER
  2
AcDbIdBuffer
  3
ObjectDBX Classes
 90
    32768
280
     0
281
     0
  0
CLASS
  1
SPATIAL_FILTER
  2
AcDbSpatialFilter
  3
ObjectDBX Classes
 90
    32768
280
     0
281
     0
  0
CLASS
  1
SORTENTSTABLE
  2
AcDbSortentsTable
  3
ObjectDBX Classes
 90
    32768
280
     0
281
     0
  0
CLASS
  1
LAYER_INDEX
  2
AcDbLayerIndex
  3
ObjectDBX Classes
 90
    32768
280
     0
281
     0
  0
CLASS
  1
SPATIAL_INDEX
  2
AcDbSpatialIndex
  3
ObjectDBX Classes
 90
    32768
280
     0
281
     0
  0
CLASS
  1
OBJECT_PTR
  2
CAseDLPNTableRecord
  3
ASE-LPNTableRecord
 90
    32769
280
     0
281
     0
  0
CLASS
  1
LAYOUT
  2
AcDbLayout
  3
ObjectDBX Classes
 90
        0
280
     0
281
     0
  0
CLASS
  1
PLOTSETTINGS
  2
AcDbPlotSettings
  3
ObjectDBX Classes
 90
    32768
280
     0
281
     0
  0
CLASS
  1
ACDBDICTIONARYWDFLT
  2
AcDbDictionaryWithDefault
  3
ObjectDBX Classes
 90
        0
280
     0
281
     0
  0
CLASS
  1
ACDBPLACEHOLDER
  2
AcDbPlaceHolder
  3
ObjectDBX Classes
 90
        0
280
     0
281
     0
  0
CLASS
  1
VBA_PROJECT
  2
AcDbVbaProject
  3
acad
 90
    32768
280
     0
281
     0
  0
CLASS
  1
WIPEOUT
  2
AcDbWipeout
  3
"WipeOut|Product Desc: Object Enabler for WipeOut entity^I^I^I^I^I^I|Company: Autodesk, Inc.^I^I^I^I^I^I|WEB Address: www.autodesk.com"
 90
    32895
280
     0
281
     1
  0
CLASS
  1
WIPEOUTVARIABLES
  2
AcDbWipeoutVariables
  3
"WipeOut|Product Desc:     WipeOut Dbx Application|Company:          Autodesk, Inc.|WEB Address:      www.autodesk.com"
 90
    32768
280
     0
281
     0
  0
CLASS
  1
RTEXT
  2
RText
  3
RText|AutoCAD Express Tool|expresstools@autodesk.com
 90
    32768
280
     0
281
     1
  0
CLASS
  1
ARCALIGNEDTEXT
  2
AcDbArcAlignedText
  3
ATEXT|AutoCAD Express Tool|expresstools@autodesk.com
 90
    32768
280
     0
281
     1
  0
ENDSEC
  0
SECTION
  2
TABLES
  0
TABLE
  2
VPORT
  5
7
330
0
100
AcDbSymbolTable
 70
     2
  0
VPORT
  5
9AC
330
7
100
AcDbSymbolTableRecord
100
AcDbViewportTableRecord
  2
*Active
 70
     0
 10
0.0
 20
0.0
 11
1.0
 21
1.0
 12
260.8197102608858
 22
13.69616975949145
 13
0.0
 23
0.0
 14
1.0
 24
1.0
 15
0.0
 25
0.0
 16
0.0
 26
0.0
 36
1.0
 17
0.0
 27
0.0
 37
0.0
 40
724.9693373658741
 41
1.569570871261378
 42
50.0
 43
0.0
 44
0.0
 50
0.0
 51
0.0
 71
     0
 72
  2000
 73
     1
 74
     1
 75
     0
 76
     0
 77
     0
 78
     0
281
     0
 65
     1
110
0.0
120
0.0
130
0.0
111
1.0
121
0.0
131
0.0
112
0.0
122
1.0
132
0.0
 79
     1
146
0.0
  0
ENDTAB
  0
TABLE
  2
LTYPE
  5
4
330
0
100
AcDbSymbolTable
 70
     6
  0
LTYPE
  5
11
330
4
100
AcDbSymbolTableRecord
100
AcDbLinetypeTableRecord
  2
BYBLOCK
 70
     0
  3

 72
    65
 73
     0
 40
0.0
  0
LTYPE
  5
12
330
4
100
AcDbSymbolTableRecord
100
AcDbLinetypeTableRecord
  2
BYLAYER
 70
     0
  3

 72
    65
 73
     0
 40
0.0
  0
LTYPE
  5
13
330
4
100
AcDbSymbolTableRecord
100
AcDbLinetypeTableRecord
  2
CONTINUOUS
 70
     0
  3
Solid line
 72
    65
 73
     0
 40
0.0
  0
LTYPE
  5
1E
330
4
100
AcDbSymbolTableRecord
100
AcDbLinetypeTableRecord
  2
HIDDEN
 70
     0
  3
Hidden __ __ __ __ __ __ __ __ __ __ __ __ __ __
 72
    65
 73
     2
 40
1.905
 49
1.27
 74
     0
 49
-0.635
 74
     0
  0
LTYPE
  5
1F
330
4
100
AcDbSymbolTableRecord
100
AcDbLinetypeTableRecord
  2
PHANTOM
 70
     0
  3
Phantom ______  __  __  ______  __  __  ______
 72
    65
 73
     6
 40
12.7
 49
6.349999999999999
 74
     0
 49
-1.27
 74
     0
 49
1.27
 74
     0
 49
-1.27
 74
     0
 49
1.27
 74
     0
 49
-1.27
 74
     0
  0
LTYPE
  5
20
330
4
100
AcDbSymbolTableRecord
100
AcDbLinetypeTableRecord
  2
CENTER
 70
     0
  3
Center ____ _ ____ _ ____ _ ____ _ ____ _ ____
 72
    65
 73
     4
 40
10.16
 49
6.349999999999999
 74
     0
 49
-1.27
 74
     0
 49
1.27
 74
     0
 49
-1.27
 74
     0
  0
LTYPE
  5
21
330
4
100
AcDbSymbolTableRecord
100
AcDbLinetypeTableRecord
  2
CENTERX2
 70
     0
  3
Center (2x) ________  __  ________  __  _____
 72
    65
 73
     4
 40
20.32
 49
12.7
 74
     0
 49
-2.54
 74
     0
 49
2.54
 74
     0
 49
-2.54
 74
     0
  0
LTYPE
  5
22
330
4
100
AcDbSymbolTableRecord
100
AcDbLinetypeTableRecord
  2
DOT2
 70
     0
  3
Dot (.5x) ........................................
 72
    65
 73
     2
 40
0.635
 49
0.0
 74
     0
 49
-0.635
 74
     0
  0
ENDTAB
  0
TABLE
  2
LAYER
  5
2
330
0
100
AcDbSymbolTable
 70
     2
  0
LAYER
  5
14
330
2
100
AcDbSymbolTableRecord
100
AcDbLayerTableRecord
  2
0
 70
     0
 62
     7
  6
CONTINUOUS
370
    -3
390
991
  0
LAYER
  5
26
330
2
100
AcDbSymbolTableRecord
100
AcDbLayerTableRecord
  2
DEFPOINTS
 70
     0
 62
     7
  6
CONTINUOUS
290
     0
370
    -3
390
991
  0
ENDTAB
  0
TABLE
  2
STYLE
  5
3
330
0
100
AcDbSymbolTable
 70
     1
  0
STYLE
  5
17
330
3
100
AcDbSymbolTableRecord
100
AcDbTextStyleTableRecord
  2
STANDARD
 70
     0
 40
0.0
 41
1.0
 50
0.0
 71
     0
 42
0.0
  3
Century Gothic
  4

  0
ENDTAB
  0
TABLE
  2
VIEW
  5
5
330
0
100
AcDbSymbolTable
 70
     0
  0
ENDTAB
  0
TABLE
  2
UCS
  5
6
330
0
100
AcDbSymbolTable
 70
     0
  0
ENDTAB
  0
TABLE
  2
APPID
  5
8
330
0
100
AcDbSymbolTable
 70
     2
  0
APPID
  5
16
330
8
100
AcDbSymbolTableRecord
100
AcDbRegAppTableRecord
  2
ACAD
 70
     0
  0
APPID
  5
99C
330
8
100
AcDbSymbolTableRecord
100
AcDbRegAppTableRecord
  2
DCO15
 70
     0
  0
ENDTAB
  0
TABLE
  2
DIMSTYLE
  5
9
330
0
100
AcDbSymbolTable
 70
     1
100
AcDbDimStyleTable
 71
     0
  0
DIMSTYLE
105
18
330
9
100
AcDbSymbolTableRecord
100
AcDbDimStyleTableRecord
  2
STANDARD
 70
     0
289
     0
340
17
  0
ENDTAB
  0
TABLE
  2
BLOCK_RECORD
  5
1
330
0
100
AcDbSymbolTable
 70
     0
  0
BLOCK_RECORD
  5
A
330
1
100
AcDbSymbolTableRecord
100
AcDbBlockTableRecord
  2
*MODEL_SPACE
340
996
  0
BLOCK_RECORD
  5
B
330
1
100
AcDbSymbolTableRecord
100
AcDbBlockTableRecord
  2
*PAPER_SPACE
340
997
  0
ENDTAB
  0
ENDSEC
  0
SECTION
  2
BLOCKS
  0
BLOCK
  5
D
330
A
100
AcDbEntity
  8
0
100
AcDbBlockBegin
  2
*MODEL_SPACE
 70
     0
 10
0.0
 20
0.0
 30
0.0
  3
*MODEL_SPACE
  1

  0
ENDBLK
  5
E
330
A
100
AcDbEntity
  8
0
100
AcDbBlockEnd
  0
BLOCK
  5
F
330
B
100
AcDbEntity
 67
     1
  8
0
100
AcDbBlockBegin
  2
*PAPER_SPACE
 70
     0
 10
0.0
 20
0.0
 30
0.0
  3
*PAPER_SPACE
  1

  0
ENDBLK
  5
10
330
B
100
AcDbEntity
 67
     1
  8
0
100
AcDbBlockEnd
  0
ENDSEC
  0
SECTION
  2
ENTITIES
  0
LINE
  5
27
330
A
100
AcDbEntity
  8
0
  6
Continuous
 62
     7
100
AcDbLine
 10
-174.7968749717255
 20
-49.28194818765755
 30
0.0
 11
-165.7968749717255
 21
-49.28194818765755
 31
0.0
  0
LINE
  5
28
330
A
100
AcDbEntity
  8
0
  6
Continuous
 62
     7
100
AcDbLine
 10
-165.7968749717255
 20
30.71805181234247
 30
0.0
 11
-174.7968749717255
 21
30.71805181234247
 31
0.0
  0
ARC
  5
29
330
A
100
AcDbEntity
  8
0
  6
Continuous
 62
     7
100
AcDbCircle
 10
-165.7968749717255
 20
-42.28194818765754
 30
0.0
 40
7.000000000000007
100
AcDbArc
 50
270.0000000000003
 51
0.0
  0
ARC
  5
2A
330
A
100
AcDbEntity
  8
0
  6
Continuous
 62
     7
100
AcDbCircle
 10
-165.7968749717255
 20
23.71805181234246
 30
0.0
 40
7.000000000000003
100
AcDbArc
 50
360.0000000000008
 51
90.00000000000047
  0
LINE
  5
2B
330
A
100
AcDbEntity
  8
0
  6
Continuous
 62
     7
100
AcDbLine
 10
-176.7968749717255
 20
-47.78194818765754
 30
0.0
 11
-174.7968749717255
 21
-47.78194818765754
 31
0.0
  0
LINE
  5
2C
330
A
100
AcDbEntity
  8
0
  6
Continuous
 62
     7
100
AcDbLine
 10
-174.7968749717255
 20
29.21805181234247
 30
0.0
 11
-176.7968749717255
 21
29.21805181234247
 31
0.0
  0
ARC
  5
2D
330
A
100
AcDbEntity
  8
0
  6
Continuous
 62
     7
100
AcDbCircle
 10
-96.79687497172555
 20
-19.28194818765755
 30
0.0
 40
10.00000000000001
100
AcDbArc
 50
180.0000000000004
 51
0.0
  0
LINE
  5
2E
330
A
100
AcDbEntity
  8
0
  6
Continuous
 62
     7
100
AcDbLine
 10
-106.7968749717255
 20
-16.28194818765755
 30
0.0
 11
-106.7968749717255
 21
-19.28194818765755
 31
0.0
  0
LINE
  5
2F
330
A
100
AcDbEntity
  8
0
  6
Continuous
 62
     7
100
AcDbLine
 10
-106.7968749717255
 20
30.71805181234247
 30
0.0
 11
-106.7968749717255
 21
13.21805181234245
 31
0.0
  0
LINE
  5
30
330
A
100
AcDbEntity
  8
0
  6
Continuous
 62
     7
100
AcDbLine
 10
-86.79687497172553
 20
-19.28194818765755
 30
0.0
 11
-86.79687497172553
 21
30.71805181234247
 31
0.0
  0
LINE
  5
31
330
A
100
AcDbEntity
  8
0
  6
Continuous
 62
     7
100
AcDbLine
 10
218.1067321625835
 20
281.4190483131215
 30
0.0
 11
240.3698618219089
 21
232.567068886771
 31
0.0
  0
LINE
  5
32
330
A
100
AcDbEntity
  8
0
  6
Continuous
 62
     7
100
AcDbLine
 10
242.1897843636621
 20
233.3964553720835
 30
0.0
 11
219.9266547043367
 21
282.2484347984339
 31
0.0
  0
ARC
  5
33
330
A
100
AcDbEntity
  8
0
  6
Continuous
 62
     7
100
AcDbCircle
 10
243.172574818186
 20
228.8284975272188
 30
0.0
 40
1.000000000000091
100
AcDbArc
 50
204.4999999999995
 51
24.50000000000258
  0
LINE
  5
34
330
A
100
AcDbEntity
  8
0
  6
Continuous
 62
     7
100
AcDbLine
 10
244.0825360890626
 20
229.243190769875
 30
0.0
 11
242.1897843636621
 21
233.3964553720835
 31
0.0
  0
LINE
  5
35
330
A
100
AcDbEntity
  8
0
  6
Continuous
 62
     7
100
AcDbLine
 10
240.3698618219089
 20
232.567068886771
 30
0.0
 11
242.2626135473093
 21
228.4138042845625
 31
0.0
  0
ARC
  5
36
330
A
100
AcDbEntity
  8
0
  6
Continuous
 62
     7
100
AcDbCircle
 10
213.7031250282745
 20
345.3180518123425
 30
0.0
 40
0.6249999999998864
100
AcDbArc
 50
0.0
 51
180.0000000000004
  0
ARC
  5
37
330
A
100
AcDbEntity
  8
0
  6
Continuous
 62
     7
100
AcDbCircle
 10
213.7031250282745
 20
311.3180518123426
 30
0.0
 40
0.6249999999998864
100
AcDbArc
 50
180.0000000000004
 51
360.0000000000008
  0
LINE
  5
38
330
A
100
AcDbEntity
  8
0
  6
Continuous
 62
     7
100
AcDbLine
 10
213.0781250282747
 20
345.3180518123425
 30
0.0
 11
213.0781250282747
 21
311.3180518123426
 31
0.0
  0
LINE
  5
39
330
A
100
AcDbEntity
  8
0
  6
Continuous
 62
     7
100
AcDbLine
 10
216.1772775426072
 20
345.3180518123425
 30
0.0
 11
214.3281250282744
 21
345.3180518123425
 31
0.0
  0
LINE
  5
3A
330
A
100
AcDbEntity
  8
0
  6
Continuous
 62
     7
100
AcDbLine
 10
214.3281250282744
 20
311.3180518123426
 30
0.0
 11
216.0901817752871
 21
311.3180518123426
 31
0.0
  0
LINE
  5
3B
330
A
100
AcDbEntity
  8
0
  6
Continuous
 62
     7
100
AcDbLine
 10
198.7031250282745
 20
344.8180518123425
 30
0.0
 11
183.7031250282745
 21
344.8180518123425
 31
0.0
  0
LINE
  5
3C
330
A
100
AcDbEntity
  8
0
  6
Continuous
 62
     7
100
AcDbLine
 10
183.7031250282745
 20
311.8180518123426
 30
0.0
 11
198.7031250282745
 21
311.8180518123426
 31
0.0
  0
ARC
  5
3D
330
A
100
AcDbEntity
  8
0
  6
Continuous
 62
     7
100
AcDbCircle
 10
170.9531250282745
 20
335.8180518123425
 30
0.0
 40
6.0
100
AcDbArc
 50
90.0
 51
180.0000000000004
  0
ARC
  5
3E
330
A
100
AcDbEntity
  8
0
  6
Continuous
 62
     7
100
AcDbCircle
 10
170.9531250282745
 20
320.8180518123425
 30
0.0
 40
6.0
100
AcDbArc
 50
180.0000000000004
 51
270.0000000000008
  0
LINE
  5
3F
330
A
100
AcDbEntity
  8
0
  6
Continuous
 62
     7
100
AcDbLine
 10
183.7031250282745
 20
341.8180518123425
 30
0.0
 11
170.9531250282745
 21
341.8180518123425
 31
0.0
  0
LINE
  5
40
330
A
100
AcDbEntity
  8
0
  6
Continuous
 62
     7
100
AcDbLine
 10
170.9531250282745
 20
314.8180518123425
 30
0.0
 11
183.7031250282745
 21
314.8180518123425
 31
0.0
  0
LINE
  5
41
330
A
100
AcDbEntity
  8
0
  6
Continuous
 62
     7
100
AcDbLine
 10
213.0781250282747
 20
341.8180518123425
 30
0.0
 11
198.7031250282745
 21
341.8180518123425
 31
0.0
  0
LINE
  5
42
330
A
100
AcDbEntity
  8
0
  6
Continuous
 62
     7
100
AcDbLine
 10
198.7031250282745
 20
314.8180518123426
 30
0.0
 11
213.0781250282747
 21
314.8180518123426
 31
0.0
  0
LINE
  5
43
330
A
100
AcDbEntity
  8
0
  6
Continuous
 62
     7
100
AcDbLine
 10
164.9531250282745
 20
334.8180518123425
 30
0.0
 11
154.9531250282745
 21
334.8180518123425
 31
0.0
  0
LINE
  5
44
330
A
100
AcDbEntity
  8
0
  6
Continuous
 62
     7
100
AcDbLine
 10
154.9531250282745
 20
321.8180518123426
 30
0.0
 11
164.9531250282745
 21
321.8180518123426
 31
0.0
  0
ARC
  5
45
330
A
100
AcDbEntity
  8
0
  6
Continuous
 62
     7
100
AcDbCircle
 10
216.0160770816202
 20
282.3894406731707
 30
0.0
 40
1.749999999999933
100
AcDbArc
 50
114.5000000000015
 51
294.4999999999983
  0
ARC
  5
46
330
A
100
AcDbEntity
  8
0
  6
Continuous
 62
     7
100
AcDbCircle
 10
314.7468749717252
 20
327.3836575013723
 30
0.0
 40
1.749999999999933
100
AcDbArc
 50
294.5000000000023
 51
114.5000000000015
  0
LINE
  5
47
330
A
100
AcDbEntity
  8
0
  6
Continuous
 62
     7
100
AcDbLine
 10
313.2905164236964
 20
328.6431154452734
 30
0.0
 11
262.057680892021
 21
372.9492389519406
 31
0.0
  0
LINE
  5
48
330
A
100
AcDbEntity
  8
0
  6
Continuous
 62
     7
100
AcDbLine
 10
216.1945177386788
 20
352.0481913411881
 30
0.0
 11
216.1772775426072
 21
345.3180518123425
 31
0.0
  0
LINE
  5
49
330
A
100
AcDbEntity
  8
0
  6
Continuous
 62
     7
100
AcDbLine
 10
216.0901817752871
 20
311.3180518123426
 30
0.0
 11
216.0210092803521
 21
284.3148471773375
 31
0.0
  0
ARC
  5
4A
330
A
100
AcDbEntity
  8
0
  6
Continuous
 62
     7
100
AcDbCircle
 10
216.9445152779406
 20
352.0462701173303
 30
0.0
 40
0.7499999999999979
100
AcDbArc
 50
114.4999999999999
 51
179.8532291467211
  0
ARC
  5
4B
330
A
100
AcDbEntity
  8
0
  6
Continuous
 62
     7
100
AcDbCircle
 10
261.5670882007188
 20
372.3819481876575
 30
0.0
 40
0.7499999999999979
100
AcDbArc
 50
49.14677085192494
 51
114.4999999999999
  0
LINE
  5
4C
330
A
100
AcDbEntity
  8
0
  6
Continuous
 62
     7
100
AcDbLine
 10
261.2560682687266
 20
373.0644191408149
 30
0.0
 11
216.6334953459485
 21
352.7287410704877
 31
0.0
  0
LINE
  5
4D
330
A
100
AcDbEntity
  8
0
  6
Continuous
 62
     7
100
AcDbLine
 10
-89.79687497172553
 20
30.71805181234244
 30
0.0
 11
-89.79687497172553
 21
32.21805181234244
 31
0.0
  0
LINE
  5
4E
330
A
100
AcDbEntity
  8
0
  6
Continuous
 62
     7
100
AcDbLine
 10
-103.7968749717255
 20
32.21805181234244
 30
0.0
 11
-103.7968749717255
 21
30.71805181234244
 31
0.0
  0
LINE
  5
4F
330
A
100
AcDbEntity
  8
0
  6
Continuous
 62
     7
100
AcDbLine
 10
-105.8968749717255
 20
301.2180518123425
 30
0.0
 11
-105.8968749717255
 21
101.2180518123424
 31
0.0
  0
LINE
  5
50
330
A
100
AcDbEntity
  8
0
  6
Continuous
 62
     7
100
AcDbLine
 10
126.2031250282744
 20
333.3180518123425
 30
0.0
 11
-53.79687497172551
 21
333.3180518123425
 31
0.0
  0
ARC
  5
51
330
A
100
AcDbEntity
  8
0
  6
Continuous
 62
     7
100
AcDbCircle
 10
-106.7968749717255
 20
50.5759161886115
 30
0.0
 40
14.09999999999999
100
AcDbArc
 50
0.0
 51
15.39818744479799
  0
LINE
  5
52
330
A
100
AcDbEntity
  8
0
  6
Continuous
 62
     7
100
AcDbLine
 10
-122.3234297725599
 20
74.44633100744709
 30
0.0
 11
-108.412229892429
 21
60.53513112731632
 31
0.0
  0
LINE
  5
53
330
A
100
AcDbEntity
  8
0
  6
Continuous
 62
     7
100
AcDbLine
 10
-127.2731772408657
 20
79.39607847575293
 30
0.0
 11
-125.8589636784926
 21
77.98186491337983
 31
0.0
  0
LINE
  5
54
330
A
100
AcDbEntity
  8
0
  6
Continuous
 62
     7
100
AcDbLine
 10
-118.2929211197966
 20
82.01237356614319
 30
0.0
 11
-120.3745154324774
 21
84.09396787882398
 31
0.0
  0
LINE
  5
55
330
A
100
AcDbEntity
  8
0
  6
Continuous
 62
     7
100
AcDbLine
 10
-104.8791443724077
 20
68.59859681875433
 30
0.0
 11
-112.6360668703041
 21
76.35551931665076
 31
0.0
  0
ARC
  5
56
330
A
100
AcDbEntity
  8
0
  6
Continuous
 62
     7
100
AcDbCircle
 10
-125.8589636784926
 20
80.81029203812603
 30
0.0
 40
2.000000000000006
100
AcDbArc
 50
134.9999999999997
 51
225.0000000000011
  0
ARC
  5
57
330
A
100
AcDbEntity
  8
0
  6
Continuous
 62
     7
100
AcDbCircle
 10
-122.8891151975092
 20
83.78014051910954
 30
0.0
 40
1.999999999999996
100
AcDbArc
 50
46.5886242331689
 51
135.0
  0
LINE
  5
58
330
A
100
AcDbEntity
  8
0
  6
Continuous
 62
     7
100
AcDbLine
 10
-92.69687497172553
 20
32.21805181234244
 30
0.0
 11
-92.69687497172553
 21
50.5759161886115
 31
0.0
  0
LINE
  5
59
330
A
100
AcDbEntity
  8
0
  6
Continuous
 62
     7
100
AcDbLine
 10
-100.8968749717255
 20
49.01805181234246
 30
0.0
 11
-100.8968749717255
 21
32.21805181234244
 31
0.0
  0
LINE
  5
5A
330
A
100
AcDbEntity
  8
0
  6
Continuous
 62
     7
100
AcDbLine
 10
-104.8968749717255
 20
101.2180518123424
 30
0.0
 11
-104.8968749717255
 21
68.59135948837312
 31
0.0
  0
LINE
  5
5B
330
A
100
AcDbEntity
  8
0
  6
Continuous
 62
     7
100
AcDbLine
 10
-96.89687497172553
 20
64.37626387961175
 30
0.0
 11
-96.89687497172553
 21
101.2180518123424
 31
0.0
  0
LINE
  5
5C
330
A
100
AcDbEntity
  8
0
  6
Continuous
 62
     7
100
AcDbLine
 10
-97.81804738564384
 20
353.1374998319902
 30
0.0
 11
-103.8284550257295
 21
359.1479074720758
 31
0.0
  0
LINE
  5
5D
330
A
100
AcDbEntity
  8
0
  6
Continuous
 62
     7
100
AcDbLine
 10
-81.68304598548184
 20
337.0024984318285
 30
0.0
 11
-90.03987279259176
 21
345.359325238938
 31
0.0
  0
ARC
  5
5E
330
A
100
AcDbEntity
  8
0
  6
Continuous
 62
     7
100
AcDbCircle
 10
-108.2125170690861
 20
354.7638454287192
 30
0.0
 40
2.000000000000046
100
AcDbArc
 50
134.9999999999986
 51
225.0000000000023
  0
ARC
  5
5F
330
A
100
AcDbEntity
  8
0
  6
Continuous
 62
     7
100
AcDbCircle
 10
-105.2426685881026
 20
357.7336939097027
 30
0.0
 40
2.000000000000046
100
AcDbArc
 50
45.00000000000143
 51
134.9999999999986
  0
LINE
  5
60
330
A
100
AcDbEntity
  8
0
  6
Continuous
 62
     7
100
AcDbLine
 10
-109.6267306314592
 20
353.349631866346
 30
0.0
 11
-105.3840899443398
 21
349.1069911792268
 31
0.0
  0
LWPOLYLINE
  5
61
330
A
100
AcDbEntity
  8
0
  6
Continuous
 62
     7
100
AcDbPolyline
 90
        9
 70
   128
 43
0.0
 10
-107.3328274544353
 20
303.907925381407
 10
-107.3229405118257
 20
303.9050432481633
 10
-107.2810339294149
 20
303.8924138358515
 10
-107.1552372223121
 20
303.8514497675014
 10
-106.8428184758396
 20
303.7290744873637
 10
-106.4021415399699
 20
303.5011349497515
 10
-105.6869414274062
 20
302.955028452666
 10
-105.1342948855003
 20
302.296616074449
 10
-105.0002795136253
 20
302.0330106836556
  0
LINE
  5
6C
330
A
100
AcDbEntity
  8
0
  6
Continuous
 62
     7
100
AcDbLine
 10
-104.9968732917536
 20
302.0759161886113
 30
0.0
 11
-104.9968749717255
 21
301.2180518123425
 31
0.0
  0
LWPOLYLINE
  5
6D
330
A
100
AcDbEntity
  8
0
  6
Continuous
 62
     7
100
AcDbPolyline
 90
       13
 70
   128
 43
0.0
 10
-98.31428023199876
 20
314.6474347542736
 10
-98.62129383632797
 20
314.3233750434159
 10
-99.4107417059674
 20
313.8265351446445
 10
-100.1956667667312
 20
313.548370284855
 10
-100.9320098883971
 20
313.4422276392833
 10
-101.5867698428987
 20
313.4631518314916
 10
-102.1368327153957
 20
313.5654766350589
 10
-102.5673387460064
 20
313.703601607949
 10
-102.8684371188346
 20
313.8337717781302
 10
-102.9986129319806
 20
313.8994685252629
 10
-103.0510152393763
 20
313.9276376948705
 10
-103.0793408833129
 20
313.9432970054768
 10
-103.0835276680614
 20
313.9456552516092
  0
LINE
  5
7C
330
A
100
AcDbEntity
  8
0
  6
Continuous
 62
     7
100
AcDbLine
 10
-101.8485560384071
 20
345.5714572732941
 30
0.0
 11
-87.4813215912115
 21
331.2042228260986
 31
0.0
  0
ARC
  5
7D
330
A
100
AcDbEntity
  8
0
  6
Continuous
 62
     7
100
AcDbCircle
 10
-90.89687497172549
 20
302.0759161886114
 30
0.0
 40
5.899999999999991
100
AcDbArc
 50
135.0000000000007
 51
180.0000000000004
  0
LINE
  5
7E
330
A
100
AcDbEntity
  8
0
  6
Continuous
 62
     7
100
AcDbLine
 10
-87.47676507282234
 20
325.4364373169754
 30
0.0
 11
-98.28829149509841
 21
314.6249108946991
 31
0.0
  0
LINE
  5
7F
330
A
100
AcDbEntity
  8
0
  6
Continuous
 62
     7
100
AcDbLine
 10
-96.79687497172549
 20
301.2180518123425
 30
0.0
 11
-96.79687497172549
 21
302.0759161886113
 31
0.0
  0
LINE
  5
80
330
A
100
AcDbEntity
  8
0
  6
Continuous
 62
     7
100
AcDbLine
 10
-95.0688049807262
 20
306.247846197612
 30
0.0
 11
-81.67976765969269
 21
319.6368835186456
 31
0.0
  0
LWPOLYLINE
  5
81
330
A
100
AcDbEntity
  8
0
  6
Continuous
 62
     7
100
AcDbPolyline
 90
       10
 70
   128
 43
0.0
 10
-86.90721821132616
 20
327.1063864117585
 10
-86.90686278004241
 20
327.1036871119052
 10
-86.90545184705264
 20
327.0923916899385
 10
-86.90388695553705
 20
327.0791814166527
 10
-86.9014866313633
 20
327.0572451278706
 10
-86.89541362979063
 20
326.9865425167605
 10
-86.89396902907665
 20
326.7382780985149
 10
-86.96931211531996
 20
326.2959319049372
 10
-87.26569580704399
 20
325.685026091097
 10
-87.49715531972782
 20
325.4571404983043
  0
LWPOLYLINE
  5
8D
330
A
100
AcDbEntity
  8
0
  6
Continuous
 62
     7
100
AcDbPolyline
 90
       12
 70
   128
 43
0.0
 10
-87.49371808791009
 20
331.1910112012442
 10
-87.30089398745302
 20
330.998642478995
 10
-87.06831618706463
 20
330.609042806485
 10
-86.9456590657672
 20
330.250514638509
 10
-86.8977534412502
 20
329.9519185056555
 10
-86.89152418277251
 20
329.7315391319608
 10
-86.89965477964609
 20
329.5973397902428
 10
-86.90304126260581
 20
329.5643980752842
 10
-86.90469911441228
 20
329.5499709780042
 10
-86.90580345469809
 20
329.5408452724856
 10
-86.90683494634269
 20
329.532634076055
 10
-86.90753771256668
 20
329.527237145478
  0
LWPOLYLINE
  5
9B
330
A
100
AcDbEntity
  8
0
  6
Continuous
 62
     7
100
AcDbPolyline
 90
       13
 70
   128
 43
0.0
 10
-81.67232523440445
 20
319.6312881401807
 10
-81.62658443368869
 20
319.6882679960111
 10
-81.23571129492232
 20
319.9722749710783
 10
-80.86160799090183
 20
320.1327946745924
 10
-80.53774535071474
 20
320.205320406252
 10
-80.28631754766083
 20
320.224001970054
 10
-80.11919465189285
 20
320.2188657026828
 10
-80.0579897155679
 20
320.2134706293437
 10
-80.03637313529704
 20
320.2111099142105
 10
-80.02598869732169
 20
320.2098902057017
 10
-80.017150315945
 20
320.2088073366979
 10
-80.00867655637915
 20
320.2077283940591
 10
-80.00865473881622
 20
320.2077255026613
  0
LWPOLYLINE
  5
AA
330
A
100
AcDbEntity
  8
0
  6
Continuous
 62
     7
100
AcDbPolyline
 90
       10
 70
   128
 43
0.0
 10
-80.00854037234111
 20
336.4283950519391
 10
-80.01123967222914
 20
336.4280396206508
 10
-80.02253509419459
 20
336.4266286876617
 10
-80.03574536750498
 20
336.4250637961437
 10
-80.05768165636235
 20
336.4226634719631
 10
-80.12838426808835
 20
336.4165904703544
 10
-80.37664869247155
 20
336.4151458700836
 10
-80.81899489853283
 20
336.4904889615397
 10
-81.42990070315674
 20
336.7868726549677
 10
-81.66178981577523
 20
337.0223984781237
  0
LWPOLYLINE
  5
B6
330
A
100
AcDbEntity
  8
0
  6
Continuous
 62
     7
100
AcDbPolyline
 90
       10
 70
   128
 43
0.0
 10
-72.20522975947091
 20
323.4399251117551
 10
-72.20180000270478
 20
323.4443829799648
 10
-72.19548672296913
 20
323.4524791007907
 10
-72.1867547162264
 20
323.4635335431166
 10
-72.17216486242463
 20
323.4816503304173
 10
-72.12285714420172
 20
323.53984593995
 10
-71.9045334157166
 20
323.7526139000906
 10
-71.45427957916009
 20
324.0366216436381
 10
-70.87564355772977
 20
324.2019083005017
 10
-70.62296159202077
 20
324.1874446559934
  0
LWPOLYLINE
  5
C2
330
A
100
AcDbEntity
  8
0
  6
Continuous
 62
     7
100
AcDbPolyline
 90
       12
 70
   128
 43
0.0
 10
-70.62093480521642
 20
332.4193625962037
 10
-71.10266434911341
 20
332.4766783468209
 10
-71.49659403336508
 20
332.6194522116747
 10
-71.7919659993547
 20
332.7960218032969
 10
-71.99634048617501
 20
332.9651455529157
 10
-72.12208246342317
 20
333.0953784822858
 10
-72.17366860978692
 20
333.156300649522
 10
-72.18738751812189
 20
333.1733657555525
 10
-72.19435482593361
 20
333.1821823511615
 10
-72.19978241363084
 20
333.1891234847192
 10
-72.20489260294505
 20
333.1957204698607
 10
-72.20588625336258
 20
333.197016140732
  0
LINE
  5
D0
330
A
100
AcDbEntity
  8
0
  6
Continuous
 62
     7
100
AcDbLine
 10
-70.62115062947563
 20
324.2180518123425
 30
0.0
 11
-53.79687497172551
 21
324.2180518123425
 31
0.0
  0
LINE
  5
D1
330
A
100
AcDbEntity
  8
0
  6
Continuous
 62
     7
100
AcDbLine
 10
-53.79687497172551
 20
332.4180518123425
 30
0.0
 11
-70.62115062947563
 21
332.4180518123425
 31
0.0
  0
LINE
  5
D2
330
A
100
AcDbEntity
  8
0
  6
Continuous
 62
     7
100
AcDbLine
 10
126.2031250282744
 20
324.8180518123425
 30
0.0
 11
133.7031250282745
 21
324.8180518123425
 31
0.0
  0
LINE
  5
D3
330
A
100
AcDbEntity
  8
0
  6
Continuous
 62
     7
100
AcDbLine
 10
126.7031250282736
 20
331.8180518123426
 30
0.0
 11
126.2031250282744
 21
331.8180518123425
 31
0.0
  0
LINE
  5
D4
330
A
100
AcDbEntity
  8
0
  6
Continuous
 62
     7
100
AcDbLine
 10
133.7031250282745
 20
324.8180518123425
 30
0.0
 11
142.2031250282745
 21
324.8180518123425
 31
0.0
  0
LINE
  5
D5
330
A
100
AcDbEntity
  8
0
  6
Continuous
 62
     7
100
AcDbLine
 10
142.2031250282745
 20
331.8180518123425
 30
0.0
 11
140.7031250282736
 21
331.8180518123425
 31
0.0
  0
LINE
  5
D6
330
A
100
AcDbEntity
  8
0
  6
Continuous
 62
     7
100
AcDbLine
 10
-89.89687497172551
 20
101.2180518123424
 30
0.0
 11
-89.8968749717255
 21
301.2180518123425
 31
0.0
  0
LINE
  5
D7
330
A
100
AcDbEntity
  8
0
  6
Continuous
 62
     7
100
AcDbLine
 10
-53.79687497172551
 20
317.3180518123425
 30
0.0
 11
126.2031250282744
 21
317.3180518123425
 31
0.0
  0
LINE
  5
D8
330
A
100
AcDbEntity
  8
0
  6
Continuous
 62
     7
100
AcDbLine
 10
-111.4912838062873
 20
309.4682313314409
 30
0.0
 11
-121.5189950741705
 21
85.23278348316228
 31
0.0
  0
LINE
  5
D9
330
A
100
AcDbEntity
  8
0
  6
Continuous
 62
     7
100
AcDbLine
 10
-120.3687654658138
 20
84.09302065100721
 30
0.0
 11
-110.4399091297785
 21
306.1179162284101
 31
0.0
  0
LINE
  5
DA
330
A
100
AcDbEntity
  8
0
  6
Continuous
 62
     7
100
AcDbLine
 10
131.8363811985274
 20
338.5647968996154
 30
0.0
 11
-91.51583220270934
 21
354.1920415633666
 31
0.0
  0
LINE
  5
DB
330
A
100
AcDbEntity
  8
0
  6
Continuous
 62
     7
100
AcDbLine
 10
-89.78806879055126
 20
352.8682218195917
 30
0.0
 11
129.6366755871109
 21
337.5157696837769
 31
0.0
  0
LINE
  5
DC
330
A
100
AcDbEntity
  8
0
  6
Continuous
 62
     7
100
AcDbLine
 10
-174.7968749717255
 20
-9.28194818765754
 30
0.0
 11
-174.7968749717255
 21
30.71805181234247
 31
0.0
  0
LINE
  5
DD
330
A
100
AcDbEntity
  8
0
  6
Continuous
 62
     7
100
AcDbLine
 10
-174.7968749717255
 20
-49.28194818765755
 30
0.0
 11
-174.7968749717255
 21
-9.28194818765754
 31
0.0
  0
LINE
  5
DE
330
A
100
AcDbEntity
  8
0
  6
Continuous
 62
     7
100
AcDbLine
 10
-158.7968749717255
 20
-9.28194818765754
 30
0.0
 11
-158.7968749717255
 21
23.71805181234241
 31
0.0
  0
LINE
  5
DF
330
A
100
AcDbEntity
  8
0
  6
Continuous
 62
     7
100
AcDbLine
 10
-158.7968749717255
 20
-42.28194818765746
 30
0.0
 11
-158.7968749717255
 21
-9.28194818765754
 31
0.0
  0
LINE
  5
E0
330
A
100
AcDbEntity
  8
0
  6
Continuous
 62
     7
100
AcDbLine
 10
-176.7968749717255
 20
-9.28194818765754
 30
0.0
 11
-176.7968749717255
 21
29.21805181234247
 31
0.0
  0
LINE
  5
E1
330
A
100
AcDbEntity
  8
0
  6
Continuous
 62
     7
100
AcDbLine
 10
-176.7968749717255
 20
-47.78194818765754
 30
0.0
 11
-176.7968749717255
 21
-9.28194818765754
 31
0.0
  0
LINE
  5
E2
330
A
100
AcDbEntity
  8
0
  6
Continuous
 62
     7
100
AcDbLine
 10
-156.2968749717255
 20
-39.28194818765754
 30
0.0
 11
-158.7968749717255
 21
-39.28194818765754
 31
0.0
  0
ARC
  5
E3
330
A
100
AcDbEntity
  8
0
  6
Continuous
 62
     7
100
AcDbCircle
 10
-156.2968749717255
 20
13.21805181234245
 30
0.0
 40
2.500000000000001
100
AcDbArc
 50
180.0000000000004
 51
270.0000000000008
  0
LINE
  5
E4
330
A
100
AcDbEntity
  8
0
  6
Continuous
 62
     7
100
AcDbLine
 10
-96.79687497172555
 20
30.71805181234247
 30
0.0
 11
-86.79687497172553
 21
30.71805181234247
 31
0.0
  0
LINE
  5
E5
330
A
100
AcDbEntity
  8
0
  6
Continuous
 62
     7
100
AcDbLine
 10
-106.7968749717255
 20
30.71805181234247
 30
0.0
 11
-96.79687497172555
 21
30.71805181234247
 31
0.0
  0
ARC
  5
E6
330
A
100
AcDbEntity
  8
0
  6
Continuous
 62
     7
100
AcDbCircle
 10
-109.2968749717255
 20
13.21805181234245
 30
0.0
 40
2.500000000000001
100
AcDbArc
 50
270.0000000000008
 51
0.0
  0
LINE
  5
E7
330
A
100
AcDbEntity
  8
0
  6
Continuous
 62
     7
100
AcDbLine
 10
-102.7968749717255
 20
-16.28194818765755
 30
0.0
 11
-104.2968749717255
 21
-16.28194818765755
 31
0.0
  0
LINE
  5
E8
330
A
100
AcDbEntity
  8
0
  6
Continuous
 62
     7
100
AcDbLine
 10
-150.7968749717255
 20
-39.28194818765754
 30
0.0
 11
-109.7968749717255
 21
-16.28194818765755
 31
0.0
  0
LINE
  5
E9
330
A
100
AcDbEntity
  8
0
  6
Continuous
 62
     7
100
AcDbLine
 10
-109.7968749717255
 20
-16.28194818765755
 30
0.0
 11
-104.2968749717255
 21
-16.28194818765755
 31
0.0
  0
LINE
  5
EA
330
A
100
AcDbEntity
  8
0
  6
Continuous
 62
     7
100
AcDbLine
 10
-156.2968749717255
 20
-39.28194818765754
 30
0.0
 11
-150.7968749717255
 21
-39.28194818765754
 31
0.0
  0
LINE
  5
EB
330
A
100
AcDbEntity
  8
0
  6
Continuous
 62
     7
100
AcDbLine
 10
-156.2968749717255
 20
10.71805181234245
 30
0.0
 11
-109.2968749717255
 21
10.71805181234245
 31
0.0
  0
CIRCLE
  5
EC
330
A
100
AcDbEntity
  8
0
  6
Continuous
 62
     7
100
AcDbCircle
 10
-100.7171851885084
 20
350.2383620291255
 30
0.0
 40
2.450000000000002
  0
LINE
  5
ED
330
A
100
AcDbEntity
  8
0
  6
Continuous
 62
     7
100
AcDbLine
 10
142.2031250282745
 20
325.0680518123425
 30
0.0
 11
167.2031250282746
 21
325.0680518123425
 31
0.0
  0
LINE
  5
EE
330
A
100
AcDbEntity
  8
0
  6
Continuous
 62
     7
100
AcDbLine
 10
142.2031250282745
 20
331.5680518123425
 30
0.0
 11
167.2031250282746
 21
331.5680518123425
 31
0.0
  0
LINE
  5
EF
330
A
100
AcDbEntity
  8
0
  6
Continuous
 62
     7
100
AcDbLine
 10
167.2031250282746
 20
325.0680518123425
 30
0.0
 11
187.403453989882
 21
325.0680518123425
 31
0.0
  0
LINE
  5
F0
330
A
100
AcDbEntity
  8
0
  6
Continuous
 62
     7
100
AcDbLine
 10
167.2031250282746
 20
331.5680518123425
 30
0.0
 11
187.403453989882
 21
331.5680518123425
 31
0.0
  0
CIRCLE
  5
F1
330
A
100
AcDbEntity
  8
0
  6
Continuous
 62
     7
100
AcDbCircle
 10
191.2031250282747
 20
328.3180518123425
 30
0.0
 40
5.0
  0
LINE
  5
F2
330
A
100
AcDbEntity
  8
0
  6
Continuous
 62
     7
100
AcDbLine
 10
214.3281250282744
 20
345.3180518123426
 30
0.0
 11
214.3281250282744
 21
311.3180518123425
 31
0.0
  0
LINE
  5
F3
330
A
100
AcDbEntity
  8
0
  6
Continuous
 62
     7
100
AcDbLine
 10
183.7031250282745
 20
344.8180518123425
 30
0.0
 11
183.7031250282746
 21
331.5680518123425
 31
0.0
  0
LINE
  5
F4
330
A
100
AcDbEntity
  8
0
  6
Continuous
 62
     7
100
AcDbLine
 10
183.7031250282746
 20
325.0680518123425
 30
0.0
 11
183.7031250282745
 21
311.8180518123426
 31
0.0
  0
LINE
  5
F5
330
A
100
AcDbEntity
  8
0
  6
Continuous
 62
     7
100
AcDbLine
 10
198.7031250282745
 20
344.8180518123425
 30
0.0
 11
198.7031250282745
 21
311.8180518123426
 31
0.0
  0
LINE
  5
F6
330
A
100
AcDbEntity
  8
0
  6
Continuous
 62
     7
100
AcDbLine
 10
164.9531250282745
 20
335.8180518123425
 30
0.0
 11
164.9531250282746
 21
331.5680518123425
 31
0.0
  0
LINE
  5
F7
330
A
100
AcDbEntity
  8
0
  6
Continuous
 62
     7
100
AcDbLine
 10
164.9531250282746
 20
325.0680518123425
 30
0.0
 11
164.9531250282745
 21
320.8180518123425
 31
0.0
  0
LINE
  5
F8
330
A
100
AcDbEntity
  8
0
  6
Continuous
 62
     7
100
AcDbLine
 10
154.9531250282745
 20
334.8180518123425
 30
0.0
 11
154.9531250282745
 21
331.5680518123425
 31
0.0
  0
LINE
  5
F9
330
A
100
AcDbEntity
  8
0
  6
Continuous
 62
     7
100
AcDbLine
 10
154.9531250282745
 20
325.0680518123425
 30
0.0
 11
154.9531250282745
 21
321.8180518123426
 31
0.0
  0
LINE
  5
FA
330
A
100
AcDbEntity
  8
0
  6
Continuous
 62
     7
100
AcDbLine
 10
215.2903639088534
 20
283.981872898062
 30
0.0
 11
314.0211617970768
 21
328.9760897254061
 31
0.0
  0
LINE
  5
FB
330
A
100
AcDbEntity
  8
0
  6
Continuous
 62
     7
100
AcDbLine
 10
315.4725881444921
 20
325.7912252764813
 30
0.0
 11
216.7417902562684
 21
280.797008449137
 31
0.0
  0
LINE
  5
FC
330
A
100
AcDbEntity
  8
0
  6
Continuous
 62
     7
100
AcDbLine
 10
-96.79687497172549
 20
32.21805181234244
 30
0.0
 11
-103.7968749717255
 21
32.21805181234244
 31
0.0
  0
LINE
  5
FD
330
A
100
AcDbEntity
  8
0
  6
Continuous
 62
     7
100
AcDbLine
 10
-89.79687497172553
 20
32.21805181234244
 30
0.0
 11
-96.79687497172549
 21
32.21805181234244
 31
0.0
  0
CIRCLE
  5
FE
330
A
100
AcDbEntity
  8
0
  6
Continuous
 62
     7
100
AcDbCircle
 10
-100.8968749717255
 20
57.21805181234246
 30
0.0
 40
8.199999999999974
  0
CIRCLE
  5
FF
330
A
100
AcDbEntity
  8
0
  6
Continuous
 62
     7
100
AcDbCircle
 10
-105.8968749717255
 20
309.2180518123425
 30
0.0
 40
5.0
  0
LINE
  5
100
330
A
100
AcDbEntity
  8
0
  6
Continuous
 62
     7
100
AcDbLine
 10
-105.8968749717255
 20
101.2180518123424
 30
0.0
 11
-99.64687497172549
 21
101.2180518123424
 31
0.0
  0
LINE
  5
101
330
A
100
AcDbEntity
  8
0
  6
Continuous
 62
     7
100
AcDbLine
 10
-105.8968749717255
 20
301.2180518123425
 30
0.0
 11
-99.64687497172546
 21
301.2180518123425
 31
0.0
  0
CIRCLE
  5
102
330
A
100
AcDbEntity
  8
0
  6
Continuous
 62
     7
100
AcDbCircle
 10
-78.7968749717255
 20
328.3180518123425
 30
0.0
 40
5.0
  0
LINE
  5
103
330
A
100
AcDbEntity
  8
0
  6
Continuous
 62
     7
100
AcDbLine
 10
126.2031250282744
 20
333.3180518123425
 30
0.0
 11
126.2031250282735
 21
327.0680518123425
 31
0.0
  0
LINE
  5
104
330
A
100
AcDbEntity
  8
0
  6
Continuous
 62
     7
100
AcDbLine
 10
-53.79687497172551
 20
333.3180518123425
 30
0.0
 11
-53.79687497172547
 21
327.0680518123425
 31
0.0
  0
LINE
  5
105
330
A
100
AcDbEntity
  8
0
  6
Continuous
 62
     7
100
AcDbLine
 10
-99.64687497172549
 20
101.2180518123424
 30
0.0
 11
-92.14687497172549
 21
101.2180518123424
 31
0.0
  0
LINE
  5
106
330
A
100
AcDbEntity
  8
0
  6
Continuous
 62
     7
100
AcDbLine
 10
-99.64687497172546
 20
301.2180518123425
 30
0.0
 11
-92.14687497172549
 21
301.2180518123425
 31
0.0
  0
LINE
  5
107
330
A
100
AcDbEntity
  8
0
  6
Continuous
 62
     7
100
AcDbLine
 10
126.2031250282735
 20
327.0680518123425
 30
0.0
 11
126.2031250282745
 21
319.5680518123426
 31
0.0
  0
LINE
  5
108
330
A
100
AcDbEntity
  8
0
  6
Continuous
 62
     7
100
AcDbLine
 10
-53.79687497172547
 20
327.0680518123425
 30
0.0
 11
-53.7968749717255
 21
319.5680518123426
 31
0.0
  0
LWPOLYLINE
  5
109
330
A
100
AcDbEntity
  8
0
  6
Continuous
 62
     7
100
AcDbPolyline
 90
       10
 70
   128
 43
0.0
 10
-120.3751759708209
 20
84.09330734048051
 10
-120.3753294049276
 20
84.09342827762475
 10
-120.4187897698135
 20
84.12802507076488
 10
-120.4998909427464
 20
84.19440959913563
 10
-120.6198178867365
 20
84.29697576745727
 10
-120.8221672559708
 20
84.48212684021539
 10
-121.0760687569411
 20
84.73629004618141
 10
-121.3071361440084
 20
84.98895107438999
 10
-121.4276465463262
 20
85.12880857670511
 10
-121.4790775720858
 20
85.19017814453288
  0
LWPOLYLINE
  5
115
330
A
100
AcDbEntity
  8
0
  6
Continuous
 62
     7
100
AcDbPolyline
 90
        6
 70
   128
 43
0.0
 10
-104.8863822584054
 20
68.59135893275665
 10
-104.8910180662954
 20
68.60238990533868
 10
-104.8309714148648
 20
68.45953203860364
 10
-104.6515032297307
 20
68.03294258341622
 10
-104.2053291365599
 20
66.97539635762685
 10
-103.3787355823597
 20
65.03344482289429
  0
LINE
  5
11D
330
A
100
AcDbEntity
  8
0
  6
Continuous
 62
     7
100
AcDbLine
 10
-122.9598258756277
 20
80.88100271624471
 30
0.0
 11
-125.8589636784926
 21
77.98186491337983
 31
0.0
  0
LINE
  5
11E
330
A
100
AcDbEntity
  8
0
  6
Continuous
 62
     7
100
AcDbLine
 10
-122.3234297725599
 20
74.44633100744709
 30
0.0
 11
-119.424291969695
 21
77.34546881031199
 31
0.0
  0
LWPOLYLINE
  5
11F
330
A
100
AcDbEntity
  8
0
  6
Continuous
 62
     7
100
AcDbPolyline
 90
       12
 70
   128
 43
0.0
 10
-119.424291969695
 20
77.34546881031199
 10
-119.1006294746128
 20
77.74359242874368
 10
-118.8006355122853
 20
78.3844737497888
 10
-118.6920777409898
 20
79.12293582967151
 10
-118.8391156277318
 20
79.95801848732407
 10
-119.1824804142003
 20
80.60037873499675
 10
-119.7117361889075
 20
81.12784356727678
 10
-120.2899923191577
 20
81.44481802492885
 10
-120.9872010834367
 20
81.6048282792625
 10
-121.836689124362
 20
81.52869677580897
 10
-122.6467995708413
 20
81.14639331903568
 10
-122.9598258756277
 20
80.88100271624471
  0
LINE
  5
12D
330
A
100
AcDbEntity
  8
0
  6
Continuous
 62
     7
100
AcDbLine
 10
-112.8370571605226
 20
76.15452902643234
 30
0.0
 11
-118.493911410015
 21
81.81138327592472
 31
0.0
  0
LWPOLYLINE
  5
12E
330
A
100
AcDbEntity
  8
0
  6
Continuous
 62
     7
100
AcDbPolyline
 90
        3
 70
   128
 43
0.0
 10
-121.4790775720858
 20
85.19017814453288
 10
-121.5112472690609
 20
85.22819487118191
 10
-121.5150534479658
 20
85.23260043627432
  0
LINE
  5
133
330
A
100
AcDbEntity
  8
0
  6
Continuous
 62
     7
100
AcDbLine
 10
-127.2731770620016
 20
82.22450577936324
 30
0.0
 11
-124.3033287598822
 21
85.19435408148263
 31
0.0
  0
CIRCLE
  5
134
330
A
100
AcDbEntity
  8
0
  6
Continuous
 62
     7
100
AcDbCircle
 10
-121.1920589226614
 20
79.11323576327835
 30
0.0
 40
2.450000000000002
  0
CIRCLE
  5
135
330
A
100
AcDbEntity
  8
0
  6
Continuous
 62
     7
100
AcDbCircle
 10
133.7031250282735
 20
331.8180518123426
 30
0.0
 40
7.0
  0
LINE
  5
136
330
A
100
AcDbEntity
  8
0
  6
Continuous
 62
     7
100
AcDbLine
 10
-90.24086308281011
 20
345.1583349487196
 30
0.0
 11
-98.01903767586232
 21
352.9365095417717
 31
0.0
  0
LINE
  5
137
330
A
100
AcDbEntity
  8
0
  6
Continuous
 62
     7
100
AcDbLine
 10
-98.28797948591166
 20
350.8290901006366
 30
0.0
 11
-84.14059873644939
 21
336.6817093511745
 31
0.0
  0
LWPOLYLINE
  5
138
330
A
100
AcDbEntity
  8
0
  6
Continuous
 62
     7
100
AcDbPolyline
 90
        5
 70
   128
 43
0.0
 10
-100.1264571169975
 20
352.6675677317224
 10
-99.44283424566089
 20
352.3891827270135
 10
-98.85200968580027
 20
351.9030302675734
 10
-98.47337530362581
 20
351.3407762890582
 10
-98.28797948591159
 20
350.8290901006364
  0
LINE
  5
13F
330
A
100
AcDbEntity
  8
0
  6
Continuous
 62
     7
100
AcDbLine
 10
-105.2176259415402
 20
357.758736556265
 30
0.0
 11
-100.1264571169975
 21
352.6675677317224
 31
0.0
  0
LINE
  5
140
330
A
100
AcDbEntity
  8
0
  6
Continuous
 62
     7
100
AcDbLine
 10
-109.6267306314592
 20
356.1780589910922
 30
0.0
 11
-109.1810368755087
 21
356.6237527470426
 31
0.0
  0
LWPOLYLINE
  5
141
330
A
100
AcDbEntity
  8
0
  6
Continuous
 62
     7
100
AcDbPolyline
 90
        7
 70
   128
 43
0.0
 10
-108.2375597156484
 20
354.7388027821568
 10
-108.6705210962209
 20
355.2141559889749
 10
-109.010980195425
 20
355.6793956032368
 10
-109.2220585593968
 20
356.0944803844277
 10
-109.2736760313766
 20
356.4296014707734
 10
-109.1838736292792
 20
356.6208813384676
 10
-109.1810368755087
 20
356.6237527470426
  0
LINE
  5
14A
330
A
100
AcDbEntity
  8
0
  6
Continuous
 62
     7
100
AcDbLine
 10
-109.1810368755087
 20
356.6237527470426
 30
0.0
 11
-107.1025759064261
 21
358.7022137161253
 31
0.0
  0
LWPOLYLINE
  5
14B
330
A
100
AcDbEntity
  8
0
  6
Continuous
 62
     7
100
AcDbPolyline
 90
        7
 70
   128
 43
0.0
 10
-105.2176259415402
 20
357.758736556265
 10
-105.6929791483584
 20
358.1916979368375
 10
-106.1582187626202
 20
358.5321570360416
 10
-106.5733035438111
 20
358.7432354000134
 10
-106.9084246301569
 20
358.7948528719932
 10
-107.0997044978502
 20
358.7050504698967
 10
-107.1025759064262
 20
358.7022137161253
  0
LINE
  5
154
330
A
100
AcDbEntity
  8
0
  6
Continuous
 62
     7
100
AcDbLine
 10
-107.1025759064261
 20
358.7022137161253
 30
0.0
 11
-106.6568821504757
 21
359.1479074720758
 31
0.0
  0
LWPOLYLINE
  5
155
330
A
100
AcDbEntity
  8
0
  6
Continuous
 62
     7
100
AcDbPolyline
 90
        4
 70
   128
 43
0.0
 10
-81.0119840799085
 20
336.2131953600461
 10
-82.34114554756629
 20
336.0770444084657
 10
-83.68633327246286
 20
336.3771554329579
 10
-84.14059873644939
 20
336.6817093511745
  0
ARC
  5
15B
330
A
100
AcDbEntity
  8
0
  6
Continuous
 62
     7
100
AcDbCircle
 10
-78.7968749717255
 20
328.3180518123425
 30
0.0
 40
8.200000000000041
100
AcDbArc
 50
29.32768440759231
 51
105.6723155924079
  0
LWPOLYLINE
  5
15C
330
A
100
AcDbEntity
  8
0
  6
Continuous
 62
     7
100
AcDbPolyline
 90
        5
 70
   128
 43
0.0
 10
-69.10429269967147
 20
330.4534674627487
 10
-69.65525839570883
 20
330.5646595212751
 10
-70.51615935791033
 20
331.0595303056942
 10
-71.54146932889644
 20
332.1573680083943
 10
-71.64784675923883
 20
332.3344426819007
  0
LINE
  5
163
330
A
100
AcDbEntity
  8
0
  6
Continuous
 62
     7
100
AcDbLine
 10
-53.79687497172549
 20
330.4534674627487
 30
0.0
 11
-69.10429269967147
 21
330.4534674627487
 31
0.0
  0
LINE
  5
164
330
A
100
AcDbEntity
  8
0
  6
Continuous
 62
     7
100
AcDbLine
 10
-69.10429269967147
 20
326.1826361619363
 30
0.0
 11
-53.79687497172549
 21
326.1826361619363
 31
0.0
  0
LWPOLYLINE
  5
165
330
A
100
AcDbEntity
  8
0
  6
Continuous
 62
     7
100
AcDbPolyline
 90
        4
 70
   128
 43
0.0
 10
-71.64784675923886
 20
324.3016609427844
 10
-70.8042609332935
 20
325.3377932909845
 10
-69.640859030523
 20
326.0767741127005
 10
-69.10429269967147
 20
326.1826361619363
  0
ARC
  5
16B
330
A
100
AcDbEntity
  8
0
  6
Continuous
 62
     7
100
AcDbCircle
 10
-78.7968749717255
 20
328.3180518123425
 30
0.0
 40
8.200000000000008
100
AcDbArc
 50
254.3276844075935
 51
330.6723155924085
  0
LWPOLYLINE
  5
16C
330
A
100
AcDbEntity
  8
0
  6
Continuous
 62
     7
100
AcDbPolyline
 90
        5
 70
   128
 43
0.0
 10
-84.14059873644934
 20
319.9543942735104
 10
-83.6723824979821
 20
320.2653611947817
 10
-82.71370710220569
 20
320.5241836156105
 10
-81.21241498468176
 20
320.4728987646916
 10
-81.01198407990837
 20
320.422908264639
  0
LINE
  5
173
330
A
100
AcDbEntity
  8
0
  6
Continuous
 62
     7
100
AcDbLine
 10
-96.45797589653691
 20
307.6370171134227
 30
0.0
 11
-84.14059873644934
 21
319.9543942735104
 31
0.0
  0
ARC
  5
174
330
A
100
AcDbEntity
  8
0
  6
Continuous
 62
     7
100
AcDbCircle
 10
-90.89687497172546
 20
302.0759161886114
 30
0.0
 40
7.864584349593831
100
AcDbArc
 50
135.0000000000005
 51
180.0000000000004
  0
LINE
  5
175
330
A
100
AcDbEntity
  8
0
  6
Continuous
 62
     7
100
AcDbLine
 10
-98.76145932131928
 20
302.0759161886113
 30
0.0
 11
-98.76145932131928
 21
301.2180518123425
 31
0.0
  0
LINE
  5
176
330
A
100
AcDbEntity
  8
0
  6
Continuous
 62
     7
100
AcDbLine
 10
-103.0322906221317
 20
301.2180518123425
 30
0.0
 11
-103.0322906221317
 21
302.0759161886113
 31
0.0
  0
LWPOLYLINE
  5
177
330
A
100
AcDbEntity
  8
0
  6
Continuous
 62
     7
100
AcDbPolyline
 90
        3
 70
   128
 43
0.0
 10
-106.789629861664
 20
303.7909910326487
 10
-104.5703969959533
 20
303.023204257175
 10
-103.0322906221316
 20
302.0759161886114
  0
ARC
  5
17C
330
A
100
AcDbEntity
  8
0
  6
Continuous
 62
     7
100
AcDbCircle
 10
-105.8968749717255
 20
309.2180518123425
 30
0.0
 40
5.500000000000054
100
AcDbArc
 50
54.98947277407074
 51
260.6584708993847
  0
LWPOLYLINE
  5
17D
330
A
100
AcDbEntity
  8
0
  6
Continuous
 62
     7
100
AcDbPolyline
 90
        6
 70
   128
 43
0.0
 10
-96.76674207063904
 20
313.368118487537
 10
-97.36493866359133
 20
312.9504276938742
 10
-98.28655711116194
 20
312.7035028939309
 10
-100.3521494406963
 20
312.7714395647806
 10
-102.2342072655468
 20
313.4095974989624
 10
-102.7413768382033
 20
313.7228083573002
  0
LINE
  5
185
330
A
100
AcDbEntity
  8
0
  6
Continuous
 62
     7
100
AcDbLine
 10
-87.1605325105575
 20
322.9743280476187
 30
0.0
 11
-96.76674207063904
 21
313.368118487537
 31
0.0
  0
LWPOLYLINE
  5
186
330
A
100
AcDbEntity
  8
0
  6
Continuous
 62
     7
100
AcDbPolyline
 90
        4
 70
   128
 43
0.0
 10
-86.69201851942904
 20
326.1029427041596
 10
-86.55586756784858
 20
324.7737812365017
 10
-86.855978592341
 20
323.4285935116052
 10
-87.16053251055747
 20
322.9743280476187
  0
ARC
  5
18C
330
A
100
AcDbEntity
  8
0
  6
Continuous
 62
     7
100
AcDbCircle
 10
-78.7968749717255
 20
328.3180518123425
 30
0.0
 40
8.199999999999997
100
AcDbArc
 50
164.3276844075928
 51
195.6723155924087
  0
LWPOLYLINE
  5
18D
330
A
100
AcDbEntity
  8
0
  6
Continuous
 62
     7
100
AcDbPolyline
 90
        5
 70
   128
 43
0.0
 10
-87.16053251055759
 20
333.6617755770662
 10
-86.849565589286
 20
333.1935593385987
 10
-86.59074316845741
 20
332.2348839428211
 10
-86.64202801937678
 20
330.7335918252975
 10
-86.69201851942906
 20
330.5331609205254
  0
LINE
  5
194
330
A
100
AcDbEntity
  8
0
  6
Continuous
 62
     7
100
AcDbLine
 10
-87.16053251055759
 20
333.6617755770662
 30
0.0
 11
-100.4593851225963
 21
346.9606281891048
 31
0.0
  0
LINE
  5
195
330
A
100
AcDbEntity
  8
0
  6
Continuous
 62
     7
100
AcDbLine
 10
-98.94941823554207
 20
348.4705950761592
 30
0.0
 11
-100.4593851225963
 21
346.9606281891048
 31
0.0
  0
ARC
  5
196
330
A
100
AcDbEntity
  8
0
  6
Continuous
 62
     7
100
AcDbCircle
 10
-100.7171851885084
 20
350.2383620291255
 30
0.0
 40
2.500000000000005
100
AcDbArc
 50
315.0000000000011
 51
13.66774850239254
  0
LINE
  5
197
330
A
100
AcDbEntity
  8
0
  6
Continuous
 62
     7
100
AcDbLine
 10
-103.9949190285291
 20
350.4961620950376
 30
0.0
 11
-108.2375597156484
 21
354.7388027821568
 31
0.0
  0
LINE
  5
198
330
A
100
AcDbEntity
  8
0
  6
Continuous
 62
     7
100
AcDbLine
 10
-103.9949190285291
 20
350.4961620950376
 30
0.0
 11
-102.4849521414749
 21
352.0061289820919
 31
0.0
  0
ARC
  5
199
330
A
100
AcDbEntity
  8
0
  6
Continuous
 62
     7
100
AcDbCircle
 10
-100.7171851885084
 20
350.2383620291255
 30
0.0
 40
2.500000000000072
100
AcDbArc
 50
76.33225149761085
 51
135.0000000000001
  0
LINE
  5
19A
330
A
100
AcDbEntity
  8
0
  6
Continuous
 62
     7
100
AcDbLine
 10
-105.3840899443398
 20
349.1069911792268
 30
0.0
 11
-103.9949190285291
 21
350.4961620950376
 31
0.0
  0
LINE
  5
19B
330
A
100
AcDbEntity
  8
0
  6
Continuous
 62
     7
100
AcDbLine
 10
-104.9968732917536
 20
302.0759161886113
 30
0.0
 11
-103.0322906221317
 21
302.0759161886113
 31
0.0
  0
LINE
  5
19C
330
A
100
AcDbEntity
  8
0
  6
Continuous
 62
     7
100
AcDbLine
 10
-100.4593851225963
 20
346.9606281891048
 30
0.0
 11
-101.8485560384071
 21
345.5714572732941
 31
0.0
  0
LINE
  5
19D
330
A
100
AcDbEntity
  8
0
  6
Continuous
 62
     7
100
AcDbLine
 10
142.2031250282745
 20
331.8180518123425
 30
0.0
 11
142.2031250282745
 21
324.8180518123425
 31
0.0
  0
LINE
  5
19E
330
A
100
AcDbEntity
  8
0
  6
Continuous
 62
     7
100
AcDbLine
 10
-92.14687497172549
 20
101.2180518123424
 30
0.0
 11
-89.89687497172551
 21
101.2180518123424
 31
0.0
  0
LINE
  5
19F
330
A
100
AcDbEntity
  8
0
  6
Continuous
 62
     7
100
AcDbLine
 10
-92.14687497172549
 20
301.2180518123425
 30
0.0
 11
-89.8968749717255
 21
301.2180518123425
 31
0.0
  0
LINE
  5
1A0
330
A
100
AcDbEntity
  8
0
  6
Continuous
 62
     7
100
AcDbLine
 10
126.2031250282745
 20
319.5680518123426
 30
0.0
 11
126.2031250282744
 21
317.3180518123425
 31
0.0
  0
LINE
  5
1A1
330
A
100
AcDbEntity
  8
0
  6
Continuous
 62
     7
100
AcDbLine
 10
-53.7968749717255
 20
319.5680518123426
 30
0.0
 11
-53.79687497172551
 21
317.3180518123425
 31
0.0
  0
ARC
  5
1A2
330
A
100
AcDbEntity
  8
0
  6
Continuous
 62
     7
100
AcDbCircle
 10
-115.4644939950504
 20
79.18394644139697
 30
0.0
 40
4.000000000000052
100
AcDbArc
 50
315.0000000000011
 51
134.9999999999991
  0
LINE
  5
1A3
330
A
100
AcDbEntity
  8
0
  6
Continuous
 62
     7
100
AcDbLine
 10
-112.6360668703041
 20
76.35551931665076
 30
0.0
 11
-112.8370571605226
 21
76.15452902643234
 31
0.0
  0
LINE
  5
1A4
330
A
100
AcDbEntity
  8
0
  6
Continuous
 62
     7
100
AcDbLine
 10
-118.493911410015
 20
81.81138327592472
 30
0.0
 11
-118.2929211197966
 21
82.01237356614319
 31
0.0
  0
LINE
  5
1A5
330
A
100
AcDbEntity
  8
0
  6
Continuous
 62
     7
100
AcDbLine
 10
-98.01903767586232
 20
352.9365095417717
 30
0.0
 11
-97.81804738564384
 21
353.1374998319902
 31
0.0
  0
ARC
  5
1A6
330
A
100
AcDbEntity
  8
0
  6
Continuous
 62
     7
100
AcDbCircle
 10
-93.92896008911778
 20
349.2484125354641
 30
0.0
 40
5.500000000000095
100
AcDbArc
 50
314.9999999999999
 51
134.9999999999997
  0
LINE
  5
1A7
330
A
100
AcDbEntity
  8
0
  6
Continuous
 62
     7
100
AcDbLine
 10
-90.03987279259176
 20
345.359325238938
 30
0.0
 11
-90.24086308281011
 21
345.1583349487196
 31
0.0
  0
LINE
  5
1A8
330
A
100
AcDbEntity
  8
0
  6
Continuous
 62
     7
100
AcDbLine
 10
-111.3913836485274
 20
309.4637638400284
 30
0.0
 11
-111.4912838062873
 21
309.4682313314409
 31
0.0
  0
ARC
  5
1A9
330
A
100
AcDbEntity
  8
0
  6
Continuous
 62
     7
100
AcDbCircle
 10
-78.79687497172554
 20
328.3180518123425
 30
0.0
 40
10.00000000000003
100
AcDbArc
 50
159.2048348014588
 51
180.0000000000004
  0
ARC
  5
1AA
330
A
100
AcDbEntity
  8
0
  6
Continuous
 62
     7
100
AcDbCircle
 10
-78.79687497172554
 20
328.3180518123425
 30
0.0
 40
10.00000000000004
100
AcDbArc
 50
24.20483480145891
 51
110.7951651985421
  0
ARC
  5
1AB
330
A
100
AcDbEntity
  8
0
  6
Continuous
 62
     7
100
AcDbCircle
 10
-78.79687497172554
 20
328.3180518123425
 30
0.0
 40
9.999999999999994
100
AcDbArc
 50
249.2048348014595
 51
335.7951651985426
  0
ARC
  5
1AC
330
A
100
AcDbEntity
  8
0
  6
Continuous
 62
     7
100
AcDbCircle
 10
-78.79687497172554
 20
328.3180518123425
 30
0.0
 40
10.00000000000002
100
AcDbArc
 50
180.0000000000004
 51
200.7951651985424
  0
ARC
  5
1AD
330
A
100
AcDbEntity
  8
0
  6
Continuous
 62
     7
100
AcDbCircle
 10
-100.8968749717256
 20
57.21805181234246
 30
0.0
 40
10.00000000000001
100
AcDbArc
 50
152.2692795869035
 51
180.0000000000004
  0
ARC
  5
1AE
330
A
100
AcDbEntity
  8
0
  6
Continuous
 62
     7
100
AcDbCircle
 10
-100.8968749717256
 20
57.21805181234246
 30
0.0
 40
10.0
100
AcDbArc
 50
324.8109578165593
 51
66.42182152179782
  0
ARC
  5
1AF
330
A
100
AcDbEntity
  8
0
  6
Continuous
 62
     7
100
AcDbCircle
 10
-100.8968749717256
 20
57.21805181234246
 30
0.0
 40
10.00000000000001
100
AcDbArc
 50
180.0000000000004
 51
270.0000000000011
  0
LINE
  5
1B0
330
A
100
AcDbEntity
  8
0
  6
PHANTOM
 62
     7
100
AcDbLine
 10
-165.7968749717255
 20
-9.28194818765754
 30
0.0
 11
-165.7968749717255
 21
30.71805181234247
 31
0.0
  0
LINE
  5
1B1
330
A
100
AcDbEntity
  8
0
  6
PHANTOM
 62
     7
100
AcDbLine
 10
-165.7968749717255
 20
-49.28194818765755
 30
0.0
 11
-165.7968749717255
 21
-9.28194818765754
 31
0.0
  0
LINE
  5
1B2
330
A
100
AcDbEntity
  8
0
  6
PHANTOM
 62
     7
100
AcDbLine
 10
-156.2968749717255
 20
3.21805181234247
 30
0.0
 11
-156.2968749717255
 21
-39.28194818765754
 31
0.0
  0
LINE
  5
1B3
330
A
100
AcDbEntity
  8
0
  6
PHANTOM
 62
     7
100
AcDbLine
 10
-156.2968749717255
 20
3.21805181234247
 30
0.0
 11
-158.7968749717255
 21
3.21805181234247
 31
0.0
  0
LINE
  5
1B4
330
A
100
AcDbEntity
  8
0
  6
PHANTOM
 62
     7
100
AcDbLine
 10
-156.2968749717255
 20
10.71805181234245
 30
0.0
 11
-156.2968749717255
 21
3.21805181234247
 31
0.0
  0
LINE
  5
1B5
330
A
100
AcDbEntity
  8
0
  6
PHANTOM
 62
     7
100
AcDbLine
 10
-96.79687497172555
 20
-19.28194818765755
 30
0.0
 11
-86.79687497172553
 21
-19.28194818765755
 31
0.0
  0
LINE
  5
1B6
330
A
100
AcDbEntity
  8
0
  6
PHANTOM
 62
     7
100
AcDbLine
 10
-106.7968749717255
 20
-19.28194818765755
 30
0.0
 11
-96.79687497172555
 21
-19.28194818765755
 31
0.0
  0
LWPOLYLINE
  5
1B7
330
A
100
AcDbEntity
  8
0
  6
PHANTOM
 62
     7
100
AcDbPolyline
 90
        7
 70
   128
 43
0.0
 10
-106.7968749717255
 20
13.21805181234245
 10
-106.7623112530809
 20
13.16399321745792
 10
-106.3505706544606
 20
12.51128701986637
 10
-105.4036780422939
 20
10.9313782566717
 10
-103.9437103900835
 20
8.071732197031417
 10
-103.0519634240592
 20
5.428160529448305
 10
-102.7968749717256
 20
3.218051812342443
  0
LINE
  5
1C0
330
A
100
AcDbEntity
  8
0
  6
PHANTOM
 62
     7
100
AcDbLine
 10
-102.7968749717255
 20
3.21805181234247
 30
0.0
 11
-102.7968749717255
 21
-16.28194818765755
 31
0.0
  0
LWPOLYLINE
  5
1C1
330
A
100
AcDbEntity
  8
0
  6
PHANTOM
 62
     7
100
AcDbPolyline
 90
        8
 70
   128
 43
0.0
 10
-104.2968749717255
 20
3.21805181234247
 10
-104.5219377530276
 20
4.606381626712952
 10
-104.6157355371428
 20
4.875633350171853
 10
-105.7304192446731
 20
6.858312100859159
 10
-107.5553788099361
 20
9.003046645589401
 10
-108.7389945751444
 20
10.18797821798539
 10
-109.2536703234197
 20
10.67750786617907
 10
-109.2968749717255
 20
10.71805181234245
  0
LINE
  5
1CB
330
A
100
AcDbEntity
  8
0
  6
PHANTOM
 62
     7
100
AcDbLine
 10
-104.2968749717255
 20
3.21805181234247
 30
0.0
 11
-102.7968749717255
 21
3.21805181234247
 31
0.0
  0
LINE
  5
1CC
330
A
100
AcDbEntity
  8
0
  6
PHANTOM
 62
     7
100
AcDbLine
 10
-104.2968749717255
 20
-16.28194818765755
 30
0.0
 11
-104.2968749717255
 21
3.21805181234247
 31
0.0
  0
LINE
  5
1CD
330
A
100
AcDbEntity
  8
0
  6
PHANTOM
 62
     7
100
AcDbLine
 10
-104.2968749717255
 20
3.21805181234247
 30
0.0
 11
-156.2968749717255
 21
3.21805181234247
 31
0.0
  0
LINE
  5
1CE
330
A
100
AcDbEntity
  8
0
  6
PHANTOM
 62
     7
100
AcDbLine
 10
167.2031250282746
 20
331.5680518123425
 30
0.0
 11
167.2031250282746
 21
325.0680518123425
 31
0.0
  0
LWPOLYLINE
  5
1CF
330
A
100
AcDbEntity
  8
0
  6
PHANTOM
 62
     7
100
AcDbPolyline
 90
        9
 70
   128
 43
0.0
 10
242.1897843636621
 20
233.3964553720835
 10
242.1343489744264
 20
233.3345387368285
 10
241.9488197660073
 20
233.2189150610245
 10
241.6614418785601
 20
233.0671870011816
 10
241.3159659903616
 20
232.9024537789924
 10
240.9649876736434
 20
232.7497945342249
 10
240.6619401954994
 20
232.6324502530356
 10
240.4529597873447
 20
232.5682855385068
 10
240.3698618219089
 20
232.567068886771
  0
LINE
  5
1DA
330
A
100
AcDbEntity
  8
0
  6
PHANTOM
 62
     7
100
AcDbLine
 10
170.9531250282745
 20
341.8180518123425
 30
0.0
 11
170.9531250282746
 21
331.5680518123425
 31
0.0
  0
LINE
  5
1DB
330
A
100
AcDbEntity
  8
0
  6
PHANTOM
 62
     7
100
AcDbLine
 10
170.9531250282746
 20
325.0680518123425
 30
0.0
 11
170.9531250282745
 21
314.8180518123425
 31
0.0
  0
LINE
  5
1DC
330
A
100
AcDbEntity
  8
0
  6
PHANTOM
 62
     7
100
AcDbLine
 10
216.1945177386788
 20
352.0481913411881
 30
0.0
 11
262.057680892021
 21
372.9492389519406
 31
0.0
  0
LINE
  5
1DD
330
A
100
AcDbEntity
  8
0
  6
PHANTOM
 62
     7
100
AcDbLine
 10
-99.64687497172546
 20
301.2180518123425
 30
0.0
 11
-99.64687497172549
 21
101.2180518123424
 31
0.0
  0
LINE
  5
1DE
330
A
100
AcDbEntity
  8
0
  6
PHANTOM
 62
     7
100
AcDbLine
 10
126.2031250282735
 20
327.0680518123425
 30
0.0
 11
-53.79687497172547
 21
327.0680518123425
 31
0.0
  0
LINE
  5
1DF
330
A
100
AcDbEntity
  8
0
  6
PHANTOM
 62
     7
100
AcDbLine
 10
-92.14687497172549
 20
301.2180518123425
 30
0.0
 11
-92.14687497172549
 21
101.2180518123424
 31
0.0
  0
LINE
  5
1E0
330
A
100
AcDbEntity
  8
0
  6
PHANTOM
 62
     7
100
AcDbLine
 10
126.2031250282745
 20
319.5680518123426
 30
0.0
 11
-53.7968749717255
 21
319.5680518123426
 31
0.0
  0
LINE
  5
1E1
330
A
100
AcDbEntity
  8
0
  6
PHANTOM
 62
     7
100
AcDbLine
 10
-96.0883373191783
 20
50.5759161886115
 30
0.0
 11
-92.69687497172553
 21
50.5759161886115
 31
0.0
  0
LINE
  5
1E2
330
A
100
AcDbEntity
  8
0
  6
PHANTOM
 62
     7
100
AcDbLine
 10
-121.4790775720858
 20
85.19017814453288
 30
0.0
 11
-127.2731772408657
 21
79.39607847575293
 31
0.0
  0
LWPOLYLINE
  5
1E3
330
A
100
AcDbEntity
  8
0
  6
PHANTOM
 62
     7
100
AcDbPolyline
 90
        7
 70
   128
 43
0.0
 10
-84.14059873644939
 20
336.6817093511745
 10
-84.10221807787989
 20
336.694767367883
 10
-83.00528425326993
 20
336.9475889503259
 10
-82.04586237692621
 20
337.0082369841252
 10
-81.69264125580596
 20
336.9984958108692
 10
-81.67883669624412
 20
336.9977881027247
 10
-81.68739697913149
 20
336.9981474381789
  0
LINE
  5
1EC
330
A
100
AcDbEntity
  8
0
  6
PHANTOM
 62
     7
100
AcDbLine
 10
-103.8284550257295
 20
359.1479074720758
 30
0.0
 11
-105.2176259415402
 21
357.758736556265
 31
0.0
  0
LINE
  5
1ED
330
A
100
AcDbEntity
  8
0
  6
PHANTOM
 62
     7
100
AcDbLine
 10
-108.2375597156484
 20
354.7388027821568
 30
0.0
 11
-109.6267306314592
 21
353.349631866346
 31
0.0
  0
LINE
  5
1EE
330
A
100
AcDbEntity
  8
0
  6
PHANTOM
 62
     7
100
AcDbLine
 10
-105.2176259415402
 20
357.758736556265
 30
0.0
 11
-108.2375597156484
 21
354.7388027821568
 31
0.0
  0
LWPOLYLINE
  5
1EF
330
A
100
AcDbEntity
  8
0
  6
PHANTOM
 62
     7
100
AcDbPolyline
 90
        5
 70
   128
 43
0.0
 10
-98.25711200156241
 20
314.5932626428035
 10
-98.28490405619596
 20
314.6026208989752
 10
-97.9358901656063
 20
314.4672797470538
 10
-97.29085017787731
 20
314.0428856051956
 10
-96.76674207063902
 20
313.368118487537
  0
LWPOLYLINE
  5
1F6
330
A
100
AcDbEntity
  8
0
  6
PHANTOM
 62
     7
100
AcDbPolyline
 90
        6
 70
   128
 43
0.0
 10
-87.47697059756184
 20
331.2085738197483
 10
-87.48329008234369
 20
331.3591199927259
 10
-87.4854851815558
 20
331.4425463043458
 10
-87.46856005626892
 20
332.1186065061219
 10
-87.30332925970788
 20
333.1766318205515
 10
-87.16053251055759
 20
333.6617755770662
  0
LINE
  5
1FE
330
A
100
AcDbEntity
  8
0
  6
PHANTOM
 62
     7
100
AcDbLine
 10
-96.45797589653691
 20
307.6370171134227
 30
0.0
 11
-95.0688049807262
 21
306.247846197612
 31
0.0
  0
LINE
  5
1FF
330
A
100
AcDbEntity
  8
0
  6
PHANTOM
 62
     7
100
AcDbLine
 10
-98.76145932131928
 20
302.0759161886113
 30
0.0
 11
-96.79687497172549
 21
302.0759161886113
 31
0.0
  0
LWPOLYLINE
  5
200
330
A
100
AcDbEntity
  8
0
  6
PHANTOM
 62
     7
100
AcDbPolyline
 90
        6
 70
   128
 43
0.0
 10
-87.16053251055747
 20
322.9743280476187
 10
-87.30332925970776
 20
323.4594718041333
 10
-87.46856005626886
 20
324.517497118563
 10
-87.48548518155578
 20
325.1935573203391
 10
-87.47659541897759
 20
325.4363938175202
 10
-87.47660167320274
 20
325.4362739173557
  0
LWPOLYLINE
  5
208
330
A
100
AcDbEntity
  8
0
  6
PHANTOM
 62
     7
100
AcDbPolyline
 90
        7
 70
   128
 43
0.0
 10
-81.68108446671768
 20
319.6382003256706
 10
-81.678836696244
 20
319.6383155219603
 10
-81.87792490393828
 20
319.6304714926267
 10
-81.97321359455235
 20
319.6285366504342
 10
-82.69488068696963
 20
319.6541474025864
 10
-83.7970940283392
 20
319.8484473498587
 10
-84.14059873644911
 20
319.9543942735104
  0
LWPOLYLINE
  5
211
330
A
100
AcDbEntity
  8
0
  6
PHANTOM
 62
     7
100
AcDbPolyline
 90
        6
 70
   128
 43
0.0
 10
-69.10429269967147
 20
326.1826361619363
 10
-69.20588032350913
 20
325.9846024169481
 10
-69.82633987689083
 20
325.0549606462391
 10
-70.43321415262973
 20
324.3937510533653
 10
-70.62043449142105
 20
324.2193841116444
 10
-70.62117152082645
 20
324.2187200111703
  0
LWPOLYLINE
  5
219
330
A
100
AcDbEntity
  8
0
  6
PHANTOM
 62
     7
100
AcDbPolyline
 90
        7
 70
   128
 43
0.0
 10
-70.62117039364816
 20
332.4173825978706
 10
-70.62151990335819
 20
332.4176975236556
 10
-70.47142620015439
 20
332.2788895132849
 10
-70.4064492959712
 20
332.2164563290056
 10
-69.91426313768187
 20
331.6880510976801
 10
-69.2722714199856
 20
330.7712777593829
 10
-69.10429269967147
 20
330.453467462749
  0
ARC
  5
222
330
A
100
AcDbEntity
  8
0
  6
Continuous
 62
     7
100
AcDbCircle
 10
-165.7968749717255
 20
-322.7431062219963
 30
0.0
 40
7.0
100
AcDbArc
 50
270.0000000000003
 51
0.0
  0
ARC
  5
223
330
A
100
AcDbEntity
  8
0
  6
Continuous
 62
     7
100
AcDbCircle
 10
-165.7968749717255
 20
-256.7431062219963
 30
0.0
 40
7.0
100
AcDbArc
 50
0.0
 51
90.00000000000047
  0
LINE
  5
224
330
A
100
AcDbEntity
  8
0
  6
Continuous
 62
     7
100
AcDbLine
 10
-174.7968749717255
 20
-329.7431062219963
 30
0.0
 11
-165.7968749717255
 21
-329.7431062219963
 31
0.0
  0
LINE
  5
225
330
A
100
AcDbEntity
  8
0
  6
Continuous
 62
     7
100
AcDbLine
 10
-165.7968749717255
 20
-249.7431062219963
 30
0.0
 11
-174.7968749717255
 21
-249.7431062219963
 31
0.0
  0
LINE
  5
226
330
A
100
AcDbEntity
  8
0
  6
Continuous
 62
     7
100
AcDbLine
 10
-176.7968749717255
 20
-328.2431062219963
 30
0.0
 11
-174.7968749717255
 21
-328.2431062219963
 31
0.0
  0
LINE
  5
227
330
A
100
AcDbEntity
  8
0
  6
Continuous
 62
     7
100
AcDbLine
 10
-174.7968749717255
 20
-251.2431062219963
 30
0.0
 11
-176.7968749717255
 21
-251.2431062219963
 31
0.0
  0
LINE
  5
228
330
A
100
AcDbEntity
  8
0
  6
Continuous
 62
     7
100
AcDbLine
 10
-98.26718518850846
 20
-293.7431062219975
 30
0.0
 11
-98.26718518850846
 21
-293.2431062219974
 31
0.0
  0
LINE
  5
229
330
A
100
AcDbEntity
  8
0
  6
Continuous
 62
     7
100
AcDbLine
 10
-98.26718518850853
 20
-286.2431062219974
 30
0.0
 11
-98.26718518850853
 21
-285.7431062219975
 31
0.0
  0
LINE
  5
22A
330
A
100
AcDbEntity
  8
0
  6
Continuous
 62
     7
100
AcDbLine
 10
-103.1671851885085
 20
-285.7431062219976
 30
0.0
 11
-103.1671851885085
 21
-286.2431062219975
 31
0.0
  0
LINE
  5
22B
330
A
100
AcDbEntity
  8
0
  6
Continuous
 62
     7
100
AcDbLine
 10
-103.1671851885084
 20
-293.2431062219975
 30
0.0
 11
-103.1671851885084
 21
-293.7431062219976
 31
0.0
  0
LINE
  5
22C
330
A
100
AcDbEntity
  8
0
  6
Continuous
 62
     7
100
AcDbLine
 10
196.2031250282747
 20
-316.7431062219954
 30
0.0
 11
196.2031250282747
 21
-306.2431062219954
 31
0.0
  0
LINE
  5
22D
330
A
100
AcDbEntity
  8
0
  6
Continuous
 62
     7
100
AcDbLine
 10
196.2031250282744
 20
-273.2431062219955
 30
0.0
 11
196.2031250282743
 21
-262.7431062219955
 31
0.0
  0
LINE
  5
22E
330
A
100
AcDbEntity
  8
0
  6
Continuous
 62
     7
100
AcDbLine
 10
186.2031250282743
 20
-262.7431062219955
 30
0.0
 11
186.2031250282743
 21
-264.7431062219955
 31
0.0
  0
LINE
  5
22F
330
A
100
AcDbEntity
  8
0
  6
Continuous
 62
     7
100
AcDbLine
 10
186.2031250282744
 20
-267.7431062219955
 30
0.0
 11
186.2031250282744
 21
-273.2431062219955
 31
0.0
  0
LINE
  5
230
330
A
100
AcDbEntity
  8
0
  6
Continuous
 62
     7
100
AcDbLine
 10
186.2031250282747
 20
-306.2431062219955
 30
0.0
 11
186.2031250282747
 21
-311.7431062219955
 31
0.0
  0
LINE
  5
231
330
A
100
AcDbEntity
  8
0
  6
Continuous
 62
     7
100
AcDbLine
 10
186.2031250282747
 20
-314.7431062219955
 30
0.0
 11
186.2031250282747
 21
-316.7431062219955
 31
0.0
  0
ARC
  5
232
330
A
100
AcDbEntity
  8
0
  6
Continuous
 62
     7
100
AcDbCircle
 10
213.7031250282744
 20
-272.7431062219954
 30
0.0
 40
0.6249999999998864
100
AcDbArc
 50
0.0
 51
180.0000000000004
  0
ARC
  5
233
330
A
100
AcDbEntity
  8
0
  6
Continuous
 62
     7
100
AcDbCircle
 10
213.7031250282746
 20
-306.7431062219952
 30
0.0
 40
0.6249999999998864
100
AcDbArc
 50
180.0000000000004
 51
360.0000000000008
  0
LINE
  5
234
330
A
100
AcDbEntity
  8
0
  6
Continuous
 62
     7
100
AcDbLine
 10
213.0781250282746
 20
-272.7431062219954
 30
0.0
 11
213.0781250282748
 21
-306.7431062219952
 31
0.0
  0
LINE
  5
235
330
A
100
AcDbEntity
  8
0
  6
Continuous
 62
     7
100
AcDbLine
 10
220.031629603352
 20
-272.7431062219953
 30
0.0
 11
214.3281250282743
 21
-272.7431062219953
 31
0.0
  0
LINE
  5
236
330
A
100
AcDbEntity
  8
0
  6
Continuous
 62
     7
100
AcDbLine
 10
214.3281250282746
 20
-306.7431062219952
 30
0.0
 11
220.0316296033523
 21
-306.7431062219952
 31
0.0
  0
LINE
  5
237
330
A
100
AcDbEntity
  8
0
  6
Continuous
 62
     7
100
AcDbLine
 10
198.7031250282744
 20
-273.2431062219954
 30
0.0
 11
196.2031250282744
 21
-273.2431062219955
 31
0.0
  0
LINE
  5
238
330
A
100
AcDbEntity
  8
0
  6
Continuous
 62
     7
100
AcDbLine
 10
186.2031250282744
 20
-273.2431062219955
 30
0.0
 11
183.7031250282744
 21
-273.2431062219955
 31
0.0
  0
LINE
  5
239
330
A
100
AcDbEntity
  8
0
  6
Continuous
 62
     7
100
AcDbLine
 10
183.7031250282746
 20
-306.2431062219955
 30
0.0
 11
186.2031250282747
 21
-306.2431062219955
 31
0.0
  0
LINE
  5
23A
330
A
100
AcDbEntity
  8
0
  6
Continuous
 62
     7
100
AcDbLine
 10
196.2031250282747
 20
-306.2431062219954
 30
0.0
 11
198.7031250282746
 21
-306.2431062219954
 31
0.0
  0
ARC
  5
23B
330
A
100
AcDbEntity
  8
0
  6
Continuous
 62
     7
100
AcDbCircle
 10
170.9531250282745
 20
-282.2431062219957
 30
0.0
 40
6.0
100
AcDbArc
 50
90.00000000000055
 51
180.0000000000004
  0
ARC
  5
23C
330
A
100
AcDbEntity
  8
0
  6
Continuous
 62
     7
100
AcDbCircle
 10
170.9531250282746
 20
-297.2431062219956
 30
0.0
 40
6.000000000000028
100
AcDbArc
 50
180.0000000000004
 51
270.0000000000013
  0
LINE
  5
23D
330
A
100
AcDbEntity
  8
0
  6
Continuous
 62
     7
100
AcDbLine
 10
183.7031250282744
 20
-276.2431062219956
 30
0.0
 11
170.9531250282744
 21
-276.2431062219957
 31
0.0
  0
LINE
  5
23E
330
A
100
AcDbEntity
  8
0
  6
Continuous
 62
     7
100
AcDbLine
 10
170.9531250282746
 20
-303.2431062219956
 30
0.0
 11
183.7031250282747
 21
-303.2431062219954
 31
0.0
  0
LINE
  5
23F
330
A
100
AcDbEntity
  8
0
  6
Continuous
 62
     7
100
AcDbLine
 10
213.0781250282746
 20
-276.2431062219954
 30
0.0
 11
198.7031250282744
 21
-276.2431062219955
 31
0.0
  0
LINE
  5
240
330
A
100
AcDbEntity
  8
0
  6
Continuous
 62
     7
100
AcDbLine
 10
198.7031250282746
 20
-303.2431062219953
 30
0.0
 11
213.0781250282748
 21
-303.2431062219952
 31
0.0
  0
LINE
  5
241
330
A
100
AcDbEntity
  8
0
  6
Continuous
 62
     7
100
AcDbLine
 10
164.9531250282745
 20
-283.2431062219957
 30
0.0
 11
154.9531250282744
 21
-283.2431062219957
 31
0.0
  0
LINE
  5
242
330
A
100
AcDbEntity
  8
0
  6
Continuous
 62
     7
100
AcDbLine
 10
154.9531250282745
 20
-296.2431062219957
 30
0.0
 11
164.9531250282745
 21
-296.2431062219956
 31
0.0
  0
LWPOLYLINE
  5
243
330
A
100
AcDbEntity
  8
0
  6
Continuous
 62
     7
100
AcDbPolyline
 90
       40
 70
   128
 43
0.0
 10
316.4968749717251
 20
-289.7431062219945
 10
316.4559669195756
 20
-287.5028220463506
 10
316.1581425980452
 20
-283.3059706369039
 10
315.5733175338085
 20
-279.1445892387053
 10
314.7047721588564
 20
-275.0429110257738
 10
313.5573627192609
 20
-271.0241348401933
 10
312.1375237714511
 20
-267.111005103277
 10
310.4532370142991
 20
-263.3256844205139
 10
308.5139919337045
 20
-259.6896274483967
 10
306.3307379554302
 20
-256.2234567836214
 10
303.9158276650176
 20
-252.9468414390763
 10
301.2829505939038
 20
-249.8783786896046
 10
298.4470570925818
 20
-247.0354803565373
 10
295.424271960299
 20
-244.4342649281916
 10
292.231797815117
 20
-242.0894572310348
 10
288.88780868323
 20
-240.0142975927821
 10
285.4113349342425
 20
-238.220462477187
 10
281.8221414051308
 20
-236.717998331026
 10
278.1406011996368
 20
-235.5152698186249
 10
274.3875680497836
 20
-234.6189227567474
 10
270.5842501248284
 20
-234.0338610276754
 10
266.7520876867417
 20
-233.7632357511256
 10
262.9126360591082
 20
-233.8084442834863
 10
259.0874694752069
 20
-234.1691343145968
 10
255.2981319838488
 20
-234.8431957533284
 10
251.5658590062761
 20
-235.8267967400546
 10
247.9115673019995
 20
-237.1144068954889
 10
244.3557530521798
 20
-238.6988211922758
 10
240.9183879224459
 20
-240.5711887476674
 10
237.6188125297693
 20
-242.7210487197706
 10
234.4756278380259
 20
-245.1363755290156
 10
231.5065859950657
 20
-247.8036351581476
 10
228.7284827610512
 20
-250.707853487433
 10
226.1570538907752
 20
-253.832696721065
 10
223.806877664575
 20
-257.1605631561299
 10
221.6912853321726
 20
-260.6726849661874
 10
219.8222806848839
 20
-264.3492383624292
 10
218.2104694298884
 20
-268.1694604314586
 10
216.864998589621
 20
-272.1117710636697
 10
216.6976433920971
 20
-272.7431062219954
  0
LWPOLYLINE
  5
26D
330
A
100
AcDbEntity
  8
0
  6
Continuous
 62
     7
100
AcDbPolyline
 90
       39
 70
   128
 43
0.0
 10
216.7127913158635
 20
-306.7431062219952
 10
217.4789025640784
 20
-309.2859971450867
 10
218.9544914113755
 20
-313.1743297918082
 10
220.6926757464525
 20
-316.9303253763658
 10
222.6836579830829
 20
-320.5326922734959
 10
224.9161916609534
 20
-323.9609964468411
 10
227.3776401472137
 20
-327.195782344693
 10
230.0540448768822
 20
-330.2186902289733
 10
232.9302035922607
 20
-333.0125688022982
 10
235.9897588610935
 20
-335.5615816666994
 10
239.215296801302
 20
-337.8513058415314
 10
242.5884554092647
 20
-339.8688203725243
 10
246.0900412176105
 20
-341.6027830766512
 10
249.700152294347
 20
-343.0434937726963
 10
253.3983049874084
 20
-344.1829429798672
 10
257.1635614908875
 20
-345.0148459787495
 10
260.9746554081233
 20
-345.5346631755408
 10
264.8101130737019
 20
-345.7396086686746
 10
268.6483694035758
 20
-345.6286495407768
 10
272.467840828759
 20
-345.2025042388097
 10
276.2470420388674
 20
-344.4636440525702
 10
279.9647955855099
 20
-343.416256152423
 10
283.600263797241
 20
-342.0662215734452
 10
287.1330510136728
 20
-340.4210904785433
 10
290.5433080500354
 20
-338.4900520769926
 10
293.8118392413883
 20
-336.2838969614357
 10
296.9202113151989
 20
-333.8149697020687
 10
299.85086241363
 20
-331.0971100907102
 10
302.5872090364096
 20
-328.1455822643592
 10
305.1137485483043
 20
-324.9769918331791
 10
307.4161551292537
 20
-321.6091919034115
 10
309.4813675119719
 20
-318.061179409803
 10
311.2976674084011
 20
-314.3529834262985
 10
312.8547480545443
 20
-310.5055471441915
 10
314.1437727286897
 20
-306.5406050646125
 10
315.1574233920646
 20
-302.4805567244566
 10
315.8899397692727
 20
-298.3483380258613
 10
316.3371492540487
 20
-294.1672910118289
 10
316.4968749717251
 20
-289.7431062219945
  0
LWPOLYLINE
  5
296
330
A
100
AcDbEntity
  8
0
  6
Continuous
 62
     7
100
AcDbPolyline
 90
        9
 70
   128
 43
0.0
 10
-108.7710295699149
 20
-286.4051126153438
 10
-109.2995320467012
 20
-286.9541259501179
 10
-109.8186693380847
 20
-287.8274263737912
 10
-110.1328345157204
 20
-288.8588543553106
 10
-110.2062675074765
 20
-289.9922173696854
 10
-110.0099795349617
 20
-291.1388232809508
 10
-109.5239659863355
 20
-292.213308990704
 10
-108.87594821401
 20
-292.9894377650256
 10
-108.7710295699148
 20
-293.0810998286516
  0
LINE
  5
2A1
330
A
100
AcDbEntity
  8
0
  6
Continuous
 62
     7
100
AcDbLine
 10
-88.42896008911768
 20
-291.2431062219975
 30
0.0
 11
-88.42896008911774
 21
-290.3431062219975
 31
0.0
  0
LINE
  5
2A2
330
A
100
AcDbEntity
  8
0
  6
Continuous
 62
     7
100
AcDbLine
 10
-88.42896008911774
 20
-289.1431062219975
 30
0.0
 11
-88.42896008911768
 21
-288.2431062219975
 31
0.0
  0
LINE
  5
2A3
330
A
100
AcDbEntity
  8
0
  6
Continuous
 62
     7
100
AcDbLine
 10
130.526658510517
 20
-289.1431062219959
 30
0.0
 11
-90.4677817236422
 21
-289.1431062219975
 31
0.0
  0
LINE
  5
2A4
330
A
100
AcDbEntity
  8
0
  6
Continuous
 62
     7
100
AcDbLine
 10
-90.46777280802627
 20
-290.3431062219975
 30
0.0
 11
130.534378827617
 21
-290.3431062219959
 31
0.0
  0
LINE
  5
2A5
330
A
100
AcDbEntity
  8
0
  6
Continuous
 62
     7
100
AcDbLine
 10
140.7031250282745
 20
-289.7159395456778
 30
0.0
 11
140.7031250282745
 21
-285.7431062219959
 31
0.0
  0
LINE
  5
2A6
330
A
100
AcDbEntity
  8
0
  6
Continuous
 62
     7
100
AcDbLine
 10
140.7031250282734
 20
-293.7431062219959
 30
0.0
 11
140.7031250282745
 21
-289.7159395456778
 31
0.0
  0
LINE
  5
2A7
330
A
100
AcDbEntity
  8
0
  6
Continuous
 62
     7
100
AcDbLine
 10
126.7031250282745
 20
-290.3431062219959
 30
0.0
 11
126.7031250282734
 21
-293.7431062219959
 31
0.0
  0
LINE
  5
2A8
330
A
100
AcDbEntity
  8
0
  6
Continuous
 62
     7
100
AcDbLine
 10
126.7031250282744
 20
-285.7431062219959
 30
0.0
 11
126.7031250282744
 21
-289.1431062219959
 31
0.0
  0
LINE
  5
2A9
330
A
100
AcDbEntity
  8
0
  6
Continuous
 62
     7
100
AcDbLine
 10
-68.79687497172551
 20
-284.7431062219973
 30
0.0
 11
-68.79687497172557
 21
-279.7431062219973
 31
0.0
  0
LINE
  5
2AA
330
A
100
AcDbEntity
  8
0
  6
Continuous
 62
     7
100
AcDbLine
 10
-88.79687497172559
 20
-279.7431062219974
 30
0.0
 11
-88.79687497172556
 21
-284.7431062219974
 31
0.0
  0
LINE
  5
2AB
330
A
100
AcDbEntity
  8
0
  6
Continuous
 62
     7
100
AcDbLine
 10
-73.79687497172546
 20
-294.7431062219973
 30
0.0
 11
-73.79687497172549
 21
-293.2431062219973
 31
0.0
  0
LINE
  5
2AC
330
A
100
AcDbEntity
  8
0
  6
Continuous
 62
     7
100
AcDbLine
 10
-83.79687497172547
 20
-293.2431062219974
 30
0.0
 11
-83.7968749717255
 21
-294.7431062219974
 31
0.0
  0
LINE
  5
2AD
330
A
100
AcDbEntity
  8
0
  6
Continuous
 62
     7
100
AcDbLine
 10
-53.79687497172547
 20
-294.7431062219972
 30
0.0
 11
126.2031250282744
 21
-294.7431062219959
 31
0.0
  0
LINE
  5
2AE
330
A
100
AcDbEntity
  8
0
  6
Continuous
 62
     7
100
AcDbLine
 10
126.2031250282744
 20
-284.743106221996
 30
0.0
 11
-53.79687497172556
 21
-284.7431062219972
 31
0.0
  0
LINE
  5
2AF
330
A
100
AcDbEntity
  8
0
  6
Continuous
 62
     7
100
AcDbLine
 10
-73.79687497172551
 20
-286.2431062219973
 30
0.0
 11
-73.79687497172554
 21
-284.7431062219973
 31
0.0
  0
LINE
  5
2B0
330
A
100
AcDbEntity
  8
0
  6
Continuous
 62
     7
100
AcDbLine
 10
-83.79687497172552
 20
-284.7431062219974
 30
0.0
 11
-83.79687497172552
 21
-286.2431062219974
 31
0.0
  0
LINE
  5
2B1
330
A
100
AcDbEntity
  8
0
  6
Continuous
 62
     7
100
AcDbLine
 10
126.2031250282744
 20
-293.2431062219959
 30
0.0
 11
126.7031250282745
 21
-293.2431062219959
 31
0.0
  0
LINE
  5
2B2
330
A
100
AcDbEntity
  8
0
  6
Continuous
 62
     7
100
AcDbLine
 10
126.7031250282744
 20
-286.2431062219959
 30
0.0
 11
126.2031250282744
 21
-286.2431062219959
 31
0.0
  0
LINE
  5
2B3
330
A
100
AcDbEntity
  8
0
  6
Continuous
 62
     7
100
AcDbLine
 10
140.7031250282745
 20
-293.2431062219958
 30
0.0
 11
142.2031250282745
 21
-293.2431062219958
 31
0.0
  0
LINE
  5
2B4
330
A
100
AcDbEntity
  8
0
  6
Continuous
 62
     7
100
AcDbLine
 10
142.2031250282744
 20
-286.2431062219958
 30
0.0
 11
140.7031250282745
 21
-286.2431062219958
 31
0.0
  0
LINE
  5
2B5
330
A
100
AcDbEntity
  8
0
  6
Continuous
 62
     7
100
AcDbLine
 10
-111.3968749717255
 20
-290.0971516077263
 30
0.0
 11
-111.3968749717255
 21
-293.2431062219976
 31
0.0
  0
LINE
  5
2B6
330
A
100
AcDbEntity
  8
0
  6
Continuous
 62
     7
100
AcDbLine
 10
-111.3968749717256
 20
-286.2431062219975
 30
0.0
 11
-111.3968749717255
 21
-289.3830576648293
 31
0.0
  0
LINE
  5
2B7
330
A
100
AcDbEntity
  8
0
  6
Continuous
 62
     7
100
AcDbLine
 10
-100.8968749717255
 20
-285.7431062219976
 30
0.0
 11
-100.8968749717255
 21
-284.7431062219974
 31
0.0
  0
LINE
  5
2B8
330
A
100
AcDbEntity
  8
0
  6
Continuous
 62
     7
100
AcDbLine
 10
-110.8968749717255
 20
-284.7431062219975
 30
0.0
 11
-110.8968749717255
 21
-286.2431062219975
 31
0.0
  0
LINE
  5
2B9
330
A
100
AcDbEntity
  8
0
  6
Continuous
 62
     7
100
AcDbLine
 10
-100.8968749717255
 20
-294.7431062219974
 30
0.0
 11
-100.8968749717255
 21
-293.7431062219976
 31
0.0
  0
LINE
  5
2BA
330
A
100
AcDbEntity
  8
0
  6
Continuous
 62
     7
100
AcDbLine
 10
-110.8968749717255
 20
-293.2431062219976
 30
0.0
 11
-110.8968749717255
 21
-294.7431062219975
 31
0.0
  0
LINE
  5
2BB
330
A
100
AcDbEntity
  8
0
  6
Continuous
 62
     7
100
AcDbLine
 10
-111.3968749717255
 20
-289.1431062219975
 30
0.0
 11
-120.9464677267659
 21
-289.1431062219968
 31
0.0
  0
LINE
  5
2BC
330
A
100
AcDbEntity
  8
0
  6
Continuous
 62
     7
100
AcDbLine
 10
-120.946405898003
 20
-290.3431062219968
 30
0.0
 11
-111.3968749717255
 21
-290.3431062219975
 31
0.0
  0
LWPOLYLINE
  5
2BD
330
A
100
AcDbEntity
  8
0
  6
Continuous
 62
     7
100
AcDbPolyline
 90
       13
 70
   128
 43
0.0
 10
-124.3894422387707
 20
-285.6678282189412
 10
-125.1896889110178
 20
-285.7538288819007
 10
-126.0555952672763
 20
-286.1397587360594
 10
-126.7752509720574
 20
-286.750806183378
 10
-127.3373109703038
 20
-287.562037835779
 10
-127.7126228668712
 20
-288.5512500353783
 10
-127.858339916139
 20
-289.664370034634
 10
-127.7410139728557
 20
-290.8155976049639
 10
-127.3395197927664
 20
-291.9199603149964
 10
-126.7506293168038
 20
-292.7624325039167
 10
-125.9994221538323
 20
-293.3813761853059
 10
-125.1329818325951
 20
-293.7474416679453
 10
-124.3911426169116
 20
-293.8079024605226
  0
LINE
  5
2CC
330
A
100
AcDbEntity
  8
0
  6
Continuous
 62
     7
100
AcDbLine
 10
-119.424291969695
 20
-293.8431062219968
 30
0.0
 11
-110.8968749717254
 21
-293.8431062219967
 31
0.0
  0
LINE
  5
2CD
330
A
100
AcDbEntity
  8
0
  6
Continuous
 62
     7
100
AcDbLine
 10
-124.3740394380008
 20
-293.8431062219968
 30
0.0
 11
-122.9598258756278
 21
-293.8431062219968
 31
0.0
  0
LINE
  5
2CE
330
A
100
AcDbEntity
  8
0
  6
Continuous
 62
     7
100
AcDbLine
 10
-122.9598258756278
 20
-285.6431062219968
 30
0.0
 11
-124.3740394380009
 21
-285.6431062219968
 31
0.0
  0
LINE
  5
2CF
330
A
100
AcDbEntity
  8
0
  6
Continuous
 62
     7
100
AcDbLine
 10
-110.8968749717255
 20
-285.6431062219967
 30
0.0
 11
-119.424291969695
 21
-285.6431062219968
 31
0.0
  0
LINE
  5
2D0
330
A
100
AcDbEntity
  8
0
  6
Continuous
 62
     7
100
AcDbLine
 10
-111.4644939950503
 20
-291.2431062219967
 30
0.0
 11
-111.4644939950503
 21
-290.3431062219975
 31
0.0
  0
LINE
  5
2D1
330
A
100
AcDbEntity
  8
0
  6
Continuous
 62
     7
100
AcDbLine
 10
-111.4644939950504
 20
-289.1431062219975
 30
0.0
 11
-111.4644939950504
 21
-288.2431062219967
 31
0.0
  0
LINE
  5
2D2
330
A
100
AcDbEntity
  8
0
  6
Continuous
 62
     7
100
AcDbLine
 10
-118.7420589226613
 20
-293.7431062219967
 30
0.0
 11
-118.7420589226613
 21
-293.4175579343068
 31
0.0
  0
LINE
  5
2D3
330
A
100
AcDbEntity
  8
0
  6
Continuous
 62
     7
100
AcDbLine
 10
-118.7420589226614
 20
-286.0933342047585
 30
0.0
 11
-118.7420589226614
 21
-285.7431062219967
 31
0.0
  0
LINE
  5
2D4
330
A
100
AcDbEntity
  8
0
  6
Continuous
 62
     7
100
AcDbLine
 10
-90.89687497172558
 20
-280.7431062219965
 30
0.0
 11
-90.89687497172564
 21
-275.7431062219965
 31
0.0
  0
LINE
  5
2D5
330
A
100
AcDbEntity
  8
0
  6
Continuous
 62
     7
100
AcDbLine
 10
-110.8968749717256
 20
-275.7431062219966
 30
0.0
 11
-110.8968749717256
 21
-280.7431062219966
 31
0.0
  0
LINE
  5
2D6
330
A
100
AcDbEntity
  8
0
  6
Continuous
 62
     7
100
AcDbLine
 10
-92.69687497172549
 20
-295.7431062219965
 30
0.0
 11
-92.69687497172549
 21
-293.2431062219974
 31
0.0
  0
LINE
  5
2D7
330
A
100
AcDbEntity
  8
0
  6
Continuous
 62
     7
100
AcDbLine
 10
-92.69687497172554
 20
-286.2431062219974
 30
0.0
 11
-92.69687497172554
 21
-283.7431062219965
 31
0.0
  0
LINE
  5
2D8
330
A
100
AcDbEntity
  8
0
  6
Continuous
 62
     7
100
AcDbLine
 10
-109.0968749717255
 20
-283.7431062219966
 30
0.0
 11
-109.0968749717255
 21
-284.7431062219975
 31
0.0
  0
LINE
  5
2D9
330
A
100
AcDbEntity
  8
0
  6
Continuous
 62
     7
100
AcDbLine
 10
-109.0968749717254
 20
-294.7431062219975
 30
0.0
 11
-109.0968749717254
 21
-295.7431062219967
 31
0.0
  0
LINE
  5
2DA
330
A
100
AcDbEntity
  8
0
  6
Continuous
 62
     7
100
AcDbLine
 10
-94.89687497172555
 20
-283.7431062219965
 30
0.0
 11
-94.89687497172559
 21
-280.7431062219965
 31
0.0
  0
LINE
  5
2DB
330
A
100
AcDbEntity
  8
0
  6
Continuous
 62
     7
100
AcDbLine
 10
-106.8968749717256
 20
-280.7431062219966
 30
0.0
 11
-106.8968749717255
 21
-283.7431062219966
 31
0.0
  0
LINE
  5
2DC
330
A
100
AcDbEntity
  8
0
  6
Continuous
 62
     7
100
AcDbLine
 10
-158.7968749717255
 20
-322.7431062219963
 30
0.0
 11
-158.7968749717255
 21
-256.7431063000878
 31
0.0
  0
LINE
  5
2DD
330
A
100
AcDbEntity
  8
0
  6
Continuous
 62
     7
100
AcDbLine
 10
-174.7968749717255
 20
-329.7431062219963
 30
0.0
 11
-174.7968749717255
 21
-249.7431062219963
 31
0.0
  0
ARC
  5
2DE
330
A
100
AcDbEntity
  8
0
  6
Continuous
 62
     7
100
AcDbCircle
 10
-96.79687497172555
 20
-289.7431062219965
 30
0.0
 40
9.999999999999992
100
AcDbArc
 50
270.0000000000008
 51
339.5126848852722
  0
ARC
  5
2DF
330
A
100
AcDbEntity
  8
0
  6
Continuous
 62
     7
100
AcDbCircle
 10
-96.79687497172555
 20
-289.7431062219965
 30
0.0
 40
10.00000000000004
100
AcDbArc
 50
19.69642207687161
 51
30.00000000000044
  0
ARC
  5
2E0
330
A
100
AcDbEntity
  8
0
  6
Continuous
 62
     7
100
AcDbCircle
 10
-96.79687497172555
 20
-289.7431062219965
 30
0.0
 40
10.00000000000006
100
AcDbArc
 50
36.86989764584462
 51
64.1580672368329
  0
ARC
  5
2E1
330
A
100
AcDbEntity
  8
0
  6
Continuous
 62
     7
100
AcDbCircle
 10
-96.79687497172555
 20
-289.7431062219965
 30
0.0
 40
9.999999999999989
100
AcDbArc
 50
216.8698976458453
 51
270.0000000000008
  0
LINE
  5
2E2
330
A
100
AcDbEntity
  8
0
  6
Continuous
 62
     7
100
AcDbLine
 10
-176.7968749717255
 20
-328.2431062219963
 30
0.0
 11
-176.7968749717255
 21
-251.2431062219963
 31
0.0
  0
ARC
  5
2E3
330
A
100
AcDbEntity
  8
0
  6
Continuous
 62
     7
100
AcDbCircle
 10
-104.2968749717255
 20
-299.7431062219964
 30
0.0
 40
2.5
100
AcDbArc
 50
53.13010235415599
 51
90.0
  0
ARC
  5
2E4
330
A
100
AcDbEntity
  8
0
  6
Continuous
 62
     7
100
AcDbCircle
 10
-156.2968749717255
 20
-279.7431062219963
 30
0.0
 40
2.5
100
AcDbArc
 50
180.0000000000004
 51
270.0000000000008
  0
ARC
  5
2E5
330
A
100
AcDbEntity
  8
0
  6
Continuous
 62
     7
100
AcDbCircle
 10
-156.2968749717255
 20
-299.7431062219964
 30
0.0
 40
2.5
100
AcDbArc
 50
90.0
 51
180.0000000000004
  0
LINE
  5
2E6
330
A
100
AcDbEntity
  8
0
  6
Continuous
 62
     7
100
AcDbLine
 10
-156.2968749717255
 20
-282.2431062219964
 30
0.0
 11
-106.8968749717256
 21
-282.2431062219964
 31
0.0
  0
LINE
  5
2E7
330
A
100
AcDbEntity
  8
0
  6
Continuous
 62
     7
100
AcDbLine
 10
-104.2968749717255
 20
-297.2431062219964
 30
0.0
 11
-156.2968749717255
 21
-297.2431062219964
 31
0.0
  0
LINE
  5
2E8
330
A
100
AcDbEntity
  8
0
  6
Continuous
 62
     7
100
AcDbLine
 10
-103.1671851885084
 20
-293.7431062219976
 30
0.0
 11
-98.26718518850846
 21
-293.7431062219975
 31
0.0
  0
LINE
  5
2E9
330
A
100
AcDbEntity
  8
0
  6
Continuous
 62
     7
100
AcDbLine
 10
-103.1671851885085
 20
-285.7431062219976
 30
0.0
 11
-98.26718518850853
 21
-285.7431062219975
 31
0.0
  0
LINE
  5
2EA
330
A
100
AcDbEntity
  8
0
  6
Continuous
 62
     7
100
AcDbLine
 10
187.403453989882
 20
-311.7431062219955
 30
0.0
 11
167.2031250282746
 21
-311.7431062219956
 31
0.0
  0
LINE
  5
2EB
330
A
100
AcDbEntity
  8
0
  6
Continuous
 62
     7
100
AcDbLine
 10
167.2031250282746
 20
-314.7431062219956
 30
0.0
 11
187.403453989882
 21
-314.7431062219955
 31
0.0
  0
ARC
  5
2EC
330
A
100
AcDbEntity
  8
0
  6
Continuous
 62
     7
100
AcDbCircle
 10
167.2031250282745
 20
-289.7431062219956
 30
0.0
 40
25.0
100
AcDbArc
 50
90.0000000000004
 51
270.0000000000011
  0
LINE
  5
2ED
330
A
100
AcDbEntity
  8
0
  6
Continuous
 62
     7
100
AcDbLine
 10
167.2031250282743
 20
-267.7431062219957
 30
0.0
 11
187.4034539898817
 21
-267.7431062219955
 31
0.0
  0
ARC
  5
2EE
330
A
100
AcDbEntity
  8
0
  6
Continuous
 62
     7
100
AcDbCircle
 10
167.2031250282745
 20
-289.7431062219956
 30
0.0
 40
22.0
100
AcDbArc
 50
90.00000000000044
 51
270.0000000000012
  0
LINE
  5
2EF
330
A
100
AcDbEntity
  8
0
  6
Continuous
 62
     7
100
AcDbLine
 10
187.4034539898817
 20
-264.7431062219955
 30
0.0
 11
167.2031250282743
 21
-264.7431062219957
 31
0.0
  0
LINE
  5
2F0
330
A
100
AcDbEntity
  8
0
  6
Continuous
 62
     7
100
AcDbLine
 10
196.2031250282747
 20
-316.7431062219954
 30
0.0
 11
186.2031250282747
 21
-316.7431062219955
 31
0.0
  0
LINE
  5
2F1
330
A
100
AcDbEntity
  8
0
  6
Continuous
 62
     7
100
AcDbLine
 10
196.2031250282743
 20
-262.7431062219955
 30
0.0
 11
186.2031250282743
 21
-262.7431062219955
 31
0.0
  0
LINE
  5
2F2
330
A
100
AcDbEntity
  8
0
  6
Continuous
 62
     7
100
AcDbLine
 10
214.3281250282743
 20
-272.7431062219953
 30
0.0
 11
214.3281250282746
 21
-306.7431061356623
 31
0.0
  0
LINE
  5
2F3
330
A
100
AcDbEntity
  8
0
  6
Continuous
 62
     7
100
AcDbLine
 10
183.7031250282744
 20
-273.2431062219955
 30
0.0
 11
183.7031250282746
 21
-306.2431062219955
 31
0.0
  0
LINE
  5
2F4
330
A
100
AcDbEntity
  8
0
  6
Continuous
 62
     7
100
AcDbLine
 10
198.7031250282744
 20
-273.2431062219954
 30
0.0
 11
198.7031250282746
 21
-306.2431062219954
 31
0.0
  0
LINE
  5
2F5
330
A
100
AcDbEntity
  8
0
  6
Continuous
 62
     7
100
AcDbLine
 10
164.9531250282745
 20
-282.2431062219957
 30
0.0
 11
164.9531250282746
 21
-297.2431053185954
 31
0.0
  0
LINE
  5
2F6
330
A
100
AcDbEntity
  8
0
  6
Continuous
 62
     7
100
AcDbLine
 10
154.9531250282744
 20
-283.2431062219957
 30
0.0
 11
154.9531250282745
 21
-296.2431062219957
 31
0.0
  0
LWPOLYLINE
  5
2F7
330
A
100
AcDbEntity
  8
0
  6
Continuous
 62
     7
100
AcDbPolyline
 90
       52
 70
   128
 43
0.0
 10
260.8398335797732
 20
-289.7431062219951
 10
260.6758139611805
 20
-286.8206811214528
 10
260.1862414756283
 20
-283.9425570064786
 10
259.3785375429547
 20
-281.1523633048573
 10
258.264946131451
 20
-278.4923965089387
 10
256.8623481517829
 20
-276.0029790039281
 10
255.1920055595926
 20
-273.7218478216288
 10
253.2792390459244
 20
-271.6835825855075
 10
251.1530442013584
 20
-269.9190813188507
 10
248.8456519724147
 20
-268.4550920622273
 10
246.3920400732578
 20
-267.3138074004592
 10
243.8294027592049
 20
-266.5125280456572
 10
241.1965869997282
 20
-266.0634005760611
 10
238.533503597997
 20
-265.9732333062944
 10
235.8805221837835
 20
-266.2433930802555
 10
233.277859251027
 20
-266.8697845511569
 10
230.7649685167795
 20
-267.8429122628078
 10
228.3799428430726
 20
-269.1480245910516
 10
226.1589367879582
 20
-270.7653373633502
 10
224.1356185392629
 20
-272.6703337666735
 10
222.3406595391801
 20
-274.8341359973935
 10
220.8012695364703
 20
-277.223943019351
 10
219.5407841144071
 20
-279.8035277941283
 10
218.5783109471207
 20
-282.5337864460238
 10
217.9284401467362
 20
-285.3733310369471
 10
217.6010230921453
 20
-288.2791169653721
 10
217.6010230921453
 20
-291.207095478619
 10
217.9284401467363
 20
-294.112881407044
 10
218.5783109471209
 20
-296.9524259979672
 10
219.5407841144074
 20
-299.6826846498627
 10
220.8012695364707
 20
-302.26226942464
 10
222.3406595391805
 20
-304.6520764465975
 10
224.1356185392634
 20
-306.8158786773174
 10
226.1589367879587
 20
-308.7208750806407
 10
228.3799428430732
 20
-310.3381878529392
 10
230.7649685167801
 20
-311.6433001811829
 10
233.2778592510276
 20
-312.6164278928338
 10
235.8805221837841
 20
-313.2428193637351
 10
238.5335035979976
 20
-313.5129791376961
 10
241.1965869997289
 20
-313.4228118679294
 10
243.8294027592056
 20
-312.9736843983331
 10
246.3920400732584
 20
-312.1724050435312
 10
248.8456519724152
 20
-311.031120381763
 10
251.1530442013588
 20
-309.5671311251394
 10
253.2792390459248
 20
-307.8026298584825
 10
255.1920055595931
 20
-305.7643646223612
 10
256.8623481517833
 20
-303.4832334400619
 10
258.2649461314512
 20
-300.9938159350513
 10
259.3785375429549
 20
-298.3338491391326
 10
260.1862414756285
 20
-295.5436554375113
 10
260.6758139611806
 20
-292.6655313225372
 10
260.8398335797732
 20
-289.7431062219951
  0
LWPOLYLINE
  5
32D
330
A
100
AcDbEntity
  8
0
  6
Continuous
 62
     7
100
AcDbPolyline
 90
       29
 70
   128
 43
0.0
 10
238.7160822942401
 20
-264.546522079087
 10
237.0898689980782
 20
-264.6420398894039
 10
234.4026838166381
 20
-265.0828830358685
 10
231.7818050349455
 20
-265.8699016599904
 10
229.2640240460581
 20
-266.9920477454529
 10
226.8846849760159
 20
-268.4335688209911
 10
224.6771885297869
 20
-270.1742290905571
 10
222.6725231185841
 20
-272.1895934995409
 10
220.8988298505001
 20
-274.4513707493736
 10
219.3810074910351
 20
-276.9278104453442
 10
218.1403629390085
 20
-279.5841488025443
 10
217.1943121244042
 20
-282.3830966532042
 10
216.5561355268904
 20
-285.2853629048699
 10
216.2347917469958
 20
-288.2502061012142
 10
216.2347917469958
 20
-291.2360063427769
 10
216.5561355268906
 20
-294.2008495391212
 10
217.1943121244044
 20
-297.1031157907869
 10
218.1403629390087
 20
-299.9020636414467
 10
219.3810074910355
 20
-302.5584019986468
 10
220.8988298505005
 20
-305.0348416946174
 10
222.6725231185846
 20
-307.29661894445
 10
224.6771885297874
 20
-309.3119833534337
 10
226.8846849760166
 20
-311.0526436229998
 10
229.2640240460587
 20
-312.4941646985377
 10
231.7818050349461
 20
-313.6163107840003
 10
234.4026838166388
 20
-314.4033294081221
 10
237.0898689980789
 20
-314.8441725545866
 10
239.8056383897015
 20
-314.9326517519575
 10
239.9259133098573
 20
-314.9283860791217
  0
LWPOLYLINE
  5
34C
330
A
100
AcDbEntity
  8
0
  6
Continuous
 62
     7
100
AcDbPolyline
 90
       36
 70
   128
 43
0.0
 10
313.2905164236965
 20
-289.7431062219946
 10
313.1286882932715
 20
-285.386674749591
 10
312.6442808415047
 20
-281.0592346098756
 10
311.8405177200661
 20
-276.7895842030009
 10
310.7227478399173
 20
-272.6061373479819
 10
309.2984097751915
 20
-268.5367341934187
 10
307.5769822607104
 20
-264.6084559459005
 10
305.5699211125672
 20
-260.8474446490443
 10
303.290582991561
 20
-257.2787292125075
 10
300.7541365168228
 20
-253.9260588487237
 10
297.9774613211579
 20
-250.8117450258122
 10
294.9790357198742
 20
-247.9565129884387
 10
291.7788137406427
 20
-245.379363834732
 10
288.3980923327359
 20
-243.0974480671103
 10
284.8593696393436
 20
-241.1259514585174
 10
281.1861952761422
 20
-239.4779939936096
 10
277.4030136124876
 20
-238.1645425574219
 10
273.5350010981705
 20
-237.1943379525579
 10
269.6078987182964
 20
-236.5738367305906
 10
265.6478406912773
 20
-236.3071682247765
 10
261.6811805499192
 20
-236.3961070700248
 10
257.7343157630102
 20
-236.8400613929941
 10
253.83351206452
 20
-237.6360767509125
 10
250.0047286594751
 20
-238.7788557929061
 10
246.2734454697311
 20
-240.2607935129958
 10
242.6644935692974
 20
-242.0720278601571
 10
239.2018899376362
 20
-244.2005053686421
 10
235.9086776306267
 20
-246.6320613718059
 10
232.8067724328306
 20
-249.350514265626
 10
229.9168170115605
 20
-252.3377731946071
 10
227.2580435433362
 20
-255.5739584434399
 10
224.8481457269218
 20
-259.0375337332265
 10
222.7031610346805
 20
-262.7054495418631
 10
220.8373639858414
 20
-266.5532964948064
 10
219.2631711519299
 20
-270.555467805435
 10
218.5467753844149
 20
-272.7431062219953
  0
LWPOLYLINE
  5
372
330
A
100
AcDbEntity
  8
0
  6
Continuous
 62
     7
100
AcDbPolyline
 90
       36
 70
   128
 43
0.0
 10
218.5467753844151
 20
-306.7431062219952
 10
219.2631711519304
 20
-308.9307446385559
 10
220.8373639858421
 20
-312.9329159491845
 10
222.7031610346811
 20
-316.7807629021278
 10
224.8481457269226
 20
-320.4486787107643
 10
227.2580435433371
 20
-323.9122540005508
 10
229.9168170115615
 20
-327.1484392493835
 10
232.8067724328316
 20
-330.1356981783647
 10
235.9086776306279
 20
-332.8541510721846
 10
239.2018899376374
 20
-335.2857070753483
 10
242.6644935692987
 20
-337.4141845838332
 10
246.2734454697324
 20
-339.2254189309944
 10
250.0047286594765
 20
-340.707356651084
 10
253.8335120645215
 20
-341.8501356930776
 10
257.7343157630116
 20
-342.6461510509958
 10
261.6811805499207
 20
-343.090105373965
 10
265.6478406912787
 20
-343.1790442192132
 10
269.6078987182978
 20
-342.912375713399
 10
273.5350010981719
 20
-342.2918744914316
 10
277.4030136124889
 20
-341.3216698865675
 10
281.1861952761434
 20
-340.0082184503797
 10
284.8593696393448
 20
-338.3602609854718
 10
288.3980923327371
 20
-336.3887643768789
 10
291.7788137406438
 20
-334.106848609257
 10
294.9790357198752
 20
-331.5296994555502
 10
297.9774613211589
 20
-328.6744674181767
 10
300.7541365168238
 20
-325.5601535952651
 10
303.2905829915618
 20
-322.2074832314812
 10
305.5699211125679
 20
-318.6387677949443
 10
307.576982260711
 20
-314.8777564980882
 10
309.2984097751921
 20
-310.9494782505698
 10
310.7227478399177
 20
-306.8800750960066
 10
311.8405177200664
 20
-302.6966282409876
 10
312.6442808415049
 20
-298.4269778341129
 10
313.1286882932715
 20
-294.0995376943974
 10
313.2905164236965
 20
-289.7431062219946
  0
LWPOLYLINE
  5
398
330
A
100
AcDbEntity
  8
0
  6
Continuous
 62
     7
100
AcDbPolyline
 90
        8
 70
   128
 43
0.0
 10
248.060129529645
 20
-268.0466662449676
 10
246.7746673918023
 20
-267.4972271944318
 10
244.2329865245786
 20
-266.7025004516995
 10
241.6217011093188
 20
-266.2570458061446
 10
238.9803955711205
 20
-266.1676158961223
 10
236.3491094095443
 20
-266.4355663879086
 10
233.767730240614
 20
-267.0568354251817
 10
231.4843883639596
 20
-267.9262158440411
  0
LWPOLYLINE
  5
3A2
330
A
100
AcDbEntity
  8
0
  6
Continuous
 62
     7
100
AcDbPolyline
 90
        8
 70
   128
 43
0.0
 10
232.0777298552029
 20
-311.8166561976595
 10
233.7677302406147
 20
-312.4293770188089
 10
236.3491094095449
 20
-313.050646056082
 10
238.9803955711212
 20
-313.3185965478682
 10
241.6217011093195
 20
-313.2291666378458
 10
244.2329865245792
 20
-312.7837119922909
 10
246.7746673918028
 20
-311.9889852495585
 10
248.0601295296457
 20
-311.4395461990226
  0
LWPOLYLINE
  5
3AC
330
A
100
AcDbEntity
  8
0
  6
Continuous
 62
     7
100
AcDbPolyline
 90
       34
 70
   128
 43
0.0
 10
249.0811276227436
 20
-289.7431062219951
 10
248.9166857666914
 20
-287.8505937783911
 10
248.4293035556615
 20
-286.0264816653919
 10
247.6365962526226
 20
-284.3366980474391
 10
246.5672143648852
 20
-282.842316107174
 10
245.2598081401194
 20
-281.5973467014919
 10
243.761630645702
 20
-280.6467862684499
 10
242.1268299197447
 20
-280.0249905387598
 10
240.4144919199152
 20
-279.7544328301651
 10
238.6865050029806
 20
-279.8448918031859
 10
237.0053231183448
 20
-280.2930980348485
 10
235.4317085595953
 20
-281.0828521841509
 10
234.0225358568981
 20
-282.1856104784527
 10
232.8287361832922
 20
-283.5615163597893
 10
231.8934565693965
 20
-285.1608410047212
 10
231.2505004573045
 20
-286.9257806535811
 10
230.9231059561129
 20
-288.7925457889535
 10
230.9231059561129
 20
-290.6936666550372
 10
231.2505004573046
 20
-292.5604317904097
 10
231.8934565693967
 20
-294.3253714392695
 10
232.8287361832924
 20
-295.9246960842014
 10
234.0225358568983
 20
-297.3006019655379
 10
235.4317085595956
 20
-298.4033602598397
 10
237.0053231183451
 20
-299.193114409142
 10
238.6865050029808
 20
-299.6413206408046
 10
240.4144919199155
 20
-299.7317796138254
 10
242.1268299197449
 20
-299.4612219052306
 10
243.7616306457023
 20
-298.8394261755404
 10
245.2598081401196
 20
-297.8888657424985
 10
246.5672143648854
 20
-296.6438963368163
 10
247.6365962526227
 20
-295.1495143965511
 10
248.4293035556616
 20
-293.4597307785983
 10
248.9166857666915
 20
-291.6356186655992
 10
249.0811276227436
 20
-289.7431062219951
  0
LWPOLYLINE
  5
3D0
330
A
100
AcDbEntity
  8
0
  6
Continuous
 62
     7
100
AcDbPolyline
 90
       18
 70
   128
 43
0.0
 10
240.1888615352893
 20
-279.7457026393146
 10
239.101198245637
 20
-279.8448918031859
 10
237.4200163610012
 20
-280.2930980348485
 10
235.8464018022517
 20
-281.0828521841509
 10
234.4372290995544
 20
-282.1856104784527
 10
233.2434294259486
 20
-283.5615163597893
 10
232.3081498120529
 20
-285.1608410047212
 10
231.6651936999609
 20
-286.9257806535811
 10
231.3377991987693
 20
-288.7925457889535
 10
231.3377991987693
 20
-290.6936666550372
 10
231.6651936999609
 20
-292.5604317904096
 10
232.308149812053
 20
-294.3253714392695
 10
233.2434294259488
 20
-295.9246960842014
 10
234.4372290995547
 20
-297.3006019655379
 10
235.8464018022519
 20
-298.4033602598397
 10
237.4200163610015
 20
-299.193114409142
 10
239.1011982456372
 20
-299.6413206408046
 10
240.1888615352896
 20
-299.7405098046759
  0
LWPOLYLINE
  5
3E4
330
A
100
AcDbEntity
  8
0
  6
Continuous
 62
     7
100
AcDbPolyline
 90
        7
 70
   128
 43
0.0
 10
-107.1025759064261
 20
-288.2431062219977
 10
-107.09970449785
 20
-288.2332058185227
 10
-106.9084246301569
 20
-287.7121003090934
 10
-106.5733035438111
 20
-287.1198132500851
 10
-106.1582187626202
 20
-286.6521696417899
 10
-105.6929791483584
 20
-286.3490412006305
 10
-105.2176259415402
 20
-286.2431062219977
  0
LWPOLYLINE
  5
3ED
330
A
100
AcDbEntity
  8
0
  6
Continuous
 62
     7
100
AcDbPolyline
 90
        7
 70
   128
 43
0.0
 10
-105.2176259415402
 20
-293.2431062219976
 10
-105.6929791483584
 20
-293.1371712433648
 10
-106.1582187626202
 20
-292.8340428022055
 10
-106.5733035438111
 20
-292.3663991939104
 10
-106.9084246301569
 20
-291.774112134902
 10
-107.0997044978502
 20
-291.2530066254728
 10
-107.1025759064262
 20
-291.2431062219976
  0
LWPOLYLINE
  5
3F6
330
A
100
AcDbEntity
  8
0
  6
Continuous
 62
     7
100
AcDbPolyline
 90
        9
 70
   128
 43
0.0
 10
-98.01903767586232
 20
-288.2431062219975
 10
-97.97235366886217
 20
-288.4233335682766
 10
-97.93168521720872
 20
-288.6064533199315
 10
-97.89712144962251
 20
-288.7920641528763
 10
-97.86873811583745
 20
-288.9797592835868
 10
-97.84659742058774
 20
-289.1691273606053
 10
-97.8307478872807
 20
-289.3597533660554
 10
-97.82122425165294
 20
-289.5512195251927
 10
-97.81804738564387
 20
-289.7431062219975
  0
LWPOLYLINE
  5
401
330
A
100
AcDbEntity
  8
0
  6
Continuous
 62
     7
100
AcDbPolyline
 90
        9
 70
   128
 43
0.0
 10
-97.81804738564387
 20
-289.7431062219975
 10
-97.82122425165294
 20
-289.9349929188024
 10
-97.83074788728072
 20
-290.1264590779398
 10
-97.84659742058774
 20
-290.3170850833898
 10
-97.86873811583744
 20
-290.5064531604083
 10
-97.89712144962251
 20
-290.6941482911189
 10
-97.93168521720868
 20
-290.8797591240636
 10
-97.97235366886217
 20
-291.0628788757186
 10
-98.01903767586232
 20
-291.2431062219976
  0
LINE
  5
40C
330
A
100
AcDbEntity
  8
0
  6
Continuous
 62
     7
100
AcDbLine
 10
-98.28797948591166
 20
-293.2431062219976
 30
0.0
 11
-84.14059873644939
 21
-293.2431062219974
 31
0.0
  0
LWPOLYLINE
  5
40D
330
A
100
AcDbEntity
  8
0
  6
Continuous
 62
     7
100
AcDbPolyline
 90
        5
 70
   128
 43
0.0
 10
-100.1264571169975
 20
-293.2431062219976
 10
-99.44283424566089
 20
-293.0512929784775
 10
-98.85200968580027
 20
-292.9958130304125
 10
-98.47337530362581
 20
-293.0914478990559
 10
-98.28797948591159
 20
-293.2431062219976
  0
LINE
  5
414
330
A
100
AcDbEntity
  8
0
  6
Continuous
 62
     7
100
AcDbLine
 10
-105.2176259415402
 20
-293.2431062219976
 30
0.0
 11
-100.1264571169975
 21
-293.2431062219976
 31
0.0
  0
LINE
  5
415
330
A
100
AcDbEntity
  8
0
  6
Continuous
 62
     7
100
AcDbLine
 10
-100.1264571169973
 20
-286.2431062219976
 30
0.0
 11
-105.2176259415402
 21
-286.2431062219977
 31
0.0
  0
LWPOLYLINE
  5
416
330
A
100
AcDbEntity
  8
0
  6
Continuous
 62
     7
100
AcDbPolyline
 90
        5
 70
   128
 43
0.0
 10
-98.28797948591175
 20
-286.2431062219976
 10
-98.56636449062058
 20
-286.4349194655178
 10
-99.05251695006077
 20
-286.4903994135826
 10
-99.61477092857599
 20
-286.3947645449392
 10
-100.1264571169973
 20
-286.2431062219976
  0
LINE
  5
41D
330
A
100
AcDbEntity
  8
0
  6
Continuous
 62
     7
100
AcDbLine
 10
-84.14059873644935
 20
-286.2431062219974
 30
0.0
 11
-98.28797948591175
 21
-286.2431062219976
 31
0.0
  0
LWPOLYLINE
  5
41E
330
A
100
AcDbEntity
  8
0
  6
Continuous
 62
     7
100
AcDbPolyline
 90
        7
 70
   128
 43
0.0
 10
-109.1810368755088
 20
-288.2431062219977
 10
-109.1838736292809
 20
-288.2332058185229
 10
-109.2736760313767
 20
-287.7121003090933
 10
-109.2220585593969
 20
-287.1198132500851
 10
-109.0109801954251
 20
-286.6521696417899
 10
-108.670521096221
 20
-286.3490412006305
 10
-108.2375597156485
 20
-286.2431062219977
  0
LINE
  5
427
330
A
100
AcDbEntity
  8
0
  6
Continuous
 62
     7
100
AcDbLine
 10
-108.2375597156485
 20
-286.2431062219977
 30
0.0
 11
-105.2176259415402
 21
-286.2431062219977
 31
0.0
  0
LINE
  5
428
330
A
100
AcDbEntity
  8
0
  6
Continuous
 62
     7
100
AcDbLine
 10
-105.2176259415402
 20
-293.2431062219976
 30
0.0
 11
-108.2375597156484
 21
-293.2431062219975
 31
0.0
  0
LWPOLYLINE
  5
429
330
A
100
AcDbEntity
  8
0
  6
Continuous
 62
     7
100
AcDbPolyline
 90
        7
 70
   128
 43
0.0
 10
-108.2375597156484
 20
-293.2431062219976
 10
-108.6705210962209
 20
-293.1371712433648
 10
-109.010980195425
 20
-292.8340428022055
 10
-109.2220585593968
 20
-292.3663991939104
 10
-109.2736760313766
 20
-291.7741121349021
 10
-109.1838736292792
 20
-291.2530066254732
 10
-109.1810368755087
 20
-291.2431062219976
  0
LWPOLYLINE
  5
432
330
A
100
AcDbEntity
  8
0
  6
Continuous
 62
     7
100
AcDbPolyline
 90
       13
 70
   128
 43
0.0
 10
-90.4676724552872
 20
-289.1532678070315
 10
-90.53259707321339
 20
-289.1454122789223
 10
-91.06993102054721
 20
-289.2842562830981
 10
-91.24271537763759
 20
-289.3767540423124
 10
-91.42522720894488
 20
-289.5273909276806
 10
-91.48251072398636
 20
-289.6083863981277
 10
-91.51610813984653
 20
-289.7057865041025
 10
-91.51571657689585
 20
-289.7829610813144
 10
-91.49344961735758
 20
-289.8558048313158
 10
-91.42554783361118
 20
-289.9584548482044
 10
-91.24858473797587
 20
-290.1057150238555
 10
-90.81516225014061
 20
-290.2930346044117
 10
-90.46793949917706
 20
-290.3249994983395
  0
LINE
  5
441
330
A
100
AcDbEntity
  8
0
  6
Continuous
 62
     7
100
AcDbLine
 10
-97.81804738564387
 20
-288.2431062219975
 30
0.0
 11
-88.42896008911768
 21
-288.2431062219975
 31
0.0
  0
LINE
  5
442
330
A
100
AcDbEntity
  8
0
  6
Continuous
 62
     7
100
AcDbLine
 10
-97.81804738564384
 20
-291.2431062219976
 30
0.0
 11
-88.42896008911768
 21
-291.2431062219975
 31
0.0
  0
LWPOLYLINE
  5
443
330
A
100
AcDbEntity
  8
0
  6
Continuous
 62
     7
100
AcDbPolyline
 90
       12
 70
   128
 43
0.0
 10
130.5345116794079
 20
-290.3321565417314
 10
130.6164281848715
 20
-290.3408541020406
 10
131.3663268717272
 20
-290.1723298331667
 10
131.7015830556028
 20
-289.9789938093322
 10
131.7905255270406
 20
-289.8818822379996
 10
131.8271191876605
 20
-289.8073928589975
 10
131.8370344381592
 20
-289.7384285267139
 10
131.8241674271219
 20
-289.6699240974691
 10
131.7780702810791
 20
-289.586936945836
 10
131.6557157152115
 20
-289.4708229185939
 10
131.2315760429002
 20
-289.2636168105009
 10
130.5264673959284
 20
-289.1520234560105
  0
LINE
  5
451
330
A
100
AcDbEntity
  8
0
  6
Continuous
 62
     7
100
AcDbLine
 10
-98.01903767586232
 20
-291.2431062219976
 30
0.0
 11
-97.81804738564384
 21
-291.2431062219976
 31
0.0
  0
LINE
  5
452
330
A
100
AcDbEntity
  8
0
  6
Continuous
 62
     7
100
AcDbLine
 10
-98.01903767586232
 20
-288.2431062219975
 30
0.0
 11
-97.81804738564387
 21
-288.2431062219975
 31
0.0
  0
LINE
  5
453
330
A
100
AcDbEntity
  8
0
  6
Continuous
 62
     7
100
AcDbLine
 10
126.7031250282734
 20
-293.7431062219959
 30
0.0
 11
140.7031250282734
 21
-293.7431062219959
 31
0.0
  0
LINE
  5
454
330
A
100
AcDbEntity
  8
0
  6
Continuous
 62
     7
100
AcDbLine
 10
126.7031250282744
 20
-285.7431062219959
 30
0.0
 11
140.7031250282745
 21
-285.7431062219959
 31
0.0
  0
LINE
  5
455
330
A
100
AcDbEntity
  8
0
  6
Continuous
 62
     7
100
AcDbLine
 10
-88.79687497172556
 20
-284.7431062219974
 30
0.0
 11
-68.79687497172551
 21
-284.7431062219973
 31
0.0
  0
LINE
  5
456
330
A
100
AcDbEntity
  8
0
  6
Continuous
 62
     7
100
AcDbLine
 10
-88.79687497172559
 20
-279.7431062219974
 30
0.0
 11
-68.79687497172557
 21
-279.7431062219973
 31
0.0
  0
LINE
  5
457
330
A
100
AcDbEntity
  8
0
  6
Continuous
 62
     7
100
AcDbLine
 10
-81.01198407990848
 20
-293.2431062219974
 30
0.0
 11
-84.14059873644939
 21
-293.2431062219974
 31
0.0
  0
LINE
  5
458
330
A
100
AcDbEntity
  8
0
  6
Continuous
 62
     7
100
AcDbLine
 10
-84.14059873644935
 20
-286.2431062219974
 30
0.0
 11
-81.0119840799085
 21
-286.2431062219974
 31
0.0
  0
LINE
  5
459
330
A
100
AcDbEntity
  8
0
  6
Continuous
 62
     7
100
AcDbLine
 10
-71.64784675923883
 20
-293.2431062219973
 30
0.0
 11
-81.01198407990848
 21
-293.2431062219974
 31
0.0
  0
LINE
  5
45A
330
A
100
AcDbEntity
  8
0
  6
Continuous
 62
     7
100
AcDbLine
 10
-71.6478467592389
 20
-286.2431062219973
 30
0.0
 11
-81.0119840799085
 21
-286.2431062219974
 31
0.0
  0
LINE
  5
45B
330
A
100
AcDbEntity
  8
0
  6
Continuous
 62
     7
100
AcDbLine
 10
-69.10429269967147
 20
-293.2431062219973
 30
0.0
 11
-71.64784675923883
 21
-293.2431062219973
 31
0.0
  0
LINE
  5
45C
330
A
100
AcDbEntity
  8
0
  6
Continuous
 62
     7
100
AcDbLine
 10
-71.6478467592389
 20
-286.2431062219973
 30
0.0
 11
-69.10429269967159
 21
-286.2431062219973
 31
0.0
  0
LINE
  5
45D
330
A
100
AcDbEntity
  8
0
  6
Continuous
 62
     7
100
AcDbLine
 10
-83.7968749717255
 20
-294.7431062219974
 30
0.0
 11
-73.79687497172546
 21
-294.7431062219973
 31
0.0
  0
LINE
  5
45E
330
A
100
AcDbEntity
  8
0
  6
Continuous
 62
     7
100
AcDbLine
 10
-53.79687497172556
 20
-284.7431062219972
 30
0.0
 11
-53.79687497172551
 21
-289.1431062219973
 31
0.0
  0
LINE
  5
45F
330
A
100
AcDbEntity
  8
0
  6
Continuous
 62
     7
100
AcDbLine
 10
-53.79687497172551
 20
-290.3431062219972
 30
0.0
 11
-53.79687497172547
 21
-294.7431062219972
 31
0.0
  0
LINE
  5
460
330
A
100
AcDbEntity
  8
0
  6
Continuous
 62
     7
100
AcDbLine
 10
126.2031250282744
 20
-284.743106221996
 30
0.0
 11
126.2031250282744
 21
-289.1431062219959
 31
0.0
  0
LINE
  5
461
330
A
100
AcDbEntity
  8
0
  6
Continuous
 62
     7
100
AcDbLine
 10
126.2031250282744
 20
-290.3431062219959
 30
0.0
 11
126.2031250282744
 21
-294.7431062219959
 31
0.0
  0
LINE
  5
462
330
A
100
AcDbEntity
  8
0
  6
Continuous
 62
     7
100
AcDbLine
 10
-53.79687497172549
 20
-293.2431062219972
 30
0.0
 11
-69.10429269967147
 21
-293.2431062219973
 31
0.0
  0
LINE
  5
463
330
A
100
AcDbEntity
  8
0
  6
Continuous
 62
     7
100
AcDbLine
 10
-69.10429269967159
 20
-286.2431062219973
 30
0.0
 11
-53.79687497172554
 21
-286.2431062219972
 31
0.0
  0
LINE
  5
464
330
A
100
AcDbEntity
  8
0
  6
Continuous
 62
     7
100
AcDbLine
 10
142.2031250282744
 20
-286.2431062219958
 30
0.0
 11
142.2031250282745
 21
-293.2431062219958
 31
0.0
  0
LINE
  5
465
330
A
100
AcDbEntity
  8
0
  6
Continuous
 62
     7
100
AcDbLine
 10
-111.3913836485274
 20
-290.074768701033
 30
0.0
 11
-111.3913836485274
 21
-289.4114437429621
 31
0.0
  0
LINE
  5
466
330
A
100
AcDbEntity
  8
0
  6
Continuous
 62
     7
100
AcDbLine
 10
-111.3913836485274
 20
-289.4114437429621
 30
0.0
 11
-111.3765105231384
 21
-289.3830576648293
 31
0.0
  0
LINE
  5
467
330
A
100
AcDbEntity
  8
0
  6
Continuous
 62
     7
100
AcDbLine
 10
-111.3849404215588
 20
-290.0971516077263
 30
0.0
 11
-111.3913836485274
 21
-290.074768701033
 31
0.0
  0
LINE
  5
468
330
A
100
AcDbEntity
  8
0
  6
Continuous
 62
     7
100
AcDbLine
 10
-108.2375597156484
 20
-293.2431062219975
 30
0.0
 11
-111.3968749717255
 21
-293.2431062219976
 31
0.0
  0
LINE
  5
469
330
A
100
AcDbEntity
  8
0
  6
Continuous
 62
     7
100
AcDbLine
 10
-108.2778136340368
 20
-286.2431062219975
 30
0.0
 11
-111.3968749717256
 21
-286.2431062219975
 31
0.0
  0
LINE
  5
46A
330
A
100
AcDbEntity
  8
0
  6
Continuous
 62
     7
100
AcDbLine
 10
-110.8968749717255
 20
-284.7431062219975
 30
0.0
 11
-100.8968749717255
 21
-284.7431062219974
 31
0.0
  0
LINE
  5
46B
330
A
100
AcDbEntity
  8
0
  6
Continuous
 62
     7
100
AcDbLine
 10
-110.8968749717255
 20
-294.7431062219975
 30
0.0
 11
-100.8968749717255
 21
-294.7431062219974
 31
0.0
  0
LWPOLYLINE
  5
46C
330
A
100
AcDbEntity
  8
0
  6
Continuous
 62
     7
100
AcDbPolyline
 90
        9
 70
   128
 43
0.0
 10
-111.3913836485274
 20
-290.074768701033
 10
-111.4343795830606
 20
-289.9982703790988
 10
-111.4657655743787
 20
-289.9163113027544
 10
-111.4848699325685
 20
-289.8306454737869
 10
-111.4912838062873
 20
-289.7431062219975
 10
-111.4848699325685
 20
-289.6555669702081
 10
-111.4657655743787
 20
-289.5699011412406
 10
-111.4343795830606
 20
-289.4879420648962
 10
-111.3913836485274
 20
-289.4114437429621
  0
LWPOLYLINE
  5
477
330
A
100
AcDbEntity
  8
0
  6
Continuous
 62
     7
100
AcDbPolyline
 90
        5
 70
   128
 43
0.0
 10
-121.4790775720858
 20
-289.5231253369298
 10
-121.3839822800144
 20
-289.355721475116
 10
-121.2143435371964
 20
-289.2125080327637
 10
-120.9636097529344
 20
-289.143371030677
 10
-120.9472808005903
 20
-289.1469617906964
  0
LWPOLYLINE
  5
47E
330
A
100
AcDbEntity
  8
0
  6
Continuous
 62
     7
100
AcDbPolyline
 90
        5
 70
   128
 43
0.0
 10
-120.9463342685948
 20
-290.3282997068088
 10
-121.0760687569411
 20
-290.327643995252
 10
-121.3071361440084
 20
-290.2095013327949
 10
-121.4276465463262
 20
-290.0685069027975
 10
-121.4790775720858
 20
-289.9630871070638
  0
LWPOLYLINE
  5
485
330
A
100
AcDbEntity
  8
0
  6
Continuous
 62
     7
100
AcDbPolyline
 90
        5
 70
   128
 43
0.0
 10
-121.4790775720858
 20
-289.9630871070638
 10
-121.5112472690609
 20
-289.8404250505169
 10
-121.5169466709221
 20
-289.6946899470245
 10
-121.4917142176795
 20
-289.560437342616
 10
-121.4790775720858
 20
-289.5231253369298
  0
ARC
  5
48C
330
A
100
AcDbEntity
  8
0
  6
Continuous
 62
     7
100
AcDbCircle
 10
-100.8968749717255
 20
-289.7431062219974
 30
0.0
 40
5.0
100
AcDbArc
 50
75.52248781407058
 51
90.00000000000065
  0
ARC
  5
48D
330
A
100
AcDbEntity
  8
0
  6
Continuous
 62
     7
100
AcDbCircle
 10
-100.8968749717255
 20
-289.7431062219974
 30
0.0
 40
5.0
100
AcDbArc
 50
270.0000000000011
 51
284.477512185931
  0
LINE
  5
48E
330
A
100
AcDbEntity
  8
0
  6
Continuous
 62
     7
100
AcDbLine
 10
-94.45231668345114
 20
-286.2431062219974
 30
0.0
 11
-99.64687497172553
 21
-284.9018770392381
 31
0.0
  0
LINE
  5
48F
330
A
100
AcDbEntity
  8
0
  6
Continuous
 62
     7
100
AcDbLine
 10
-99.64687497172546
 20
-294.5843354047566
 30
0.0
 11
-94.45231668345178
 21
-293.2431062219974
 31
0.0
  0
LWPOLYLINE
  5
490
330
A
100
AcDbEntity
  8
0
  6
Continuous
 62
     7
100
AcDbPolyline
 90
       12
 70
   128
 43
0.0
 10
-122.9598258756278
 20
-285.6431062219968
 10
-122.5925490977402
 20
-285.6706038881796
 10
-121.9558082912931
 20
-285.8057098237068
 10
-121.2229290155554
 20
-286.0333664267549
 10
-120.3911118598486
 20
-286.3097145852777
 10
-119.7366939487053
 20
-286.4679475931557
 10
-119.1955108129722
 20
-286.4749246721936
 10
-118.871022384898
 20
-286.3476575928478
 10
-118.7034828768303
 20
-286.1249690538215
 10
-118.7666979194627
 20
-285.8500938912959
 10
-119.137402669033
 20
-285.6674134267958
 10
-119.424291969695
 20
-285.6431062219968
  0
LINE
  5
49E
330
A
100
AcDbEntity
  8
0
  6
Continuous
 62
     7
100
AcDbLine
 10
-119.424291969695
 20
-285.6431062219968
 30
0.0
 11
-120.0606880727629
 21
-285.7431062219967
 31
0.0
  0
LINE
  5
49F
330
A
100
AcDbEntity
  8
0
  6
Continuous
 62
     7
100
AcDbLine
 10
-120.0606880727629
 20
-293.7431062219967
 30
0.0
 11
-119.424291969695
 21
-293.8431062219968
 31
0.0
  0
LWPOLYLINE
  5
4A0
330
A
100
AcDbEntity
  8
0
  6
Continuous
 62
     7
100
AcDbPolyline
 90
       12
 70
   128
 43
0.0
 10
-119.424291969695
 20
-293.8431062219968
 10
-119.1006294746128
 20
-293.8112154146278
 10
-118.8006355122853
 20
-293.6709273151286
 10
-118.6920777409898
 20
-293.439151407943
 10
-118.8391156277318
 20
-293.1632340198699
 10
-119.1824804142003
 20
-293.0136519631576
 10
-119.7117361889075
 20
-293.0146089758001
 10
-120.2899923191577
 20
-293.146304351469
 10
-120.9872010834367
 20
-293.3727863375093
 10
-121.836689124362
 20
-293.6472167634271
 10
-122.6467995708413
 20
-293.822654841699
 10
-122.9598258756277
 20
-293.8431062219968
  0
LWPOLYLINE
  5
4AE
330
A
100
AcDbEntity
  8
0
  6
Continuous
 62
     7
100
AcDbPolyline
 90
        6
 70
   128
 43
0.0
 10
-118.3241328427214
 20
-289.143106221997
 10
-118.3436118499902
 20
-288.979759283586
 10
-118.3719951837752
 20
-288.7920641528755
 10
-118.4065589513614
 20
-288.6064533199307
 10
-118.4472274030149
 20
-288.4233335682758
 10
-118.493911410015
 20
-288.2431062219968
  0
LWPOLYLINE
  5
4B6
330
A
100
AcDbEntity
  8
0
  6
Continuous
 62
     7
100
AcDbPolyline
 90
        6
 70
   128
 43
0.0
 10
-118.493911410015
 20
-291.2431062219968
 10
-118.4472274030149
 20
-291.0628788757177
 10
-118.4065589513614
 20
-290.8797591240628
 10
-118.3719951837752
 20
-290.6941482911181
 10
-118.3436118499902
 20
-290.5064531604075
 10
-118.3241328427214
 20
-290.343106221997
  0
LINE
  5
4BE
330
A
100
AcDbEntity
  8
0
  6
Continuous
 62
     7
100
AcDbLine
 10
-118.2929211197966
 20
-291.2431062219968
 30
0.0
 11
-111.4644939950503
 21
-291.2431062219967
 31
0.0
  0
LINE
  5
4BF
330
A
100
AcDbEntity
  8
0
  6
Continuous
 62
     7
100
AcDbLine
 10
-118.2929211197966
 20
-288.2431062219968
 30
0.0
 11
-111.4644939950504
 21
-288.2431062219967
 31
0.0
  0
LINE
  5
4C0
330
A
100
AcDbEntity
  8
0
  6
Continuous
 62
     7
100
AcDbLine
 10
-118.493911410015
 20
-288.2431062219968
 30
0.0
 11
-118.2929211197966
 21
-288.2431062219968
 31
0.0
  0
LINE
  5
4C1
330
A
100
AcDbEntity
  8
0
  6
Continuous
 62
     7
100
AcDbLine
 10
-118.493911410015
 20
-291.2431062219968
 30
0.0
 11
-118.2929211197966
 21
-291.2431062219968
 31
0.0
  0
LINE
  5
4C2
330
A
100
AcDbEntity
  8
0
  6
Continuous
 62
     7
100
AcDbLine
 10
-122.2981514276086
 20
-293.7431062219968
 30
0.0
 11
-118.7420589226613
 21
-293.7431062219967
 31
0.0
  0
LINE
  5
4C3
330
A
100
AcDbEntity
  8
0
  6
Continuous
 62
     7
100
AcDbLine
 10
-122.2675254806867
 20
-285.7431062219967
 30
0.0
 11
-118.7420589226614
 21
-285.7431062219967
 31
0.0
  0
LINE
  5
4C4
330
A
100
AcDbEntity
  8
0
  6
Continuous
 62
     7
100
AcDbLine
 10
-110.8968749717256
 20
-280.7431062219966
 30
0.0
 11
-90.89687497172558
 21
-280.7431062219965
 31
0.0
  0
LINE
  5
4C5
330
A
100
AcDbEntity
  8
0
  6
Continuous
 62
     7
100
AcDbLine
 10
-110.8968749717256
 20
-275.7431062219966
 30
0.0
 11
-90.89687497172564
 21
-275.7431062219965
 31
0.0
  0
LINE
  5
4C6
330
A
100
AcDbEntity
  8
0
  6
Continuous
 62
     7
100
AcDbLine
 10
-109.0968749717254
 20
-295.7431062219967
 30
0.0
 11
-92.69687497172549
 21
-295.7431062219965
 31
0.0
  0
LINE
  5
4C7
330
A
100
AcDbEntity
  8
0
  6
Continuous
 62
     7
100
AcDbLine
 10
-109.0968749717255
 20
-283.7431062219966
 30
0.0
 11
-92.69687497172554
 21
-283.7431062219965
 31
0.0
  0
ARC
  5
4C8
330
A
100
AcDbEntity
  8
0
  6
Continuous
 62
     7
100
AcDbCircle
 10
-96.79687497172555
 20
-289.7431062219965
 30
0.0
 40
7.0
100
AcDbArc
 50
238.9972808661276
 51
270.0000000000013
  0
ARC
  5
4C9
330
A
100
AcDbEntity
  8
0
  6
Continuous
 62
     7
100
AcDbCircle
 10
-96.79687497172555
 20
-289.7431062219965
 30
0.0
 40
7.000000000000049
100
AcDbArc
 50
58.99728086612634
 51
74.25070713220577
  0
ARC
  5
4CA
330
A
100
AcDbEntity
  8
0
  6
Continuous
 62
     7
100
AcDbCircle
 10
-96.79687497172555
 20
-289.7431062219965
 30
0.0
 40
7.00000000000003
100
AcDbArc
 50
29.99999999999073
 51
54.14653293653431
  0
ARC
  5
4CB
330
A
100
AcDbEntity
  8
0
  6
Continuous
 62
     7
100
AcDbCircle
 10
-96.79687497172555
 20
-289.7431062219965
 30
0.0
 40
7.000000000000011
100
AcDbArc
 50
305.8534670634672
 51
329.9999999999918
  0
ARC
  5
4CC
330
A
100
AcDbEntity
  8
0
  6
Continuous
 62
     7
100
AcDbCircle
 10
-96.79687497172555
 20
-289.7431062219965
 30
0.0
 40
7.0
100
AcDbArc
 50
270.0000000000013
 51
301.0027191338751
  0
LINE
  5
4CD
330
A
100
AcDbEntity
  8
0
  6
PHANTOM
 62
     7
100
AcDbLine
 10
-165.7968749717255
 20
-329.7431062219963
 30
0.0
 11
-165.7968749717255
 21
-249.7431062219963
 31
0.0
  0
LWPOLYLINE
  5
4CE
330
A
100
AcDbEntity
  8
0
  6
PHANTOM
 62
     7
100
AcDbPolyline
 90
        5
 70
   128
 43
0.0
 10
-104.2968749717255
 20
-297.2431062219964
 10
-104.5219377530276
 20
-297.1134888665088
 10
-104.6157355371428
 20
-297.0576413026044
 10
-105.7304192446731
 20
-296.3004307550546
 10
-106.300513091389
 20
-295.7431062219967
  0
LINE
  5
4D5
330
A
100
AcDbEntity
  8
0
  6
PHANTOM
 62
     7
100
AcDbLine
 10
-156.2968749717255
 20
-282.2431062219964
 30
0.0
 11
-156.2968749717255
 21
-289.7431062219963
 31
0.0
  0
LINE
  5
4D6
330
A
100
AcDbEntity
  8
0
  6
PHANTOM
 62
     7
100
AcDbLine
 10
-156.2968749717255
 20
-289.7431062219963
 30
0.0
 11
-158.7968749717255
 21
-289.7431062219964
 31
0.0
  0
LINE
  5
4D7
330
A
100
AcDbEntity
  8
0
  6
PHANTOM
 62
     7
100
AcDbLine
 10
-156.2968749717255
 20
-289.7431062219963
 30
0.0
 11
-156.2968749717255
 21
-297.2431062219964
 31
0.0
  0
LINE
  5
4D8
330
A
100
AcDbEntity
  8
0
  6
PHANTOM
 62
     7
100
AcDbLine
 10
-156.2968749717255
 20
-289.7431062219963
 30
0.0
 11
-127.8503156143494
 21
-289.7431062219963
 31
0.0
  0
LINE
  5
4D9
330
A
100
AcDbEntity
  8
0
  6
PHANTOM
 62
     7
100
AcDbLine
 10
170.9531250282744
 20
-276.2431062219957
 30
0.0
 11
170.9531250282746
 21
-303.2431062219956
 31
0.0
  0
LWPOLYLINE
  5
4DA
330
A
100
AcDbEntity
  8
0
  6
PHANTOM
 62
     7
100
AcDbPolyline
 90
       15
 70
   128
 43
0.0
 10
262.057680892021
 20
-289.7431062219951
 10
261.8967263226762
 20
-286.7625498465548
 10
261.4161220639783
 20
-283.8238339491655
 10
260.6226147462223
 20
-280.9682116592819
 10
259.5273434727598
 20
-278.2357696542527
 10
258.1456834514059
 20
-275.6648654302417
 10
256.4970301602244
 20
-273.2915888470626
 10
254.6045270775309
 20
-271.1492555056566
 10
252.4947407981884
 20
-269.2679390700847
 10
250.1972880968505
 20
-267.6740490992056
 10
247.7444201733654
 20
-266.3899603143607
 10
245.170569916626
 20
-265.4336985073319
 10
242.5118685422877
 20
-264.818687497738
 10
239.8056383897009
 20
-264.553560692033
 10
238.7160822942401
 20
-264.546522079087
  0
LWPOLYLINE
  5
4EB
330
A
100
AcDbEntity
  8
0
  6
PHANTOM
 62
     7
100
AcDbPolyline
 90
       14
 70
   128
 43
0.0
 10
239.9259133098573
 20
-314.9283860791217
 10
242.5118685422884
 20
-314.6675249462524
 10
245.1705699166267
 20
-314.0525139366584
 10
247.744420173366
 20
-313.0962521296295
 10
250.1972880968511
 20
-311.8121633447845
 10
252.494740798189
 20
-310.2182733739054
 10
254.6045270775314
 20
-308.3369569383334
 10
256.4970301602248
 20
-306.1946235969275
 10
258.1456834514063
 20
-303.8213470137482
 10
259.52734347276
 20
-301.2504427897373
 10
260.6226147462225
 20
-298.518000784708
 10
261.4161220639784
 20
-295.6623784948244
 10
261.8967263226762
 20
-292.7236625974351
 10
262.057680892021
 20
-289.7431062219951
  0
LWPOLYLINE
  5
4FB
330
A
100
AcDbEntity
  8
0
  6
PHANTOM
 62
     7
100
AcDbPolyline
 90
       22
 70
   128
 43
0.0
 10
231.4843883639596
 20
-267.9262158440411
 10
231.2753891412178
 20
-268.0220052026236
 10
228.9098674618698
 20
-269.3164447302478
 10
226.707024099949
 20
-270.9205316242948
 10
224.700251915367
 20
-272.8099495625668
 10
222.9199715288513
 20
-274.9560568950863
 10
221.3931701763436
 20
-277.3263208223135
 10
220.1429926100123
 20
-279.8848105592259
 10
219.1883902474021
 20
-282.5927420093926
 10
218.543833887262
 20
-285.4090656923424
 10
218.2190943469874
 20
-288.2910890118441
 10
218.2190943469874
 20
-291.1951234321469
 10
218.5438338872621
 20
-294.0771467516486
 10
219.1883902474022
 20
-296.8934704345984
 10
220.1429926100125
 20
-299.6014018847651
 10
221.393170176344
 20
-302.1598916216774
 10
222.9199715288517
 20
-304.5301555489047
 10
224.7002519153674
 20
-306.6762628814241
 10
226.7070240999494
 20
-308.5656808196961
 10
228.9098674618704
 20
-310.1697677137429
 10
231.2753891412184
 20
-311.4642072413671
 10
232.0777298552029
 20
-311.8166561976595
  0
LWPOLYLINE
  5
513
330
A
100
AcDbEntity
  8
0
  6
PHANTOM
 62
     7
100
AcDbPolyline
 90
       51
 70
   128
 43
0.0
 10
260.5493317743819
 20
-289.7431062219951
 10
260.3871483951286
 20
-286.9102043425672
 10
259.9031559861428
 20
-284.1219790180713
 10
259.1049873968375
 20
-281.42240222748
 10
258.0052302226687
 20
-278.8540479094298
 10
256.6212282912363
 20
-276.4574205457769
 10
254.9748081397615
 20
-274.2703163817219
 10
253.091934797557
 20
-272.3272273564447
 10
251.0023023020031
 20
-270.6587971446189
 10
248.7388654058408
 20
-269.291337887357
 10
246.3373198610343
 20
-268.2464152340265
 10
243.8355394754388
 20
-267.5405082390771
 10
241.2729788202264
 20
-267.1847494775074
 10
238.6900510077294
 20
-267.1847494775074
 10
236.127490352517
 20
-267.5405082390772
 10
233.6257099669216
 20
-268.2464152340267
 10
231.2241644221151
 20
-269.2913378873571
 10
228.9607275259529
 20
-270.6587971446191
 10
226.871095030399
 20
-272.3272273564449
 10
224.9882216881945
 20
-274.2703163817223
 10
223.3418015367198
 20
-276.4574205457773
 10
221.9577996052874
 20
-278.8540479094302
 10
220.8580424311187
 20
-281.4224022274804
 10
220.0598738418135
 20
-284.1219790180717
 10
219.5758814328278
 20
-286.9102043425675
 10
219.4136980535744
 20
-289.7431062219955
 10
219.5758814328279
 20
-292.5760081014235
 10
220.0598738418136
 20
-295.3642334259193
 10
220.858042431119
 20
-298.0638102165106
 10
221.9577996052877
 20
-300.6321645345608
 10
223.3418015367202
 20
-303.0287918982137
 10
224.9882216881949
 20
-305.2158960622687
 10
226.8710950303995
 20
-307.1589850875459
 10
228.9607275259534
 20
-308.8274152993716
 10
231.2241644221157
 20
-310.1948745566335
 10
233.6257099669222
 20
-311.2397972099639
 10
236.1274903525177
 20
-311.9457042049134
 10
238.6900510077301
 20
-312.301462966483
 10
241.2729788202271
 20
-312.301462966483
 10
243.8355394754395
 20
-311.9457042049132
 10
246.3373198610349
 20
-311.2397972099637
 10
248.7388654058414
 20
-310.1948745566332
 10
251.0023023020036
 20
-308.8274152993712
 10
253.0919347975574
 20
-307.1589850875454
 10
254.974808139762
 20
-305.2158960622681
 10
256.6212282912366
 20
-303.0287918982131
 10
258.005230222669
 20
-300.6321645345602
 10
259.1049873968376
 20
-298.06381021651
 10
259.9031559861429
 20
-295.3642334259186
 10
260.3871483951286
 20
-292.5760081014228
 10
260.5493317743819
 20
-289.7431062219951
  0
LWPOLYLINE
  5
548
330
A
100
AcDbEntity
  8
0
  6
PHANTOM
 62
     7
100
AcDbPolyline
 90
       37
 70
   128
 43
0.0
 10
314.0211617970768
 20
-289.7431062219946
 10
313.8610850194662
 20
-285.3777948691122
 10
313.3818928459636
 20
-281.0407942354611
 10
312.5866930216956
 20
-276.7602314343946
 10
311.4806427226656
 20
-272.5638675582648
 10
310.0709151094894
 20
-268.4789176370856
 10
308.3666528066955
 20
-264.5318741386202
 10
306.3789086092965
 20
-260.7483351545614
 10
304.120573801173
 20
-257.1528383870843
 10
301.6062945501501
 20
-253.7687020124315
 10
298.8523769219789
 20
-250.6178734535928
 10
295.8766811292433
 20
-247.7207870428444
 10
292.6985057010276
 20
-245.0962314972639
 10
289.3384623245501
 20
-242.761228066689
 10
285.818342170462
 20
-240.7309201443815
 10
282.1609745687439
 20
-239.0184750563111
 10
278.3900789517402
 20
-237.6349986659929
 10
274.5301110245391
 20
-236.5894633487019
 10
270.6061041603399
 20
-235.8886498021755
 10
266.6435070494226
 20
-235.5371030711873
 10
262.6680186546249
 20
-235.5371030711873
 10
258.7054215437075
 20
-235.8886498021756
 10
254.7814146795084
 20
-236.589463348702
 10
250.9214467523073
 20
-237.6349986659931
 10
247.1505511353037
 20
-239.0184750563114
 10
243.4931835335856
 20
-240.7309201443819
 10
239.9730633794975
 20
-242.7612280666894
 10
236.6130200030201
 20
-245.0962314972644
 10
233.4348445748045
 20
-247.720787042845
 10
230.4591487820689
 20
-250.6178734535934
 10
227.7052311538977
 20
-253.7687020124323
 10
225.1909519028749
 20
-257.152838387085
 10
222.9326170947515
 20
-260.7483351545622
 10
220.9448728973527
 20
-264.531874138621
 10
219.2406105945588
 20
-268.4789176370864
 10
217.8308829813827
 20
-272.5638675582656
 10
217.7767474686454
 20
-272.7431062219953
  0
LWPOLYLINE
  5
56F
330
A
100
AcDbEntity
  8
0
  6
PHANTOM
 62
     7
100
AcDbPolyline
 90
       37
 70
   128
 43
0.0
 10
217.7767474686457
 20
-306.7431062219952
 10
217.8308829813832
 20
-306.9223448857254
 10
219.2406105945594
 20
-311.0072948069046
 10
220.9448728973534
 20
-314.9543383053699
 10
222.9326170947524
 20
-318.7378772894286
 10
225.1909519028758
 20
-322.3333740569057
 10
227.7052311538988
 20
-325.7175104315584
 10
230.4591487820701
 20
-328.8683389903973
 10
233.4348445748056
 20
-331.7654254011455
 10
236.6130200030214
 20
-334.389980946726
 10
239.9730633794988
 20
-336.7249843773009
 10
243.4931835335869
 20
-338.7552922996083
 10
247.1505511353051
 20
-340.4677373876788
 10
250.9214467523087
 20
-341.8512137779968
 10
254.7814146795099
 20
-342.8967490952879
 10
258.705421543709
 20
-343.5975626418143
 10
262.6680186546263
 20
-343.9491093728023
 10
266.6435070494241
 20
-343.9491093728023
 10
270.6061041603415
 20
-343.597562641814
 10
274.5301110245405
 20
-342.8967490952875
 10
278.3900789517416
 20
-341.8512137779964
 10
282.1609745687452
 20
-340.4677373876781
 10
285.8183421704633
 20
-338.7552922996076
 10
289.3384623245514
 20
-336.7249843773001
 10
292.6985057010288
 20
-334.3899809467251
 10
295.8766811292443
 20
-331.7654254011444
 10
298.8523769219799
 20
-328.868338990396
 10
301.606294550151
 20
-325.7175104315572
 10
304.1205738011738
 20
-322.3333740569044
 10
306.3789086092973
 20
-318.7378772894271
 10
308.366652806696
 20
-314.9543383053684
 10
310.0709151094899
 20
-311.007294806903
 10
311.480642722666
 20
-306.9223448857238
 10
312.5866930216958
 20
-302.7259810095939
 10
313.3818928459638
 20
-298.4454182085273
 10
313.8610850194662
 20
-294.1084175748762
 10
314.0211617970768
 20
-289.7431062219946
  0
LWPOLYLINE
  5
596
330
A
100
AcDbEntity
  8
0
  6
PHANTOM
 62
     7
100
AcDbPolyline
 90
        9
 70
   128
 43
0.0
 10
-107.1025759064261
 20
-291.2431062219976
 10
-106.9134871670639
 20
-290.9231332421875
 10
-106.7728325895466
 20
-290.5566303224684
 10
-106.6861583596206
 20
-290.1580491309286
 10
-106.6568821504757
 20
-289.7431062219977
 10
-106.6861583596206
 20
-289.3281633130668
 10
-106.7728325895466
 20
-288.929582121527
 10
-106.9134871670639
 20
-288.5630792018079
 10
-107.1025759064261
 20
-288.2431062219977
  0
LWPOLYLINE
  5
5A1
330
A
100
AcDbEntity
  8
0
  6
PHANTOM
 62
     7
100
AcDbPolyline
 90
        9
 70
   128
 43
0.0
 10
-105.2176259415402
 20
-286.2431062219977
 10
-104.6406830835394
 20
-286.8971238903608
 10
-104.1994905676748
 20
-287.736268431675
 10
-103.9227473039585
 20
-288.7059547548242
 10
-103.8284550257295
 20
-289.7431062219977
 10
-103.9227473039585
 20
-290.7802576891712
 10
-104.1994905676749
 20
-291.7499440123203
 10
-104.6406830835395
 20
-292.5890885536345
 10
-105.2176259415402
 20
-293.2431062219976
  0
LWPOLYLINE
  5
5AC
330
A
100
AcDbEntity
  8
0
  6
PHANTOM
 62
     7
100
AcDbPolyline
 90
        5
 70
   128
 43
0.0
 10
-84.14059873644939
 20
-293.2431062219974
 10
-84.10221807787989
 20
-293.2206535816427
 10
-83.00528425326993
 20
-292.3958056468304
 10
-82.04586237692621
 20
-291.1596807637955
 10
-81.79194965123642
 20
-290.3431062219975
  0
LWPOLYLINE
  5
5B3
330
A
100
AcDbEntity
  8
0
  6
PHANTOM
 62
     7
100
AcDbPolyline
 90
        6
 70
   128
 43
0.0
 10
-81.78399841401409
 20
-289.1431062219975
 10
-81.83794315210908
 20
-288.8076763643145
 10
-81.92136946372903
 20
-288.589716374931
 10
-82.59742966550506
 20
-287.5191358179479
 10
-83.65545497993467
 20
-286.5561787644791
 10
-84.14059873644935
 20
-286.2431062219974
  0
LINE
  5
5BB
330
A
100
AcDbEntity
  8
0
  6
PHANTOM
 62
     7
100
AcDbLine
 10
-109.1810368755087
 20
-291.2431062219976
 30
0.0
 11
-107.1025759064261
 21
-291.2431062219976
 31
0.0
  0
LWPOLYLINE
  5
5BC
330
A
100
AcDbEntity
  8
0
  6
PHANTOM
 62
     7
100
AcDbPolyline
 90
        9
 70
   128
 43
0.0
 10
-109.1810368755088
 20
-288.2431062219977
 10
-109.370125614871
 20
-288.5630792018079
 10
-109.5107801923883
 20
-288.929582121527
 10
-109.5974544223143
 20
-289.3281633130668
 10
-109.6267306314592
 20
-289.7431062219977
 10
-109.5974544223143
 20
-290.1580491309286
 10
-109.5107801923883
 20
-290.5566303224684
 10
-109.370125614871
 20
-290.9231332421875
 10
-109.1810368755087
 20
-291.2431062219976
  0
LINE
  5
5C7
330
A
100
AcDbEntity
  8
0
  6
PHANTOM
 62
     7
100
AcDbLine
 10
-107.1025759064261
 20
-288.2431062219977
 30
0.0
 11
-109.1810368755088
 21
-288.2431062219977
 31
0.0
  0
LINE
  5
5C8
330
A
100
AcDbEntity
  8
0
  6
PHANTOM
 62
     7
100
AcDbLine
 10
-97.81804738564387
 20
-289.7431062219975
 30
0.0
 11
-97.81804738564384
 21
-291.2431062219976
 31
0.0
  0
LINE
  5
5C9
330
A
100
AcDbEntity
  8
0
  6
PHANTOM
 62
     7
100
AcDbLine
 10
-97.81804738564387
 20
-288.2431062219975
 30
0.0
 11
-97.81804738564387
 21
-289.7431062219975
 31
0.0
  0
LWPOLYLINE
  5
5CA
330
A
100
AcDbEntity
  8
0
  6
PHANTOM
 62
     7
100
AcDbPolyline
 90
        4
 70
   128
 43
0.0
 10
-81.0119840799085
 20
-286.2431062219974
 10
-80.89709925677107
 20
-286.4342722062165
 10
-80.21772040297795
 20
-288.0270871812401
 10
-80.06811127006498
 20
-289.1431062219975
  0
LWPOLYLINE
  5
5D0
330
A
100
AcDbEntity
  8
0
  6
PHANTOM
 62
     7
100
AcDbPolyline
 90
        3
 70
   128
 43
0.0
 10
-80.02852535716584
 20
-290.3431062219975
 10
-80.34190450010603
 20
-291.8506927354044
 10
-81.0119840799085
 20
-293.2431062219974
  0
LWPOLYLINE
  5
5D5
330
A
100
AcDbEntity
  8
0
  6
PHANTOM
 62
     7
100
AcDbPolyline
 90
        4
 70
   128
 43
0.0
 10
-71.64784675923883
 20
-293.2431062219973
 10
-71.6559517325924
 20
-293.2174108998129
 10
-72.05163080102109
 20
-291.6323502560905
 10
-72.17485001107957
 20
-290.3431062219974
  0
LWPOLYLINE
  5
5DB
330
A
100
AcDbEntity
  8
0
  6
PHANTOM
 62
     7
100
AcDbPolyline
 90
        3
 70
   128
 43
0.0
 10
-72.16877443489252
 20
-289.1431062219974
 10
-72.0731476465701
 20
-287.9765212970992
 10
-71.64784675923893
 20
-286.2431062219973
  0
LWPOLYLINE
  5
5E0
330
A
100
AcDbEntity
  8
0
  6
PHANTOM
 62
     7
100
AcDbPolyline
 90
        5
 70
   128
 43
0.0
 10
-69.10429269967159
 20
-286.2431062219973
 10
-69.20588032350922
 20
-286.3719025913732
 10
-69.82633987689088
 20
-287.2607210702335
 10
-70.43321415262976
 20
-288.5557294691969
 10
-70.53476795275315
 20
-289.1431062219974
  0
LWPOLYLINE
  5
5E7
330
A
100
AcDbEntity
  8
0
  6
PHANTOM
 62
     7
100
AcDbPolyline
 90
        6
 70
   128
 43
0.0
 10
-70.53998039804612
 20
-290.3431062219974
 10
-70.47142620015439
 20
-290.8022401638545
 10
-70.4064492959712
 20
-291.0129259826173
 10
-69.91426313768187
 20
-292.0782946120045
 10
-69.2722714199856
 20
-293.0281758487735
 10
-69.10429269967147
 20
-293.2431062219976
  0
LWPOLYLINE
  5
5EF
330
A
100
AcDbEntity
  8
0
  6
PHANTOM
 62
     7
100
AcDbPolyline
 90
        7
 70
   128
 43
0.0
 10
-121.4790775720858
 20
-289.9630871070638
 10
-121.6484550514771
 20
-291.1403819656765
 10
-122.05186645484
 20
-292.197698911743
 10
-122.6546726221577
 20
-293.0442507970123
 10
-123.4051132434472
 20
-293.6073479404993
 10
-124.238751288552
 20
-293.8386396711628
 10
-124.3844965500127
 20
-293.8430795508878
  0
LWPOLYLINE
  5
5F8
330
A
100
AcDbEntity
  8
0
  6
PHANTOM
 62
     7
100
AcDbPolyline
 90
        7
 70
   128
 43
0.0
 10
-124.3847182587363
 20
-285.6431340360454
 10
-124.2387512885521
 20
-285.6475727728308
 10
-123.4051132434472
 20
-285.8788645034943
 10
-122.6546726221577
 20
-286.4419616469813
 10
-122.05186645484
 20
-287.2885135322507
 10
-121.6484550514771
 20
-288.3458304783171
 10
-121.4790775720858
 20
-289.5231253369298
  0
LWPOLYLINE
  5
601
330
A
100
AcDbEntity
  8
0
  6
PHANTOM
 62
     7
100
AcDbPolyline
 90
       17
 70
   128
 43
0.0
 10
-124.3033287598822
 20
-289.7431062219968
 10
-124.4163618872538
 20
-288.9394710140301
 10
-124.738253000374
 20
-288.2581819815051
 10
-125.2199970952205
 20
-287.8029592037231
 10
-125.788253000374
 20
-287.6431062219968
 10
-126.3565089055275
 20
-287.8029592037231
 10
-126.838253000374
 20
-288.2581819815051
 10
-127.1601441134942
 20
-288.9394710140302
 10
-127.2731772408657
 20
-289.7431062219968
 10
-127.1601441134942
 20
-290.5467414299635
 10
-126.838253000374
 20
-291.2280304624886
 10
-126.3565089055275
 20
-291.6832532402706
 10
-125.7882530003739
 20
-291.8431062219968
 10
-125.2199970952204
 20
-291.6832532402705
 10
-124.738253000374
 20
-291.2280304624886
 10
-124.4163618872538
 20
-290.5467414299635
 10
-124.3033287598822
 20
-289.7431062219968
  0
LINE
  5
614
330
A
100
AcDbEntity
  8
0
  6
PHANTOM
 62
     7
100
AcDbLine
 10
-118.2929211197966
 20
-290.343106221997
 30
0.0
 11
-118.2929211197966
 21
-291.2431062219968
 31
0.0
  0
LINE
  5
615
330
A
100
AcDbEntity
  8
0
  6
PHANTOM
 62
     7
100
AcDbLine
 10
-118.2929211197966
 20
-288.2431062219968
 30
0.0
 11
-118.2929211197966
 21
-289.143106221997
 31
0.0
  0
LINE
  5
616
330
A
100
AcDbEntity
  8
0
  6
PHANTOM
 62
     7
100
AcDbLine
 10
-119.424291969695
 20
-293.8431062219968
 30
0.0
 11
-119.424291969695
 21
-293.7431062219968
 31
0.0
  0
LINE
  5
617
330
A
100
AcDbEntity
  8
0
  6
PHANTOM
 62
     7
100
AcDbLine
 10
-119.424291969695
 20
-285.7431062219967
 30
0.0
 11
-119.424291969695
 21
-285.6431062219968
 31
0.0
  0
LINE
  5
618
330
A
100
AcDbEntity
  8
0
  6
Continuous
 62
     7
100
AcDbLine
 10
554.7529438124528
 20
30.71805181234247
 30
0.0
 11
554.7529438124528
 21
29.44788527441656
 31
0.0
  0
LINE
  5
619
330
A
100
AcDbEntity
  8
0
  6
Continuous
 62
     7
100
AcDbLine
 10
574.7529438124529
 20
29.44788527441672
 30
0.0
 11
574.7529438124529
 21
30.71805181234247
 31
0.0
  0
LINE
  5
61A
330
A
100
AcDbEntity
  8
0
  6
Continuous
 62
     7
100
AcDbLine
 10
568.752943812453
 20
352.6883620291255
 30
0.0
 11
568.2529438124529
 21
352.6883620291255
 31
0.0
  0
LINE
  5
61B
330
A
100
AcDbEntity
  8
0
  6
Continuous
 62
     7
100
AcDbLine
 10
561.2529438124529
 20
352.6883620291255
 30
0.0
 11
560.7529438124529
 21
352.6883620291255
 31
0.0
  0
LINE
  5
61C
330
A
100
AcDbEntity
  8
0
  6
Continuous
 62
     7
100
AcDbLine
 10
560.7529438124529
 20
347.7883620291255
 30
0.0
 11
568.752943812453
 21
347.7883620291255
 31
0.0
  0
LINE
  5
61D
330
A
100
AcDbEntity
  8
0
  6
Continuous
 62
     7
100
AcDbLine
 10
591.7529438124498
 20
333.3180518123425
 30
0.0
 11
580.4771290059663
 21
333.3180518123425
 31
0.0
  0
LINE
  5
61E
330
A
100
AcDbEntity
  8
0
  6
Continuous
 62
     7
100
AcDbLine
 10
549.0287586189335
 20
333.3180518123425
 30
0.0
 11
537.7529438124498
 21
333.3180518123425
 31
0.0
  0
LINE
  5
61F
330
A
100
AcDbEntity
  8
0
  6
Continuous
 62
     7
100
AcDbLine
 10
537.7529438124498
 20
323.3180518123425
 30
0.0
 11
549.0287586189335
 21
323.3180518123425
 31
0.0
  0
LINE
  5
620
330
A
100
AcDbEntity
  8
0
  6
Continuous
 62
     7
100
AcDbLine
 10
580.4771290059663
 20
323.3180518123425
 30
0.0
 11
591.7529438124498
 21
323.3180518123425
 31
0.0
  0
LINE
  5
621
330
A
100
AcDbEntity
  8
0
  6
Continuous
 62
     7
100
AcDbLine
 10
554.1424735914956
 20
281.0847552937474
 30
0.0
 11
558.7765604995517
 21
232.8860579738627
 31
0.0
  0
LINE
  5
622
330
A
100
AcDbEntity
  8
0
  6
Continuous
 62
     7
100
AcDbLine
 10
559.7529438124529
 20
243.6285221208743
 30
0.0
 11
556.1673430628196
 21
280.9220145974805
 31
0.0
  0
LINE
  5
623
330
A
100
AcDbEntity
  8
0
  6
Continuous
 62
     7
100
AcDbLine
 10
573.3391354759074
 20
280.9281606360214
 30
0.0
 11
569.752943812453
 21
243.6285221209479
 31
0.0
  0
LINE
  5
624
330
A
100
AcDbEntity
  8
0
  6
Continuous
 62
     7
100
AcDbLine
 10
570.7293271253469
 20
232.8860579738627
 30
0.0
 11
575.3632836688372
 21
281.0833993842875
 31
0.0
  0
LWPOLYLINE
  5
625
330
A
100
AcDbEntity
  8
0
  6
Continuous
 62
     7
100
AcDbPolyline
 90
        4
 70
   128
 43
0.0
 10
558.7765604995517
 20
232.8860579738627
 10
558.9001846733147
 20
232.1555997250196
 10
559.3525350850646
 20
230.9587069264954
 10
559.7529438124529
 20
230.3746628077821
  0
LWPOLYLINE
  5
62B
330
A
100
AcDbEntity
  8
0
  6
Continuous
 62
     7
100
AcDbPolyline
 90
        4
 70
   128
 43
0.0
 10
569.752943812453
 20
230.3447653665157
 10
570.3163431786665
 20
231.2988232464266
 10
570.6836054197155
 20
232.5364739826732
 10
570.7293271253469
 20
232.8860579738627
  0
ARC
  5
631
330
A
100
AcDbEntity
  8
0
  6
Continuous
 62
     7
100
AcDbCircle
 10
564.7529438124496
 20
328.3180518123425
 30
0.0
 40
17.62499999999983
100
AcDbArc
 50
16.48043660148154
 51
78.54597521228033
  0
ARC
  5
632
330
A
100
AcDbEntity
  8
0
  6
Continuous
 62
     7
100
AcDbCircle
 10
564.7529438124496
 20
328.3180518123425
 30
0.0
 40
17.62499999999981
100
AcDbArc
 50
101.4540247876978
 51
163.5195633985187
  0
ARC
  5
633
330
A
100
AcDbEntity
  8
0
  6
Continuous
 62
     7
100
AcDbCircle
 10
564.7529438124496
 20
328.3180518123425
 30
0.0
 40
17.62499999999979
100
AcDbArc
 50
196.4804366014819
 51
253.5195633985198
  0
ARC
  5
634
330
A
100
AcDbEntity
  8
0
  6
Continuous
 62
     7
100
AcDbCircle
 10
564.7529438124496
 20
328.3180518123425
 30
0.0
 40
17.62499999999979
100
AcDbArc
 50
286.4804366014819
 51
343.5195633985197
  0
LWPOLYLINE
  5
635
330
A
100
AcDbEntity
  8
0
  6
Continuous
 62
     7
100
AcDbPolyline
 90
       28
 70
   128
 43
0.0
 10
515.1837213167332
 20
316.3428256430992
 10
515.036427982345
 20
316.2307439694349
 10
513.2012670392407
 20
314.5368647312441
 10
511.663588431029
 20
312.7668760405309
 10
510.4406091617992
 20
310.9338326008615
 10
509.5464898151872
 20
309.057552255465
 10
508.9874415720347
 20
307.1624322932201
 10
508.7596124610802
 20
305.2709392202113
 10
508.8531251384202
 20
303.3976342553295
 10
509.2585767234458
 20
301.5507073741146
 10
509.9698778946252
 20
299.7357156127335
 10
510.9876547452686
 20
297.952156628865
 10
512.3146386734784
 20
296.204455570491
 10
513.9492960106041
 20
294.5032785598046
 10
515.8826585927889
 20
292.8626886028547
 10
518.0997643795738
 20
291.2961571754507
 10
520.5828945088594
 20
289.8144668846303
 10
523.3126585394282
 20
288.4262712725081
 10
526.2718010581631
 20
287.1373256433677
 10
529.442949863067
 20
285.9526743798207
 10
532.8082578199216
 20
284.8769804240697
 10
536.3491651137021
 20
283.9146225106584
 10
540.0462906660683
 20
283.0696781807834
 10
543.8794197312473
 20
282.345862740397
 10
547.8275548312288
 20
281.7464586901084
 10
551.8690063624944
 20
281.2742505295948
 10
555.9815075724452
 20
280.9314704020605
 10
559.7529438124529
 20
280.7395696838547
  0
LWPOLYLINE
  5
653
330
A
100
AcDbEntity
  8
0
  6
Continuous
 62
     7
100
AcDbPolyline
 90
       28
 70
   128
 43
0.0
 10
569.752943812453
 20
280.7478054416488
 10
572.6838896736297
 20
280.8779076266284
 10
576.8066623986177
 20
281.1940969646661
 10
580.8622954627288
 20
281.6399179823303
 10
584.8284192827422
 20
282.2131784059241
 10
588.683229390569
 20
282.9111145774225
 10
592.4056218782888
 20
283.7304445097087
 10
595.9753185630948
 20
284.6674384827049
 10
599.3729753881495
 20
285.7180102152593
 10
602.5802631500168
 20
286.8778312292045
 10
605.5799021283056
 20
288.142468114993
 10
608.3556201465377
 20
289.507533198128
 10
610.8919866018123
 20
290.9688152841287
 10
613.1740587756606
 20
292.5223027289598
 10
615.1867885106547
 20
294.1639032499825
 10
616.913164390212
 20
295.8872797594608
 10
618.3355553829303
 20
297.6826357792161
 10
619.4373565421742
 20
299.5344498832153
 10
620.2068236278988
 20
301.4206638550566
 10
620.6415612951261
 20
303.3167217369457
 10
620.7484347146781
 20
305.2026345666796
 10
620.5377019305303
 20
307.0672727381869
 10
620.0180048079125
 20
308.9021361656719
 10
619.1928690699219
 20
310.7055394062091
 10
618.0601251353029
 20
312.4766141017351
 10
616.617969910251
 20
314.208504430875
 10
614.8706057677476
 20
315.8888003037429
 10
614.3397636137231
 20
316.3086972769537
  0
LINE
  5
671
330
A
100
AcDbEntity
  8
0
  6
Continuous
 62
     7
100
AcDbLine
 10
617.018539688924
 20
311.113455856997
 30
0.0
 11
589.3964895791294
 21
364.6838980313284
 31
0.0
  0
LINE
  5
672
330
A
100
AcDbEntity
  8
0
  6
Continuous
 62
     7
100
AcDbLine
 10
540.1093980457694
 20
364.6838980313286
 30
0.0
 11
512.4873479359743
 21
311.1134558569975
 31
0.0
  0
LWPOLYLINE
  5
673
330
A
100
AcDbEntity
  8
0
  6
Continuous
 62
     7
100
AcDbPolyline
 90
        8
 70
   128
 43
0.0
 10
581.2842332391343
 20
370.5216725613821
 10
579.1039898289629
 20
371.24050185923
 10
576.6934053667283
 20
371.8642137716811
 10
574.1371100341281
 20
372.3685832610754
 10
571.4662077104153
 20
372.7485393797656
 10
568.7132895471981
 20
373.0001387690149
 10
565.9120638263146
 20
373.1207225225472
 10
564.752943812449
 20
373.1319481876575
  0
LWPOLYLINE
  5
67D
330
A
100
AcDbEntity
  8
0
  6
Continuous
 62
     7
100
AcDbPolyline
 90
        9
 70
   128
 43
0.0
 10
564.752943812449
 20
373.1319481876575
 10
563.2731422125279
 20
373.1136457029531
 10
560.4774309835987
 20
372.9781616245094
 10
557.733747051362
 20
372.7120485644533
 10
555.0767749835777
 20
372.3182996487484
 10
552.5389147978786
 20
371.8011766492051
 10
550.1509124966183
 20
371.1660614309612
 10
547.9414659731677
 20
370.4191889437238
 10
547.0422976805699
 20
370.0370404974456
  0
LWPOLYLINE
  5
688
330
A
100
AcDbEntity
  8
0
  6
Continuous
 62
     7
100
AcDbPolyline
 90
       13
 70
   128
 43
0.0
 10
588.4206104470932
 20
361.4157111207113
 10
588.0577921501075
 20
360.4211334206735
 10
587.3632352007543
 20
359.387956204852
 10
586.3822758843066
 20
358.3949071588979
 10
585.1227934654008
 20
357.4451309919816
 10
583.5944157608561
 20
356.5492489705523
 10
581.8144726475026
 20
355.7218490527719
 10
579.8040452304761
 20
354.9764055672733
 10
577.5892425528553
 20
354.3254567656205
 10
575.1998433344335
 20
353.7797980643451
 10
572.6683032566428
 20
353.3482517374744
 10
570.0290323694055
 20
353.0376346843519
 10
568.2405867199982
 20
352.9156943367968
  0
LWPOLYLINE
  5
697
330
A
100
AcDbEntity
  8
0
  6
Continuous
 62
     7
100
AcDbPolyline
 90
       13
 70
   128
 43
0.0
 10
561.3077257156914
 20
352.9086088945613
 10
559.1211219481245
 20
353.0717585345653
 10
556.4912779827478
 20
353.3992002242937
 10
553.9728438087673
 20
353.8473023545347
 10
551.6001372944715
 20
354.4091883745025
 10
549.4056886861832
 20
355.0759466105736
 10
547.4197567930948
 20
355.836506420086
 10
545.669728029793
 20
356.6774431971408
 10
544.1792414591743
 20
357.582751574189
 10
542.9667679565036
 20
358.5338321261263
 10
542.0434150350455
 20
359.5105007443908
 10
541.4117372548603
 20
360.4926675241933
 10
541.1438207180521
 20
361.2464699499187
  0
LWPOLYLINE
  5
6A6
330
A
100
AcDbEntity
  8
0
  6
Continuous
 62
     7
100
AcDbPolyline
 90
        8
 70
   128
 43
0.0
 10
568.8177400509789
 20
82.27811309970702
 10
568.8410599121904
 20
82.56424212338428
 10
568.6043860755285
 20
83.50572827742198
 10
568.1157452601097
 20
84.30875412927397
 10
567.4153977590179
 20
84.96194416496788
 10
566.5226457796182
 20
85.44744250799391
 10
565.4703076432384
 20
85.72792978118043
 10
564.7529438124531
 20
85.78014051910953
  0
LWPOLYLINE
  5
6B0
330
A
100
AcDbEntity
  8
0
  6
Continuous
 62
     7
100
AcDbPolyline
 90
        8
 70
   128
 43
0.0
 10
564.7529438124531
 20
85.78014051910953
 10
564.0525688041452
 20
85.73039324135963
 10
562.9259126398168
 20
85.42416013258664
 10
562.0146588199085
 20
84.90610609674311
 10
561.3106070258383
 20
84.2080399973183
 10
560.850283194707
 20
83.37765458523415
 10
560.6577038687722
 20
82.4655617733528
 10
560.6776658093975
 20
82.27981347784801
  0
LINE
  5
6BA
330
A
100
AcDbEntity
  8
0
  6
Continuous
 62
     7
100
AcDbLine
 10
560.6529438124531
 20
77.34546881031199
 30
0.0
 11
560.652943812453
 21
63.75338309403947
 31
0.0
  0
LINE
  5
6BB
330
A
100
AcDbEntity
  8
0
  6
Continuous
 62
     7
100
AcDbLine
 10
560.6529438124532
 20
82.29521627861782
 30
0.0
 11
560.6529438124532
 21
80.88100271624471
 31
0.0
  0
LINE
  5
6BC
330
A
100
AcDbEntity
  8
0
  6
Continuous
 62
     7
100
AcDbLine
 10
568.8529438124532
 20
80.88100271624471
 30
0.0
 11
568.8529438124532
 21
82.29521627861773
 31
0.0
  0
LINE
  5
6BD
330
A
100
AcDbEntity
  8
0
  6
Continuous
 62
     7
100
AcDbLine
 10
568.8529438124529
 20
63.74358157701787
 30
0.0
 11
568.8529438124531
 21
77.34546881031199
 31
0.0
  0
LINE
  5
6BE
330
A
100
AcDbEntity
  8
0
  6
Continuous
 62
     7
100
AcDbLine
 10
560.7529438124531
 20
76.66323576327835
 30
0.0
 11
568.7529438124532
 21
76.66323576327835
 31
0.0
  0
LINE
  5
6BF
330
A
100
AcDbEntity
  8
0
  6
Continuous
 62
     7
100
AcDbLine
 10
564.152943812453
 20
307.2167985524755
 30
0.0
 11
564.1529438124531
 21
85.73752282673634
 31
0.0
  0
LINE
  5
6C0
330
A
100
AcDbEntity
  8
0
  6
Continuous
 62
     7
100
AcDbLine
 10
565.3529438124532
 20
85.7364716841152
 30
0.0
 11
565.3529438124531
 21
307.1737706827872
 31
0.0
  0
LINE
  5
6C1
330
A
100
AcDbEntity
  8
0
  6
Continuous
 62
     7
100
AcDbLine
 10
568.2529438124531
 20
314.7180518123426
 30
0.0
 11
561.252943812453
 21
314.7180518123426
 31
0.0
  0
LINE
  5
6C2
330
A
100
AcDbEntity
  8
0
  6
Continuous
 62
     7
100
AcDbLine
 10
555.7529438124529
 20
67.21805181234245
 30
0.0
 11
550.7529438124529
 21
67.21805181234245
 31
0.0
  0
LINE
  5
6C3
330
A
100
AcDbEntity
  8
0
  6
Continuous
 62
     7
100
AcDbLine
 10
550.7529438124529
 20
47.21805181234246
 30
0.0
 11
555.7529438124529
 21
47.21805181234246
 31
0.0
  0
LINE
  5
6C4
330
A
100
AcDbEntity
  8
0
  6
Continuous
 62
     7
100
AcDbLine
 10
561.252943812453
 20
314.2180518123425
 30
0.0
 11
559.7529438124529
 21
314.2180518123425
 31
0.0
  0
LINE
  5
6C5
330
A
100
AcDbEntity
  8
0
  6
Continuous
 62
     7
100
AcDbLine
 10
559.7529438124529
 20
304.2180518123426
 30
0.0
 11
561.252943812453
 21
304.2180518123426
 31
0.0
  0
LINE
  5
6C6
330
A
100
AcDbEntity
  8
0
  6
Continuous
 62
     7
100
AcDbLine
 10
569.752943812453
 20
314.2180518123425
 30
0.0
 11
568.2529438124531
 21
314.2180518123425
 31
0.0
  0
LINE
  5
6C7
330
A
100
AcDbEntity
  8
0
  6
Continuous
 62
     7
100
AcDbLine
 10
568.2529438124531
 20
304.2180518123426
 30
0.0
 11
569.752943812453
 21
304.2180518123426
 31
0.0
  0
LINE
  5
6C8
330
A
100
AcDbEntity
  8
0
  6
Continuous
 62
     7
100
AcDbLine
 10
560.652943812453
 20
65.41805181234247
 30
0.0
 11
558.7529438124529
 21
65.41805181234247
 31
0.0
  0
LINE
  5
6C9
330
A
100
AcDbEntity
  8
0
  6
Continuous
 62
     7
100
AcDbLine
 10
570.752943812453
 20
65.41805181234247
 30
0.0
 11
568.8529438124529
 21
65.41805181234247
 31
0.0
  0
LINE
  5
6CA
330
A
100
AcDbEntity
  8
0
  6
Continuous
 62
     7
100
AcDbLine
 10
564.7970857742745
 20
49.01805181234246
 30
0.0
 11
570.752943812453
 21
49.01805181234246
 31
0.0
  0
LINE
  5
6CB
330
A
100
AcDbEntity
  8
0
  6
Continuous
 62
     7
100
AcDbLine
 10
558.7529438124529
 20
49.01805181234246
 30
0.0
 11
564.7970857742745
 21
49.01805181234246
 31
0.0
  0
LWPOLYLINE
  5
6CC
330
A
100
AcDbEntity
  8
0
  6
Continuous
 62
     7
100
AcDbPolyline
 90
        9
 70
   128
 43
0.0
 10
568.090937419107
 20
358.2922064105314
 10
567.5419240843329
 20
358.8207088873177
 10
566.6686236606595
 20
359.3398461787011
 10
565.6371956791402
 20
359.654011356337
 10
564.5038326647656
 20
359.7274443480931
 10
563.3572267535003
 20
359.5311563755784
 10
562.282741043747
 20
359.0451428269523
 10
561.5066122694251
 20
358.3971250546269
 10
561.4149502057991
 20
358.2922064105314
  0
LINE
  5
6D7
330
A
100
AcDbEntity
  8
0
  6
Continuous
 62
     7
100
AcDbLine
 10
558.7529438124529
 20
63.21805181234246
 30
0.0
 11
555.7529438124529
 21
63.21805181234246
 31
0.0
  0
LINE
  5
6D8
330
A
100
AcDbEntity
  8
0
  6
Continuous
 62
     7
100
AcDbLine
 10
555.7529438124529
 20
51.21805181234246
 30
0.0
 11
558.7529438124529
 21
51.21805181234246
 31
0.0
  0
LINE
  5
6D9
330
A
100
AcDbEntity
  8
0
  6
Continuous
 62
     7
100
AcDbLine
 10
569.752943812453
 20
101.2180518123424
 30
0.0
 11
569.752943812453
 21
301.2180518123425
 31
0.0
  0
LINE
  5
6DA
330
A
100
AcDbEntity
  8
0
  6
Continuous
 62
     7
100
AcDbLine
 10
559.7529438124529
 20
301.2180518123425
 30
0.0
 11
559.7529438124529
 21
101.2180518123424
 31
0.0
  0
LINE
  5
6DB
330
A
100
AcDbEntity
  8
0
  6
Continuous
 62
     7
100
AcDbLine
 10
560.7529438124529
 20
101.2180518123424
 30
0.0
 11
560.7529438124529
 21
82.91663650639327
 31
0.0
  0
LINE
  5
6DC
330
A
100
AcDbEntity
  8
0
  6
Continuous
 62
     7
100
AcDbLine
 10
568.752943812453
 20
82.9147670864333
 30
0.0
 11
568.752943812453
 21
101.2180518123424
 31
0.0
  0
LINE
  5
6DD
330
A
100
AcDbEntity
  8
0
  6
Continuous
 62
     7
100
AcDbLine
 10
571.7529438124529
 20
30.71805181234244
 30
0.0
 11
571.7529438124529
 21
32.21805181234244
 31
0.0
  0
LINE
  5
6DE
330
A
100
AcDbEntity
  8
0
  6
Continuous
 62
     7
100
AcDbLine
 10
557.7529438124529
 20
32.21805181234244
 30
0.0
 11
557.7529438124529
 21
30.71805181234244
 31
0.0
  0
LINE
  5
6DF
330
A
100
AcDbEntity
  8
0
  6
Continuous
 62
     7
100
AcDbLine
 10
568.8529438124528
 20
32.21805181234244
 30
0.0
 11
568.8529438124528
 21
49.01805181234246
 31
0.0
  0
LINE
  5
6E0
330
A
100
AcDbEntity
  8
0
  6
Continuous
 62
     7
100
AcDbLine
 10
560.6529438124529
 20
49.01805181234246
 30
0.0
 11
560.6529438124529
 21
32.21805181234244
 31
0.0
  0
LINE
  5
6E1
330
A
100
AcDbEntity
  8
0
  6
Continuous
 62
     7
100
AcDbLine
 10
559.7529438124528
 20
338.3180518123426
 30
0.0
 11
554.7529438124526
 21
338.3180518123426
 31
0.0
  0
LINE
  5
6E2
330
A
100
AcDbEntity
  8
0
  6
Continuous
 62
     7
100
AcDbLine
 10
554.7529438124526
 20
318.3180518123425
 30
0.0
 11
559.7529438124528
 21
318.3180518123425
 31
0.0
  0
LINE
  5
6E3
330
A
100
AcDbEntity
  8
0
  6
Continuous
 62
     7
100
AcDbLine
 10
561.2529438124527
 20
333.3180518123425
 30
0.0
 11
559.7529438124528
 21
333.3180518123425
 31
0.0
  0
LINE
  5
6E4
330
A
100
AcDbEntity
  8
0
  6
Continuous
 62
     7
100
AcDbLine
 10
559.7529438124528
 20
323.3180518123425
 30
0.0
 11
561.2529438124527
 21
323.3180518123425
 31
0.0
  0
LINE
  5
6E5
330
A
100
AcDbEntity
  8
0
  6
Continuous
 62
     7
100
AcDbLine
 10
569.7529438124528
 20
333.3180518123425
 30
0.0
 11
568.2529438124527
 21
333.3180518123425
 31
0.0
  0
LINE
  5
6E6
330
A
100
AcDbEntity
  8
0
  6
Continuous
 62
     7
100
AcDbLine
 10
568.2529438124527
 20
323.3180518123425
 30
0.0
 11
569.7529438124528
 21
323.3180518123425
 31
0.0
  0
LINE
  5
6E7
330
A
100
AcDbEntity
  8
0
  6
Continuous
 62
     7
100
AcDbLine
 10
568.7529438124504
 20
338.8180518123426
 30
0.0
 11
568.2529438124529
 21
338.8180518123426
 31
0.0
  0
LINE
  5
6E8
330
A
100
AcDbEntity
  8
0
  6
Continuous
 62
     7
100
AcDbLine
 10
561.2529438124529
 20
338.8180518123426
 30
0.0
 11
560.7529438124505
 21
338.8180518123426
 31
0.0
  0
CIRCLE
  5
6E9
330
A
100
AcDbEntity
  8
0
  6
Continuous
 62
     7
100
AcDbCircle
 10
564.7529438124531
 20
-9.28194818765754
 30
0.0
 40
38.5
  0
CIRCLE
  5
6EA
330
A
100
AcDbEntity
  8
0
  6
Continuous
 62
     7
100
AcDbCircle
 10
564.7529438124531
 20
-9.28194818765754
 30
0.0
 40
40.0
  0
LINE
  5
6EB
330
A
100
AcDbEntity
  8
0
  6
Continuous
 62
     7
100
AcDbLine
 10
554.7529438124528
 20
30.71805181234247
 30
0.0
 11
574.7529438124529
 21
30.71805181234247
 31
0.0
  0
LINE
  5
6EC
330
A
100
AcDbEntity
  8
0
  6
Continuous
 62
     7
100
AcDbLine
 10
568.752943812453
 20
350.2383620291255
 30
0.0
 11
568.752943812453
 21
352.6883620291255
 31
0.0
  0
LINE
  5
6ED
330
A
100
AcDbEntity
  8
0
  6
Continuous
 62
     7
100
AcDbLine
 10
568.752943812453
 20
347.7883620291255
 30
0.0
 11
568.752943812453
 21
350.2383620291255
 31
0.0
  0
LINE
  5
6EE
330
A
100
AcDbEntity
  8
0
  6
Continuous
 62
     7
100
AcDbLine
 10
560.7529438124529
 20
350.2383620291255
 30
0.0
 11
560.7529438124529
 21
352.6883620291255
 31
0.0
  0
LINE
  5
6EF
330
A
100
AcDbEntity
  8
0
  6
Continuous
 62
     7
100
AcDbLine
 10
560.7529438124529
 20
347.7883620291255
 30
0.0
 11
560.7529438124529
 21
350.2383620291255
 31
0.0
  0
LINE
  5
6F0
330
A
100
AcDbEntity
  8
0
  6
Continuous
 62
     7
100
AcDbLine
 10
589.75294381245
 20
331.5680518123425
 30
0.0
 11
589.75294381245
 21
325.0680518123425
 31
0.0
  0
LINE
  5
6F1
330
A
100
AcDbEntity
  8
0
  6
Continuous
 62
     7
100
AcDbLine
 10
539.7529438124502
 20
325.0680518123425
 30
0.0
 11
554.7529438124504
 21
325.0680518123425
 31
0.0
  0
LINE
  5
6F2
330
A
100
AcDbEntity
  8
0
  6
Continuous
 62
     7
100
AcDbLine
 10
569.7529438124504
 20
325.0680518123425
 30
0.0
 11
589.75294381245
 21
325.0680518123425
 31
0.0
  0
LINE
  5
6F3
330
A
100
AcDbEntity
  8
0
  6
Continuous
 62
     7
100
AcDbLine
 10
539.7529438124502
 20
331.5680518123425
 30
0.0
 11
539.7529438124502
 21
325.0680518123425
 31
0.0
  0
LINE
  5
6F4
330
A
100
AcDbEntity
  8
0
  6
Continuous
 62
     7
100
AcDbLine
 10
539.7529438124502
 20
331.5680518123425
 30
0.0
 11
554.7529438124504
 21
331.5680518123425
 31
0.0
  0
LINE
  5
6F5
330
A
100
AcDbEntity
  8
0
  6
Continuous
 62
     7
100
AcDbLine
 10
569.7529438124504
 20
331.5680518123425
 30
0.0
 11
589.75294381245
 21
331.5680518123425
 31
0.0
  0
LINE
  5
6F6
330
A
100
AcDbEntity
  8
0
  6
Continuous
 62
     7
100
AcDbLine
 10
591.7529438124498
 20
328.3180518123425
 30
0.0
 11
591.7529438124498
 21
323.3180518123425
 31
0.0
  0
LINE
  5
6F7
330
A
100
AcDbEntity
  8
0
  6
Continuous
 62
     7
100
AcDbLine
 10
591.7529438124498
 20
333.3180518123425
 30
0.0
 11
591.7529438124498
 21
328.3180518123425
 31
0.0
  0
LINE
  5
6F8
330
A
100
AcDbEntity
  8
0
  6
Continuous
 62
     7
100
AcDbLine
 10
537.7529438124498
 20
333.3180518123425
 30
0.0
 11
537.7529438124498
 21
323.3180518123425
 31
0.0
  0
ARC
  5
6F9
330
A
100
AcDbEntity
  8
0
  6
Continuous
 62
     7
100
AcDbCircle
 10
564.7529438124502
 20
328.3180518123425
 30
0.0
 40
6.499999999999968
100
AcDbArc
 50
127.9798724448509
 51
129.715137231825
  0
ARC
  5
6FA
330
A
100
AcDbEntity
  8
0
  6
Continuous
 62
     7
100
AcDbCircle
 10
564.7529438124502
 20
328.3180518123425
 30
0.0
 40
6.500000000000038
100
AcDbArc
 50
50.28486276817417
 51
52.02012755514827
  0
ARC
  5
6FB
330
A
100
AcDbEntity
  8
0
  6
Continuous
 62
     7
100
AcDbCircle
 10
564.7529438124502
 20
328.3180518123425
 30
0.0
 40
6.500000000000041
100
AcDbArc
 50
29.9999999999998
 51
39.71513723182665
  0
ARC
  5
6FC
330
A
100
AcDbEntity
  8
0
  6
Continuous
 62
     7
100
AcDbCircle
 10
564.7529438124502
 20
328.3180518123425
 30
0.0
 40
6.500000000000013
100
AcDbArc
 50
320.2848627681744
 51
330.0000000000015
  0
ARC
  5
6FD
330
A
100
AcDbEntity
  8
0
  6
Continuous
 62
     7
100
AcDbCircle
 10
564.7529438124502
 20
328.3180518123425
 30
0.0
 40
6.50000000000008
100
AcDbArc
 50
305.8073505822744
 51
309.7151372318263
  0
ARC
  5
6FE
330
A
100
AcDbEntity
  8
0
  6
Continuous
 62
     7
100
AcDbCircle
 10
564.7529438124502
 20
328.3180518123425
 30
0.0
 40
6.499999999999976
100
AcDbArc
 50
230.2848627681758
 51
234.1926494177859
  0
ARC
  5
6FF
330
A
100
AcDbEntity
  8
0
  6
Continuous
 62
     7
100
AcDbCircle
 10
564.75294381245
 20
328.3180518123425
 30
0.0
 40
13.49999999999998
100
AcDbArc
 50
137.7945535962678
 51
166.0697364074548
  0
ARC
  5
700
330
A
100
AcDbEntity
  8
0
  6
Continuous
 62
     7
100
AcDbCircle
 10
564.75294381245
 20
328.3180518123425
 30
0.0
 40
13.5
100
AcDbArc
 50
105.0261137591069
 51
132.2054464037314
  0
ARC
  5
701
330
A
100
AcDbEntity
  8
0
  6
Continuous
 62
     7
100
AcDbCircle
 10
564.75294381245
 20
328.3180518123425
 30
0.0
 40
13.49999999999994
100
AcDbArc
 50
13.93026359254453
 51
74.97388624086799
  0
ARC
  5
702
330
A
100
AcDbEntity
  8
0
  6
Continuous
 62
     7
100
AcDbCircle
 10
564.75294381245
 20
328.3180518123425
 30
0.0
 40
13.49999999999998
100
AcDbArc
 50
285.0261137591328
 51
346.3131716402736
  0
ARC
  5
703
330
A
100
AcDbEntity
  8
0
  6
Continuous
 62
     7
100
AcDbCircle
 10
564.75294381245
 20
328.3180518123425
 30
0.0
 40
13.49999999999995
100
AcDbArc
 50
227.7945535962691
 51
254.9738862408938
  0
ARC
  5
704
330
A
100
AcDbEntity
  8
0
  6
Continuous
 62
     7
100
AcDbCircle
 10
564.75294381245
 20
328.3180518123425
 30
0.0
 40
13.49999999999994
100
AcDbArc
 50
193.6868283597273
 51
222.2054464037328
  0
ARC
  5
705
330
A
100
AcDbEntity
  8
0
  6
Continuous
 62
     7
100
AcDbCircle
 10
564.7529438124499
 20
328.3180518123425
 30
0.0
 40
16.49999999999998
100
AcDbArc
 50
102.2466897273008
 51
168.6401891674854
  0
ARC
  5
706
330
A
100
AcDbEntity
  8
0
  6
Continuous
 62
     7
100
AcDbCircle
 10
564.7529438124499
 20
328.3180518123425
 30
0.0
 40
16.49999999999996
100
AcDbArc
 50
11.35981083251408
 51
77.75331027267812
  0
ARC
  5
707
330
A
100
AcDbEntity
  8
0
  6
Continuous
 62
     7
100
AcDbCircle
 10
564.7529438124499
 20
328.3180518123425
 30
0.0
 40
16.49999999999993
100
AcDbArc
 50
287.6397013942369
 51
348.6401891674871
  0
ARC
  5
708
330
A
100
AcDbEntity
  8
0
  6
Continuous
 62
     7
100
AcDbCircle
 10
564.7529438124499
 20
328.3180518123425
 30
0.0
 40
16.49999999999993
100
AcDbArc
 50
191.3598108325145
 51
252.3602986057647
  0
LWPOLYLINE
  5
709
330
A
100
AcDbEntity
  8
0
  6
Continuous
 62
     7
100
AcDbPolyline
 90
       23
 70
   128
 43
0.0
 10
512.4873479359743
 20
311.1134558569975
 10
512.204175543012
 20
310.5254833092034
 10
511.5836743210447
 20
308.7357996465304
 10
511.3170058152307
 20
306.9310972301852
 10
511.405944660479
 20
305.1233860569937
 10
511.8498989834484
 20
303.3246961465622
 10
512.6459143413667
 20
301.5469974834817
 10
513.7886933833604
 20
299.8021203590553
 10
515.2706311034502
 20
298.1016766426616
 10
517.0818654506115
 20
296.4569825066797
 10
519.2103429590964
 20
294.8789831192292
 10
521.6418989622603
 20
293.378179805882
 10
524.3603518560804
 20
291.9645601650733
 10
527.3476107850615
 20
290.6475316022818
 10
530.5837960338943
 20
289.4358587252986
 10
534.047371323681
 20
288.3376050172079
 10
537.7152871323175
 20
287.360079175238
 10
541.5631340852609
 20
286.5097864725868
 10
545.5653053958894
 20
285.7923854669021
 10
549.6951672744428
 20
285.2126503435138
 10
553.925236171498
 20
284.7744391440186
 10
558.2273616764581
 20
284.4806680916493
 10
559.7529438124529
 20
284.4120472294962
  0
LWPOLYLINE
  5
722
330
A
100
AcDbEntity
  8
0
  6
Continuous
 62
     7
100
AcDbPolyline
 90
       23
 70
   128
 43
0.0
 10
569.752943812453
 20
284.4120472294965
 10
571.2785259484418
 20
284.4806680916493
 10
575.5806514534017
 20
284.7744391440187
 10
579.8107203504572
 20
285.2126503435139
 10
583.9405822290104
 20
285.7923854669022
 10
587.9427535396389
 20
286.509786472587
 10
591.7906004925822
 20
287.3600791752381
 10
595.4585163012187
 20
288.3376050172081
 10
598.9220915910051
 20
289.4358587252988
 10
602.158276839838
 20
290.6475316022821
 10
605.145535768819
 20
291.9645601650735
 10
607.863988662639
 20
293.3781798058823
 10
610.2955446658027
 20
294.8789831192295
 10
612.4240221742876
 20
296.45698250668
 10
614.2352565214487
 20
298.1016766426619
 10
615.7171942415383
 20
299.8021203590556
 10
616.8599732835319
 20
301.5469974834821
 10
617.6559886414501
 20
303.3246961465626
 10
618.0999429644193
 20
305.1233860569941
 10
618.1888818096673
 20
306.9310972301855
 10
617.9222133038532
 20
308.7357996465307
 10
617.3017120818857
 20
310.5254833092037
 10
617.018539688924
 20
311.113455856997
  0
LWPOLYLINE
  5
73B
330
A
100
AcDbEntity
  8
0
  6
Continuous
 62
     7
100
AcDbPolyline
 90
        9
 70
   128
 43
0.0
 10
546.8138090596349
 20
369.8384144840704
 10
546.1590930961107
 20
369.5526410721547
 10
544.2777766605387
 20
368.591156071096
 10
542.6838866896597
 20
367.544146554252
 10
541.3997979048148
 20
366.4263102401661
 10
540.4435360977859
 20
365.2533391003608
 10
539.8285250881921
 20
364.0416990784542
 10
539.5633982824871
 20
362.8083989444065
 10
539.5596317502683
 20
362.7502493324573
  0
LWPOLYLINE
  5
746
330
A
100
AcDbEntity
  8
0
  6
Continuous
 62
     7
100
AcDbPolyline
 90
        9
 70
   128
 43
0.0
 10
589.9508526486197
 20
362.3456311496243
 10
589.9424893424115
 20
362.8083989444066
 10
589.6773625367066
 20
364.0416990784544
 10
589.0623515271125
 20
365.2533391003609
 10
588.1060897200836
 20
366.4263102401663
 10
586.8220009352386
 20
367.5441465542521
 10
585.2281109643594
 20
368.5911560710961
 10
583.3467945287874
 20
369.5526410721548
 10
581.4829106544458
 20
370.3141051368181
  0
LINE
  5
751
330
A
100
AcDbEntity
  8
0
  6
Continuous
 62
     7
100
AcDbLine
 10
541.0543574024564
 20
361.5156900906165
 30
0.0
 11
541.1289804018192
 21
361.2047512855223
 31
0.0
  0
LINE
  5
752
330
A
100
AcDbEntity
  8
0
  6
Continuous
 62
     7
100
AcDbLine
 10
588.4265712410296
 20
361.4000171619039
 30
0.0
 11
588.4515302224423
 21
361.5156900906164
 31
0.0
  0
LWPOLYLINE
  5
753
330
A
100
AcDbEntity
  8
0
  6
Continuous
 62
     7
100
AcDbPolyline
 90
       16
 70
   128
 43
0.0
 10
564.7529438124492
 20
364.7686093550224
 10
562.8604313688452
 20
364.6936688837109
 10
561.0363192558459
 20
364.4715560136651
 10
559.3465356378932
 20
364.1102984827178
 10
557.8521536976281
 20
363.6229530792848
 10
556.6071842919459
 20
363.0271337360124
 10
555.6566238589041
 20
362.3443749163584
 10
555.0348281292139
 20
361.5993533029759
 10
554.7642704206192
 20
360.8189959181075
 10
554.85472939364
 20
360.0315069108436
 10
555.3029356253027
 20
359.2653481856893
 10
556.092689774605
 20
358.5482107151788
 10
557.1954480689068
 20
357.9060137159798
 10
558.5713539502434
 20
357.3619678608715
 10
560.1706785951754
 20
356.9357363845548
 10
561.252943812453
 20
356.7370392229532
  0
LWPOLYLINE
  5
765
330
A
100
AcDbEntity
  8
0
  6
Continuous
 62
     7
100
AcDbPolyline
 90
       16
 70
   128
 43
0.0
 10
568.2529438124531
 20
356.7370392229543
 10
569.3352090297237
 20
356.9357363845548
 10
570.9345336746556
 20
357.3619678608715
 10
572.3104395559921
 20
357.9060137159799
 10
573.4131978502938
 20
358.5482107151789
 10
574.2029519995961
 20
359.2653481856893
 10
574.6511582312588
 20
360.0315069108436
 10
574.7416172042794
 20
360.8189959181075
 10
574.4710594956848
 20
361.5993533029759
 10
573.8492637659946
 20
362.3443749163584
 10
572.8987033329526
 20
363.0271337360124
 10
571.6537339272703
 20
363.6229530792849
 10
570.1593519870051
 20
364.1102984827178
 10
568.4695683690525
 20
364.4715560136651
 10
566.6454562560532
 20
364.6936688837109
 10
564.7529438124492
 20
364.7686093550224
  0
LWPOLYLINE
  5
777
330
A
100
AcDbEntity
  8
0
  6
Continuous
 62
     7
100
AcDbPolyline
 90
        9
 70
   128
 43
0.0
 10
564.7529438124492
 20
363.8586480841457
 10
562.8604313688452
 20
363.7837076128342
 10
561.0363192558459
 20
363.5615947427884
 10
559.3465356378932
 20
363.2003372118411
 10
557.8521536976281
 20
362.7129918084082
 10
556.6071842919459
 20
362.1171724651357
 10
555.6566238589041
 20
361.4344136454817
 10
555.0348281292139
 20
360.6893920320991
 10
554.8133129253216
 20
360.166696293042
  0
LWPOLYLINE
  5
782
330
A
100
AcDbEntity
  8
0
  6
Continuous
 62
     7
100
AcDbPolyline
 90
        9
 70
   128
 43
0.0
 10
574.6925746995771
 20
360.1666962930419
 10
574.4710594956848
 20
360.6893920320992
 10
573.8492637659946
 20
361.4344136454818
 10
572.8987033329526
 20
362.1171724651357
 10
571.6537339272703
 20
362.7129918084082
 10
570.1593519870051
 20
363.2003372118412
 10
568.4695683690525
 20
363.5615947427884
 10
566.6454562560532
 20
363.7837076128342
 10
564.7529438124492
 20
363.8586480841457
  0
LWPOLYLINE
  5
78D
330
A
100
AcDbEntity
  8
0
  6
Continuous
 62
     7
100
AcDbPolyline
 90
       12
 70
   128
 43
0.0
 10
560.6743403603351
 20
63.75112099659107
 10
560.6550716432054
 20
63.67971995201249
 10
560.9043309647531
 20
62.81334810333056
 10
561.5013861848948
 20
61.96931575824464
 10
562.4447365755272
 20
61.19627507721305
 10
563.7094331002827
 20
60.65546323052018
 10
565.0799994422385
 20
60.5366941475354
 10
566.3333339166119
 20
60.82965712453583
 10
567.4412614711106
 20
61.45856961454819
 10
568.3201482920101
 20
62.35292107642152
 10
568.7882400943161
 20
63.29619890699397
 10
568.8053543771111
 20
63.74437413771971
  0
LWPOLYLINE
  5
79B
330
A
100
AcDbEntity
  8
0
  6
Continuous
 62
     7
100
AcDbPolyline
 90
       11
 70
   128
 43
0.0
 10
568.8529438124532
 20
80.88100271624471
 10
568.6522755292632
 20
79.98511986612462
 10
568.0699134893905
 20
79.17693227135714
 10
567.1628633468523
 20
78.53555096469218
 10
566.0199134893905
 20
78.12375881719247
 10
564.7529438124531
 20
77.98186491337983
 10
563.4859741355159
 20
78.12375881719245
 10
562.343024278054
 20
78.53555096469216
 10
561.4359741355159
 20
79.1769322713571
 10
560.8536120956431
 20
79.98511986612459
 10
560.6529438124532
 20
80.88100271624471
  0
LWPOLYLINE
  5
7A8
330
A
100
AcDbEntity
  8
0
  6
Continuous
 62
     7
100
AcDbPolyline
 90
        3
 70
   128
 43
0.0
 10
560.7529438124529
 20
78.02791184745228
 10
560.6772510172521
 20
77.68902100439337
 10
560.6529438124531
 20
77.34546881031199
  0
LWPOLYLINE
  5
7AD
330
A
100
AcDbEntity
  8
0
  6
Continuous
 62
     7
100
AcDbPolyline
 90
       11
 70
   128
 43
0.0
 10
560.6529438124531
 20
77.34546881031199
 10
560.853612095643
 20
76.4495859601919
 10
561.4359741355158
 20
75.64139836542442
 10
562.343024278054
 20
75.00001705875945
 10
563.4859741355158
 20
74.58822491125975
 10
564.7529438124531
 20
74.44633100744709
 10
566.0199134893904
 20
74.58822491125971
 10
567.1628633468523
 20
75.00001705875944
 10
568.0699134893903
 20
75.64139836542437
 10
568.6522755292632
 20
76.44958596019185
 10
568.8529438124531
 20
77.34546881031199
  0
LWPOLYLINE
  5
7BA
330
A
100
AcDbEntity
  8
0
  6
Continuous
 62
     7
100
AcDbPolyline
 90
        3
 70
   128
 43
0.0
 10
568.8529438124531
 20
77.34546881031199
 10
568.8210530050842
 20
77.74359242874368
 10
568.752943812453
 20
78.05473720513352
  0
LINE
  5
7BF
330
A
100
AcDbEntity
  8
0
  6
Continuous
 62
     7
100
AcDbLine
 10
560.7529438124531
 20
79.11323576327835
 30
0.0
 11
560.7529438124531
 21
80.2446066131768
 31
0.0
  0
LINE
  5
7C0
330
A
100
AcDbEntity
  8
0
  6
Continuous
 62
     7
100
AcDbLine
 10
560.7529438124531
 20
76.66323576327835
 30
0.0
 11
560.7529438124531
 21
79.11323576327835
 31
0.0
  0
LINE
  5
7C1
330
A
100
AcDbEntity
  8
0
  6
Continuous
 62
     7
100
AcDbLine
 10
568.7529438124532
 20
79.11323576327835
 30
0.0
 11
568.7529438124532
 21
80.2446066131768
 31
0.0
  0
LINE
  5
7C2
330
A
100
AcDbEntity
  8
0
  6
Continuous
 62
     7
100
AcDbLine
 10
568.7529438124532
 20
76.66323576327835
 30
0.0
 11
568.7529438124532
 21
79.11323576327835
 31
0.0
  0
LWPOLYLINE
  5
7C3
330
A
100
AcDbEntity
  8
0
  6
Continuous
 62
     7
100
AcDbPolyline
 90
        3
 70
   128
 43
0.0
 10
564.4212813334176
 20
309.4637638400285
 10
564.2870926482857
 20
308.3080732049801
 10
564.1939576021682
 20
307.2163587052427
  0
LWPOLYLINE
  5
7C8
330
A
100
AcDbEntity
  8
0
  6
Continuous
 62
     7
100
AcDbPolyline
 90
        4
 70
   128
 43
0.0
 10
565.3397356712811
 20
307.1738657702281
 10
565.3495945168109
 20
307.2986305922668
 10
565.1556971357371
 20
308.684347697856
 10
565.0846062914886
 20
309.4637638400284
  0
LWPOLYLINE
  5
7CE
330
A
100
AcDbEntity
  8
0
  6
Continuous
 62
     7
100
AcDbPolyline
 90
        9
 70
   128
 43
0.0
 10
565.0846062914886
 20
309.4637638400284
 10
565.0081079695543
 20
309.4656865994375
 10
564.9261488932098
 20
309.4670901672579
 10
564.8404830642424
 20
309.4679445058102
 10
564.7529438124531
 20
309.4682313314409
 10
564.6654045606636
 20
309.4679445058102
 10
564.5797387316962
 20
309.4670901672579
 10
564.4977796553518
 20
309.4656865994375
 10
564.4212813334176
 20
309.4637638400284
  0
LINE
  5
7D9
330
A
100
AcDbEntity
  8
0
  6
Continuous
 62
     7
100
AcDbLine
 10
568.2529438124531
 20
314.7180518123426
 30
0.0
 11
568.2529438124531
 21
303.7909910326487
 31
0.0
  0
LINE
  5
7DA
330
A
100
AcDbEntity
  8
0
  6
Continuous
 62
     7
100
AcDbLine
 10
561.252943812453
 20
314.7180518123426
 30
0.0
 11
561.252943812453
 21
303.7909910326487
 31
0.0
  0
LINE
  5
7DB
330
A
100
AcDbEntity
  8
0
  6
Continuous
 62
     7
100
AcDbLine
 10
555.7529438124531
 20
57.21805181234246
 30
0.0
 11
555.7529438124529
 21
67.21805181234245
 31
0.0
  0
LINE
  5
7DC
330
A
100
AcDbEntity
  8
0
  6
Continuous
 62
     7
100
AcDbLine
 10
555.7529438124529
 20
47.21805181234246
 30
0.0
 11
555.7529438124531
 21
57.21805181234246
 31
0.0
  0
LINE
  5
7DD
330
A
100
AcDbEntity
  8
0
  6
Continuous
 62
     7
100
AcDbLine
 10
550.752943812453
 20
57.21805181234246
 30
0.0
 11
550.7529438124529
 21
67.21805181234245
 31
0.0
  0
LINE
  5
7DE
330
A
100
AcDbEntity
  8
0
  6
Continuous
 62
     7
100
AcDbLine
 10
550.7529438124529
 20
47.21805181234246
 30
0.0
 11
550.752943812453
 21
57.21805181234246
 31
0.0
  0
LINE
  5
7DF
330
A
100
AcDbEntity
  8
0
  6
Continuous
 62
     7
100
AcDbLine
 10
559.7529438124531
 20
309.2180518123425
 30
0.0
 11
559.7529438124529
 21
314.2180518123425
 31
0.0
  0
LINE
  5
7E0
330
A
100
AcDbEntity
  8
0
  6
Continuous
 62
     7
100
AcDbLine
 10
559.7529438124529
 20
304.2180518123426
 30
0.0
 11
559.7529438124531
 21
309.2180518123425
 31
0.0
  0
LINE
  5
7E1
330
A
100
AcDbEntity
  8
0
  6
Continuous
 62
     7
100
AcDbLine
 10
569.7529438124531
 20
309.2180518123425
 30
0.0
 11
569.752943812453
 21
314.2180518123425
 31
0.0
  0
LINE
  5
7E2
330
A
100
AcDbEntity
  8
0
  6
Continuous
 62
     7
100
AcDbLine
 10
569.752943812453
 20
304.2180518123426
 30
0.0
 11
569.7529438124531
 21
309.2180518123425
 31
0.0
  0
LWPOLYLINE
  5
7E3
330
A
100
AcDbEntity
  8
0
  6
Continuous
 62
     7
100
AcDbPolyline
 90
        7
 70
   128
 43
0.0
 10
568.2529438124531
 20
354.7388027821568
 10
568.1470088338203
 20
355.2141559889749
 10
567.8438803926608
 20
355.6793956032368
 10
567.3762367843657
 20
356.0944803844277
 10
566.7839497253575
 20
356.4296014707734
 10
566.2628442159285
 20
356.6208813384676
 10
566.252943812453
 20
356.6237527470426
  0
LWPOLYLINE
  5
7EC
330
A
100
AcDbEntity
  8
0
  6
Continuous
 62
     7
100
AcDbPolyline
 90
        7
 70
   128
 43
0.0
 10
563.252943812453
 20
356.6237527470426
 10
563.2430434089783
 20
356.6208813384659
 10
562.7219378995487
 20
356.4296014707734
 10
562.1296508405404
 20
356.0944803844276
 10
561.6620072322453
 20
355.6793956032367
 10
561.3588787910859
 20
355.2141559889749
 10
561.252943812453
 20
354.7388027821568
  0
LINE
  5
7F5
330
A
100
AcDbEntity
  8
0
  6
Continuous
 62
     7
100
AcDbLine
 10
568.2529438124531
 20
350.4961620950376
 30
0.0
 11
568.2529438124531
 21
354.7388027821568
 31
0.0
  0
LWPOLYLINE
  5
7F6
330
A
100
AcDbEntity
  8
0
  6
Continuous
 62
     7
100
AcDbPolyline
 90
        9
 70
   128
 43
0.0
 10
561.252943812453
 20
350.4961620950375
 10
561.9069614808161
 20
349.9192192370367
 10
562.7461060221303
 20
349.4780267211721
 10
563.7157923452796
 20
349.2012834574558
 10
564.7529438124531
 20
349.1069911792268
 10
565.7900952796264
 20
349.2012834574558
 10
566.7597816027758
 20
349.4780267211722
 10
567.5989261440898
 20
349.9192192370367
 10
568.2529438124531
 20
350.4961620950376
  0
LINE
  5
801
330
A
100
AcDbEntity
  8
0
  6
Continuous
 62
     7
100
AcDbLine
 10
561.252943812453
 20
354.7388027821567
 30
0.0
 11
561.252943812453
 21
350.4961620950375
 31
0.0
  0
LINE
  5
802
330
A
100
AcDbEntity
  8
0
  6
Continuous
 62
     7
100
AcDbLine
 10
561.252943812453
 20
354.7388027821567
 30
0.0
 11
561.252943812453
 21
357.7587365562651
 31
0.0
  0
LWPOLYLINE
  5
803
330
A
100
AcDbEntity
  8
0
  6
Continuous
 62
     7
100
AcDbPolyline
 90
        7
 70
   128
 43
0.0
 10
563.252943812453
 20
358.7022137161254
 10
563.243043408978
 20
358.7050504698968
 10
562.7219378995487
 20
358.7948528719932
 10
562.1296508405404
 20
358.7432354000136
 10
561.6620072322453
 20
358.5321570360417
 10
561.3588787910859
 20
358.1916979368376
 10
561.252943812453
 20
357.7587365562651
  0
LINE
  5
80C
330
A
100
AcDbEntity
  8
0
  6
Continuous
 62
     7
100
AcDbLine
 10
568.2529438124531
 20
357.758736556265
 30
0.0
 11
568.2529438124531
 21
354.7388027821568
 31
0.0
  0
LWPOLYLINE
  5
80D
330
A
100
AcDbEntity
  8
0
  6
Continuous
 62
     7
100
AcDbPolyline
 90
        7
 70
   128
 43
0.0
 10
568.2529438124531
 20
357.758736556265
 10
568.1470088338202
 20
358.1916979368375
 10
567.8438803926608
 20
358.5321570360416
 10
567.3762367843656
 20
358.7432354000134
 10
566.7839497253574
 20
358.7948528719932
 10
566.2628442159281
 20
358.7050504698967
 10
566.252943812453
 20
358.7022137161253
  0
LINE
  5
816
330
A
100
AcDbEntity
  8
0
  6
Continuous
 62
     7
100
AcDbLine
 10
570.752943812453
 20
57.21805181234246
 30
0.0
 11
570.752943812453
 21
65.41805181234247
 31
0.0
  0
LINE
  5
817
330
A
100
AcDbEntity
  8
0
  6
Continuous
 62
     7
100
AcDbLine
 10
570.752943812453
 20
49.01805181234246
 30
0.0
 11
570.752943812453
 21
57.21805181234246
 31
0.0
  0
LINE
  5
818
330
A
100
AcDbEntity
  8
0
  6
Continuous
 62
     7
100
AcDbLine
 10
558.7529438124529
 20
57.21805181234246
 30
0.0
 11
558.7529438124529
 21
65.41805181234247
 31
0.0
  0
LINE
  5
819
330
A
100
AcDbEntity
  8
0
  6
Continuous
 62
     7
100
AcDbLine
 10
558.7529438124529
 20
49.01805181234246
 30
0.0
 11
558.7529438124529
 21
57.21805181234246
 31
0.0
  0
LINE
  5
81A
330
A
100
AcDbEntity
  8
0
  6
Continuous
 62
     7
100
AcDbLine
 10
561.252943812453
 20
302.0759161886113
 30
0.0
 11
564.152943812453
 21
302.0759161886113
 31
0.0
  0
LINE
  5
81B
330
A
100
AcDbEntity
  8
0
  6
Continuous
 62
     7
100
AcDbLine
 10
565.3529438124531
 20
302.0759161886113
 30
0.0
 11
568.2529438124531
 21
302.0759161886113
 31
0.0
  0
LINE
  5
81C
330
A
100
AcDbEntity
  8
0
  6
Continuous
 62
     7
100
AcDbLine
 10
568.2529438124531
 20
303.7909910326487
 30
0.0
 11
568.2529438124531
 21
302.0759161886113
 31
0.0
  0
LINE
  5
81D
330
A
100
AcDbEntity
  8
0
  6
Continuous
 62
     7
100
AcDbLine
 10
561.252943812453
 20
302.0759161886113
 30
0.0
 11
561.252943812453
 21
303.7909910326487
 31
0.0
  0
LINE
  5
81E
330
A
100
AcDbEntity
  8
0
  6
Continuous
 62
     7
100
AcDbLine
 10
559.7529438124529
 20
301.2180518123425
 30
0.0
 11
564.152943812453
 21
301.2180518123425
 31
0.0
  0
LINE
  5
81F
330
A
100
AcDbEntity
  8
0
  6
Continuous
 62
     7
100
AcDbLine
 10
565.3529438124531
 20
301.2180518123425
 30
0.0
 11
569.752943812453
 21
301.2180518123425
 31
0.0
  0
LINE
  5
820
330
A
100
AcDbEntity
  8
0
  6
Continuous
 62
     7
100
AcDbLine
 10
559.7529438124529
 20
101.2180518123424
 30
0.0
 11
564.1529438124531
 21
101.2180518123424
 31
0.0
  0
LINE
  5
821
330
A
100
AcDbEntity
  8
0
  6
Continuous
 62
     7
100
AcDbLine
 10
565.3529438124532
 20
101.2180518123424
 30
0.0
 11
569.752943812453
 21
101.2180518123424
 31
0.0
  0
LINE
  5
822
330
A
100
AcDbEntity
  8
0
  6
Continuous
 62
     7
100
AcDbLine
 10
568.2529438124531
 20
301.2180518123425
 30
0.0
 11
568.2529438124531
 21
302.0759161886113
 31
0.0
  0
LINE
  5
823
330
A
100
AcDbEntity
  8
0
  6
Continuous
 62
     7
100
AcDbLine
 10
561.252943812453
 20
302.0759161886113
 30
0.0
 11
561.252943812453
 21
301.2180518123425
 31
0.0
  0
LINE
  5
824
330
A
100
AcDbEntity
  8
0
  6
Continuous
 62
     7
100
AcDbLine
 10
571.7529438124529
 20
32.21805181234244
 30
0.0
 11
557.7529438124529
 21
32.21805181234244
 31
0.0
  0
LWPOLYLINE
  5
825
330
A
100
AcDbEntity
  8
0
  6
Continuous
 62
     7
100
AcDbPolyline
 90
        9
 70
   128
 43
0.0
 10
568.2529438124529
 20
346.9606281891048
 10
567.5989261440898
 20
346.383685331104
 10
566.7597816027758
 20
345.9424928152394
 10
565.7900952796264
 20
345.665749551523
 10
564.752943812453
 20
345.5714572732941
 10
563.7157923452796
 20
345.665749551523
 10
562.7461060221303
 20
345.9424928152393
 10
561.9069614808161
 20
346.383685331104
 10
561.2529438124529
 20
346.9606281891048
  0
LINE
  5
830
330
A
100
AcDbEntity
  8
0
  6
Continuous
 62
     7
100
AcDbLine
 10
568.2529438124528
 20
333.6617755770662
 30
0.0
 11
568.2529438124529
 21
346.9606281891048
 31
0.0
  0
LINE
  5
831
330
A
100
AcDbEntity
  8
0
  6
Continuous
 62
     7
100
AcDbLine
 10
561.2529438124529
 20
346.9606281891048
 30
0.0
 11
561.2529438124528
 21
333.6617755770661
 31
0.0
  0
LINE
  5
832
330
A
100
AcDbEntity
  8
0
  6
Continuous
 62
     7
100
AcDbLine
 10
568.2529438124529
 20
347.7883620291255
 30
0.0
 11
568.2529438124529
 21
346.9606281891048
 31
0.0
  0
LINE
  5
833
330
A
100
AcDbEntity
  8
0
  6
Continuous
 62
     7
100
AcDbLine
 10
561.2529438124529
 20
346.9606281891048
 30
0.0
 11
561.2529438124529
 21
347.7883620291255
 31
0.0
  0
LINE
  5
834
330
A
100
AcDbEntity
  8
0
  6
Continuous
 62
     7
100
AcDbLine
 10
568.2529438124528
 20
322.9743280476187
 30
0.0
 11
568.2529438124531
 21
314.7180518123426
 31
0.0
  0
LINE
  5
835
330
A
100
AcDbEntity
  8
0
  6
Continuous
 62
     7
100
AcDbLine
 10
561.252943812453
 20
314.7180518123426
 30
0.0
 11
561.2529438124528
 21
322.9743280476188
 31
0.0
  0
LINE
  5
836
330
A
100
AcDbEntity
  8
0
  6
Continuous
 62
     7
100
AcDbLine
 10
559.7529438124529
 20
328.3180518123425
 30
0.0
 11
559.7529438124528
 21
338.3180518123426
 31
0.0
  0
LINE
  5
837
330
A
100
AcDbEntity
  8
0
  6
Continuous
 62
     7
100
AcDbLine
 10
559.7529438124528
 20
318.3180518123425
 30
0.0
 11
559.7529438124529
 21
328.3180518123425
 31
0.0
  0
LINE
  5
838
330
A
100
AcDbEntity
  8
0
  6
Continuous
 62
     7
100
AcDbLine
 10
554.7529438124528
 20
328.3180518123425
 30
0.0
 11
554.7529438124526
 21
338.3180518123426
 31
0.0
  0
LINE
  5
839
330
A
100
AcDbEntity
  8
0
  6
Continuous
 62
     7
100
AcDbLine
 10
554.7529438124526
 20
318.3180518123425
 30
0.0
 11
554.7529438124528
 21
328.3180518123425
 31
0.0
  0
LINE
  5
83A
330
A
100
AcDbEntity
  8
0
  6
Continuous
 62
     7
100
AcDbLine
 10
568.2529438124528
 20
333.6617755770662
 30
0.0
 11
568.2529438124528
 21
330.5331609205254
 31
0.0
  0
LINE
  5
83B
330
A
100
AcDbEntity
  8
0
  6
Continuous
 62
     7
100
AcDbLine
 10
561.2529438124528
 20
330.5331609205253
 30
0.0
 11
561.2529438124528
 21
333.6617755770661
 31
0.0
  0
LINE
  5
83C
330
A
100
AcDbEntity
  8
0
  6
Continuous
 62
     7
100
AcDbLine
 10
568.2529438124528
 20
326.1029427041596
 30
0.0
 11
568.2529438124528
 21
322.9743280476187
 31
0.0
  0
LINE
  5
83D
330
A
100
AcDbEntity
  8
0
  6
Continuous
 62
     7
100
AcDbLine
 10
561.2529438124528
 20
322.9743280476188
 30
0.0
 11
561.2529438124528
 21
326.1029427041596
 31
0.0
  0
LINE
  5
83E
330
A
100
AcDbEntity
  8
0
  6
Continuous
 62
     7
100
AcDbLine
 10
568.2529438124528
 20
330.5331609205254
 30
0.0
 11
568.2529438124528
 21
326.1029427041596
 31
0.0
  0
LINE
  5
83F
330
A
100
AcDbEntity
  8
0
  6
Continuous
 62
     7
100
AcDbLine
 10
561.2529438124528
 20
330.5331609205253
 30
0.0
 11
561.2529438124528
 21
326.1029427041596
 31
0.0
  0
LINE
  5
840
330
A
100
AcDbEntity
  8
0
  6
Continuous
 62
     7
100
AcDbLine
 10
569.7529438124528
 20
328.3180518123425
 30
0.0
 11
569.7529438124528
 21
333.3180518123425
 31
0.0
  0
LINE
  5
841
330
A
100
AcDbEntity
  8
0
  6
Continuous
 62
     7
100
AcDbLine
 10
569.7529438124528
 20
323.3180518123425
 30
0.0
 11
569.7529438124528
 21
328.3180518123425
 31
0.0
  0
LINE
  5
842
330
A
100
AcDbEntity
  8
0
  6
Continuous
 62
     7
100
AcDbLine
 10
568.6259271586599
 20
323.3180518123425
 30
0.0
 11
568.2529438124528
 21
321.87349352407
 31
0.0
  0
LINE
  5
843
330
A
100
AcDbEntity
  8
0
  6
Continuous
 62
     7
100
AcDbLine
 10
561.2529438124528
 20
321.873493524067
 30
0.0
 11
560.8799604662451
 21
323.3180518123425
 31
0.0
  0
LINE
  5
844
330
A
100
AcDbEntity
  8
0
  6
Continuous
 62
     7
100
AcDbLine
 10
560.7529438124505
 20
333.3180518123425
 30
0.0
 11
560.7529438124505
 21
338.8180518123426
 31
0.0
  0
LINE
  5
845
330
A
100
AcDbEntity
  8
0
  6
Continuous
 62
     7
100
AcDbLine
 10
568.7529438124506
 20
333.3180518123425
 30
0.0
 11
568.7529438124504
 21
338.8180518123426
 31
0.0
  0
LWPOLYLINE
  5
846
330
A
100
AcDbEntity
  8
0
  6
PHANTOM
 62
     7
100
AcDbPolyline
 90
        5
 70
   128
 43
0.0
 10
558.7765604995517
 20
232.8860579738627
 10
558.8516064300273
 20
232.749794534225
 10
559.0675542955877
 20
232.6324502530356
 10
559.390743115621
 20
232.5682855385068
 10
559.7529438124529
 20
232.5656298042849
  0
LWPOLYLINE
  5
84D
330
A
100
AcDbEntity
  8
0
  6
PHANTOM
 62
     7
100
AcDbPolyline
 90
        5
 70
   128
 43
0.0
 10
570.7293271253469
 20
232.8860579738627
 10
570.6542811948714
 20
232.7497945342249
 10
570.4383333293109
 20
232.6324502530356
 10
570.1151445092778
 20
232.5682855385068
 10
569.752943812453
 20
232.5656298042844
  0
ARC
  5
854
330
A
100
AcDbEntity
  8
0
  6
PHANTOM
 62
     7
100
AcDbCircle
 10
564.7529438124502
 20
328.3180518123425
 30
0.0
 40
7.499999999999945
100
AcDbArc
 50
122.2309526355024
 51
131.8103148957789
  0
ARC
  5
855
330
A
100
AcDbEntity
  8
0
  6
PHANTOM
 62
     7
100
AcDbCircle
 10
564.7529438124502
 20
328.3180518123425
 30
0.0
 40
7.499999999999998
100
AcDbArc
 50
25.67928861945685
 51
57.76904736449788
  0
ARC
  5
856
330
A
100
AcDbEntity
  8
0
  6
PHANTOM
 62
     7
100
AcDbCircle
 10
564.7529438124502
 20
328.3180518123425
 30
0.0
 40
7.499999999999974
100
AcDbArc
 50
297.3328027098725
 51
334.3207113805444
  0
ARC
  5
857
330
A
100
AcDbEntity
  8
0
  6
PHANTOM
 62
     7
100
AcDbCircle
 10
564.7529438124502
 20
328.3180518123425
 30
0.0
 40
7.499999999999947
100
AcDbArc
 50
228.1896851042219
 51
242.667197290175
  0
LWPOLYLINE
  5
858
330
A
100
AcDbEntity
  8
0
  6
PHANTOM
 62
     7
100
AcDbPolyline
 90
       25
 70
   128
 43
0.0
 10
514.4317833304057
 20
314.8845106282788
 10
514.0283126467651
 20
314.4565658992712
 10
512.644836256447
 20
312.7380697597299
 10
511.599300939156
 20
310.9789810297907
 10
510.8984873926296
 20
309.1907080748851
 10
510.5469406616415
 20
307.3848485313425
 10
510.5469406616416
 20
305.5731140912681
 10
510.8984873926298
 20
303.7672545477255
 10
511.5993009391564
 20
301.9789815928199
 10
512.6448362564475
 20
300.2198928628807
 10
514.0283126467656
 20
298.5013967233394
 10
515.7407577348362
 20
296.8346382811022
 10
517.7710656571438
 20
295.2304271042548
 10
520.1060690877189
 20
293.6991671178658
 10
522.7306246332995
 20
292.2507891305394
 10
525.6277110440477
 20
290.8946864293119
 10
528.7785396028866
 20
289.6396538605803
 10
532.1626759775394
 20
288.4938307921484
 10
535.7581727450167
 20
287.4646483263034
 10
539.5417117290755
 20
286.5587811062663
 10
543.4887552275409
 20
285.7821040285687
 10
547.5737051487199
 20
285.139654142095
 10
551.77006902485
 20
284.6355979808874
 10
556.0506318259164
 20
284.2732045425735
 10
559.7529438124529
 20
284.077628118737
  0
LWPOLYLINE
  5
873
330
A
100
AcDbEntity
  8
0
  6
PHANTOM
 62
     7
100
AcDbPolyline
 90
       25
 70
   128
 43
0.0
 10
569.752943812453
 20
284.0776281187373
 10
573.4552557989834
 20
284.2732045425736
 10
577.7358186000498
 20
284.6355979808875
 10
581.9321824761798
 20
285.1396541420951
 10
586.0171323973589
 20
285.7821040285688
 10
589.9641758958243
 20
286.5587811062664
 10
593.7477148798831
 20
287.4646483263036
 10
597.3432116473601
 20
288.4938307921486
 10
600.7273480220128
 20
289.6396538605806
 10
603.8781765808517
 20
290.8946864293122
 10
606.7752629915998
 20
292.2507891305397
 10
609.3998185371804
 20
293.699167117866
 10
611.7348219677553
 20
295.2304271042552
 10
613.7651298900626
 20
296.8346382811025
 10
615.4775749781331
 20
298.5013967233397
 10
616.8610513684512
 20
300.219892862881
 10
617.906586685742
 20
301.9789815928202
 10
618.6074002322685
 20
303.7672545477258
 10
618.9589469632567
 20
305.5731140912684
 10
618.9589469632566
 20
307.3848485313428
 10
618.6074002322682
 20
309.1907080748854
 10
617.9065866857416
 20
310.978981029791
 10
616.8610513684505
 20
312.7380697597302
 10
615.4775749781322
 20
314.4565658992715
 10
615.0741042944925
 20
314.8845106282783
  0
LWPOLYLINE
  5
88E
330
A
100
AcDbEntity
  8
0
  6
PHANTOM
 62
     7
100
AcDbPolyline
 90
       14
 70
   128
 43
0.0
 10
539.5596317502683
 20
362.7502493324573
 10
539.651877479858
 20
361.5707515286723
 10
540.0927206263226
 20
360.3461306880119
 10
540.8797392504445
 20
359.1517274146263
 10
542.0018853359072
 20
358.0043085123096
 10
543.4434064114452
 20
356.9199812272769
 10
545.1840666810113
 20
355.9139671377354
 10
547.1994310899951
 20
355.0003884762923
 10
549.4612083398278
 20
354.1920698847651
 10
551.9376480357984
 20
353.5003583843224
 10
554.5939863929985
 20
352.9349640881804
 10
557.3929342436584
 20
352.5038238928972
 10
560.2952004953241
 20
352.2129900617437
 10
560.7529438124496
 20
352.1806765713961
  0
LWPOLYLINE
  5
89E
330
A
100
AcDbEntity
  8
0
  6
PHANTOM
 62
     7
100
AcDbPolyline
 90
       14
 70
   128
 43
0.0
 10
568.7529438124496
 20
352.1806765713961
 10
569.2106871295755
 20
352.2129900617438
 10
572.1129533812411
 20
352.5038238928973
 10
574.9119012319011
 20
352.9349640881805
 10
577.568239589101
 20
353.5003583843224
 10
580.0446792850716
 20
354.1920698847651
 10
582.3064565349041
 20
355.0003884762924
 10
584.3218209438879
 20
355.9139671377355
 10
586.0624812134538
 20
356.9199812272771
 10
587.5040022889919
 20
358.0043085123097
 10
588.6261483744545
 20
359.1517274146265
 10
589.4131669985762
 20
360.3461306880121
 10
589.8540101450406
 20
361.5707515286724
 10
589.9508526486197
 20
362.3456311496243
  0
LWPOLYLINE
  5
8AE
330
A
100
AcDbEntity
  8
0
  6
PHANTOM
 62
     7
100
AcDbPolyline
 90
       15
 70
   128
 43
0.0
 10
564.752943812449
 20
372.1986432059654
 10
561.8305187119069
 20
372.1238951593504
 10
558.9523945969326
 20
371.9007841236979
 10
556.1622008953114
 20
371.5326922348816
 10
553.5022340993927
 20
371.0251993907237
 10
551.0128165943821
 20
370.385998665432
 10
548.7316854120829
 20
369.6247796904367
 10
546.6934201759617
 20
368.7530817694544
 10
544.9289189093048
 20
367.7841189544077
 10
543.4649296526814
 20
366.7325797338663
 10
542.3236449909132
 20
365.6144043705333
 10
541.5223656361113
 20
364.4465432631119
 10
541.0732381665152
 20
363.2466999955385
 10
540.9830708967485
 20
362.0330629686965
 10
541.0543574024564
 20
361.5156900906165
  0
LWPOLYLINE
  5
8BF
330
A
100
AcDbEntity
  8
0
  6
PHANTOM
 62
     7
100
AcDbPolyline
 90
       15
 70
   128
 43
0.0
 10
588.4515302224423
 20
361.5156900906164
 10
588.5228167281502
 20
362.0330629686966
 10
588.4326494583835
 20
363.2466999955386
 10
587.9835219887873
 20
364.446543263112
 10
587.1822426339852
 20
365.6144043705335
 10
586.040957972217
 20
366.7325797338664
 10
584.5769687155934
 20
367.7841189544078
 10
582.8124674489366
 20
368.7530817694545
 10
580.7742022128151
 20
369.6247796904367
 10
578.493071030516
 20
370.3859986654322
 10
576.0036535255053
 20
371.0251993907238
 10
573.3436867295867
 20
371.5326922348816
 10
570.5534930279655
 20
371.9007841236979
 10
567.6753689129911
 20
372.1238951593504
 10
564.752943812449
 20
372.1986432059654
  0
LWPOLYLINE
  5
8D0
330
A
100
AcDbEntity
  8
0
  6
PHANTOM
 62
     7
100
AcDbPolyline
 90
       15
 70
   128
 43
0.0
 10
564.752943812449
 20
371.1493390038639
 10
561.854417390778
 20
371.0752022234065
 10
558.9998296750643
 20
370.8539157200552
 10
556.2324533052717
 20
370.4888339716337
 10
553.5942388862581
 20
369.9854912453043
 10
551.125179059368
 20
369.3515177037188
 10
548.8627022547563
 20
368.5965237395305
 10
546.8411053145389
 20
367.7319542916382
 10
545.0910335876268
 20
366.7709153515783
 10
543.6390163774756
 20
365.7279752900528
 10
542.5070647848858
 20
364.6189440152801
 10
541.7123380421536
 20
363.4606333109015
 10
541.2668833965987
 20
362.2706019864783
 10
541.1774534865763
 20
361.0668897038377
 10
541.248157033526
 20
360.553747739415
  0
LWPOLYLINE
  5
8E1
330
A
100
AcDbEntity
  8
0
  6
PHANTOM
 62
     7
100
AcDbPolyline
 90
       15
 70
   128
 43
0.0
 10
588.2577305913728
 20
360.5537477394147
 10
588.3284341383223
 20
361.0668897038379
 10
588.2390042283
 20
362.2706019864784
 10
587.793549582745
 20
363.4606333109017
 10
586.9988228400126
 20
364.6189440152803
 10
585.8668712474228
 20
365.7279752900529
 10
584.4148540372714
 20
366.7709153515783
 10
582.6647823103594
 20
367.7319542916383
 10
580.6431853701418
 20
368.5965237395306
 10
578.38070856553
 20
369.3515177037188
 10
575.91164873864
 20
369.9854912453044
 10
573.2734343196264
 20
370.4888339716338
 10
570.5060579498336
 20
370.8539157200553
 10
567.65147023412
 20
371.0752022234065
 10
564.752943812449
 20
371.1493390038639
  0
LWPOLYLINE
  5
8F2
330
A
100
AcDbEntity
  8
0
  6
PHANTOM
 62
     7
100
AcDbPolyline
 90
       15
 70
   128
 43
0.0
 10
564.7529438124491
 20
369.9949710907315
 10
561.9200419330212
 20
369.9210598665947
 10
559.1318166085253
 20
369.7004918183414
 10
556.4322398179341
 20
369.3367454358536
 10
553.8638854998838
 20
368.8355572168746
 10
551.4672581362309
 20
368.2048311990131
 10
549.2801539721759
 20
367.4545143083481
 10
547.3370649468987
 20
366.5964394904631
 10
545.6686347350729
 20
365.6441390978252
 10
544.301175477811
 20
364.6126314765029
 10
543.2562528244806
 20
363.5181841178773
 10
542.5503458295312
 20
362.378057110585
 10
542.1945870679614
 20
361.2102309386099
 10
542.1945870679616
 20
360.0331229183096
 10
542.4712515119601
 20
359.0469385370545
  0
LWPOLYLINE
  5
903
330
A
100
AcDbEntity
  8
0
  6
PHANTOM
 62
     7
100
AcDbPolyline
 90
       15
 70
   128
 43
0.0
 10
586.9601797807472
 20
358.8754094198271
 10
587.3113005569372
 20
360.0331229183098
 10
587.3113005569371
 20
361.21023093861
 10
586.9555417953673
 20
362.3780571105851
 10
586.2496348004178
 20
363.5181841178773
 10
585.2047121470873
 20
364.6126314765029
 10
583.8372528898253
 20
365.6441390978253
 10
582.1688226779995
 20
366.5964394904632
 10
580.2257336527222
 20
367.4545143083482
 10
578.038629488667
 20
368.2048311990131
 10
575.6420021250143
 20
368.8355572168747
 10
573.073647806964
 20
369.3367454358536
 10
570.3740710163725
 20
369.7004918183414
 10
567.5858456918767
 20
369.9210598665948
 10
564.7529438124491
 20
369.9949710907315
  0
LWPOLYLINE
  5
914
330
A
100
AcDbEntity
  8
0
  6
PHANTOM
 62
     7
100
AcDbPolyline
 90
       12
 70
   128
 43
0.0
 10
568.8529171413441
 20
82.28475916660595
 10
568.7281035774804
 20
81.5852497855675
 10
568.2664004365019
 20
80.80095683813766
 10
567.5030122534108
 20
80.14496936604597
 10
566.5034878084559
 20
79.67361412363135
 10
565.3536518624171
 20
79.42736430904992
 10
564.1522357624893
 20
79.4273643090499
 10
563.0023998164505
 20
79.67361412363136
 10
562.0028753714956
 20
80.14496936604599
 10
561.2394871884045
 20
80.8009568381377
 10
560.7777840474259
 20
81.58524978556753
 10
560.6529716265018
 20
82.28453745788245
  0
LWPOLYLINE
  5
922
330
A
100
AcDbEntity
  8
0
  6
PHANTOM
 62
     7
100
AcDbPolyline
 90
       17
 70
   128
 43
0.0
 10
564.7529438124531
 20
85.19435408148263
 10
563.9493086044865
 20
85.08132095411106
 10
563.2680195719615
 20
84.75942984099088
 10
562.8127967941794
 20
84.27768574614438
 10
562.6529438124532
 20
83.70942984099087
 10
562.8127967941794
 20
83.14117393583735
 10
563.2680195719615
 20
82.65942984099087
 10
563.9493086044865
 20
82.33753872787067
 10
564.7529438124531
 20
82.22450560049912
 10
565.5565790204199
 20
82.33753872787067
 10
566.2378680529449
 20
82.65942984099089
 10
566.693090830727
 20
83.14117393583737
 10
566.8529438124531
 20
83.70942984099089
 10
566.693090830727
 20
84.27768574614439
 10
566.2378680529449
 20
84.7594298409909
 10
565.5565790204199
 20
85.08132095411108
 10
564.7529438124531
 20
85.19435408148263
  0
LINE
  5
935
330
A
100
AcDbEntity
  8
0
  6
PHANTOM
 62
     7
100
AcDbLine
 10
568.8529438124531
 20
77.34546881031199
 30
0.0
 11
568.7529438124532
 21
77.34546881031199
 31
0.0
  0
LINE
  5
936
330
A
100
AcDbEntity
  8
0
  6
PHANTOM
 62
     7
100
AcDbLine
 10
560.7529438124531
 20
77.34546881031199
 30
0.0
 11
560.6529438124531
 21
77.34546881031199
 31
0.0
  0
LWPOLYLINE
  5
937
330
A
100
AcDbEntity
  8
0
  6
PHANTOM
 62
     7
100
AcDbPolyline
 90
        4
 70
   128
 43
0.0
 10
561.252943812453
 20
303.7909910326487
 10
561.5541455234737
 20
303.8086207709381
 10
563.4814349328211
 20
303.9013195524757
 10
564.152943812453
 20
303.9056382865555
  0
LWPOLYLINE
  5
93D
330
A
100
AcDbEntity
  8
0
  6
PHANTOM
 62
     7
100
AcDbPolyline
 90
        4
 70
   128
 43
0.0
 10
565.3529438124531
 20
303.9133559520294
 10
565.5075201317491
 20
303.9143500922981
 10
567.1765097595412
 20
303.8521557893525
 10
568.2529438124531
 20
303.7909910326487
  0
LWPOLYLINE
  5
943
330
A
100
AcDbEntity
  8
0
  6
PHANTOM
 62
     7
100
AcDbPolyline
 90
        9
 70
   128
 43
0.0
 10
563.252943812453
 20
356.6237527470426
 10
563.5729167922632
 20
356.4346640076804
 10
563.9394197119825
 20
356.2940094301631
 10
564.3380009035222
 20
356.2073352002371
 10
564.7529438124531
 20
356.1780589910922
 10
565.1678867213839
 20
356.2073352002371
 10
565.5664679129237
 20
356.2940094301631
 10
565.9329708326429
 20
356.4346640076804
 10
566.252943812453
 20
356.6237527470426
  0
LWPOLYLINE
  5
94E
330
A
100
AcDbEntity
  8
0
  6
PHANTOM
 62
     7
100
AcDbPolyline
 90
        9
 70
   128
 43
0.0
 10
568.2529438124531
 20
354.7388027821568
 10
567.59892614409
 20
354.1618599241559
 10
566.7597816027758
 20
353.7206674082913
 10
565.7900952796266
 20
353.4439241445749
 10
564.7529438124531
 20
353.349631866346
 10
563.7157923452796
 20
353.4439241445749
 10
562.7461060221303
 20
353.7206674082914
 10
561.9069614808162
 20
354.1618599241559
 10
561.252943812453
 20
354.7388027821567
  0
LWPOLYLINE
  5
959
330
A
100
AcDbEntity
  8
0
  6
PHANTOM
 62
     7
100
AcDbPolyline
 90
        9
 70
   128
 43
0.0
 10
566.252943812453
 20
358.7022137161253
 10
565.9329708326428
 20
358.8913024554875
 10
565.5664679129237
 20
359.0319570330049
 10
565.1678867213839
 20
359.1186312629309
 10
564.7529438124531
 20
359.1479074720758
 10
564.3380009035221
 20
359.1186312629309
 10
563.9394197119823
 20
359.031957033005
 10
563.5729167922632
 20
358.8913024554876
 10
563.252943812453
 20
358.7022137161254
  0
LINE
  5
964
330
A
100
AcDbEntity
  8
0
  6
PHANTOM
 62
     7
100
AcDbLine
 10
566.252943812453
 20
356.6237527470426
 30
0.0
 11
566.252943812453
 21
358.7022137161253
 31
0.0
  0
LINE
  5
965
330
A
100
AcDbEntity
  8
0
  6
PHANTOM
 62
     7
100
AcDbLine
 10
563.252943812453
 20
358.7022137161254
 30
0.0
 11
563.252943812453
 21
356.6237527470426
 31
0.0
  0
LWPOLYLINE
  5
966
330
A
100
AcDbEntity
  8
0
  6
PHANTOM
 62
     7
100
AcDbPolyline
 90
       10
 70
   128
 43
0.0
 10
561.2529438124528
 20
333.6617755770661
 10
561.5033425160877
 20
333.2661124104171
 10
562.4612340688014
 20
332.1772953823088
 10
563.8097724521188
 20
331.3617807101738
 10
564.6990453735877
 20
331.2000135368609
 10
565.6883736701358
 20
331.3591199927259
 10
565.9063336595193
 20
331.4425463043458
 10
566.9769142165023
 20
332.1186065061219
 10
567.9398712699711
 20
333.1766318205515
 10
568.2529438124528
 20
333.6617755770662
  0
LWPOLYLINE
  5
972
330
A
100
AcDbEntity
  8
0
  6
PHANTOM
 62
     7
100
AcDbPolyline
 90
       10
 70
   128
 43
0.0
 10
568.2529438124528
 20
322.9743280476187
 10
567.9398712699712
 20
323.4594718041333
 10
566.9769142165024
 20
324.517497118563
 10
565.9063336595194
 20
325.1935573203391
 10
564.7880991656972
 20
325.4363938175202
 10
564.6990453735878
 20
325.436090087824
 10
563.8097724521189
 20
325.2743229145111
 10
562.4612340688015
 20
324.4588082423763
 10
561.5033425160878
 20
323.3699912142679
 10
561.2529438124528
 20
322.9743280476188
  0
LWPOLYLINE
  5
97E
330
A
100
AcDbEntity
  8
0
  6
PHANTOM
 62
     7
100
AcDbPolyline
 90
        6
 70
   128
 43
0.0
 10
568.2529438124528
 20
330.5331609205254
 10
568.0617778282337
 20
330.4182760973879
 10
566.4689628532101
 20
329.7388972435947
 10
564.6727534521901
 20
329.4981044603154
 10
563.349688861712
 20
329.6585455922556
 10
561.2529438124528
 20
330.5331609205253
  0
LWPOLYLINE
  5
986
330
A
100
AcDbEntity
  8
0
  6
PHANTOM
 62
     7
100
AcDbPolyline
 90
        7
 70
   128
 43
0.0
 10
561.2529438124528
 20
326.1029427041596
 10
561.3433268767765
 20
326.1582528580643
 10
563.3496888617123
 20
326.9775580324294
 10
564.6727534521902
 20
327.1379991643696
 10
566.4689628532102
 20
326.8972063810901
 10
568.0617778282339
 20
326.2178275272969
 10
568.2529438124528
 20
326.1029427041596
  0
ENDSEC
  0
SECTION
  2
OBJECTS
  0
DICTIONARY
  5
19
330
0
100
AcDbDictionary
281
     1
  3
ACAD_COLOR
350
993
  3
ACAD_GROUP
350
1A
  3
ACAD_LAYOUT
350
994
  3
ACAD_MATERIAL
350
992
  3
ACAD_MLINESTYLE
350
1B
  3
ACAD_PLOTSETTINGS
350
995
  3
ACAD_PLOTSTYLENAME
350
990
  3
ACDBHEADERROUNDTRIPXREC
350
9AD
  3
AcDbVariableDictionary
350
9A6
  3
ASE_INDEX_DICTIONARY
350
99B
  0
DICTIONARY
  5
993
102
{ACAD_REACTORS
330
19
102
}
330
19
100
AcDbDictionary
281
     1
  0
DICTIONARY
  5
1A
102
{ACAD_REACTORS
330
19
102
}
330
19
100
AcDbDictionary
281
     1
  0
DICTIONARY
  5
994
102
{ACAD_REACTORS
330
19
102
}
330
19
100
AcDbDictionary
281
     1
  3
Layout1
350
997
  3
Model
350
996
  0
DICTIONARY
  5
992
102
{ACAD_REACTORS
330
19
102
}
330
19
100
AcDbDictionary
281
     1
  0
DICTIONARY
  5
1B
102
{ACAD_REACTORS
330
19
102
}
330
19
100
AcDbDictionary
281
     1
  3
STANDARD
350
1C
  0
DICTIONARY
  5
995
102
{ACAD_REACTORS
330
19
102
}
330
19
100
AcDbDictionary
281
     1
  0
ACDBDICTIONARYWDFLT
  5
990
102
{ACAD_REACTORS
330
19
102
}
330
19
100
AcDbDictionary
281
     1
  3
Normal
350
991
100
AcDbDictionaryWithDefault
340
991
  0
DICTIONARY
  5
9AD
102
{ACAD_REACTORS
330
19
102
}
330
19
100
AcDbDictionary
281
     1
  3
COLORDICT
350
9AF
  3
MATERIALDICT
350
9AE
  0
DICTIONARY
  5
9A6
102
{ACAD_REACTORS
330
19
102
}
330
19
100
AcDbDictionary
281
     1
  3
DIMASSOC
350
9A7
  3
PROJECTNAME
350
9A8
  0
DICTIONARY
  5
99B
102
{ACAD_REACTORS
330
19
102
}
330
19
100
AcDbDictionary
281
     1
  3
ASEBlockHierarchyIndexRecord
350
99D
1001
DCO15
1040
1552229334.406
  0
LAYOUT
  5
997
102
{ACAD_XDICTIONARY
360
9B2
102
}
102
{ACAD_REACTORS
330
994
102
}
330
994
100
AcDbPlotSettings
  1

  2
ProgeSOFT PDF Wizard
  4

  6

 40
0.0
 41
0.0
 42
0.0
 43
0.0
 44
0.0
 45
0.0
 46
0.0
 47
0.0
 48
0.0
 49
0.0
140
0.0
141
0.0
142
1.0
143
1.0
 70
   688
 72
     0
 73
     0
 74
     5
  7

 75
    16
147
1.0
148
0.0
149
0.0
100
AcDbLayout
  1
Layout1
 70
     1
 71
     1
 10
0.0
 20
0.0
 11
12.0
 21
9.0
 12
0.0
 22
0.0
 32
0.0
 14
1.000000000000000E+20
 24
1.000000000000000E+20
 34
1.000000000000000E+20
 15
-1.000000000000000E+20
 25
-1.000000000000000E+20
 35
-1.000000000000000E+20
146
0.0
 13
0.0
 23
0.0
 33
0.0
 16
1.0
 26
0.0
 36
0.0
 17
0.0
 27
1.0
 37
0.0
 76
     0
330
B
  0
LAYOUT
  5
996
102
{ACAD_XDICTIONARY
360
9B0
102
}
102
{ACAD_REACTORS
330
994
102
}
330
994
100
AcDbPlotSettings
  1

  2
ProgeSOFT PDF Wizard
  4

  6

 40
0.0
 41
0.0
 42
0.0
 43
0.0
 44
0.0
 45
0.0
 46
0.0
 47
0.0
 48
0.0
 49
0.0
140
0.0
141
0.0
142
1.0
143
1.0
 70
  1712
 72
     0
 73
     0
 74
     0
  7

 75
     0
147
1.0
148
0.0
149
0.0
100
AcDbLayout
  1
Model
 70
     1
 71
     0
 10
0.0
 20
0.0
 11
12.0
 21
9.0
 12
0.0
 22
0.0
 32
0.0
 14
0.0
 24
0.0
 34
0.0
 15
0.0
 25
0.0
 35
0.0
146
0.0
 13
0.0
 23
0.0
 33
0.0
 16
1.0
 26
0.0
 36
0.0
 17
0.0
 27
1.0
 37
0.0
 76
     0
330
A
  0
MLINESTYLE
  5
1C
102
{ACAD_REACTORS
330
1B
102
}
330
1B
100
AcDbMlineStyle
  2
STANDARD
 70
     0
  3

 62
     0
 51
90.0
 52
90.0
 71
     2
 49
0.5
 62
   256
  6
BYLAYER
 49
-0.5
 62
   256
  6
BYLAYER
  0
ACDBPLACEHOLDER
  5
991
102
{ACAD_REACTORS
330
990
102
}
330
990
  0
XRECORD
  5
9AF
102
{ACAD_REACTORS
330
9AD
102
}
330
9AD
100
AcDbXrecord
280
     1
340
993
  0
XRECORD
  5
9AE
102
{ACAD_REACTORS
330
9AD
102
}
330
9AD
100
AcDbXrecord
280
     1
340
992
  0
DICTIONARYVAR
  5
9A7
102
{ACAD_REACTORS
330
9A6
102
}
330
9A6
100
DictionaryVariables
280
     0
  1
1
  0
DICTIONARYVAR
  5
9A8
102
{ACAD_REACTORS
330
9A6
102
}
330
9A6
100
DictionaryVariables
280
     0
  1

  0
XRECORD
  5
99D
102
{ACAD_REACTORS
330
99B
102
}
330
99B
100
AcDbXrecord
280
     1
  0
DICTIONARY
  5
9B2
330
997
100
AcDbDictionary
280
     1
281
     1
  3
ACAD_XREC_ROUNDTRIP
360
9B3
  0
DICTIONARY
  5
9B0
330
996
100
AcDbDictionary
280
     1
281
     1
  3
ACAD_XREC_ROUNDTRIP
360
9B1
  0
XRECORD
  5
9B3
102
{ACAD_REACTORS
330
9B2
102
}
330
9B2
100
AcDbXrecord
280
     1
102
SHADEPLOT
 70
     0
102
SHADEPLOTRESLEVEL
 70
     2
102
SHADEPLOTCUSTOMDPI
 70
   300
  0
XRECORD
  5
9B1
102
{ACAD_REACTORS
330
9B0
102
}
330
9B0
100
AcDbXrecord
280
     1
102
SHADEPLOT
 70
     0
102
SHADEPLOTRESLEVEL
 70
     2
102
SHADEPLOTCUSTOMDPI
 70
   300
  0
ENDSEC
  0
EOF
