  0
SECTION
  2
HEADER
  9
$ACADVER
  1
AC1015
  9
$ACADMAINTVER
 70
    20
  9
$DWGCODEPAGE
  3
ANSI_1252
  9
$INSBASE
 10
0.0
 20
0.0
 30
0.0
  9
$EXTMIN
 10
-176.7968749717255
 20
-364.2343810513811
 30
0.0
  9
$EXTMAX
 10
997.3491740758481
 20
519.3733330516051
 30
0.0
  9
$LIMMIN
 10
0.0
 20
0.0
  9
$LIMMAX
 10
0.0
 20
0.0
  9
$ORTHOMODE
 70
     0
  9
$REGENMODE
 70
     1
  9
$FILLMODE
 70
     1
  9
$QTEXTMODE
 70
     0
  9
$MIRRTEXT
 70
     1
  9
$LTSCALE
 40
1.0
  9
$ATTMODE
 70
     1
  9
$TEXTSIZE
 40
0.0
  9
$TRACEWID
 40
0.05
  9
$TEXTSTYLE
  7
STANDARD
  9
$CLAYER
  8
0
  9
$CELTYPE
  6
CONTINUOUS
  9
$CECOLOR
 62
   256
  9
$CELTSCALE
 40
1.0
  9
$DISPSILH
 70
     0
  9
$DIMSCALE
 40
1.0
  9
$DIMASZ
 40
6.0
  9
$DIMEXO
 40
1.0
  9
$DIMDLI
 40
0.38
  9
$DIMRND
 40
0.0
  9
$DIMDLE
 40
1.0
  9
$DIMEXE
 40
0.18
  9
$DIMTP
 40
0.0
  9
$DIMTM
 40
0.0
  9
$DIMTXT
 40
3.5
  9
$DIMCEN
 40
0.09
  9
$DIMTSZ
 40
0.0
  9
$DIMTOL
 70
     0
  9
$DIMLIM
 70
     0
  9
$DIMTIH
 70
     1
  9
$DIMTOH
 70
     1
  9
$DIMSE1
 70
     0
  9
$DIMSE2
 70
     0
  9
$DIMTAD
 70
     1
  9
$DIMZIN
 70
     0
  9
$DIMBLK
  1

  9
$DIMASO
 70
     1
  9
$DIMSHO
 70
     1
  9
$DIMPOST
  1

  9
$DIMAPOST
  1

  9
$DIMALT
 70
     0
  9
$DIMALTD
 70
     2
  9
$DIMALTF
 40
0.0394
  9
$DIMLFAC
 40
5.0
  9
$DIMTOFL
 70
     0
  9
$DIMTVP
 40
0.0
  9
$DIMTIX
 70
     0
  9
$DIMSOXD
 70
     0
  9
$DIMSAH
 70
     0
  9
$DIMBLK1
  1

  9
$DIMBLK2
  1

  9
$DIMSTYLE
  2
STANDARD
  9
$DIMCLRD
 70
     0
  9
$DIMCLRE
 70
     0
  9
$DIMCLRT
 70
     0
  9
$DIMTFAC
 40
1.0
  9
$DIMGAP
 40
1.0
  9
$DIMJUST
 70
     0
  9
$DIMSD1
 70
     0
  9
$DIMSD2
 70
     0
  9
$DIMTOLJ
 70
     1
  9
$DIMTZIN
 70
     0
  9
$DIMALTZ
 70
     0
  9
$DIMALTTZ
 70
     0
  9
$DIMUPT
 70
     0
  9
$DIMDEC
 70
     4
  9
$DIMTDEC
 70
     4
  9
$DIMALTU
 70
     2
  9
$DIMALTTD
 70
     2
  9
$DIMTXSTY
  7
STANDARD
  9
$DIMAUNIT
 70
     0
  9
$DIMADEC
 70
     0
  9
$DIMALTRND
 40
0.0
  9
$DIMAZIN
 70
     0
  9
$DIMDSEP
 70
    46
  9
$DIMATFIT
 70
     3
  9
$DIMFRAC
 70
     0
  9
$DIMLDRBLK
  1

  9
$DIMLUNIT
 70
     2
  9
$DIMLWD
 70
    -2
  9
$DIMLWE
 70
    -2
  9
$DIMTMOVE
 70
     0
  9
$LUNITS
 70
     2
  9
$LUPREC
 70
     2
  9
$SKETCHINC
 40
0.1
  9
$FILLETRAD
 40
0.0
  9
$AUNITS
 70
     0
  9
$AUPREC
 70
     2
  9
$MENU
  1
acad
  9
$ELEVATION
 40
0.0
  9
$PELEVATION
 40
0.0
  9
$THICKNESS
 40
0.0
  9
$LIMCHECK
 70
     0
  9
$CHAMFERA
 40
0.0
  9
$CHAMFERB
 40
0.0
  9
$CHAMFERC
 40
0.0
  9
$CHAMFERD
 40
0.0
  9
$SKPOLY
 70
     0
  9
$TDCREATE
 40
2444972.041666667
  9
$TDUCREATE
 40
2444972.000000000
  9
$TDUPDATE
 40
2453768.828633172
  9
$TDUUPDATE
 40
2453768.786966505
  9
$TDINDWG
 40
0.0028354630
  9
$TDUSRTIMER
 40
0.0028354630
  9
$USRTIMER
 70
     1
  9
$ANGBASE
 50
0.0
  9
$ANGDIR
 70
     0
  9
$PDMODE
 70
     0
  9
$PDSIZE
 40
-1.0
  9
$PLINEWID
 40
0.0
  9
$SPLFRAME
 70
     0
  9
$SPLINETYPE
 70
     6
  9
$SPLINESEGS
 70
     8
  9
$HANDSEED
  5
A9E
  9
$SURFTAB1
 70
     6
  9
$SURFTAB2
 70
     6
  9
$SURFTYPE
 70
     6
  9
$SURFU
 70
     6
  9
$SURFV
 70
     6
  9
$UCSBASE
  2

  9
$UCSNAME
  2

  9
$UCSORG
 10
0.0
 20
0.0
 30
0.0
  9
$UCSXDIR
 10
1.0
 20
0.0
 30
0.0
  9
$UCSYDIR
 10
0.0
 20
1.0
 30
0.0
  9
$UCSORTHOREF
  2

  9
$UCSORTHOVIEW
 70
     1
  9
$UCSORGTOP
 10
0.0
 20
0.0
 30
0.0
  9
$UCSORGBOTTOM
 10
0.0
 20
0.0
 30
0.0
  9
$UCSORGLEFT
 10
0.0
 20
0.0
 30
0.0
  9
$UCSORGRIGHT
 10
0.0
 20
0.0
 30
0.0
  9
$UCSORGFRONT
 10
0.0
 20
0.0
 30
0.0
  9
$UCSORGBACK
 10
0.0
 20
0.0
 30
0.0
  9
$PUCSBASE
  2

  9
$PUCSNAME
  2

  9
$PUCSORG
 10
0.0
 20
0.0
 30
0.0
  9
$PUCSXDIR
 10
1.0
 20
0.0
 30
0.0
  9
$PUCSYDIR
 10
0.0
 20
1.0
 30
0.0
  9
$PUCSORTHOREF
  2

  9
$PUCSORTHOVIEW
 70
     0
  9
$PUCSORGTOP
 10
0.0
 20
0.0
 30
0.0
  9
$PUCSORGBOTTOM
 10
0.0
 20
0.0
 30
0.0
  9
$PUCSORGLEFT
 10
0.0
 20
0.0
 30
0.0
  9
$PUCSORGRIGHT
 10
0.0
 20
0.0
 30
0.0
  9
$PUCSORGFRONT
 10
0.0
 20
0.0
 30
0.0
  9
$PUCSORGBACK
 10
0.0
 20
0.0
 30
0.0
  9
$USERI1
 70
     0
  9
$USERI2
 70
     0
  9
$USERI3
 70
     0
  9
$USERI4
 70
     0
  9
$USERI5
 70
     0
  9
$USERR1
 40
0.0
  9
$USERR2
 40
0.0
  9
$USERR3
 40
0.0
  9
$USERR4
 40
0.0
  9
$USERR5
 40
0.0
  9
$WORLDVIEW
 70
     1
  9
$SHADEDGE
 70
     3
  9
$SHADEDIF
 70
    70
  9
$TILEMODE
 70
     1
  9
$MAXACTVP
 70
    16
  9
$PINSBASE
 10
0.0
 20
0.0
 30
0.0
  9
$PLIMCHECK
 70
     0
  9
$PEXTMIN
 10
1.000000000000000E+20
 20
1.000000000000000E+20
 30
1.000000000000000E+20
  9
$PEXTMAX
 10
-1.000000000000000E+20
 20
-1.000000000000000E+20
 30
-1.000000000000000E+20
  9
$PLIMMIN
 10
0.0
 20
0.0
  9
$PLIMMAX
 10
12.0
 20
9.0
  9
$UNITMODE
 70
     0
  9
$VISRETAIN
 70
     0
  9
$PLINEGEN
 70
     1
  9
$PSLTSCALE
 70
     1
  9
$TREEDEPTH
 70
  3020
  9
$CMLSTYLE
  2
STANDARD
  9
$CMLJUST
 70
     0
  9
$CMLSCALE
 40
1.0
  9
$PROXYGRAPHICS
 70
     0
  9
$MEASUREMENT
 70
     0
  9
$CELWEIGHT
370
    -1
  9
$ENDCAPS
280
     0
  9
$JOINSTYLE
280
     0
  9
$LWDISPLAY
290
     0
  9
$INSUNITS
 70
     0
  9
$HYPERLINKBASE
  1

  9
$STYLESHEET
  1

  9
$XEDIT
290
     1
  9
$CEPSNTYPE
380
     0
  9
$PSTYLEMODE
290
     1
  9
$FINGERPRINTGUID
  2
{AEE75CEA-5AFF-4A50-81A1-D8464BF2F721}
  9
$VERSIONGUID
  2
{B9C3B4E8-08AF-43C2-95A7-0FB53384EBB9}
  9
$EXTNAMES
290
     1
  9
$PSVPSCALE
 40
0.0
  9
$OLESTARTUP
290
     0
  0
ENDSEC
  0
SECTION
  2
CLASSES
  0
CLASS
  1
IMAGE
  2
AcDbRasterImage
  3
ISM
 90
    32895
280
     0
281
     1
  0
CLASS
  1
DICTIONARYVAR
  2
AcDbDictionaryVar
  3
ObjectDBX Classes
 90
        0
280
     0
281
     0
  0
CLASS
  1
RASTERVARIABLES
  2
AcDbRasterVariables
  3
ISM
 90
    32768
280
     0
281
     0
  0
CLASS
  1
IMAGEDEF
  2
AcDbRasterImageDef
  3
ISM
 90
    32768
280
     0
281
     0
  0
CLASS
  1
IMAGEDEF_REACTOR
  2
AcDbRasterImageDefReactor
  3
ISM
 90
    32769
280
     0
281
     0
  0
CLASS
  1
IDBUFFER
  2
AcDbIdBuffer
  3
ObjectDBX Classes
 90
    32768
280
     0
281
     0
  0
CLASS
  1
SPATIAL_FILTER
  2
AcDbSpatialFilter
  3
ObjectDBX Classes
 90
    32768
280
     0
281
     0
  0
CLASS
  1
SORTENTSTABLE
  2
AcDbSortentsTable
  3
ObjectDBX Classes
 90
    32768
280
     0
281
     0
  0
CLASS
  1
LAYER_INDEX
  2
AcDbLayerIndex
  3
ObjectDBX Classes
 90
    32768
280
     0
281
     0
  0
CLASS
  1
SPATIAL_INDEX
  2
AcDbSpatialIndex
  3
ObjectDBX Classes
 90
    32768
280
     0
281
     0
  0
CLASS
  1
OBJECT_PTR
  2
CAseDLPNTableRecord
  3
ASE-LPNTableRecord
 90
    32769
280
     0
281
     0
  0
CLASS
  1
LAYOUT
  2
AcDbLayout
  3
ObjectDBX Classes
 90
        0
280
     0
281
     0
  0
CLASS
  1
PLOTSETTINGS
  2
AcDbPlotSettings
  3
ObjectDBX Classes
 90
    32768
280
     0
281
     0
  0
CLASS
  1
ACDBDICTIONARYWDFLT
  2
AcDbDictionaryWithDefault
  3
ObjectDBX Classes
 90
        0
280
     0
281
     0
  0
CLASS
  1
ACDBPLACEHOLDER
  2
AcDbPlaceHolder
  3
ObjectDBX Classes
 90
        0
280
     0
281
     0
  0
CLASS
  1
VBA_PROJECT
  2
AcDbVbaProject
  3
acad
 90
    32768
280
     0
281
     0
  0
CLASS
  1
WIPEOUT
  2
AcDbWipeout
  3
"WipeOut|Product Desc: Object Enabler for WipeOut entity^I^I^I^I^I^I|Company: Autodesk, Inc.^I^I^I^I^I^I|WEB Address: www.autodesk.com"
 90
    32895
280
     0
281
     1
  0
CLASS
  1
WIPEOUTVARIABLES
  2
AcDbWipeoutVariables
  3
"WipeOut|Product Desc:     WipeOut Dbx Application|Company:          Autodesk, Inc.|WEB Address:      www.autodesk.com"
 90
    32768
280
     0
281
     0
  0
CLASS
  1
RTEXT
  2
RText
  3
RText|AutoCAD Express Tool|expresstools@autodesk.com
 90
    32768
280
     0
281
     1
  0
CLASS
  1
ARCALIGNEDTEXT
  2
AcDbArcAlignedText
  3
ATEXT|AutoCAD Express Tool|expresstools@autodesk.com
 90
    32768
280
     0
281
     1
  0
ENDSEC
  0
SECTION
  2
TABLES
  0
TABLE
  2
VPORT
  5
7
330
0
100
AcDbSymbolTable
 70
     2
  0
VPORT
  5
A96
330
7
100
AcDbSymbolTableRecord
100
AcDbViewportTableRecord
  2
*Active
 70
     0
 10
0.0
 20
0.0
 11
1.0
 21
1.0
 12
458.0187523342216
 22
77.54376609181264
 13
0.0
 23
0.0
 14
1.0
 24
1.0
 15
0.0
 25
0.0
 16
0.0
 26
0.0
 36
1.0
 17
0.0
 27
0.0
 37
0.0
 40
891.2439673177473
 41
1.569570871261378
 42
50.0
 43
0.0
 44
0.0
 50
0.0
 51
0.0
 71
     0
 72
  2000
 73
     1
 74
     1
 75
     0
 76
     0
 77
     0
 78
     0
281
     0
 65
     1
110
0.0
120
0.0
130
0.0
111
1.0
121
0.0
131
0.0
112
0.0
122
1.0
132
0.0
 79
     1
146
0.0
  0
ENDTAB
  0
TABLE
  2
LTYPE
  5
4
330
0
100
AcDbSymbolTable
 70
     6
  0
LTYPE
  5
11
330
4
100
AcDbSymbolTableRecord
100
AcDbLinetypeTableRecord
  2
BYBLOCK
 70
     0
  3

 72
    65
 73
     0
 40
0.0
  0
LTYPE
  5
12
330
4
100
AcDbSymbolTableRecord
100
AcDbLinetypeTableRecord
  2
BYLAYER
 70
     0
  3

 72
    65
 73
     0
 40
0.0
  0
LTYPE
  5
13
330
4
100
AcDbSymbolTableRecord
100
AcDbLinetypeTableRecord
  2
CONTINUOUS
 70
     0
  3
Solid line
 72
    65
 73
     0
 40
0.0
  0
LTYPE
  5
1E
330
4
100
AcDbSymbolTableRecord
100
AcDbLinetypeTableRecord
  2
HIDDEN
 70
     0
  3
Hidden __ __ __ __ __ __ __ __ __ __ __ __ __ __
 72
    65
 73
     2
 40
1.905
 49
1.27
 74
     0
 49
-0.635
 74
     0
  0
LTYPE
  5
1F
330
4
100
AcDbSymbolTableRecord
100
AcDbLinetypeTableRecord
  2
PHANTOM
 70
     0
  3
Phantom ______  __  __  ______  __  __  ______
 72
    65
 73
     6
 40
12.7
 49
6.349999999999999
 74
     0
 49
-1.27
 74
     0
 49
1.27
 74
     0
 49
-1.27
 74
     0
 49
1.27
 74
     0
 49
-1.27
 74
     0
  0
LTYPE
  5
20
330
4
100
AcDbSymbolTableRecord
100
AcDbLinetypeTableRecord
  2
CENTER
 70
     0
  3
Center ____ _ ____ _ ____ _ ____ _ ____ _ ____
 72
    65
 73
     4
 40
10.16
 49
6.349999999999999
 74
     0
 49
-1.27
 74
     0
 49
1.27
 74
     0
 49
-1.27
 74
     0
  0
LTYPE
  5
21
330
4
100
AcDbSymbolTableRecord
100
AcDbLinetypeTableRecord
  2
CENTERX2
 70
     0
  3
Center (2x) ________  __  ________  __  _____
 72
    65
 73
     4
 40
20.32
 49
12.7
 74
     0
 49
-2.54
 74
     0
 49
2.54
 74
     0
 49
-2.54
 74
     0
  0
LTYPE
  5
22
330
4
100
AcDbSymbolTableRecord
100
AcDbLinetypeTableRecord
  2
DOT2
 70
     0
  3
Dot (.5x) ........................................
 72
    65
 73
     2
 40
0.635
 49
0.0
 74
     0
 49
-0.635
 74
     0
  0
ENDTAB
  0
TABLE
  2
LAYER
  5
2
330
0
100
AcDbSymbolTable
 70
     2
  0
LAYER
  5
14
330
2
100
AcDbSymbolTableRecord
100
AcDbLayerTableRecord
  2
0
 70
     0
 62
     7
  6
CONTINUOUS
370
    -3
390
A7B
  0
LAYER
  5
26
330
2
100
AcDbSymbolTableRecord
100
AcDbLayerTableRecord
  2
DEFPOINTS
 70
     0
 62
     7
  6
CONTINUOUS
290
     0
370
    -3
390
A7B
  0
ENDTAB
  0
TABLE
  2
STYLE
  5
3
330
0
100
AcDbSymbolTable
 70
     1
  0
STYLE
  5
17
330
3
100
AcDbSymbolTableRecord
100
AcDbTextStyleTableRecord
  2
STANDARD
 70
     0
 40
0.0
 41
1.0
 50
0.0
 71
     0
 42
0.0
  3
Century Gothic
  4

  0
ENDTAB
  0
TABLE
  2
VIEW
  5
5
330
0
100
AcDbSymbolTable
 70
     0
  0
ENDTAB
  0
TABLE
  2
UCS
  5
6
330
0
100
AcDbSymbolTable
 70
     0
  0
ENDTAB
  0
TABLE
  2
APPID
  5
8
330
0
100
AcDbSymbolTable
 70
     2
  0
APPID
  5
16
330
8
100
AcDbSymbolTableRecord
100
AcDbRegAppTableRecord
  2
ACAD
 70
     0
  0
APPID
  5
A86
330
8
100
AcDbSymbolTableRecord
100
AcDbRegAppTableRecord
  2
DCO15
 70
     0
  0
ENDTAB
  0
TABLE
  2
DIMSTYLE
  5
9
330
0
100
AcDbSymbolTable
 70
     1
100
AcDbDimStyleTable
 71
     0
  0
DIMSTYLE
105
18
330
9
100
AcDbSymbolTableRecord
100
AcDbDimStyleTableRecord
  2
STANDARD
 70
     0
289
     0
340
17
  0
ENDTAB
  0
TABLE
  2
BLOCK_RECORD
  5
1
330
0
100
AcDbSymbolTable
 70
     0
  0
BLOCK_RECORD
  5
A
330
1
100
AcDbSymbolTableRecord
100
AcDbBlockTableRecord
  2
*MODEL_SPACE
340
A80
  0
BLOCK_RECORD
  5
B
330
1
100
AcDbSymbolTableRecord
100
AcDbBlockTableRecord
  2
*PAPER_SPACE
340
A81
  0
ENDTAB
  0
ENDSEC
  0
SECTION
  2
BLOCKS
  0
BLOCK
  5
D
330
A
100
AcDbEntity
  8
0
100
AcDbBlockBegin
  2
*MODEL_SPACE
 70
     0
 10
0.0
 20
0.0
 30
0.0
  3
*MODEL_SPACE
  1

  0
ENDBLK
  5
E
330
A
100
AcDbEntity
  8
0
100
AcDbBlockEnd
  0
BLOCK
  5
F
330
B
100
AcDbEntity
 67
     1
  8
0
100
AcDbBlockBegin
  2
*PAPER_SPACE
 70
     0
 10
0.0
 20
0.0
 30
0.0
  3
*PAPER_SPACE
  1

  0
ENDBLK
  5
10
330
B
100
AcDbEntity
 67
     1
  8
0
100
AcDbBlockEnd
  0
ENDSEC
  0
SECTION
  2
ENTITIES
  0
LINE
  5
27
330
A
100
AcDbEntity
  8
0
  6
Continuous
 62
     7
100
AcDbLine
 10
-174.7968749717255
 20
-49.28194818765755
 30
0.0
 11
-165.7968749717255
 21
-49.28194818765755
 31
0.0
  0
LINE
  5
28
330
A
100
AcDbEntity
  8
0
  6
Continuous
 62
     7
100
AcDbLine
 10
-165.7968749717255
 20
30.71805181234247
 30
0.0
 11
-174.7968749717255
 21
30.71805181234247
 31
0.0
  0
ARC
  5
29
330
A
100
AcDbEntity
  8
0
  6
Continuous
 62
     7
100
AcDbCircle
 10
-165.7968749717255
 20
-42.28194818765754
 30
0.0
 40
7.000000000000007
100
AcDbArc
 50
270.0000000000003
 51
0.0
  0
ARC
  5
2A
330
A
100
AcDbEntity
  8
0
  6
Continuous
 62
     7
100
AcDbCircle
 10
-165.7968749717255
 20
23.71805181234246
 30
0.0
 40
7.000000000000003
100
AcDbArc
 50
360.0000000000008
 51
90.00000000000047
  0
LINE
  5
2B
330
A
100
AcDbEntity
  8
0
  6
Continuous
 62
     7
100
AcDbLine
 10
-176.7968749717255
 20
-47.78194818765754
 30
0.0
 11
-174.7968749717255
 21
-47.78194818765754
 31
0.0
  0
LINE
  5
2C
330
A
100
AcDbEntity
  8
0
  6
Continuous
 62
     7
100
AcDbLine
 10
-174.7968749717255
 20
29.21805181234247
 30
0.0
 11
-176.7968749717255
 21
29.21805181234247
 31
0.0
  0
ARC
  5
2D
330
A
100
AcDbEntity
  8
0
  6
Continuous
 62
     7
100
AcDbCircle
 10
-96.79687497172555
 20
-19.28194818765755
 30
0.0
 40
10.00000000000001
100
AcDbArc
 50
180.0000000000004
 51
0.0
  0
LINE
  5
2E
330
A
100
AcDbEntity
  8
0
  6
Continuous
 62
     7
100
AcDbLine
 10
-106.7968749717255
 20
-16.28194818765755
 30
0.0
 11
-106.7968749717255
 21
-19.28194818765755
 31
0.0
  0
LINE
  5
2F
330
A
100
AcDbEntity
  8
0
  6
Continuous
 62
     7
100
AcDbLine
 10
-106.7968749717255
 20
30.71805181234247
 30
0.0
 11
-106.7968749717255
 21
13.21805181234245
 31
0.0
  0
LINE
  5
30
330
A
100
AcDbEntity
  8
0
  6
Continuous
 62
     7
100
AcDbLine
 10
-86.79687497172553
 20
-19.28194818765755
 30
0.0
 11
-86.79687497172553
 21
30.71805181234247
 31
0.0
  0
ARC
  5
31
330
A
100
AcDbEntity
  8
0
  6
Continuous
 62
     7
100
AcDbCircle
 10
395.2940574261781
 20
398.6063195793586
 30
0.0
 40
2.499999999999861
100
AcDbArc
 50
114.4999999999975
 51
294.4999999999998
  0
ARC
  5
32
330
A
100
AcDbEntity
  8
0
  6
Continuous
 62
     7
100
AcDbCircle
 10
526.3284804324008
 20
458.3221465218567
 30
0.0
 40
2.499999999999856
100
AcDbArc
 50
294.5000000000013
 51
114.5000000000004
  0
LINE
  5
33
330
A
100
AcDbEntity
  8
0
  6
Continuous
 62
     7
100
AcDbLine
 10
524.2687145171593
 20
460.1308267878973
 30
0.0
 11
457.0728845023146
 21
519.1354791169556
 31
0.0
  0
LINE
  5
34
330
A
100
AcDbEntity
  8
0
  6
Continuous
 62
     7
100
AcDbLine
 10
395.1369146725724
 20
430.0471028569893
 30
0.0
 11
395.2803571281386
 21
401.3474456677006
 31
0.0
  0
LINE
  5
35
330
A
100
AcDbEntity
  8
0
  6
Continuous
 62
     7
100
AcDbLine
 10
394.8334117294351
 20
490.7713172438492
 30
0.0
 11
394.8734243615154
 21
482.7656761007729
 31
0.0
  0
ARC
  5
36
330
A
100
AcDbEntity
  8
0
  6
Continuous
 62
     7
100
AcDbCircle
 10
395.5834023619043
 20
490.7750657380304
 30
0.0
 40
0.7500000000001249
100
AcDbArc
 50
114.5000000000003
 51
180.2863650550332
  0
ARC
  5
37
330
A
100
AcDbEntity
  8
0
  6
Continuous
 62
     7
100
AcDbCircle
 10
456.578017351755
 20
518.5719132350063
 30
0.0
 40
0.7500000000000983
100
AcDbArc
 50
48.71363494628894
 51
114.5000000000012
  0
LINE
  5
38
330
A
100
AcDbEntity
  8
0
  6
Continuous
 62
     7
100
AcDbLine
 10
456.2669974197628
 20
519.2543841881638
 30
0.0
 11
395.272382429912
 21
491.4575366911878
 31
0.0
  0
ARC
  5
39
330
A
100
AcDbEntity
  8
0
  6
Continuous
 62
     7
100
AcDbCircle
 10
394.1631250282745
 20
482.4680518123424
 30
0.0
 40
0.8000000000000682
100
AcDbArc
 50
27.44797028312661
 51
180.0000000000004
  0
ARC
  5
3A
330
A
100
AcDbEntity
  8
0
  6
Continuous
 62
     7
100
AcDbCircle
 10
394.1631250282745
 20
429.9680518123425
 30
0.0
 40
0.8000000000000682
100
AcDbArc
 50
180.0000000000004
 51
0.0
  0
LINE
  5
3B
330
A
100
AcDbEntity
  8
0
  6
Continuous
 62
     7
100
AcDbLine
 10
393.3631250282744
 20
482.4680518123424
 30
0.0
 11
393.3631250282744
 21
429.9680518123425
 31
0.0
  0
LINE
  5
3C
330
A
100
AcDbEntity
  8
0
  6
Continuous
 62
     7
100
AcDbLine
 10
374.1631250282744
 20
480.1680518123425
 30
0.0
 11
354.1631250282744
 21
480.1680518123425
 31
0.0
  0
LINE
  5
3D
330
A
100
AcDbEntity
  8
0
  6
Continuous
 62
     7
100
AcDbLine
 10
354.1631250282744
 20
432.2680518123426
 30
0.0
 11
374.1631250282744
 21
432.2680518123425
 31
0.0
  0
ARC
  5
3E
330
A
100
AcDbEntity
  8
0
  6
Continuous
 62
     7
100
AcDbCircle
 10
322.1631250282744
 20
467.4680518123424
 30
0.0
 40
10.0
100
AcDbArc
 50
90.0
 51
180.0000000000004
  0
ARC
  5
3F
330
A
100
AcDbEntity
  8
0
  6
Continuous
 62
     7
100
AcDbCircle
 10
322.1631250282744
 20
444.9680518123424
 30
0.0
 40
10.0
100
AcDbArc
 50
180.0000000000004
 51
270.0000000000015
  0
LINE
  5
40
330
A
100
AcDbEntity
  8
0
  6
Continuous
 62
     7
100
AcDbLine
 10
354.1631250282744
 20
477.4680518123424
 30
0.0
 11
322.1631250282744
 21
477.4680518123424
 31
0.0
  0
LINE
  5
41
330
A
100
AcDbEntity
  8
0
  6
Continuous
 62
     7
100
AcDbLine
 10
322.1631250282744
 20
434.9680518123424
 30
0.0
 11
354.1631250282744
 21
434.9680518123425
 31
0.0
  0
LINE
  5
42
330
A
100
AcDbEntity
  8
0
  6
Continuous
 62
     7
100
AcDbLine
 10
393.3631250282745
 20
477.4680518123424
 30
0.0
 11
374.1631250282745
 21
477.4680518123424
 31
0.0
  0
LINE
  5
43
330
A
100
AcDbEntity
  8
0
  6
Continuous
 62
     7
100
AcDbLine
 10
374.1631250282745
 20
434.9680518123425
 30
0.0
 11
393.3631250282745
 21
434.9680518123425
 31
0.0
  0
LINE
  5
44
330
A
100
AcDbEntity
  8
0
  6
Continuous
 62
     7
100
AcDbLine
 10
397.6962859003883
 20
396.9537084929776
 30
0.0
 11
428.0316341812271
 21
330.3873952288258
 31
0.0
  0
LINE
  5
45
330
A
100
AcDbEntity
  8
0
  6
Continuous
 62
     7
100
AcDbLine
 10
429.8515567229803
 20
331.2167817141383
 30
0.0
 11
399.5156549808864
 21
397.7828427514647
 31
0.0
  0
LINE
  5
46
330
A
100
AcDbEntity
  8
0
  6
Continuous
 62
     7
100
AcDbLine
 10
-109.3368749717255
 20
411.2180518123424
 30
0.0
 11
-109.3368749717255
 21
121.2180518123424
 31
0.0
  0
LINE
  5
47
330
A
100
AcDbEntity
  8
0
  6
Continuous
 62
     7
100
AcDbLine
 10
-89.79687497172553
 20
30.71805181234247
 30
0.0
 11
-89.79687497172553
 21
32.21805181234247
 31
0.0
  0
LINE
  5
48
330
A
100
AcDbEntity
  8
0
  6
Continuous
 62
     7
100
AcDbLine
 10
-103.7968749717255
 20
32.21805181234247
 30
0.0
 11
-103.7968749717255
 21
30.71805181234247
 31
0.0
  0
LINE
  5
49
330
A
100
AcDbEntity
  8
0
  6
Continuous
 62
     7
100
AcDbLine
 10
261.6631250282744
 20
463.2180518123425
 30
0.0
 11
-28.33687497172558
 21
463.2180518123425
 31
0.0
  0
LINE
  5
4A
330
A
100
AcDbEntity
  8
0
  6
Continuous
 62
     7
100
AcDbLine
 10
312.1631250282744
 20
462.4680518123424
 30
0.0
 11
303.1631250282744
 21
462.4680518123424
 31
0.0
  0
LINE
  5
4B
330
A
100
AcDbEntity
  8
0
  6
Continuous
 62
     7
100
AcDbLine
 10
303.1631250282744
 20
449.9680518123424
 30
0.0
 11
312.1631250282744
 21
449.9680518123424
 31
0.0
  0
ARC
  5
4C
330
A
100
AcDbEntity
  8
0
  6
Continuous
 62
     7
100
AcDbCircle
 10
-106.7968749717255
 20
68.0759161886115
 30
0.0
 40
15.54
100
AcDbArc
 50
360.0000000000008
 51
18.47801182848582
  0
ARC
  5
4D
330
A
100
AcDbEntity
  8
0
  6
Continuous
 62
     7
100
AcDbCircle
 10
430.7444200158684
 20
326.8461510158756
 30
0.0
 40
1.000000000000091
100
AcDbArc
 50
204.4999999999995
 51
24.50000000000651
  0
LINE
  5
4E
330
A
100
AcDbEntity
  8
0
  6
Continuous
 62
     7
100
AcDbLine
 10
431.654381286745
 20
327.2608442585319
 30
0.0
 11
429.8515567229803
 21
331.2167817141384
 31
0.0
  0
LINE
  5
4F
330
A
100
AcDbEntity
  8
0
  6
Continuous
 62
     7
100
AcDbLine
 10
428.0316341812271
 20
330.3873952288258
 30
0.0
 11
429.8344587449918
 21
326.4314577732193
 31
0.0
  0
LINE
  5
50
330
A
100
AcDbEntity
  8
0
  6
Continuous
 62
     7
100
AcDbLine
 10
-139.9586728953524
 20
107.5451066004222
 30
0.0
 11
-112.9418013891101
 21
80.52823509418006
 31
0.0
  0
LINE
  5
51
330
A
100
AcDbEntity
  8
0
  6
Continuous
 62
     7
100
AcDbLine
 10
-148.7975076601843
 20
116.3839413652541
 30
0.0
 11
-144.554866973065
 21
112.1413006781348
 31
0.0
  0
LINE
  5
52
330
A
100
AcDbEntity
  8
0
  6
Continuous
 62
     7
100
AcDbLine
 10
-138.3262285453743
 20
121.582148521538
 30
0.0
 11
-140.9627645246374
 21
124.2186845008012
 31
0.0
  0
LINE
  5
53
330
A
100
AcDbEntity
  8
0
  6
Continuous
 62
     7
100
AcDbLine
 10
-134.4220267986617
 20
117.6779467748254
 30
0.0
 11
-137.2133187195011
 21
120.4692386956648
 31
0.0
  0
LINE
  5
54
330
A
100
AcDbEntity
  8
0
  6
Continuous
 62
     7
100
AcDbLine
 10
-107.7242123883362
 20
90.98013236450004
 30
0.0
 11
-126.6438522056097
 21
109.8997721817735
 31
0.0
  0
ARC
  5
55
330
A
100
AcDbEntity
  8
0
  6
Continuous
 62
     7
100
AcDbCircle
 10
-147.3832940978112
 20
117.7981549276272
 30
0.0
 40
2.000000000000026
100
AcDbArc
 50
135.0000000000008
 51
225.0
  0
ARC
  5
56
330
A
100
AcDbEntity
  8
0
  6
Continuous
 62
     7
100
AcDbCircle
 10
-142.3769780870105
 20
122.804470938428
 30
0.0
 40
2.000000000000026
100
AcDbArc
 50
45.00000000000258
 51
135.0000000000008
  0
LINE
  5
57
330
A
100
AcDbEntity
  8
0
  6
Continuous
 62
     7
100
AcDbLine
 10
-91.25687497172553
 20
32.21805181234247
 30
0.0
 11
-91.25687497172553
 21
68.07591618861145
 31
0.0
  0
LINE
  5
58
330
A
100
AcDbEntity
  8
0
  6
Continuous
 62
     7
100
AcDbLine
 10
-102.3368749717255
 20
66.13805181234245
 30
0.0
 11
-102.3368749717255
 21
32.21805181234247
 31
0.0
  0
LINE
  5
59
330
A
100
AcDbEntity
  8
0
  6
Continuous
 62
     7
100
AcDbLine
 10
-107.7368749717255
 20
121.2180518123424
 30
0.0
 11
-107.7368749717255
 21
90.97496793486568
 31
0.0
  0
LINE
  5
5A
330
A
100
AcDbEntity
  8
0
  6
Continuous
 62
     7
100
AcDbLine
 10
-96.93687497172552
 20
86.89309186393913
 30
0.0
 11
-96.93687497172552
 21
121.2180518123424
 31
0.0
  0
LINE
  5
5B
330
A
100
AcDbEntity
  8
0
  6
Continuous
 62
     7
100
AcDbLine
 10
-87.33687497172551
 20
121.2180518123424
 30
0.0
 11
-87.33687497172549
 21
411.2180518123424
 31
0.0
  0
LINE
  5
5C
330
A
100
AcDbEntity
  8
0
  6
Continuous
 62
     7
100
AcDbLine
 10
-28.33687497172558
 20
441.2180518123424
 30
0.0
 11
261.6631250282744
 21
441.2180518123424
 31
0.0
  0
LINE
  5
5D
330
A
100
AcDbEntity
  8
0
  6
Continuous
 62
     7
100
AcDbLine
 10
-100.4544200302299
 20
490.972350107661
 30
0.0
 11
-106.9951577562055
 21
497.5130878336366
 31
0.0
  0
LINE
  5
5E
330
A
100
AcDbEntity
  8
0
  6
Continuous
 62
     7
100
AcDbLine
 10
-77.34587528625528
 20
467.8638053636868
 30
0.0
 11
-92.67624543717785
 21
483.1941755146089
 31
0.0
  0
ARC
  5
5F
330
A
100
AcDbEntity
  8
0
  6
Continuous
 62
     7
100
AcDbCircle
 10
-113.2176974306471
 20
491.2905481591949
 30
0.0
 40
1.999999999999985
100
AcDbArc
 50
135.0000000000003
 51
224.9999999999994
  0
ARC
  5
60
330
A
100
AcDbEntity
  8
0
  6
Continuous
 62
     7
100
AcDbCircle
 10
-108.4093713185786
 20
496.0988742712635
 30
0.0
 40
1.999999999999965
100
AcDbArc
 50
45.00000000000028
 51
135.0000000000008
  0
LINE
  5
61
330
A
100
AcDbEntity
  8
0
  6
Continuous
 62
     7
100
AcDbLine
 10
-114.6319109930202
 20
489.8763345968219
 30
0.0
 11
-110.3892703059008
 21
485.6336939097026
 31
0.0
  0
LWPOLYLINE
  5
62
330
A
100
AcDbEntity
  8
0
  6
Continuous
 62
     7
100
AcDbPolyline
 90
        8
 70
   128
 43
0.0
 10
-111.4876925010137
 20
414.0555712434696
 10
-111.4718327730467
 20
414.0501908146188
 10
-111.1667363805023
 20
413.937945386093
 10
-110.7707087310645
 20
413.7691458239165
 10
-110.2412794978879
 20
413.4993867292234
 10
-109.3296483624929
 20
412.8971946225358
 10
-108.5200282305338
 20
412.1739521260062
 10
-107.7079434939737
 20
411.1556068160405
  0
LWPOLYLINE
  5
6C
330
A
100
AcDbEntity
  8
0
  6
Continuous
 62
     7
100
AcDbPolyline
 90
       13
 70
   128
 43
0.0
 10
-104.9415988832685
 20
431.3247867442838
 10
-104.9817540028819
 20
431.2417750868705
 10
-105.6633023314118
 20
430.2749898051298
 10
-106.4249010309186
 20
429.4836881737595
 10
-107.2190275880399
 20
428.8623010162878
 10
-108.0000512127897
 20
428.3982747082604
 10
-108.7239613118842
 20
428.0727834336262
 10
-109.3481766004348
 20
427.8619943673765
 10
-109.8280553761872
 20
427.7401294910263
 10
-110.0996385671771
 20
427.685886306507
 10
-110.1981014743818
 20
427.668801334606
 10
-110.2494794466644
 20
427.6604377714955
 10
-110.2698898808019
 20
427.6572598876224
  0
LINE
  5
7B
330
A
100
AcDbEntity
  8
0
  6
Continuous
 62
     7
100
AcDbLine
 10
-105.7930762281882
 20
481.0374998319901
 30
0.0
 11
-84.98262852306995
 21
460.227052126872
 31
0.0
  0
ARC
  5
7C
330
A
100
AcDbEntity
  8
0
  6
Continuous
 62
     7
100
AcDbCircle
 10
-87.33687497172551
 20
421.0048483767457
 30
0.0
 40
20.4000000000001
100
AcDbArc
 50
135.0
 51
149.6024530744827
  0
LINE
  5
7D
330
A
100
AcDbEntity
  8
0
  6
Continuous
 62
     7
100
AcDbLine
 10
-84.97989566011062
 20
452.2117843607721
 30
0.0
 11
-101.7618533079311
 21
435.4298267129514
 31
0.0
  0
LINE
  5
7E
330
A
100
AcDbEntity
  8
0
  6
Continuous
 62
     7
100
AcDbLine
 10
-96.93687497172552
 20
411.2180518123424
 30
0.0
 11
-96.93687497172557
 21
421.0048483767457
 31
0.0
  0
ARC
  5
7F
330
A
100
AcDbEntity
  8
0
  6
Continuous
 62
     7
100
AcDbCircle
 10
-87.33687497172551
 20
421.0048483767457
 30
0.0
 40
9.600000000000111
100
AcDbArc
 50
134.9999999999998
 51
180.0000000000004
  0
LINE
  5
80
330
A
100
AcDbEntity
  8
0
  6
Continuous
 62
     7
100
AcDbLine
 10
-94.12510007111643
 20
427.7930734761366
 30
0.0
 11
-77.34231101105629
 21
444.5758625361969
 31
0.0
  0
LWPOLYLINE
  5
81
330
A
100
AcDbEntity
  8
0
  6
Continuous
 62
     7
100
AcDbPolyline
 90
       10
 70
   128
 43
0.0
 10
-84.9969927132698
 20
460.2107133623711
 10
-84.76825341604341
 20
459.9879352206896
 10
-84.47155289895787
 20
459.5073804270199
 10
-84.30997320266595
 20
459.0562716580655
 10
-84.24389189692705
 20
458.6703067391551
 10
-84.23446245684685
 20
458.3737163495268
 10
-84.24715349443804
 20
458.1819304510253
 10
-84.25322041849939
 20
458.1294871738734
 10
-84.25647925590782
 20
458.1047275049752
 10
-84.25872331968045
 20
458.0887407635549
  0
LWPOLYLINE
  5
8D
330
A
100
AcDbEntity
  8
0
  6
Continuous
 62
     7
100
AcDbPolyline
 90
        9
 70
   128
 43
0.0
 10
-84.26195830138222
 20
454.3696546921895
 10
-84.26059117977045
 20
454.3606536049846
 10
-84.25738681794356
 20
454.3383926397249
 10
-84.25144829104834
 20
454.2926791022999
 10
-84.23362525175219
 20
454.0195423817936
 10
-84.25047236185553
 20
453.7026851838891
 10
-84.49245286409787
 20
452.8855448187159
 10
-84.85515999147565
 20
452.3437737753705
 10
-84.99169325216426
 20
452.2288229683393
  0
LWPOLYLINE
  5
98
330
A
100
AcDbEntity
  8
0
  6
Continuous
 62
     7
100
AcDbPolyline
 90
       11
 70
   128
 43
0.0
 10
-77.32760325576207
 20
444.5609704442934
 10
-77.06409295958852
 20
444.8193594620429
 10
-76.58315575323706
 20
445.1030742935317
 10
-76.13523124711498
 20
445.2546733058992
 10
-75.75495401159973
 20
445.3139286972085
 10
-75.46548575278603
 20
445.3196004151703
 10
-75.27836916249592
 20
445.3053727139787
 10
-75.21817327406885
 20
445.2977729924026
 10
-75.19580007060153
 20
445.2945679286734
 10
-75.18461206104624
 20
445.29288687884
 10
-75.18265820975969
 20
445.292584766241
  0
LWPOLYLINE
  5
A5
330
A
100
AcDbEntity
  8
0
  6
Continuous
 62
     7
100
AcDbPolyline
 90
        9
 70
   128
 43
0.0
 10
-75.20808555634548
 20
467.1398395661933
 10
-75.21153545085993
 20
467.139330459044
 10
-75.23415951873442
 20
467.1362284470191
 10
-75.27077247174737
 20
467.1316605646491
 10
-75.37889773149252
 20
467.1213687061405
 10
-75.6015731025946
 20
467.115007421407
 10
-76.40497168061746
 20
467.2612654171364
 10
-77.08358165067098
 20
467.6314259512913
 10
-77.31935559545064
 20
467.8859749814659
  0
LWPOLYLINE
  5
B0
330
A
100
AcDbEntity
  8
0
  6
Continuous
 62
     7
100
AcDbPolyline
 90
       11
 70
   128
 43
0.0
 10
-62.27193115298032
 20
461.6395981292157
 10
-62.54941833527302
 20
461.6312386102307
 10
-63.10623680941538
 20
461.7545119325186
 10
-63.54684455863527
 20
461.9561841638094
 10
-63.87342943121026
 20
462.1824344352727
 10
-64.09594066547916
 20
462.3880875248027
 10
-64.22797427707813
 20
462.5373500332894
 10
-64.26417494682643
 20
462.5827944396142
 10
-64.2804192053984
 20
462.6039172485291
 10
-64.29079335334487
 20
462.6176606427897
 10
-64.2911718994292
 20
462.6181693400694
  0
LWPOLYLINE
  5
BD
330
A
100
AcDbEntity
  8
0
  6
Continuous
 62
     7
100
AcDbPolyline
 90
        9
 70
   128
 43
0.0
 10
-64.29085909488374
 20
449.8183273223283
 10
-64.28877964419204
 20
449.8211267592566
 10
-64.2749754661164
 20
449.8393178448089
 10
-64.25231617938429
 20
449.8684370927334
 10
-64.18313751784066
 20
449.9521706401799
 10
-64.03018036035624
 20
450.1141240127876
 10
-63.35867175522992
 20
450.5787925755623
 10
-62.61707901978764
 20
450.7968992625698
 10
-62.27292086070102
 20
450.7837210120917
  0
LINE
  5
C8
330
A
100
AcDbEntity
  8
0
  6
Continuous
 62
     7
100
AcDbLine
 10
-62.26946768967659
 20
450.8180518123424
 30
0.0
 11
-28.33687497172558
 21
450.8180518123424
 31
0.0
  0
LINE
  5
C9
330
A
100
AcDbEntity
  8
0
  6
Continuous
 62
     7
100
AcDbLine
 10
-28.33687497172558
 20
461.6180518123425
 30
0.0
 11
-62.2694676896765
 21
461.6180518123425
 31
0.0
  0
LINE
  5
CA
330
A
100
AcDbEntity
  8
0
  6
Continuous
 62
     7
100
AcDbLine
 10
261.6631250282744
 20
451.7180518123424
 30
0.0
 11
285.1631250282745
 21
451.7180518123424
 31
0.0
  0
LINE
  5
CB
330
A
100
AcDbEntity
  8
0
  6
Continuous
 62
     7
100
AcDbLine
 10
262.6631250282745
 20
460.7180518123424
 30
0.0
 11
261.6631250282744
 21
460.7180518123424
 31
0.0
  0
LINE
  5
CC
330
A
100
AcDbEntity
  8
0
  6
Continuous
 62
     7
100
AcDbLine
 10
285.1631250282744
 20
460.7180518123424
 30
0.0
 11
277.6631250282745
 21
460.7180518123424
 31
0.0
  0
LINE
  5
CD
330
A
100
AcDbEntity
  8
0
  6
Continuous
 62
     7
100
AcDbLine
 10
268.2209229328617
 20
467.9627146367431
 30
0.0
 11
-94.16963655641694
 21
492.0353627685081
 31
0.0
  0
LINE
  5
CE
330
A
100
AcDbEntity
  8
0
  6
Continuous
 62
     7
100
AcDbLine
 10
-92.43721996196095
 20
490.7176382655663
 30
0.0
 11
265.934032055788
 21
466.9119821178968
 31
0.0
  0
LINE
  5
CF
330
A
100
AcDbEntity
  8
0
  6
Continuous
 62
     7
100
AcDbLine
 10
-115.2470706967914
 20
416.9670510397325
 30
0.0
 11
-138.330005763108
 21
121.582183508619
 31
0.0
  0
LINE
  5
D0
330
A
100
AcDbEntity
  8
0
  6
Continuous
 62
     7
100
AcDbLine
 10
-137.2133187195011
 20
120.4692386956648
 30
0.0
 11
-114.1476518713194
 21
415.6331304144901
 31
0.0
  0
LINE
  5
D1
330
A
100
AcDbEntity
  8
0
  6
Continuous
 62
     7
100
AcDbLine
 10
-174.7968749717255
 20
-9.28194818765754
 30
0.0
 11
-174.7968749717255
 21
30.71805181234247
 31
0.0
  0
LINE
  5
D2
330
A
100
AcDbEntity
  8
0
  6
Continuous
 62
     7
100
AcDbLine
 10
-174.7968749717255
 20
-49.28194818765755
 30
0.0
 11
-174.7968749717255
 21
-9.28194818765754
 31
0.0
  0
LINE
  5
D3
330
A
100
AcDbEntity
  8
0
  6
Continuous
 62
     7
100
AcDbLine
 10
-158.7968749717255
 20
-9.28194818765754
 30
0.0
 11
-158.7968749717255
 21
23.71805181234241
 31
0.0
  0
LINE
  5
D4
330
A
100
AcDbEntity
  8
0
  6
Continuous
 62
     7
100
AcDbLine
 10
-158.7968749717255
 20
-42.28194818765746
 30
0.0
 11
-158.7968749717255
 21
-9.28194818765754
 31
0.0
  0
LINE
  5
D5
330
A
100
AcDbEntity
  8
0
  6
Continuous
 62
     7
100
AcDbLine
 10
-176.7968749717255
 20
-9.28194818765754
 30
0.0
 11
-176.7968749717255
 21
29.21805181234247
 31
0.0
  0
LINE
  5
D6
330
A
100
AcDbEntity
  8
0
  6
Continuous
 62
     7
100
AcDbLine
 10
-176.7968749717255
 20
-47.78194818765754
 30
0.0
 11
-176.7968749717255
 21
-9.28194818765754
 31
0.0
  0
LINE
  5
D7
330
A
100
AcDbEntity
  8
0
  6
Continuous
 62
     7
100
AcDbLine
 10
-156.2968749717255
 20
-39.28194818765754
 30
0.0
 11
-158.7968749717255
 21
-39.28194818765754
 31
0.0
  0
ARC
  5
D8
330
A
100
AcDbEntity
  8
0
  6
Continuous
 62
     7
100
AcDbCircle
 10
-156.2968749717255
 20
13.21805181234245
 30
0.0
 40
2.500000000000001
100
AcDbArc
 50
180.0000000000004
 51
270.0000000000008
  0
LINE
  5
D9
330
A
100
AcDbEntity
  8
0
  6
Continuous
 62
     7
100
AcDbLine
 10
-96.79687497172555
 20
30.71805181234247
 30
0.0
 11
-86.79687497172553
 21
30.71805181234247
 31
0.0
  0
LINE
  5
DA
330
A
100
AcDbEntity
  8
0
  6
Continuous
 62
     7
100
AcDbLine
 10
-106.7968749717255
 20
30.71805181234247
 30
0.0
 11
-96.79687497172555
 21
30.71805181234247
 31
0.0
  0
ARC
  5
DB
330
A
100
AcDbEntity
  8
0
  6
Continuous
 62
     7
100
AcDbCircle
 10
-109.2968749717255
 20
13.21805181234245
 30
0.0
 40
2.500000000000001
100
AcDbArc
 50
270.0000000000008
 51
0.0
  0
LINE
  5
DC
330
A
100
AcDbEntity
  8
0
  6
Continuous
 62
     7
100
AcDbLine
 10
-102.7968749717255
 20
-16.28194818765755
 30
0.0
 11
-104.2968749717255
 21
-16.28194818765755
 31
0.0
  0
LINE
  5
DD
330
A
100
AcDbEntity
  8
0
  6
Continuous
 62
     7
100
AcDbLine
 10
-150.7968749717255
 20
-39.28194818765754
 30
0.0
 11
-109.7968749717255
 21
-16.28194818765755
 31
0.0
  0
LINE
  5
DE
330
A
100
AcDbEntity
  8
0
  6
Continuous
 62
     7
100
AcDbLine
 10
-109.7968749717255
 20
-16.28194818765755
 30
0.0
 11
-104.2968749717255
 21
-16.28194818765755
 31
0.0
  0
LINE
  5
DF
330
A
100
AcDbEntity
  8
0
  6
Continuous
 62
     7
100
AcDbLine
 10
-156.2968749717255
 20
-39.28194818765754
 30
0.0
 11
-150.7968749717255
 21
-39.28194818765754
 31
0.0
  0
LINE
  5
E0
330
A
100
AcDbEntity
  8
0
  6
Continuous
 62
     7
100
AcDbLine
 10
-156.2968749717255
 20
10.71805181234245
 30
0.0
 11
-109.2968749717255
 21
10.71805181234245
 31
0.0
  0
CIRCLE
  5
E1
330
A
100
AcDbEntity
  8
0
  6
Continuous
 62
     7
100
AcDbCircle
 10
-104.272796648637
 20
487.1539734892539
 30
0.0
 40
2.999999999999971
  0
LINE
  5
E2
330
A
100
AcDbEntity
  8
0
  6
Continuous
 62
     7
100
AcDbLine
 10
527.3652135390408
 20
456.0472433446667
 30
0.0
 11
397.7614832839797
 21
396.9834206524721
 31
0.0
  0
LWPOLYLINE
  5
E3
330
A
100
AcDbEntity
  8
0
  6
Continuous
 62
     7
100
AcDbPolyline
 90
        3
 70
   128
 43
0.0
 10
397.6962859003883
 20
396.9537084929776
 10
397.7401495264469
 20
396.9737178004533
 10
397.7614832839797
 20
396.9834206524721
  0
LINE
  5
E8
330
A
100
AcDbEntity
  8
0
  6
Continuous
 62
     7
100
AcDbLine
 10
397.6962859003883
 20
396.9537084929776
 30
0.0
 11
396.3307905328185
 21
396.331416402168
 31
0.0
  0
LINE
  5
E9
330
A
100
AcDbEntity
  8
0
  6
Continuous
 62
     7
100
AcDbLine
 10
394.2573243197975
 20
400.8812227566683
 30
0.0
 11
525.2917473257602
 21
460.597049699048
 31
0.0
  0
LWPOLYLINE
  5
EA
330
A
100
AcDbEntity
  8
0
  6
Continuous
 62
     7
100
AcDbPolyline
 90
       22
 70
   128
 43
0.0
 10
395.1692369317891
 20
430.0472644054078
 10
395.1554636987978
 20
430.0123664364961
 10
395.3821791198904
 20
430.5842031940785
 10
395.8474749475797
 20
431.7760105682086
 10
396.5150074258913
 20
433.5439322763909
 10
397.3761062590545
 20
435.9411004473143
 10
398.3411922698109
 20
438.8368009280054
 10
399.4048776528893
 20
442.4026518516997
 10
400.4055416359086
 20
446.3747446871468
 10
401.2464104437372
 20
450.7481808839329
 10
401.7919458508769
 20
455.3275956522391
 10
401.9346058175261
 20
459.5766076896393
 10
401.7000033669307
 20
463.7339168327578
 10
401.1546405494447
 20
467.3221117855089
 10
400.3518512597913
 20
470.6378787742557
 10
399.3021508615816
 20
473.7819064107539
 10
398.1581674593639
 20
476.5092163316843
 10
396.8862322608046
 20
479.058249474013
 10
395.8123234574257
 20
480.9527213841244
 10
395.2847837662453
 20
481.8199414250384
 10
394.9631250282745
 20
482.3301227931485
 10
394.9631250282745
 20
482.3301227931485
  0
LWPOLYLINE
  5
102
330
A
100
AcDbEntity
  8
0
  6
Continuous
 62
     7
100
AcDbPolyline
 90
        8
 70
   128
 43
0.0
 10
394.9631250282745
 20
482.3301227931485
 10
394.9631074601472
 20
482.3354463223526
 10
394.9627000845839
 20
482.3568317345434
 10
394.9614847364027
 20
482.3838369760665
 10
394.9571139901999
 20
482.4372848519722
 10
394.9392685399363
 20
482.5608658080849
 10
394.8873417010064
 20
482.7862489780496
 10
394.8927752491949
 20
482.7657728175673
  0
CIRCLE
  5
10C
330
A
100
AcDbEntity
  8
0
  6
Continuous
 62
     7
100
AcDbCircle
 10
364.1631250282745
 20
456.2180518123424
 30
0.0
 40
7.499999999999943
  0
LINE
  5
10D
330
A
100
AcDbEntity
  8
0
  6
Continuous
 62
     7
100
AcDbLine
 10
285.1631250282745
 20
451.7180518123424
 30
0.0
 11
318.1631250282746
 21
451.7180518123424
 31
0.0
  0
LWPOLYLINE
  5
10E
330
A
100
AcDbEntity
  8
0
  6
Continuous
 62
     7
100
AcDbPolyline
 90
       11
 70
   128
 43
0.0
 10
285.1631250282744
 20
460.7180518123424
 10
285.195547715838
 20
460.4737719454658
 10
285.2802340904707
 20
459.7584637131664
 10
285.381638729665
 20
458.6420658275486
 10
285.4552334753217
 20
457.2457530528396
 10
285.4713829517194
 20
456.2180518123424
 10
285.4378241617666
 20
454.7363916612076
 10
285.3520210884791
 20
453.4218862685916
 10
285.2507976697962
 20
452.4139366521994
 10
285.178416316899
 20
451.8315943835861
 10
285.1631250282745
 20
451.7180518123424
  0
LINE
  5
11B
330
A
100
AcDbEntity
  8
0
  6
Continuous
 62
     7
100
AcDbLine
 10
285.1631250282744
 20
460.7180518123424
 30
0.0
 11
318.1631250282746
 21
460.7180518123424
 31
0.0
  0
LINE
  5
11C
330
A
100
AcDbEntity
  8
0
  6
Continuous
 62
     7
100
AcDbLine
 10
318.1631250282746
 20
451.7180518123424
 30
0.0
 11
358.1631250282746
 21
451.7180518123424
 31
0.0
  0
LINE
  5
11D
330
A
100
AcDbEntity
  8
0
  6
Continuous
 62
     7
100
AcDbLine
 10
318.1631250282746
 20
460.7180518123424
 30
0.0
 11
358.1631250282746
 21
460.7180518123424
 31
0.0
  0
LINE
  5
11E
330
A
100
AcDbEntity
  8
0
  6
Continuous
 62
     7
100
AcDbLine
 10
394.9631250282745
 20
482.3301227931485
 30
0.0
 11
394.9631250282745
 21
429.9680518123426
 31
0.0
  0
LINE
  5
11F
330
A
100
AcDbEntity
  8
0
  6
Continuous
 62
     7
100
AcDbLine
 10
354.1631250282744
 20
480.1680518123425
 30
0.0
 11
354.1631250282745
 21
460.7180518123424
 31
0.0
  0
LINE
  5
120
330
A
100
AcDbEntity
  8
0
  6
Continuous
 62
     7
100
AcDbLine
 10
354.1631250282745
 20
451.7180518123424
 30
0.0
 11
354.1631250282744
 21
432.2680518123426
 31
0.0
  0
LINE
  5
121
330
A
100
AcDbEntity
  8
0
  6
Continuous
 62
     7
100
AcDbLine
 10
374.1631250282744
 20
480.1680518123425
 30
0.0
 11
374.1631250282744
 21
432.2680518123425
 31
0.0
  0
LINE
  5
122
330
A
100
AcDbEntity
  8
0
  6
Continuous
 62
     7
100
AcDbLine
 10
312.1631250282745
 20
467.4680513870423
 30
0.0
 11
312.1631250282745
 21
460.7180518123424
 31
0.0
  0
LINE
  5
123
330
A
100
AcDbEntity
  8
0
  6
Continuous
 62
     7
100
AcDbLine
 10
312.1631250282745
 20
451.7180518123424
 30
0.0
 11
312.1631250282745
 21
444.9680518123424
 31
0.0
  0
LINE
  5
124
330
A
100
AcDbEntity
  8
0
  6
Continuous
 62
     7
100
AcDbLine
 10
-109.3368749717255
 20
411.2180518123424
 30
0.0
 11
-100.9368749717254
 21
411.2180518123424
 31
0.0
  0
LINE
  5
125
330
A
100
AcDbEntity
  8
0
  6
Continuous
 62
     7
100
AcDbLine
 10
-109.3368749717255
 20
121.2180518123424
 30
0.0
 11
-100.9368749717254
 21
121.2180518123424
 31
0.0
  0
LINE
  5
126
330
A
100
AcDbEntity
  8
0
  6
Continuous
 62
     7
100
AcDbLine
 10
-96.79687497172549
 20
32.21805181234247
 30
0.0
 11
-103.7968749717255
 21
32.21805181234247
 31
0.0
  0
LINE
  5
127
330
A
100
AcDbEntity
  8
0
  6
Continuous
 62
     7
100
AcDbLine
 10
-89.79687497172553
 20
32.21805181234247
 30
0.0
 11
-96.79687497172549
 21
32.21805181234247
 31
0.0
  0
LINE
  5
128
330
A
100
AcDbEntity
  8
0
  6
Continuous
 62
     7
100
AcDbLine
 10
261.6631250282744
 20
463.2180518123425
 30
0.0
 11
261.6631250282745
 21
454.8180518123425
 31
0.0
  0
LINE
  5
129
330
A
100
AcDbEntity
  8
0
  6
Continuous
 62
     7
100
AcDbLine
 10
-28.33687497172558
 20
463.2180518123425
 30
0.0
 11
-28.33687497172555
 21
454.8180518123425
 31
0.0
  0
LINE
  5
12A
330
A
100
AcDbEntity
  8
0
  6
Continuous
 62
     7
100
AcDbLine
 10
-100.9368749717254
 20
411.2180518123424
 30
0.0
 11
-91.33687497172546
 21
411.2180518123424
 31
0.0
  0
LINE
  5
12B
330
A
100
AcDbEntity
  8
0
  6
Continuous
 62
     7
100
AcDbLine
 10
-100.9368749717254
 20
121.2180518123424
 30
0.0
 11
-91.3368749717255
 21
121.2180518123424
 31
0.0
  0
LINE
  5
12C
330
A
100
AcDbEntity
  8
0
  6
Continuous
 62
     7
100
AcDbLine
 10
261.6631250282745
 20
454.8180518123425
 30
0.0
 11
261.6631250282745
 21
445.2180518123425
 31
0.0
  0
LINE
  5
12D
330
A
100
AcDbEntity
  8
0
  6
Continuous
 62
     7
100
AcDbLine
 10
-28.33687497172555
 20
454.8180518123425
 30
0.0
 11
-28.33687497172555
 21
445.2180518123425
 31
0.0
  0
LINE
  5
12E
330
A
100
AcDbEntity
  8
0
  6
Continuous
 62
     7
100
AcDbLine
 10
303.1631250282744
 20
462.4680518123424
 30
0.0
 11
303.1631250282745
 21
460.7180518123424
 31
0.0
  0
LINE
  5
12F
330
A
100
AcDbEntity
  8
0
  6
Continuous
 62
     7
100
AcDbLine
 10
303.1631250282745
 20
451.7180518123424
 30
0.0
 11
303.1631250282744
 21
449.9680518123424
 31
0.0
  0
CIRCLE
  5
130
330
A
100
AcDbEntity
  8
0
  6
Continuous
 62
     7
100
AcDbCircle
 10
-102.3368749717254
 20
77.21805181234245
 30
0.0
 40
11.08
  0
LWPOLYLINE
  5
131
330
A
100
AcDbEntity
  8
0
  6
Continuous
 62
     7
100
AcDbPolyline
 90
       11
 70
   128
 43
0.0
 10
-137.2133187195011
 20
120.4692386956648
 10
-137.2366500468053
 20
120.4888508863724
 10
-137.3011330606033
 20
120.5438549480698
 10
-137.4014144390337
 20
120.6317464615319
 10
-137.5428744573983
 20
120.7606496528891
 10
-137.7274100518024
 20
120.9375790421149
 10
-137.946777047951
 20
121.1610111453358
 10
-138.1636325318727
 20
121.3960435804678
 10
-138.2638424718736
 20
121.5094394655104
 10
-138.3152750186887
 20
121.5688173499048
 10
-138.326495462496
 20
121.5818816044163
  0
LWPOLYLINE
  5
13E
330
A
100
AcDbEntity
  8
0
  6
Continuous
 62
     7
100
AcDbPolyline
 90
        5
 70
   128
 43
0.0
 10
-107.7293785361931
 20
90.97496621664314
 10
-107.7027950807896
 20
90.91174421094578
 10
-107.5500334956314
 20
90.54862701944218
 10
-107.1637345261635
 20
89.63192110968115
 10
-106.2898388033613
 20
87.56892022739725
  0
LINE
  5
145
330
A
100
AcDbEntity
  8
0
  6
Continuous
 62
     7
100
AcDbLine
 10
-140.6374954052914
 20
116.0586722459083
 30
0.0
 11
-144.554866973065
 21
112.1413006781348
 31
0.0
  0
LINE
  5
146
330
A
100
AcDbEntity
  8
0
  6
Continuous
 62
     7
100
AcDbLine
 10
-139.9586728953524
 20
107.5451066004222
 30
0.0
 11
-136.0413013275788
 21
111.4624781681958
 31
0.0
  0
LWPOLYLINE
  5
147
330
A
100
AcDbEntity
  8
0
  6
Continuous
 62
     7
100
AcDbPolyline
 90
       12
 70
   128
 43
0.0
 10
-136.0413013275788
 20
111.4624781681958
 10
-135.6064175072571
 20
112.0017927806654
 10
-135.2201823030875
 20
112.8478917185663
 10
-135.0899662043592
 20
113.8213257137702
 10
-135.2994468161663
 20
114.9100074895368
 10
-135.7628749988602
 20
115.7414909892954
 10
-136.4636562745893
 20
116.414645968143
 10
-137.2396265640603
 20
116.8188430146028
 10
-138.1743085242046
 20
117.006379474717
 10
-139.2842456343772
 20
116.8701995638293
 10
-140.3094681015057
 20
116.3454011661755
 10
-140.6374954052914
 20
116.0586722459083
  0
LINE
  5
155
330
A
100
AcDbEntity
  8
0
  6
Continuous
 62
     7
100
AcDbLine
 10
-126.7901761735775
 20
109.7534482138057
 30
0.0
 11
-134.5683507666295
 21
117.5316228068576
 31
0.0
  0
LINE
  5
156
330
A
100
AcDbEntity
  8
0
  6
Continuous
 62
     7
100
AcDbLine
 10
-148.7975073586705
 20
119.2123687915141
 30
0.0
 11
-143.7911916493836
 21
124.2186845008011
 31
0.0
  0
CIRCLE
  5
157
330
A
100
AcDbEntity
  8
0
  6
Continuous
 62
     7
100
AcDbCircle
 10
-138.3393983664351
 20
113.760575207052
 30
0.0
 40
3.0
  0
CIRCLE
  5
158
330
A
100
AcDbEntity
  8
0
  6
Continuous
 62
     7
100
AcDbCircle
 10
-109.3368749717255
 20
420.7180518123425
 30
0.0
 40
5.0
  0
CIRCLE
  5
159
330
A
100
AcDbEntity
  8
0
  6
Continuous
 62
     7
100
AcDbCircle
 10
-73.33687497172554
 20
456.2180518123424
 30
0.0
 40
5.0
  0
CIRCLE
  5
15A
330
A
100
AcDbEntity
  8
0
  6
Continuous
 62
     7
100
AcDbCircle
 10
270.1631250282745
 20
460.7180518123424
 30
0.0
 40
7.500000000000056
  0
LINE
  5
15B
330
A
100
AcDbEntity
  8
0
  6
Continuous
 62
     7
100
AcDbLine
 10
-91.33687497172546
 20
411.2180518123424
 30
0.0
 11
-87.33687497172549
 21
411.2180518123424
 31
0.0
  0
LINE
  5
15C
330
A
100
AcDbEntity
  8
0
  6
Continuous
 62
     7
100
AcDbLine
 10
-91.3368749717255
 20
121.2180518123424
 30
0.0
 11
-87.33687497172551
 21
121.2180518123424
 31
0.0
  0
LINE
  5
15D
330
A
100
AcDbEntity
  8
0
  6
Continuous
 62
     7
100
AcDbLine
 10
261.6631250282745
 20
445.2180518123425
 30
0.0
 11
261.6631250282744
 21
441.2180518123424
 31
0.0
  0
LINE
  5
15E
330
A
100
AcDbEntity
  8
0
  6
Continuous
 62
     7
100
AcDbLine
 10
-28.33687497172555
 20
445.2180518123425
 30
0.0
 11
-28.33687497172558
 21
441.2180518123424
 31
0.0
  0
LINE
  5
15F
330
A
100
AcDbEntity
  8
0
  6
Continuous
 62
     7
100
AcDbLine
 10
-92.82651627739381
 20
483.0439046743929
 30
0.0
 11
-100.6046908704459
 21
490.8220792674449
 31
0.0
  0
LINE
  5
160
330
A
100
AcDbEntity
  8
0
  6
Continuous
 62
     7
100
AcDbLine
 10
-101.2531266085812
 20
488.3556776330388
 30
0.0
 11
-80.31867592702782
 21
467.4212269514856
 31
0.0
  0
LWPOLYLINE
  5
161
330
A
100
AcDbEntity
  8
0
  6
Continuous
 62
     7
100
AcDbPolyline
 90
        4
 70
   128
 43
0.0
 10
-103.0710925048522
 20
490.1736435293097
 10
-102.2790666765418
 20
489.7205939906856
 10
-101.6330003368846
 20
489.0497518076389
 10
-101.2531266085812
 20
488.3556776330387
  0
LINE
  5
167
330
A
100
AcDbEntity
  8
0
  6
Continuous
 62
     7
100
AcDbLine
 10
-108.7028472826923
 20
495.8053983071498
 30
0.0
 11
-103.0710925048522
 21
490.1736435293097
 31
0.0
  0
LINE
  5
168
330
A
100
AcDbEntity
  8
0
  6
Continuous
 62
     7
100
AcDbLine
 10
-114.6319109930201
 20
492.704761721568
 30
0.0
 11
-113.8571650106659
 21
493.4795077039223
 31
0.0
  0
LWPOLYLINE
  5
169
330
A
100
AcDbEntity
  8
0
  6
Continuous
 62
     7
100
AcDbPolyline
 90
        7
 70
   128
 43
0.0
 10
-112.9242214665333
 20
491.5840241233087
 10
-113.3541449479436
 20
492.0590117093807
 10
-113.6896670126391
 20
492.526104766409
 10
-113.896680758279
 20
492.9454502882234
 10
-113.9473277938423
 20
493.2855847603063
 10
-113.8599397016802
 20
493.4766967951993
 10
-113.8571650106659
 20
493.4795077039223
  0
LINE
  5
172
330
A
100
AcDbEntity
  8
0
  6
Continuous
 62
     7
100
AcDbLine
 10
-113.8571650106659
 20
493.4795077039223
 30
0.0
 11
-110.5983308633059
 21
496.7383418512823
 31
0.0
  0
LWPOLYLINE
  5
173
330
A
100
AcDbEntity
  8
0
  6
Continuous
 62
     7
100
AcDbPolyline
 90
        7
 70
   128
 43
0.0
 10
-108.7028472826923
 20
495.8053983071496
 10
-109.1778348687642
 20
496.23532178856
 10
-109.6449279257927
 20
496.5708438532556
 10
-110.064273447607
 20
496.7778575988954
 10
-110.40440791969
 20
496.8285046344588
 10
-110.5955199545836
 20
496.741116542296
 10
-110.5983308633059
 20
496.7383418512823
  0
LINE
  5
17C
330
A
100
AcDbEntity
  8
0
  6
Continuous
 62
     7
100
AcDbLine
 10
-110.5983308633059
 20
496.7383418512823
 30
0.0
 11
-109.8235848809517
 21
497.5130878336366
 31
0.0
  0
LWPOLYLINE
  5
17D
330
A
100
AcDbEntity
  8
0
  6
Continuous
 62
     7
100
AcDbPolyline
 90
        4
 70
   128
 43
0.0
 10
-76.4719581155793
 20
466.845264696308
 10
-78.07424519042402
 20
466.6598634888627
 10
-79.68738364390526
 20
467.0054238385293
 10
-80.31867592702782
 20
467.4212269514856
  0
ARC
  5
183
330
A
100
AcDbEntity
  8
0
  6
Continuous
 62
     7
100
AcDbCircle
 10
-73.33687497172556
 20
456.2180518123424
 30
0.0
 40
11.07999999999999
100
AcDbArc
 50
28.56366628540599
 51
106.4363337145941
  0
LWPOLYLINE
  5
184
330
A
100
AcDbEntity
  8
0
  6
Continuous
 62
     7
100
AcDbPolyline
 90
        5
 70
   128
 43
0.0
 10
-60.47815505962787
 20
459.2030141236623
 10
-61.30318029217113
 20
459.3893314807959
 10
-62.44528013074815
 20
460.1119212823991
 10
-63.42343623259999
 20
461.211526291987
 10
-63.60546212575785
 20
461.515787557105
  0
LINE
  5
18B
330
A
100
AcDbEntity
  8
0
  6
Continuous
 62
     7
100
AcDbLine
 10
-28.33687497172555
 20
459.2030141236623
 30
0.0
 11
-60.47815505962784
 21
459.2030141236623
 31
0.0
  0
LINE
  5
18C
330
A
100
AcDbEntity
  8
0
  6
Continuous
 62
     7
100
AcDbLine
 10
-60.47815505962784
 20
453.2330895010225
 30
0.0
 11
-28.33687497172555
 21
453.2330895010225
 31
0.0
  0
LWPOLYLINE
  5
18D
330
A
100
AcDbEntity
  8
0
  6
Continuous
 62
     7
100
AcDbPolyline
 90
        4
 70
   128
 43
0.0
 10
-63.60546212575783
 20
450.92031606758
 10
-62.60357252075235
 20
452.1844025746349
 10
-61.21856331474865
 20
453.0807156475243
 10
-60.47815505962787
 20
453.2330895010225
  0
ARC
  5
193
330
A
100
AcDbEntity
  8
0
  6
Continuous
 62
     7
100
AcDbCircle
 10
-73.33687497172556
 20
456.2180518123424
 30
0.0
 40
11.07999999999999
100
AcDbArc
 50
253.5636662854071
 51
331.4363337145948
  0
LWPOLYLINE
  5
194
330
A
100
AcDbEntity
  8
0
  6
Continuous
 62
     7
100
AcDbPolyline
 90
        5
 70
   128
 43
0.0
 10
-80.31867592702768
 20
445.0148766731992
 10
-79.60354872376368
 20
445.4665113430992
 10
-78.2850140343824
 20
445.7631497350188
 10
-76.81581506279636
 20
445.6772723887899
 10
-76.47195811557921
 20
445.5908389283769
  0
LINE
  5
19B
330
A
100
AcDbEntity
  8
0
  6
Continuous
 62
     7
100
AcDbLine
 10
-95.83278959760326
 20
429.5007630026234
 30
0.0
 11
-80.31867592702772
 21
445.0148766731992
 31
0.0
  0
ARC
  5
19C
330
A
100
AcDbEntity
  8
0
  6
Continuous
 62
     7
100
AcDbCircle
 10
-87.33687497172546
 20
421.0048483767457
 30
0.0
 40
12.01503768868023
100
AcDbArc
 50
135.0000000000003
 51
180.0000000000004
  0
LINE
  5
19D
330
A
100
AcDbEntity
  8
0
  6
Continuous
 62
     7
100
AcDbLine
 10
-99.35191266040568
 20
421.0048483767457
 30
0.0
 11
-99.35191266040568
 21
411.2180518123422
 31
0.0
  0
LWPOLYLINE
  5
19E
330
A
100
AcDbEntity
  8
0
  6
Continuous
 62
     7
100
AcDbPolyline
 90
        4
 70
   128
 43
0.0
 10
-110.9750638873185
 20
413.9124411066946
 10
-108.9939008090375
 20
413.2368087812026
 10
-107.0831229660938
 20
412.2687715281891
 10
-105.3218372830539
 20
411.2180518123269
  0
ARC
  5
1A4
330
A
100
AcDbEntity
  8
0
  6
Continuous
 62
     7
100
AcDbCircle
 10
-109.3368749717255
 20
420.7180518123425
 30
0.0
 40
7.000000000000003
100
AcDbArc
 50
94.29774705668398
 51
256.4657260063459
  0
LWPOLYLINE
  5
1A5
330
A
100
AcDbEntity
  8
0
  6
Continuous
 62
     7
100
AcDbPolyline
 90
        6
 70
   128
 43
0.0
 10
-101.5835058638961
 20
431.981750378761
 10
-102.9401389873537
 20
430.6600220608616
 10
-104.5619938071255
 20
429.5426446938138
 10
-106.6034208277177
 20
428.5013611834858
 10
-108.8665652772784
 20
427.8263165293823
 10
-109.8614515849421
 20
427.6983683794378
  0
ARC
  5
1AD
330
A
100
AcDbEntity
  8
0
  6
Continuous
 62
     7
100
AcDbCircle
 10
-87.33687497172546
 20
421.0048483767457
 30
0.0
 40
17.98496231131993
100
AcDbArc
 50
135.0000000000002
 51
142.3860692064834
  0
LINE
  5
1AE
330
A
100
AcDbEntity
  8
0
  6
Continuous
 62
     7
100
AcDbLine
 10
-84.54005011086875
 20
449.2362508570401
 30
0.0
 11
-100.0541637814443
 21
433.7221371864645
 31
0.0
  0
LWPOLYLINE
  5
1AF
330
A
100
AcDbEntity
  8
0
  6
Continuous
 62
     7
100
AcDbPolyline
 90
        4
 70
   128
 43
0.0
 10
-83.96408785569105
 20
453.0829686684887
 10
-83.7786866482458
 20
451.4806815936439
 10
-84.1242469979106
 20
449.8675431401667
 10
-84.54005011086874
 20
449.2362508570401
  0
ARC
  5
1B5
330
A
100
AcDbEntity
  8
0
  6
Continuous
 62
     7
100
AcDbCircle
 10
-73.33687497172556
 20
456.2180518123424
 30
0.0
 40
11.07999999999994
100
AcDbArc
 50
163.5636662854062
 51
196.4363337145956
  0
LWPOLYLINE
  5
1B6
330
A
100
AcDbEntity
  8
0
  6
Continuous
 62
     7
100
AcDbPolyline
 90
        5
 70
   128
 43
0.0
 10
-84.54005011086888
 20
463.1998527676446
 10
-84.08841544097031
 20
462.4847255643785
 10
-83.79177704904931
 20
461.1661908750006
 10
-83.87765439527724
 20
459.6969919034171
 10
-83.96408785569112
 20
459.3531349561961
  0
LINE
  5
1BD
330
A
100
AcDbEntity
  8
0
  6
Continuous
 62
     7
100
AcDbLine
 10
-84.54005011086884
 20
463.1998527676446
 30
0.0
 11
-104.0853867017014
 21
482.7451893584769
 31
0.0
  0
LINE
  5
1BE
330
A
100
AcDbEntity
  8
0
  6
Continuous
 62
     7
100
AcDbLine
 10
-101.9746996097807
 20
484.8558764503976
 30
0.0
 11
-104.0853867017014
 21
482.7451893584769
 31
0.0
  0
ARC
  5
1BF
330
A
100
AcDbEntity
  8
0
  6
Continuous
 62
     7
100
AcDbCircle
 10
-104.272796648637
 20
487.1539734892539
 30
0.0
 40
3.250000000000036
100
AcDbArc
 50
315.0000000000002
 51
21.70051576762534
  0
LINE
  5
1C0
330
A
100
AcDbEntity
  8
0
  6
Continuous
 62
     7
100
AcDbLine
 10
-108.681580779414
 20
487.3413834361895
 30
0.0
 11
-112.9242214665333
 21
491.5840241233087
 31
0.0
  0
LINE
  5
1C1
330
A
100
AcDbEntity
  8
0
  6
Continuous
 62
     7
100
AcDbLine
 10
-110.3892703059008
 20
485.6336939097026
 30
0.0
 11
-108.681580779414
 21
487.3413834361895
 31
0.0
  0
LINE
  5
1C2
330
A
100
AcDbEntity
  8
0
  6
Continuous
 62
     7
100
AcDbLine
 10
-108.681580779414
 20
487.3413834361895
 30
0.0
 11
-106.5708936874933
 21
489.4520705281102
 31
0.0
  0
ARC
  5
1C3
330
A
100
AcDbEntity
  8
0
  6
Continuous
 62
     7
100
AcDbCircle
 10
-104.272796648637
 20
487.1539734892539
 30
0.0
 40
3.250000000000046
100
AcDbArc
 50
68.29948423237818
 51
134.9999999999996
  0
LINE
  5
1C4
330
A
100
AcDbEntity
  8
0
  6
Continuous
 62
     7
100
AcDbLine
 10
-104.0853867017014
 20
482.7451893584769
 30
0.0
 11
-105.7930762281882
 21
481.0374998319901
 31
0.0
  0
LINE
  5
1C5
330
A
100
AcDbEntity
  8
0
  6
Continuous
 62
     7
100
AcDbLine
 10
-134.5683507666295
 20
117.5316228068576
 30
0.0
 11
-134.4220267986617
 21
117.6779467748254
 31
0.0
  0
ARC
  5
1C6
330
A
100
AcDbEntity
  8
0
  6
Continuous
 62
     7
100
AcDbCircle
 10
-130.5329395021357
 20
113.7888594782995
 30
0.0
 40
5.499999999999993
100
AcDbArc
 50
315.0000000000011
 51
134.9999999999997
  0
LINE
  5
1C7
330
A
100
AcDbEntity
  8
0
  6
Continuous
 62
     7
100
AcDbLine
 10
-126.6438522056097
 20
109.8997721817735
 30
0.0
 11
-126.7901761735775
 21
109.7534482138057
 31
0.0
  0
ARC
  5
1C8
330
A
100
AcDbEntity
  8
0
  6
Continuous
 62
     7
100
AcDbCircle
 10
-96.56533273370385
 20
487.083262811135
 30
0.0
 40
5.500000000000024
100
AcDbArc
 50
315.0000000000006
 51
135.0000000000002
  0
LINE
  5
1C9
330
A
100
AcDbEntity
  8
0
  6
Continuous
 62
     7
100
AcDbLine
 10
-92.67624543717785
 20
483.1941755146089
 30
0.0
 11
-92.82651627739381
 21
483.0439046743929
 31
0.0
  0
LINE
  5
1CA
330
A
100
AcDbEntity
  8
0
  6
Continuous
 62
     7
100
AcDbLine
 10
-100.6046908704459
 20
490.8220792674449
 30
0.0
 11
-100.4544200302299
 21
490.972350107661
 31
0.0
  0
ARC
  5
1CB
330
A
100
AcDbEntity
  8
0
  6
Continuous
 62
     7
100
AcDbCircle
 10
-73.33687497172561
 20
456.2180518123424
 30
0.0
 40
18.00000000000006
100
AcDbArc
 50
152.4576031237222
 51
180.0000000000004
  0
ARC
  5
1CC
330
A
100
AcDbEntity
  8
0
  6
Continuous
 62
     7
100
AcDbCircle
 10
-73.33687497172561
 20
456.2180518123424
 30
0.0
 40
18.00000000000005
100
AcDbArc
 50
17.4576031237224
 51
117.5423968762781
  0
ARC
  5
1CD
330
A
100
AcDbEntity
  8
0
  6
Continuous
 62
     7
100
AcDbCircle
 10
-73.33687497172561
 20
456.2180518123424
 30
0.0
 40
18.00000000000003
100
AcDbArc
 50
242.4576031237233
 51
342.5423968762786
  0
ARC
  5
1CE
330
A
100
AcDbEntity
  8
0
  6
Continuous
 62
     7
100
AcDbCircle
 10
-73.33687497172561
 20
456.2180518123424
 30
0.0
 40
18.00000000000004
100
AcDbArc
 50
180.0000000000004
 51
207.5423968762792
  0
ARC
  5
1CF
330
A
100
AcDbEntity
  8
0
  6
Continuous
 62
     7
100
AcDbCircle
 10
-102.3368749717256
 20
77.21805181234245
 30
0.0
 40
18.00000000000001
100
AcDbArc
 50
151.6523934336509
 51
180.0000000000004
  0
ARC
  5
1D0
330
A
100
AcDbEntity
  8
0
  6
Continuous
 62
     7
100
AcDbCircle
 10
-102.3368749717256
 20
77.21805181234245
 30
0.0
 40
18.0
100
AcDbArc
 50
107.4576031237219
 51
115.7924563932206
  0
ARC
  5
1D1
330
A
100
AcDbEntity
  8
0
  6
Continuous
 62
     7
100
AcDbCircle
 10
-102.3368749717256
 20
77.21805181234245
 30
0.0
 40
18.00000000000001
100
AcDbArc
 50
307.9922990426725
 51
72.5423968762777
  0
ARC
  5
1D2
330
A
100
AcDbEntity
  8
0
  6
Continuous
 62
     7
100
AcDbCircle
 10
-102.3368749717256
 20
77.21805181234245
 30
0.0
 40
18.00000000000001
100
AcDbArc
 50
180.0000000000004
 51
270.0000000000009
  0
LINE
  5
1D3
330
A
100
AcDbEntity
  8
0
  6
PHANTOM
 62
     7
100
AcDbLine
 10
-165.7968749717255
 20
-9.28194818765754
 30
0.0
 11
-165.7968749717255
 21
30.71805181234247
 31
0.0
  0
LINE
  5
1D4
330
A
100
AcDbEntity
  8
0
  6
PHANTOM
 62
     7
100
AcDbLine
 10
-165.7968749717255
 20
-49.28194818765755
 30
0.0
 11
-165.7968749717255
 21
-9.28194818765754
 31
0.0
  0
LINE
  5
1D5
330
A
100
AcDbEntity
  8
0
  6
PHANTOM
 62
     7
100
AcDbLine
 10
-156.2968749717255
 20
3.21805181234247
 30
0.0
 11
-156.2968749717255
 21
-39.28194818765754
 31
0.0
  0
LINE
  5
1D6
330
A
100
AcDbEntity
  8
0
  6
PHANTOM
 62
     7
100
AcDbLine
 10
-156.2968749717255
 20
3.21805181234247
 30
0.0
 11
-158.7968749717255
 21
3.21805181234247
 31
0.0
  0
LINE
  5
1D7
330
A
100
AcDbEntity
  8
0
  6
PHANTOM
 62
     7
100
AcDbLine
 10
-156.2968749717255
 20
10.71805181234245
 30
0.0
 11
-156.2968749717255
 21
3.21805181234247
 31
0.0
  0
LINE
  5
1D8
330
A
100
AcDbEntity
  8
0
  6
PHANTOM
 62
     7
100
AcDbLine
 10
-96.79687497172555
 20
-19.28194818765755
 30
0.0
 11
-86.79687497172553
 21
-19.28194818765755
 31
0.0
  0
LINE
  5
1D9
330
A
100
AcDbEntity
  8
0
  6
PHANTOM
 62
     7
100
AcDbLine
 10
-106.7968749717255
 20
-19.28194818765755
 30
0.0
 11
-96.79687497172555
 21
-19.28194818765755
 31
0.0
  0
LWPOLYLINE
  5
1DA
330
A
100
AcDbEntity
  8
0
  6
PHANTOM
 62
     7
100
AcDbPolyline
 90
        7
 70
   128
 43
0.0
 10
-106.7968749717255
 20
13.21805181234245
 10
-106.7623112530809
 20
13.16399321745792
 10
-106.3505706544606
 20
12.51128701986637
 10
-105.4036780422939
 20
10.9313782566717
 10
-103.9437103900835
 20
8.071732197031417
 10
-103.0519634240592
 20
5.428160529448305
 10
-102.7968749717256
 20
3.218051812342443
  0
LINE
  5
1E3
330
A
100
AcDbEntity
  8
0
  6
PHANTOM
 62
     7
100
AcDbLine
 10
-102.7968749717255
 20
3.21805181234247
 30
0.0
 11
-102.7968749717255
 21
-16.28194818765755
 31
0.0
  0
LWPOLYLINE
  5
1E4
330
A
100
AcDbEntity
  8
0
  6
PHANTOM
 62
     7
100
AcDbPolyline
 90
        8
 70
   128
 43
0.0
 10
-104.2968749717255
 20
3.21805181234247
 10
-104.5219377530276
 20
4.606381626712952
 10
-104.6157355371428
 20
4.875633350171853
 10
-105.7304192446731
 20
6.858312100859159
 10
-107.5553788099361
 20
9.003046645589401
 10
-108.7389945751444
 20
10.18797821798539
 10
-109.2536703234197
 20
10.67750786617907
 10
-109.2968749717255
 20
10.71805181234245
  0
LINE
  5
1EE
330
A
100
AcDbEntity
  8
0
  6
PHANTOM
 62
     7
100
AcDbLine
 10
-104.2968749717255
 20
3.21805181234247
 30
0.0
 11
-102.7968749717255
 21
3.21805181234247
 31
0.0
  0
LINE
  5
1EF
330
A
100
AcDbEntity
  8
0
  6
PHANTOM
 62
     7
100
AcDbLine
 10
-104.2968749717255
 20
-16.28194818765755
 30
0.0
 11
-104.2968749717255
 21
3.21805181234247
 31
0.0
  0
LINE
  5
1F0
330
A
100
AcDbEntity
  8
0
  6
PHANTOM
 62
     7
100
AcDbLine
 10
-104.2968749717255
 20
3.21805181234247
 30
0.0
 11
-156.2968749717255
 21
3.21805181234247
 31
0.0
  0
LINE
  5
1F1
330
A
100
AcDbEntity
  8
0
  6
PHANTOM
 62
     7
100
AcDbLine
 10
394.8334117294351
 20
490.7713172438492
 30
0.0
 11
457.0728845023147
 21
519.1354791169556
 31
0.0
  0
LINE
  5
1F2
330
A
100
AcDbEntity
  8
0
  6
PHANTOM
 62
     7
100
AcDbLine
 10
318.1631250282746
 20
460.7180518123424
 30
0.0
 11
318.1631250282746
 21
451.7180518123424
 31
0.0
  0
LINE
  5
1F3
330
A
100
AcDbEntity
  8
0
  6
PHANTOM
 62
     7
100
AcDbLine
 10
322.1631250282744
 20
477.4680518123424
 30
0.0
 11
322.1631250282746
 21
460.7180518123424
 31
0.0
  0
LINE
  5
1F4
330
A
100
AcDbEntity
  8
0
  6
PHANTOM
 62
     7
100
AcDbLine
 10
322.1631250282746
 20
451.7180518123424
 30
0.0
 11
322.1631250282744
 21
434.9680518123424
 31
0.0
  0
LWPOLYLINE
  5
1F5
330
A
100
AcDbEntity
  8
0
  6
PHANTOM
 62
     7
100
AcDbPolyline
 90
       10
 70
   128
 43
0.0
 10
429.8515567229803
 20
331.2167817141383
 10
429.8030040607202
 20
331.1397623129312
 10
429.6233097464866
 20
331.0113351303844
 10
429.3398306106888
 20
330.8510520408455
 10
428.9957237820071
 20
330.6833146917268
 10
428.6433764057719
 20
330.5336595738889
 10
428.3364301759787
 20
330.4248703223955
 10
428.1216148736385
 20
330.3735091146095
 10
428.0316341812271
 20
330.3873952288258
 10
428.0316341812271
 20
330.3873952288258
  0
LINE
  5
201
330
A
100
AcDbEntity
  8
0
  6
PHANTOM
 62
     7
100
AcDbLine
 10
-100.9368749717254
 20
411.2180518123424
 30
0.0
 11
-100.9368749717254
 21
121.2180518123424
 31
0.0
  0
LINE
  5
202
330
A
100
AcDbEntity
  8
0
  6
PHANTOM
 62
     7
100
AcDbLine
 10
261.6631250282745
 20
454.8180518123425
 30
0.0
 11
-28.33687497172555
 21
454.8180518123425
 31
0.0
  0
LINE
  5
203
330
A
100
AcDbEntity
  8
0
  6
PHANTOM
 62
     7
100
AcDbLine
 10
-91.33687497172546
 20
411.2180518123424
 30
0.0
 11
-91.3368749717255
 21
121.2180518123424
 31
0.0
  0
LINE
  5
204
330
A
100
AcDbEntity
  8
0
  6
PHANTOM
 62
     7
100
AcDbLine
 10
261.6631250282745
 20
445.2180518123425
 30
0.0
 11
-28.33687497172555
 21
445.2180518123425
 31
0.0
  0
LINE
  5
205
330
A
100
AcDbEntity
  8
0
  6
PHANTOM
 62
     7
100
AcDbLine
 10
-96.07686249271965
 20
68.07591618861145
 30
0.0
 11
-91.25687497172553
 21
68.07591618861145
 31
0.0
  0
LINE
  5
206
330
A
100
AcDbEntity
  8
0
  6
PHANTOM
 62
     7
100
AcDbLine
 10
-140.9627645246374
 20
124.2186845008012
 30
0.0
 11
-148.7975076601843
 21
116.3839413652541
 31
0.0
  0
LWPOLYLINE
  5
207
330
A
100
AcDbEntity
  8
0
  6
PHANTOM
 62
     7
100
AcDbPolyline
 90
        6
 70
   128
 43
0.0
 10
-80.31867592702782
 20
467.4212269514856
 10
-79.10034713802876
 20
467.7243826067678
 10
-77.84768202612332
 20
467.845382597747
 10
-77.38300610593871
 20
467.8479652985422
 10
-77.33603329934196
 20
467.8470408470729
 10
-77.36225699784746
 20
467.8474236520946
  0
LINE
  5
20F
330
A
100
AcDbEntity
  8
0
  6
PHANTOM
 62
     7
100
AcDbLine
 10
-106.9951577562054
 20
497.5130878336366
 30
0.0
 11
-108.7028472826923
 21
495.8053983071498
 31
0.0
  0
LINE
  5
210
330
A
100
AcDbEntity
  8
0
  6
PHANTOM
 62
     7
100
AcDbLine
 10
-112.9242214665333
 20
491.5840241233087
 30
0.0
 11
-114.6319109930201
 21
489.8763345968219
 31
0.0
  0
LINE
  5
211
330
A
100
AcDbEntity
  8
0
  6
PHANTOM
 62
     7
100
AcDbLine
 10
-108.7028472826923
 20
495.8053983071498
 30
0.0
 11
-112.9242214665333
 21
491.5840241233087
 31
0.0
  0
LWPOLYLINE
  5
212
330
A
100
AcDbEntity
  8
0
  6
PHANTOM
 62
     7
100
AcDbPolyline
 90
        6
 70
   128
 43
0.0
 10
-104.9066854178889
 20
431.3078958245402
 10
-104.8623572185165
 20
431.3273085116014
 10
-104.7804882960283
 20
431.3622835847536
 10
-104.0189910827737
 20
431.6421531026229
 10
-102.6936472716039
 20
431.9358281240073
 10
-101.5835058638961
 20
431.981750378761
  0
LWPOLYLINE
  5
21A
330
A
100
AcDbEntity
  8
0
  6
PHANTOM
 62
     7
100
AcDbPolyline
 90
        6
 70
   128
 43
0.0
 10
-84.96624681147771
 20
460.2434338384642
 10
-84.96807332881088
 20
460.3685576930369
 10
-84.96832172717352
 20
460.4588111270291
 10
-84.93283191981493
 20
461.2747979600576
 10
-84.7181957462703
 20
462.5862239830011
 10
-84.54005011086884
 20
463.1998527676446
  0
LINE
  5
222
330
A
100
AcDbEntity
  8
0
  6
PHANTOM
 62
     7
100
AcDbLine
 10
-101.7618533079311
 20
435.4298267129514
 30
0.0
 11
-100.0541637814443
 21
433.7221371864645
 31
0.0
  0
LWPOLYLINE
  5
223
330
A
100
AcDbEntity
  8
0
  6
PHANTOM
 62
     7
100
AcDbPolyline
 90
        6
 70
   128
 43
0.0
 10
-84.54005011086879
 20
449.2362508570401
 10
-84.71124541583156
 20
449.8219010112856
 10
-84.93655422941605
 20
451.205472285932
 10
-84.96821163754921
 20
451.9443822071206
 10
-84.96761517405973
 20
452.115504943422
 10
-84.96621611932805
 20
452.1981048199894
  0
LINE
  5
22B
330
A
100
AcDbEntity
  8
0
  6
PHANTOM
 62
     7
100
AcDbLine
 10
-99.35191266040568
 20
421.0048483767457
 30
0.0
 11
-96.93687497172557
 21
421.0048483767457
 31
0.0
  0
LINE
  5
22C
330
A
100
AcDbEntity
  8
0
  6
PHANTOM
 62
     7
100
AcDbLine
 10
-95.83278959760326
 20
429.5007630026234
 30
0.0
 11
-94.12510007111643
 21
427.7930734761366
 31
0.0
  0
LWPOLYLINE
  5
22D
330
A
100
AcDbEntity
  8
0
  6
PHANTOM
 62
     7
100
AcDbPolyline
 90
        6
 70
   128
 43
0.0
 10
-77.35517512604781
 20
444.5887266511885
 10
-77.33603329934182
 20
444.5890627776119
 10
-77.67650108634433
 20
444.5872608276625
 10
-77.79218740664892
 20
444.5892737869574
 10
-78.79644799395224
 20
444.6660900303605
 10
-80.31867592702768
 20
445.0148766731992
  0
LWPOLYLINE
  5
235
330
A
100
AcDbEntity
  8
0
  6
PHANTOM
 62
     7
100
AcDbPolyline
 90
        7
 70
   128
 43
0.0
 10
-62.27068586818582
 20
461.59799802948
 10
-62.28847636469247
 20
461.6154246421701
 10
-62.28610599442746
 20
461.6131568446482
 10
-62.24146238676798
 20
461.5701740108442
 10
-61.81746464666082
 20
461.1338516109223
 10
-61.00001046298848
 20
460.0979214214716
 10
-60.47815505962787
 20
459.2030141236623
  0
LWPOLYLINE
  5
23E
330
A
100
AcDbEntity
  8
0
  6
PHANTOM
 62
     7
100
AcDbPolyline
 90
        5
 70
   128
 43
0.0
 10
-60.47815505962787
 20
453.2330895010225
 10
-60.7860881475494
 20
452.6732204394388
 10
-61.56163568759595
 20
451.5941315117895
 10
-62.11353042714303
 20
450.9920466053499
 10
-62.27085519758407
 20
450.8379397292417
  0
ARC
  5
245
330
A
100
AcDbEntity
  8
0
  6
Continuous
 62
     7
100
AcDbCircle
 10
-165.7968749717255
 20
-322.7431062219963
 30
0.0
 40
7.0
100
AcDbArc
 50
270.0000000000003
 51
0.0
  0
ARC
  5
246
330
A
100
AcDbEntity
  8
0
  6
Continuous
 62
     7
100
AcDbCircle
 10
-165.7968749717255
 20
-256.7431062219963
 30
0.0
 40
7.0
100
AcDbArc
 50
0.0
 51
90.00000000000047
  0
LINE
  5
247
330
A
100
AcDbEntity
  8
0
  6
Continuous
 62
     7
100
AcDbLine
 10
-174.7968749717255
 20
-329.7431062219963
 30
0.0
 11
-165.7968749717255
 21
-329.7431062219963
 31
0.0
  0
LINE
  5
248
330
A
100
AcDbEntity
  8
0
  6
Continuous
 62
     7
100
AcDbLine
 10
-165.7968749717255
 20
-249.7431062219963
 30
0.0
 11
-174.7968749717255
 21
-249.7431062219963
 31
0.0
  0
LINE
  5
249
330
A
100
AcDbEntity
  8
0
  6
Continuous
 62
     7
100
AcDbLine
 10
-176.7968749717255
 20
-328.2431062219963
 30
0.0
 11
-174.7968749717255
 21
-328.2431062219963
 31
0.0
  0
LINE
  5
24A
330
A
100
AcDbEntity
  8
0
  6
Continuous
 62
     7
100
AcDbLine
 10
-174.7968749717255
 20
-251.2431062219963
 30
0.0
 11
-176.7968749717255
 21
-251.2431062219963
 31
0.0
  0
LINE
  5
24B
330
A
100
AcDbEntity
  8
0
  6
Continuous
 62
     7
100
AcDbLine
 10
-101.2727966486369
 20
-294.7431062219981
 30
0.0
 11
-101.2727966486369
 21
-294.2350519820083
 31
0.0
  0
LINE
  5
24C
330
A
100
AcDbEntity
  8
0
  6
Continuous
 62
     7
100
AcDbLine
 10
-101.272796648637
 20
-285.2504234379016
 30
0.0
 11
-101.272796648637
 21
-284.743106221998
 31
0.0
  0
LINE
  5
24D
330
A
100
AcDbEntity
  8
0
  6
Continuous
 62
     7
100
AcDbLine
 10
-107.272796648637
 20
-284.7431062219981
 30
0.0
 11
-107.272796648637
 21
-285.2431062219979
 31
0.0
  0
LINE
  5
24E
330
A
100
AcDbEntity
  8
0
  6
Continuous
 62
     7
100
AcDbLine
 10
-107.2727966486369
 20
-294.2431062219979
 30
0.0
 11
-107.272796648637
 21
-294.7431062219981
 31
0.0
  0
LINE
  5
24F
330
A
100
AcDbEntity
  8
0
  6
Continuous
 62
     7
100
AcDbLine
 10
395.3369275133244
 20
-283.584161183095
 30
0.0
 11
395.2446551446187
 21
-284.2017001707116
 31
0.0
  0
LINE
  5
250
330
A
100
AcDbEntity
  8
0
  6
Continuous
 62
     7
100
AcDbLine
 10
395.244655144619
 20
-295.2845122732782
 30
0.0
 11
395.3366515761403
 21
-295.900204532867
 31
0.0
  0
LWPOLYLINE
  5
251
330
A
100
AcDbEntity
  8
0
  6
Continuous
 62
     7
100
AcDbPolyline
 90
        9
 70
   128
 43
0.0
 10
-113.4681754744846
 20
-285.4116302548508
 10
-113.9926856888209
 20
-285.977991658815
 10
-114.6139637741739
 20
-286.9852722959487
 10
-115.0293202714002
 20
-288.1604746283928
 10
-115.2113083961812
 20
-289.4482713191713
 10
-115.1398596264929
 20
-290.7675900160054
 10
-114.8071467445656
 20
-292.0463326095302
 10
-114.2091887812838
 20
-293.211309763177
 10
-113.4681754744845
 20
-294.0745821891456
  0
LINE
  5
25C
330
A
100
AcDbEntity
  8
0
  6
Continuous
 62
     7
100
AcDbLine
 10
-91.06533273370386
 20
-291.243106221998
 30
0.0
 11
-91.06533273370384
 21
-290.343106221998
 31
0.0
  0
LINE
  5
25D
330
A
100
AcDbEntity
  8
0
  6
Continuous
 62
     7
100
AcDbLine
 10
-91.06533273370384
 20
-289.143106221998
 30
0.0
 11
-91.0653327337039
 21
-288.243106221998
 31
0.0
  0
LINE
  5
25E
330
A
100
AcDbEntity
  8
0
  6
Continuous
 62
     7
100
AcDbLine
 10
266.8640717367529
 20
-289.1431062219954
 30
0.0
 11
-93.1192152319654
 21
-289.1431062219981
 31
0.0
  0
LINE
  5
25F
330
A
100
AcDbEntity
  8
0
  6
Continuous
 62
     7
100
AcDbLine
 10
-93.11920631420747
 20
-290.343106221998
 30
0.0
 11
266.8703884343476
 21
-290.3431062219954
 31
0.0
  0
ARC
  5
260
330
A
100
AcDbEntity
  8
0
  6
Continuous
 62
     7
100
AcDbCircle
 10
394.1631250282743
 20
-263.4931062219946
 30
0.0
 40
0.8000000000000682
100
AcDbArc
 50
0.0
 51
180.0000000000004
  0
ARC
  5
261
330
A
100
AcDbEntity
  8
0
  6
Continuous
 62
     7
100
AcDbCircle
 10
394.1631250282746
 20
-315.9931062219944
 30
0.0
 40
0.8000000000000682
100
AcDbArc
 50
180.0000000000004
 51
0.0
  0
LINE
  5
262
330
A
100
AcDbEntity
  8
0
  6
Continuous
 62
     7
100
AcDbLine
 10
393.3631250282742
 20
-263.4931062219946
 30
0.0
 11
393.3631250282745
 21
-315.9931062219944
 31
0.0
  0
LINE
  5
263
330
A
100
AcDbEntity
  8
0
  6
Continuous
 62
     7
100
AcDbLine
 10
401.8477503221665
 20
-263.4931062219946
 30
0.0
 11
394.9631250282743
 21
-263.4931062219946
 31
0.0
  0
LINE
  5
264
330
A
100
AcDbEntity
  8
0
  6
Continuous
 62
     7
100
AcDbLine
 10
394.9631250282746
 20
-315.9931062219944
 30
0.0
 11
401.8217495080279
 21
-315.9931062219943
 31
0.0
  0
LINE
  5
265
330
A
100
AcDbEntity
  8
0
  6
Continuous
 62
     7
100
AcDbLine
 10
356.7648181627114
 20
-265.7931062219948
 30
0.0
 11
354.1631250282742
 21
-265.7931062219948
 31
0.0
  0
LINE
  5
266
330
A
100
AcDbEntity
  8
0
  6
Continuous
 62
     7
100
AcDbLine
 10
374.1631250282742
 20
-265.7931062219947
 30
0.0
 11
371.6631250282741
 21
-265.7931062219947
 31
0.0
  0
LINE
  5
267
330
A
100
AcDbEntity
  8
0
  6
Continuous
 62
     7
100
AcDbLine
 10
371.6631250282743
 20
-313.6931062219946
 30
0.0
 11
374.1631250282745
 21
-313.6931062219946
 31
0.0
  0
LINE
  5
268
330
A
100
AcDbEntity
  8
0
  6
Continuous
 62
     7
100
AcDbLine
 10
354.1631250282745
 20
-313.6931062219947
 30
0.0
 11
356.7648181627117
 21
-313.6931062219947
 31
0.0
  0
LINE
  5
269
330
A
100
AcDbEntity
  8
0
  6
Continuous
 62
     7
100
AcDbLine
 10
354.1631250282742
 20
-268.4931062219948
 30
0.0
 11
322.1631250282743
 21
-268.493106221995
 31
0.0
  0
LINE
  5
26A
330
A
100
AcDbEntity
  8
0
  6
Continuous
 62
     7
100
AcDbLine
 10
322.1631250282746
 20
-310.993106221995
 30
0.0
 11
354.1631250282745
 21
-310.9931062219947
 31
0.0
  0
ARC
  5
26B
330
A
100
AcDbEntity
  8
0
  6
Continuous
 62
     7
100
AcDbCircle
 10
322.1631250282744
 20
-278.493106221995
 30
0.0
 40
10.00000000000005
100
AcDbArc
 50
90.00000000000033
 51
180.0000000000004
  0
ARC
  5
26C
330
A
100
AcDbEntity
  8
0
  6
Continuous
 62
     7
100
AcDbCircle
 10
322.1631250282745
 20
-300.993106221995
 30
0.0
 40
9.999999999999943
100
AcDbArc
 50
180.0000000000004
 51
270.0000000000015
  0
LINE
  5
26D
330
A
100
AcDbEntity
  8
0
  6
Continuous
 62
     7
100
AcDbLine
 10
393.3631250282743
 20
-268.4931062219946
 30
0.0
 11
374.1631250282743
 21
-268.4931062219947
 31
0.0
  0
LINE
  5
26E
330
A
100
AcDbEntity
  8
0
  6
Continuous
 62
     7
100
AcDbLine
 10
374.1631250282746
 20
-310.9931062219946
 30
0.0
 11
393.3631250282745
 21
-310.9931062219944
 31
0.0
  0
LINE
  5
26F
330
A
100
AcDbEntity
  8
0
  6
Continuous
 62
     7
100
AcDbLine
 10
-55.33687497172557
 20
-284.7431062219976
 30
0.0
 11
-55.3368749717256
 21
-279.7431062219976
 31
0.0
  0
LINE
  5
270
330
A
100
AcDbEntity
  8
0
  6
Continuous
 62
     7
100
AcDbLine
 10
-91.33687497172568
 20
-279.7431062219979
 30
0.0
 11
-91.33687497172564
 21
-284.7431062219979
 31
0.0
  0
LINE
  5
271
330
A
100
AcDbEntity
  8
0
  6
Continuous
 62
     7
100
AcDbLine
 10
277.6631250282745
 20
-289.5856525595358
 30
0.0
 11
277.6631250282744
 21
-284.7431062219953
 31
0.0
  0
LINE
  5
272
330
A
100
AcDbEntity
  8
0
  6
Continuous
 62
     7
100
AcDbLine
 10
277.6631250282745
 20
-294.7431062219953
 30
0.0
 11
277.6631250282745
 21
-289.5856525595358
 31
0.0
  0
LINE
  5
273
330
A
100
AcDbEntity
  8
0
  6
Continuous
 62
     7
100
AcDbLine
 10
262.6631250282744
 20
-290.3431062219955
 30
0.0
 11
262.6631250282745
 21
-294.7431062219954
 31
0.0
  0
LINE
  5
274
330
A
100
AcDbEntity
  8
0
  6
Continuous
 62
     7
100
AcDbLine
 10
262.6631250282744
 20
-284.7431062219954
 30
0.0
 11
262.6631250282744
 21
-289.1431062219955
 31
0.0
  0
LINE
  5
275
330
A
100
AcDbEntity
  8
0
  6
Continuous
 62
     7
100
AcDbLine
 10
371.6631250282741
 20
-265.7931062219947
 30
0.0
 11
371.663125028274
 21
-254.7431062219946
 31
0.0
  0
LINE
  5
276
330
A
100
AcDbEntity
  8
0
  6
Continuous
 62
     7
100
AcDbLine
 10
356.6631250282743
 20
-260.7431062219948
 30
0.0
 11
356.6631250282743
 21
-265.8247479929999
 31
0.0
  0
LINE
  5
277
330
A
100
AcDbEntity
  8
0
  6
Continuous
 62
     7
100
AcDbLine
 10
356.6631250282743
 20
-254.7431062219948
 30
0.0
 11
356.6631250282743
 21
-256.7431062219948
 31
0.0
  0
LINE
  5
278
330
A
100
AcDbEntity
  8
0
  6
Continuous
 62
     7
100
AcDbLine
 10
371.6631250282746
 20
-324.7431062219947
 30
0.0
 11
371.6631250282745
 21
-313.6931062219946
 31
0.0
  0
LINE
  5
279
330
A
100
AcDbEntity
  8
0
  6
Continuous
 62
     7
100
AcDbLine
 10
356.6631250282747
 20
-322.7431062219948
 30
0.0
 11
356.6631250282746
 21
-324.7431062219948
 31
0.0
  0
LINE
  5
27A
330
A
100
AcDbEntity
  8
0
  6
Continuous
 62
     7
100
AcDbLine
 10
356.6631250282746
 20
-313.6614644509897
 30
0.0
 11
356.6631250282747
 21
-318.7431062219947
 31
0.0
  0
LINE
  5
27B
330
A
100
AcDbEntity
  8
0
  6
Continuous
 62
     7
100
AcDbLine
 10
-28.33687497172552
 20
-296.7431062219974
 30
0.0
 11
261.6631250282745
 21
-296.7431062219954
 31
0.0
  0
LINE
  5
27C
330
A
100
AcDbEntity
  8
0
  6
Continuous
 62
     7
100
AcDbLine
 10
261.6631250282744
 20
-282.7431062219954
 30
0.0
 11
-28.33687497172563
 21
-282.7431062219974
 31
0.0
  0
LINE
  5
27D
330
A
100
AcDbEntity
  8
0
  6
Continuous
 62
     7
100
AcDbLine
 10
312.1631250282744
 20
-283.4931062219951
 30
0.0
 11
303.1631250282743
 21
-283.4931062219951
 31
0.0
  0
LINE
  5
27E
330
A
100
AcDbEntity
  8
0
  6
Continuous
 62
     7
100
AcDbLine
 10
303.1631250282745
 20
-295.9931062219951
 30
0.0
 11
312.1631250282745
 21
-295.9931062219951
 31
0.0
  0
LINE
  5
27F
330
A
100
AcDbEntity
  8
0
  6
Continuous
 62
     7
100
AcDbLine
 10
-68.33687497172554
 20
-294.7431062219977
 30
0.0
 11
-68.33687497172554
 21
-294.2431062219977
 31
0.0
  0
LINE
  5
280
330
A
100
AcDbEntity
  8
0
  6
Continuous
 62
     7
100
AcDbLine
 10
-78.33687497172554
 20
-294.2431062219979
 30
0.0
 11
-78.33687497172554
 21
-294.7431062219978
 31
0.0
  0
LINE
  5
281
330
A
100
AcDbEntity
  8
0
  6
Continuous
 62
     7
100
AcDbLine
 10
-68.33687497172561
 20
-285.2431062219977
 30
0.0
 11
-68.33687497172561
 21
-284.7431062219977
 31
0.0
  0
LINE
  5
282
330
A
100
AcDbEntity
  8
0
  6
Continuous
 62
     7
100
AcDbLine
 10
-78.33687497172562
 20
-284.7431062219978
 30
0.0
 11
-78.33687497172562
 21
-285.2431062219978
 31
0.0
  0
LWPOLYLINE
  5
283
330
A
100
AcDbEntity
  8
0
  6
Continuous
 62
     7
100
AcDbPolyline
 90
       45
 70
   128
 43
0.0
 10
528.8284804324008
 20
-289.7431062219936
 10
528.7874656315428
 20
-287.1559101423668
 10
528.4892830674876
 20
-282.3110647108231
 10
527.9035406782854
 20
-277.4969932284099
 10
527.0327052594588
 20
-272.7347659840317
 10
525.8804330212459
 20
-268.0446270148607
 10
524.4515760227235
 20
-263.4465243178591
 10
522.7521647926273
 20
-258.9600263483134
 10
520.7893864121891
 20
-254.6042390128749
 10
518.5715579264182
 20
-250.3977235507266
 10
516.1080948795765
 20
-246.358415521355
 10
513.4094747281478
 20
-242.5035451924368
 10
510.487194860944
 20
-238.8495597245007
 10
507.353724965077
 20
-235.4120476780289
 10
504.0224535337507
 20
-232.2056665152483
 10
500.5076284309973
 20
-229.2440739165072
 10
496.8242916175007
 20
-226.5398638549385
 10
492.9882083977035
 20
-224.1045084417106
 10
489.0157918534316
 20
-221.9483065343886
 10
484.9240234479371
 20
-220.0803399654864
 10
480.7303710659218
 20
-218.5084379851087
 10
476.4527059410668
 20
-217.2391501323641
 10
472.1092199586572
 20
-216.2777272953526
 10
467.718344672285
 20
-215.6281102557466
 10
463.298673038876
 20
-215.2929246239442
 10
458.8688843941794
 20
-215.2734808350298
 10
454.4476726377263
 20
-215.5697778521335
 10
450.0537690683329
 20
-216.1804932942908
 10
445.7056891890625
 20
-217.1030037902294
 10
441.4217471009647
 20
-218.3334018656475
 10
437.2199956204932
 20
-219.8665087483463
 10
433.1181592500176
 20
-221.6958895443761
 10
429.1335655540041
 20
-223.8138716073052
 10
425.2830748145917
 20
-226.2115672873548
 10
421.5830083476536
 20
-228.8789021997251
 10
418.049076290362
 20
-231.8046499154712
 10
414.696305959748
 20
-234.9764736177173
 10
411.5389720032608
 20
-238.380974857751
 10
408.590529526787
 20
-242.003749160857
 10
405.863551228457
 20
-245.8294479229486
 10
403.3696693361056
 20
-249.8418458333286
 10
401.1195228907517
 20
-254.023912959554
 10
399.1227106772609
 20
-258.3578906226025
 10
397.3877499021093
 20
-262.8253702498631
 10
397.1741519230124
 20
-263.4931062219946
  0
LWPOLYLINE
  5
2B2
330
A
100
AcDbEntity
  8
0
  6
Continuous
 62
     7
100
AcDbPolyline
 90
       44
 70
   128
 43
0.0
 10
397.1792095876634
 20
-315.9931062219944
 10
398.5029900035939
 20
-319.623267826768
 10
400.4128170352944
 20
-324.0071747492216
 10
402.5794766106235
 20
-328.2455384868277
 10
404.9937739096178
 20
-332.3202896668957
 10
407.6454443273824
 20
-336.2140481403264
 10
410.5231943345923
 20
-339.9102012006261
 10
413.6147479418146
 20
-343.3929795989294
 10
416.9068989879685
 20
-346.6475307133646
 10
420.3855693675708
 20
-349.6599880818916
 10
424.035873136819
 20
-352.4175363767299
 10
427.8421861952024
 20
-354.9084708159018
 10
431.7882209420027
 20
-357.1222500067163
 10
435.8571049874282
 20
-359.049541326278
 10
440.0314627043382
 20
-360.682258181401
 10
444.2934981962726
 20
-362.0135888481985
 10
448.6250781873204
 20
-363.0380170357869
 10
453.0078134489778
 20
-363.7513347868918
 10
457.4231376778426
 20
-364.1506487401029
 10
461.8523831952169
 20
-364.2343810513811
 10
466.2768533859514
 20
-364.0022663421352
 10
470.6778199379936
 20
-363.455357503158
 10
475.0367153676116
 20
-362.5960153821728
 10
479.3351805060724
 20
-361.4278871249104
 10
483.5551039830843
 20
-359.9558939683884
 10
487.678688987487
 20
-358.1862165812385
 10
491.6885215396503
 20
-356.1262774379831
 10
495.5676405007624
 20
-353.7847190580567
 10
499.299609037726
 20
-351.1713769436856
 10
502.8685868101615
 20
-348.2972462527686
 10
506.2594018254843
 20
-345.1744415841988
 10
509.4576207522576
 20
-341.8161496578333
 10
512.4496164878587
 20
-338.2365750657668
 10
515.2226319125715
 20
-334.4508795988651
 10
517.7648389818314
 20
-330.4751158801845
 10
520.0653925623221
 20
-326.3261561572008
 10
522.114478664316
 20
-322.0216171293558
 10
523.9033569333787
 20
-317.5797816395913
 10
525.4243974247849
 20
-313.0195179653743
 10
526.6711117910293
 20
-308.3601973313475
 10
527.6381790724619
 20
-303.6216101514739
 10
528.3214663034311
 20
-298.8238814059247
 10
528.7180441425427
 20
-293.9873854733304
 10
528.8284804324008
 20
-289.7431062219936
  0
LINE
  5
2E0
330
A
100
AcDbEntity
  8
0
  6
Continuous
 62
     7
100
AcDbLine
 10
277.6631250282745
 20
-294.2431062219953
 30
0.0
 11
285.4713829517194
 21
-294.2431062219952
 31
0.0
  0
LINE
  5
2E1
330
A
100
AcDbEntity
  8
0
  6
Continuous
 62
     7
100
AcDbLine
 10
261.6631250282745
 20
-294.2431062219954
 30
0.0
 11
262.6631250282744
 21
-294.2431062219954
 31
0.0
  0
LINE
  5
2E2
330
A
100
AcDbEntity
  8
0
  6
Continuous
 62
     7
100
AcDbLine
 10
262.6631250282744
 20
-285.2431062219954
 30
0.0
 11
261.6631250282744
 21
-285.2431062219954
 31
0.0
  0
LINE
  5
2E3
330
A
100
AcDbEntity
  8
0
  6
Continuous
 62
     7
100
AcDbLine
 10
285.4636496134008
 20
-285.2431062219952
 30
0.0
 11
277.6631250282744
 21
-285.2431062219953
 31
0.0
  0
LINE
  5
2E4
330
A
100
AcDbEntity
  8
0
  6
Continuous
 62
     7
100
AcDbLine
 10
-116.3368749717256
 20
-285.2431062219979
 30
0.0
 11
-116.3368749717255
 21
-294.2431062219979
 31
0.0
  0
LINE
  5
2E5
330
A
100
AcDbEntity
  8
0
  6
Continuous
 62
     7
100
AcDbLine
 10
-114.3368749717256
 20
-284.743106221998
 30
0.0
 11
-114.3368749717256
 21
-285.2431062219979
 31
0.0
  0
LINE
  5
2E6
330
A
100
AcDbEntity
  8
0
  6
Continuous
 62
     7
100
AcDbLine
 10
-114.3368749717255
 20
-294.2431062219979
 30
0.0
 11
-114.3368749717255
 21
-294.7431062219979
 31
0.0
  0
LINE
  5
2E7
330
A
100
AcDbEntity
  8
0
  6
Continuous
 62
     7
100
AcDbLine
 10
-116.3368749717256
 20
-289.1431062219979
 30
0.0
 11
-137.7748391783267
 21
-289.143106221997
 31
0.0
  0
LINE
  5
2E8
330
A
100
AcDbEntity
  8
0
  6
Continuous
 62
     7
100
AcDbLine
 10
-137.7748407661383
 20
-290.3431062219971
 30
0.0
 11
-116.3368749717256
 21
-290.3431062219978
 31
0.0
  0
LWPOLYLINE
  5
2E9
330
A
100
AcDbEntity
  8
0
  6
Continuous
 62
     7
100
AcDbPolyline
 90
       15
 70
   128
 43
0.0
 10
-144.9022742306103
 20
-284.2053847737703
 10
-145.969582338505
 20
-284.3631084660192
 10
-146.9462234976389
 20
-284.8056276691555
 10
-147.793572834056
 20
-285.4934041802655
 10
-148.4935335243537
 20
-286.4067683252518
 10
-149.0141637900978
 20
-287.5204189072401
 10
-149.3166744029135
 20
-288.7808607086193
 10
-149.3736321788254
 20
-290.1108410237567
 10
-149.1735355115845
 20
-291.4354719325345
 10
-148.7116311697254
 20
-292.6837105438505
 10
-147.9874209140844
 20
-293.7802387943325
 10
-147.1621153240025
 20
-294.536820255915
 10
-146.2206432436801
 20
-295.0387544391494
 10
-145.2073196373283
 20
-295.2688882218007
 10
-144.8785720854218
 20
-295.2491584351761
  0
LINE
  5
2FA
330
A
100
AcDbEntity
  8
0
  6
Continuous
 62
     7
100
AcDbLine
 10
-136.0413013275788
 20
-295.283106221997
 30
0.0
 11
-109.8724055476381
 21
-295.2831062219967
 31
0.0
  0
LINE
  5
2FB
330
A
100
AcDbEntity
  8
0
  6
Continuous
 62
     7
100
AcDbLine
 10
-144.8801360924108
 20
-295.2831062219971
 30
0.0
 11
-140.6374954052914
 21
-295.2831062219971
 31
0.0
  0
LINE
  5
2FC
330
A
100
AcDbEntity
  8
0
  6
Continuous
 62
     7
100
AcDbLine
 10
-140.6374954052916
 20
-284.203106221997
 30
0.0
 11
-144.8801360924109
 21
-284.2031062219971
 31
0.0
  0
LINE
  5
2FD
330
A
100
AcDbEntity
  8
0
  6
Continuous
 62
     7
100
AcDbLine
 10
-109.8822275608896
 20
-284.2031062219967
 30
0.0
 11
-136.0413013275789
 21
-284.203106221997
 31
0.0
  0
LINE
  5
2FE
330
A
100
AcDbEntity
  8
0
  6
Continuous
 62
     7
100
AcDbLine
 10
-125.0329395021357
 20
-291.2431062219969
 30
0.0
 11
-125.0329395021357
 21
-290.3431062219975
 31
0.0
  0
LINE
  5
2FF
330
A
100
AcDbEntity
  8
0
  6
Continuous
 62
     7
100
AcDbLine
 10
-125.0329395021357
 20
-289.1431062219975
 30
0.0
 11
-125.0329395021358
 21
-288.2431062219969
 31
0.0
  0
LINE
  5
300
330
A
100
AcDbEntity
  8
0
  6
Continuous
 62
     7
100
AcDbLine
 10
-84.33687497172559
 20
-279.7431062219979
 30
0.0
 11
-84.33687497172561
 21
-275.7431062219965
 31
0.0
  0
LINE
  5
301
330
A
100
AcDbEntity
  8
0
  6
Continuous
 62
     7
100
AcDbLine
 10
-120.3368749717256
 20
-275.7431062219968
 30
0.0
 11
-120.3368749717256
 21
-280.7431062219968
 31
0.0
  0
LINE
  5
302
330
A
100
AcDbEntity
  8
0
  6
Continuous
 62
     7
100
AcDbLine
 10
-91.25687497172549
 20
-295.7431062219966
 30
0.0
 11
-91.25687497172549
 21
-294.6250730387633
 31
0.0
  0
LINE
  5
303
330
A
100
AcDbEntity
  8
0
  6
Continuous
 62
     7
100
AcDbLine
 10
-91.25687497172554
 20
-284.8611394052322
 30
0.0
 11
-91.25687497172554
 21
-284.7431062219979
 31
0.0
  0
LINE
  5
304
330
A
100
AcDbEntity
  8
0
  6
Continuous
 62
     7
100
AcDbLine
 10
-113.4168749717255
 20
-283.7431062219967
 30
0.0
 11
-113.4168749717255
 21
-284.2031062219967
 31
0.0
  0
LINE
  5
305
330
A
100
AcDbEntity
  8
0
  6
Continuous
 62
     7
100
AcDbLine
 10
-113.4168749717255
 20
-295.2831062219967
 30
0.0
 11
-113.4168749717255
 21
-295.7431062219967
 31
0.0
  0
LINE
  5
306
330
A
100
AcDbEntity
  8
0
  6
Continuous
 62
     7
100
AcDbLine
 10
-96.33687497172555
 20
-283.7431062219966
 30
0.0
 11
-96.33687497172559
 21
-280.7431062219966
 31
0.0
  0
LINE
  5
307
330
A
100
AcDbEntity
  8
0
  6
Continuous
 62
     7
100
AcDbLine
 10
-108.3368749717256
 20
-280.7431062219966
 30
0.0
 11
-108.3368749717255
 21
-283.7431062219966
 31
0.0
  0
LINE
  5
308
330
A
100
AcDbEntity
  8
0
  6
Continuous
 62
     7
100
AcDbLine
 10
-158.7968749717255
 20
-322.7431062219963
 30
0.0
 11
-158.7968749717255
 21
-256.7431063000878
 31
0.0
  0
LINE
  5
309
330
A
100
AcDbEntity
  8
0
  6
Continuous
 62
     7
100
AcDbLine
 10
-174.7968749717255
 20
-329.7431062219963
 30
0.0
 11
-174.7968749717255
 21
-249.7431062219963
 31
0.0
  0
ARC
  5
30A
330
A
100
AcDbEntity
  8
0
  6
Continuous
 62
     7
100
AcDbCircle
 10
-96.79687497172555
 20
-289.7431062219965
 30
0.0
 40
9.999999999999991
100
AcDbArc
 50
270.0000000000008
 51
333.256316049589
  0
ARC
  5
30B
330
A
100
AcDbEntity
  8
0
  6
Continuous
 62
     7
100
AcDbCircle
 10
-96.79687497172555
 20
-289.7431062219965
 30
0.0
 40
10.00000000000003
100
AcDbArc
 50
26.74368395039415
 51
30.00000000000037
  0
ARC
  5
30C
330
A
100
AcDbEntity
  8
0
  6
Continuous
 62
     7
100
AcDbCircle
 10
-96.79687497172555
 20
-289.7431062219965
 30
0.0
 40
10.00000000000003
100
AcDbArc
 50
56.90697334792632
 51
64.15806723683338
  0
ARC
  5
30D
330
A
100
AcDbEntity
  8
0
  6
Continuous
 62
     7
100
AcDbCircle
 10
-96.79687497172555
 20
-289.7431062219965
 30
0.0
 40
9.999999999999943
100
AcDbArc
 50
222.4990270804712
 51
270.0000000000008
  0
LINE
  5
30E
330
A
100
AcDbEntity
  8
0
  6
Continuous
 62
     7
100
AcDbLine
 10
-176.7968749717255
 20
-328.2431062219963
 30
0.0
 11
-176.7968749717255
 21
-251.2431062219963
 31
0.0
  0
ARC
  5
30F
330
A
100
AcDbEntity
  8
0
  6
Continuous
 62
     7
100
AcDbCircle
 10
-104.2968749717255
 20
-299.7431062219964
 30
0.0
 40
2.5
100
AcDbArc
 50
53.13010235415599
 51
90.0
  0
ARC
  5
310
330
A
100
AcDbEntity
  8
0
  6
Continuous
 62
     7
100
AcDbCircle
 10
-156.2968749717255
 20
-279.7431062219963
 30
0.0
 40
2.5
100
AcDbArc
 50
180.0000000000004
 51
270.0000000000008
  0
ARC
  5
311
330
A
100
AcDbEntity
  8
0
  6
Continuous
 62
     7
100
AcDbCircle
 10
-156.2968749717255
 20
-299.7431062219964
 30
0.0
 40
2.5
100
AcDbArc
 50
90.0
 51
180.0000000000004
  0
LINE
  5
312
330
A
100
AcDbEntity
  8
0
  6
Continuous
 62
     7
100
AcDbLine
 10
-156.2968749717255
 20
-282.2431062219964
 30
0.0
 11
-108.3368749717255
 21
-282.2431062219964
 31
0.0
  0
LINE
  5
313
330
A
100
AcDbEntity
  8
0
  6
Continuous
 62
     7
100
AcDbLine
 10
-104.2968749717255
 20
-297.2431062219964
 30
0.0
 11
-156.2968749717255
 21
-297.2431062219964
 31
0.0
  0
LINE
  5
314
330
A
100
AcDbEntity
  8
0
  6
Continuous
 62
     7
100
AcDbLine
 10
-107.272796648637
 20
-284.7431062219981
 30
0.0
 11
-101.272796648637
 21
-284.743106221998
 31
0.0
  0
LINE
  5
315
330
A
100
AcDbEntity
  8
0
  6
Continuous
 62
     7
100
AcDbLine
 10
-107.272796648637
 20
-294.7431062219981
 30
0.0
 11
-101.2727966486369
 21
-294.7431062219981
 31
0.0
  0
LWPOLYLINE
  5
316
330
A
100
AcDbEntity
  8
0
  6
Continuous
 62
     7
100
AcDbPolyline
 90
       61
 70
   128
 43
0.0
 10
455.8493978035053
 20
-289.7431062219943
 10
455.6860029542394
 20
-286.316851113456
 10
455.197608594603
 20
-282.9281347728769
 10
454.3895656754029
 20
-279.6140846856187
 10
453.2707272839564
 20
-276.4110102779471
 10
451.8533516478119
 20
-273.3540051033589
 10
450.1529678310437
 20
-270.4765623502665
 10
448.1882055945767
 20
-267.8102078836161
 10
445.9805912846265
 20
-265.384154840915
 10
443.5543119855459
 20
-263.2249835669834
 10
440.9359505210674
 20
-261.356350394134
 10
438.154194207323
 20
-259.7987284584452
 10
435.239520548606
 20
-258.5691833917977
 10
432.2238633194561
 20
-257.6811863472406
 10
429.1402626915425
 20
-257.1444664062194
 10
426.0225032386298
 20
-256.9649039847238
 10
422.904743785717
 20
-257.1444664062195
 10
419.8211431578035
 20
-257.6811863472407
 10
416.8054859286536
 20
-258.5691833917979
 10
413.8908122699366
 20
-259.7987284584454
 10
411.1090559561922
 20
-261.3563503941343
 10
408.4906944917135
 20
-263.2249835669838
 10
406.064415192633
 20
-265.3841548409154
 10
403.856800882683
 20
-267.8102078836165
 10
401.8920386462161
 20
-270.4765623502669
 10
400.1916548294479
 20
-273.3540051033594
 10
398.7742791933034
 20
-276.4110102779476
 10
397.6554408018569
 20
-279.6140846856192
 10
396.8473978826572
 20
-282.9281347728773
 10
396.3590035230208
 20
-286.3168511134566
 10
396.1956086737549
 20
-289.7431062219948
 10
396.3590035230208
 20
-293.1693613305331
 10
396.8473978826573
 20
-296.5580776711123
 10
397.6554408018572
 20
-299.8721277583704
 10
398.7742791933038
 20
-303.0752021660419
 10
400.1916548294484
 20
-306.1322073406302
 10
401.8920386462165
 20
-309.0096500937226
 10
403.8568008826835
 20
-311.6760045603729
 10
406.0644151926338
 20
-314.102057603074
 10
408.4906944917143
 20
-316.2612288770056
 10
411.1090559561929
 20
-318.1298620498549
 10
413.8908122699374
 20
-319.6874839855437
 10
416.8054859286544
 20
-320.9170290521912
 10
419.8211431578044
 20
-321.8050260967483
 10
422.9047437857178
 20
-322.3417460377695
 10
426.0225032386307
 20
-322.5213084592651
 10
429.1402626915433
 20
-322.3417460377693
 10
432.2238633194568
 20
-321.8050260967481
 10
435.2395205486068
 20
-320.9170290521909
 10
438.1541942073238
 20
-319.6874839855433
 10
440.9359505210682
 20
-318.1298620498545
 10
443.5543119855467
 20
-316.2612288770049
 10
445.9805912846271
 20
-314.1020576030733
 10
448.1882055945773
 20
-311.6760045603722
 10
450.1529678310442
 20
-309.0096500937218
 10
451.8533516478122
 20
-306.1322073406292
 10
453.2707272839568
 20
-303.075202166041
 10
454.3895656754033
 20
-299.8721277583694
 10
455.197608594603
 20
-296.5580776711113
 10
455.6860029542394
 20
-293.1693613305321
 10
455.8493978035053
 20
-289.7431062219943
  0
LWPOLYLINE
  5
355
330
A
100
AcDbEntity
  8
0
  6
Continuous
 62
     7
100
AcDbPolyline
 90
       33
 70
   128
 43
0.0
 10
425.8976933294915
 20
-255.5441925179758
 10
424.3769593334215
 20
-255.5880323494431
 10
421.2407555983477
 20
-255.9385096265751
 10
418.1529073873896
 20
-256.6358678097042
 10
415.1451002017179
 20
-257.672951060195
 10
412.2481982132711
 20
-259.0391175004998
 10
409.4919275565855
 20
-260.7203484142223
 10
406.9045712984285
 20
-262.6993920971189
 10
404.5126792152616
 20
-264.955940882929
 10
402.340795356605
 20
-267.4668395275119
 10
400.411206189877
 20
-270.2063228129854
 10
398.7437119110796
 20
-273.1462799337273
 10
397.3554232679934
 20
-276.2565429512811
 10
396.2605859807516
 20
-279.5051963582285
 10
395.4704345614723
 20
-282.8589045744838
 10
394.9930770329634
 20
-286.2832540154557
 10
394.8334117294351
 20
-289.7431062219948
 10
394.9930770329634
 20
-293.2029584285339
 10
395.4704345614725
 20
-296.6273078695059
 10
396.2605859807518
 20
-299.9810160857611
 10
397.3554232679939
 20
-303.2296694927085
 10
398.74371191108
 20
-306.3399325102623
 10
400.4112061898775
 20
-309.2798896310041
 10
402.3407953566055
 20
-312.0193729164776
 10
404.5126792152623
 20
-314.5302715610604
 10
406.9045712984292
 20
-316.7868203468704
 10
409.4919275565862
 20
-318.765864029767
 10
412.2481982132719
 20
-320.4470949434894
 10
415.1451002017187
 20
-321.8132613837941
 10
418.1529073873904
 20
-322.8503446342849
 10
421.2407555983485
 20
-323.5477028174139
 10
424.3769593334224
 20
-323.8981800945459
 10
425.9385523282022
 20
-323.9420704631895
  0
LWPOLYLINE
  5
378
330
A
100
AcDbEntity
  8
0
  6
Continuous
 62
     7
100
AcDbPolyline
 90
       10
 70
   128
 43
0.0
 10
395.3662532454466
 20
-283.5875577904636
 10
395.442649380412
 20
-282.9303195425556
 10
396.2637560713034
 20
-279.0232546525794
 10
397.3183636535216
 20
-275.4511917118675
 10
398.4845794652039
 20
-272.2426755096744
 10
399.7562981483586
 20
-269.1712221590195
 10
400.8480286841477
 20
-266.6752919084759
 10
401.5971604051182
 20
-264.8630392633949
 10
401.9296886662051
 20
-263.7827893656989
 10
401.8477503221665
 20
-263.5012254660387
  0
LWPOLYLINE
  5
384
330
A
100
AcDbEntity
  8
0
  6
Continuous
 62
     7
100
AcDbPolyline
 90
       10
 70
   128
 43
0.0
 10
401.8217495080279
 20
-315.9353203550052
 10
401.9346058175261
 20
-315.7737116586579
 10
401.7000033669306
 20
-314.8941354851258
 10
401.1546405494447
 20
-313.5268828702984
 10
400.3518512597913
 20
-311.6778068214665
 10
399.3021508615816
 20
-309.2501465202349
 10
398.1581674593639
 20
-306.3963684384191
 10
396.8862322608044
 20
-302.6770009466394
 10
395.8123234574256
 20
-298.532794565432
 10
395.3485628427105
 20
-295.8981016759089
  0
LWPOLYLINE
  5
390
330
A
100
AcDbEntity
  8
0
  6
Continuous
 62
     7
100
AcDbPolyline
 90
       41
 70
   128
 43
0.0
 10
524.2687145171593
 20
-289.7431062219936
 10
524.1080611401091
 20
-284.7436052816764
 10
523.6269013760018
 20
-279.7690116035612
 10
522.8276323385793
 20
-274.8441083631229
 10
521.7142359459816
 20
-269.9934311805752
 10
520.2922590830309
 20
-265.241145885645
 10
518.568785966931
 20
-260.6109281246244
 10
516.5524028540529
 20
-256.1258454094919
 10
514.2531552636377
 20
-251.8082421967277
 10
511.6824979315252
 20
-247.6796285683558
 10
508.8532377432362
 20
-243.7605730697971
 10
505.7794699307125
 20
-240.0706002384109
 10
502.4765078505809
 20
-236.6280933332321
 10
498.9608066937805
 20
-233.4502027504988
 10
495.2498815066294
 20
-230.5527605812415
 10
491.3622199317448
 20
-227.9502017366015
 10
487.3171901035376
 20
-225.6554920338303
 10
483.1349441571405
 20
-223.6800636012396
 10
478.8363178314852
 20
-222.0337579239135
 10
474.4427266666986
 20
-220.7247768139249
 10
469.9760593129593
 20
-219.7596415493198
 10
465.4585684823437
 20
-219.1431603854388
 10
460.9127600869328
 20
-218.8784046004304
 10
456.3612811154918
 20
-218.966693194298
 10
451.8268068073098
 20
-219.4075863177078
 10
447.3319276852993
 20
-220.1988874632966
 10
442.899037011147
 20
-221.3366544085608
 10
438.5502192232102
 20
-222.8152188558105
 10
434.3071399129562
 20
-224.6272146713436
 10
430.1909378880753
 20
-226.7636145831532
 10
426.2221198600044
 20
-229.2137751543428
 10
422.4204582805216
 20
-231.9654898081937
 10
418.8048928363866
 20
-235.0050496407158
 10
415.3934360927736
 20
-238.3173117177179
 10
412.2030837555774
 20
-241.8857745161443
 10
409.2497299996628
 20
-245.6926601338324
 10
406.5480882848834
 20
-249.7190028581269
 10
404.1116180543657
 20
-253.9447436521067
 10
401.9524576802395
 20
-258.3488300876974
 10
400.0813639908801
 20
-262.909321227809
 10
399.8668151336794
 20
-263.4931062219946
  0
LWPOLYLINE
  5
3BB
330
A
100
AcDbEntity
  8
0
  6
Continuous
 62
     7
100
AcDbPolyline
 90
       41
 70
   128
 43
0.0
 10
399.8668151336799
 20
-315.9931062219943
 10
400.0813639908809
 20
-316.5768912161805
 10
401.9524576802404
 20
-321.1373823562921
 10
404.1116180543665
 20
-325.5414687918826
 10
406.5480882848846
 20
-329.7672095858624
 10
409.2497299996641
 20
-333.7935523101568
 10
412.2030837555787
 20
-337.6004379278448
 10
415.3934360927748
 20
-341.1689007262711
 10
418.8048928363881
 20
-344.4811628032732
 10
422.4204582805233
 20
-347.5207226357951
 10
426.2221198600061
 20
-350.2724372896458
 10
430.1909378880771
 20
-352.7225978608354
 10
434.307139912958
 20
-354.8589977726449
 10
438.5502192232118
 20
-356.6709935881779
 10
442.8990370111488
 20
-358.1495580354275
 10
447.3319276853011
 20
-359.2873249806916
 10
451.8268068073115
 20
-360.0786261262803
 10
456.3612811154936
 20
-360.5195192496899
 10
460.9127600869346
 20
-360.6078078435573
 10
465.4585684823454
 20
-360.3430520585488
 10
469.9760593129611
 20
-359.7265708946677
 10
474.4427266667003
 20
-358.7614356300625
 10
478.8363178314869
 20
-357.4524545200737
 10
483.1349441571421
 20
-355.8061488427475
 10
487.3171901035392
 20
-353.8307204101568
 10
491.3622199317465
 20
-351.5360107073854
 10
495.2498815066309
 20
-348.9334518627454
 10
498.9608066937819
 20
-346.0360096934879
 10
502.4765078505821
 20
-342.8581191107546
 10
505.7794699307137
 20
-339.4156122055757
 10
508.8532377432373
 20
-335.7256393741894
 10
511.6824979315262
 20
-331.8065838756307
 10
514.2531552636385
 20
-327.6779702472587
 10
516.5524028540535
 20
-323.3603670344944
 10
518.5687859669317
 20
-318.8752843193619
 10
520.2922590830316
 20
-314.2450665583413
 10
521.714235945982
 20
-309.492781263411
 10
522.8276323385796
 20
-304.6421040808632
 10
523.626901376002
 20
-299.717200840425
 10
524.108061140109
 20
-294.7426071623098
 10
524.2687145171593
 20
-289.7431062219936
  0
LWPOLYLINE
  5
3E6
330
A
100
AcDbEntity
  8
0
  6
Continuous
 62
     7
100
AcDbPolyline
 90
       10
 70
   128
 43
0.0
 10
438.6758274786031
 20
-260.0605868200836
 10
438.5250524782574
 20
-259.9862610204894
 10
435.6286325372519
 20
-258.7644162219296
 10
432.6318614553077
 20
-257.8819804337181
 10
429.5675724835135
 20
-257.3486218070122
 10
426.4693386130876
 20
-257.1701839305386
 10
423.3711047426619
 20
-257.3486218070123
 10
420.3068157708676
 20
-257.8819804337182
 10
417.3100446889235
 20
-258.7644162219298
 10
416.6554639172249
 20
-259.0074525406576
  0
LWPOLYLINE
  5
3F2
330
A
100
AcDbEntity
  8
0
  6
Continuous
 62
     7
100
AcDbPolyline
 90
       10
 70
   128
 43
0.0
 10
415.721290593053
 20
-320.0990394765986
 10
417.3100446889242
 20
-320.7217962220594
 10
420.3068157708683
 20
-321.6042320102708
 10
423.3711047426626
 20
-322.1375906369766
 10
426.4693386130885
 20
-322.3160285134503
 10
429.5675724835143
 20
-322.1375906369766
 10
432.6318614553086
 20
-321.6042320102706
 10
435.6286325372527
 20
-320.721796222059
 10
438.5250524782582
 20
-319.4999514234991
 10
438.6758274786039
 20
-319.4256256239049
  0
LWPOLYLINE
  5
3FE
330
A
100
AcDbEntity
  8
0
  6
Continuous
 62
     7
100
AcDbPolyline
 90
       38
 70
   128
 43
0.0
 10
438.1809389174347
 20
-289.7431062219943
 10
438.0173268611796
 20
-287.6305959679712
 10
437.5311975133854
 20
-285.5788587877187
 10
436.7365359302944
 20
-283.646919424324
 10
435.6562030788153
 20
-281.8903562557989
 10
434.3212781681284
 20
-280.3597024063354
 10
432.7701645574223
 20
-279.098992000328
 10
431.0474849611718
 20
-278.1444933807881
 10
429.202797734886
 20
-277.5236657351484
 10
427.2891711714514
 20
-277.254369144436
 10
425.3616568229673
 20
-277.3443507812586
 10
423.4757057678227
 20
-277.7910220377539
 10
421.685573384132
 20
-278.581532995125
 10
420.0427585212877
 20
-279.6931420924078
 10
418.5945219718288
 20
-281.0938703597752
 10
417.3825268644853
 20
-282.7434213952746
 10
416.4416400918217
 20
-284.5943406189446
 10
415.7989292532191
 20
-286.5933804546805
 10
415.4728839693235
 20
-288.6830321660507
 10
415.4728839693237
 20
-290.8031802779385
 10
415.7989292532192
 20
-292.8928319893087
 10
416.4416400918218
 20
-294.8918718250445
 10
417.3825268644854
 20
-296.7427910487145
 10
418.594521971829
 20
-298.3923420842138
 10
420.0427585212881
 20
-299.7930703515812
 10
421.6855733841324
 20
-300.904679448864
 10
423.4757057678232
 20
-301.695190406235
 10
425.3616568229678
 20
-302.1418616627303
 10
427.2891711714519
 20
-302.2318432995529
 10
429.2027977348864
 20
-301.9625467088403
 10
431.0474849611721
 20
-301.3417190632006
 10
432.7701645574228
 20
-300.3872204436606
 10
434.3212781681287
 20
-299.1265100376533
 10
435.6562030788154
 20
-297.5958561881897
 10
436.7365359302944
 20
-295.8392930196646
 10
437.5311975133854
 20
-293.9073536562699
 10
438.0173268611796
 20
-291.8556164760172
 10
438.1809389174347
 20
-289.7431062219943
  0
LWPOLYLINE
  5
426
330
A
100
AcDbEntity
  8
0
  6
Continuous
 62
     7
100
AcDbPolyline
 90
       20
 70
   128
 43
0.0
 10
427.0137696528462
 20
-277.2451832587567
 10
425.7763500656238
 20
-277.3443507812585
 10
423.8903990104793
 20
-277.7910220377538
 10
422.1002666267884
 20
-278.5815329951248
 10
420.4574517639442
 20
-279.6931420924078
 10
419.0092152144853
 20
-281.0938703597752
 10
417.7972201071417
 20
-282.7434213952746
 10
416.856333334478
 20
-284.5943406189446
 10
416.2136224958755
 20
-286.5933804546805
 10
415.88757721198
 20
-288.6830321660507
 10
415.8875772119801
 20
-290.8031802779385
 10
416.2136224958756
 20
-292.8928319893087
 10
416.8563333344782
 20
-294.8918718250445
 10
417.7972201071419
 20
-296.7427910487145
 10
419.0092152144856
 20
-298.3923420842139
 10
420.4574517639446
 20
-299.7930703515813
 10
422.1002666267887
 20
-300.9046794488641
 10
423.8903990104797
 20
-301.6951904062351
 10
425.7763500656243
 20
-302.1418616627304
 10
427.0137696528466
 20
-302.2410291852321
  0
LWPOLYLINE
  5
43C
330
A
100
AcDbEntity
  8
0
  6
Continuous
 62
     7
100
AcDbPolyline
 90
        7
 70
   128
 43
0.0
 10
-110.5983308633059
 20
-287.2431062219982
 10
-110.5955199545834
 20
-287.2329850316685
 10
-110.4044079196899
 20
-286.7063614345916
 10
-110.064273447607
 20
-286.1132879456392
 10
-109.6449279257926
 20
-285.6486855884803
 10
-109.1778348687642
 20
-285.3482268115938
 10
-108.7028472826923
 20
-285.2431062219982
  0
LWPOLYLINE
  5
445
330
A
100
AcDbEntity
  8
0
  6
Continuous
 62
     7
100
AcDbPolyline
 90
        7
 70
   128
 43
0.0
 10
-108.7028472826923
 20
-294.2431062219982
 10
-109.1778348687642
 20
-294.1379856324024
 10
-109.6449279257927
 20
-293.837526855516
 10
-110.064273447607
 20
-293.3729244983571
 10
-110.40440791969
 20
-292.7798510094047
 10
-110.5955199545836
 20
-292.2532274123279
 10
-110.5983308633059
 20
-292.2431062219981
  0
LWPOLYLINE
  5
44E
330
A
100
AcDbEntity
  8
0
  6
Continuous
 62
     7
100
AcDbPolyline
 90
        9
 70
   128
 43
0.0
 10
-100.6046908704459
 20
-288.2431062219981
 10
-100.5696495277409
 20
-288.4265186624356
 10
-100.5391921522036
 20
-288.6115608502069
 10
-100.5133564457145
 20
-288.7980037295154
 10
-100.4921743891877
 20
-288.9856165107085
 10
-100.4756722029835
 20
-289.1741669559621
 10
-100.4638703144511
 20
-289.3634216667584
 10
-100.4567833326429
 20
-289.5531463727987
 10
-100.4544200302299
 20
-289.7431062219981
  0
LWPOLYLINE
  5
459
330
A
100
AcDbEntity
  8
0
  6
Continuous
 62
     7
100
AcDbPolyline
 90
        9
 70
   128
 43
0.0
 10
-100.4544200302299
 20
-289.7431062219981
 10
-100.4567833326429
 20
-289.9330660711973
 10
-100.4638703144511
 20
-290.1227907772378
 10
-100.4756722029835
 20
-290.3120454880339
 10
-100.4921743891877
 20
-290.5005959332877
 10
-100.5133564457145
 20
-290.6882087144808
 10
-100.5391921522036
 20
-290.8746515937892
 10
-100.5696495277409
 20
-291.0596937815605
 10
-100.6046908704459
 20
-291.243106221998
  0
LINE
  5
464
330
A
100
AcDbEntity
  8
0
  6
Continuous
 62
     7
100
AcDbLine
 10
-101.2531266085812
 20
-294.2431062219981
 30
0.0
 11
-80.31867592702782
 21
-294.2431062219979
 31
0.0
  0
LWPOLYLINE
  5
465
330
A
100
AcDbEntity
  8
0
  6
Continuous
 62
     7
100
AcDbPolyline
 90
        4
 70
   128
 43
0.0
 10
-103.0710925048522
 20
-294.2431062219981
 10
-102.2790666765418
 20
-294.0745726918325
 10
-101.6330003368846
 20
-294.0875603174196
 10
-101.2531266085812
 20
-294.2431062219981
  0
LINE
  5
46B
330
A
100
AcDbEntity
  8
0
  6
Continuous
 62
     7
100
AcDbLine
 10
-108.7028472826923
 20
-294.2431062219982
 30
0.0
 11
-103.0710925048522
 21
-294.2431062219981
 31
0.0
  0
LINE
  5
46C
330
A
100
AcDbEntity
  8
0
  6
Continuous
 62
     7
100
AcDbLine
 10
-103.0710925048521
 20
-285.2431062219981
 30
0.0
 11
-108.7028472826922
 21
-285.2431062219982
 31
0.0
  0
LWPOLYLINE
  5
46D
330
A
100
AcDbEntity
  8
0
  6
Continuous
 62
     7
100
AcDbPolyline
 90
        4
 70
   128
 43
0.0
 10
-101.2531266085813
 20
-285.2431062219981
 10
-101.7061761472053
 20
-285.4116397521636
 10
-102.3770183302521
 20
-285.3986521265765
 10
-103.0710925048521
 20
-285.2431062219981
  0
LINE
  5
473
330
A
100
AcDbEntity
  8
0
  6
Continuous
 62
     7
100
AcDbLine
 10
-80.31867592702786
 20
-285.2431062219978
 30
0.0
 11
-101.2531266085813
 21
-285.2431062219981
 31
0.0
  0
LWPOLYLINE
  5
474
330
A
100
AcDbEntity
  8
0
  6
Continuous
 62
     7
100
AcDbPolyline
 90
        7
 70
   128
 43
0.0
 10
-113.857165010666
 20
-287.2431062219982
 10
-113.859939701679
 20
-287.2329850316681
 10
-113.9473277938424
 20
-286.7063614345918
 10
-113.8966807582791
 20
-286.1132879456393
 10
-113.6896670126393
 20
-285.6486855884804
 10
-113.3541449479437
 20
-285.3482268115939
 10
-112.9242214665334
 20
-285.2431062219982
  0
LINE
  5
47D
330
A
100
AcDbEntity
  8
0
  6
Continuous
 62
     7
100
AcDbLine
 10
-112.9242214665334
 20
-285.2431062219982
 30
0.0
 11
-108.7028472826922
 21
-285.2431062219982
 31
0.0
  0
LINE
  5
47E
330
A
100
AcDbEntity
  8
0
  6
Continuous
 62
     7
100
AcDbLine
 10
-108.7028472826923
 20
-294.2431062219982
 30
0.0
 11
-112.9242214665333
 21
-294.2431062219979
 31
0.0
  0
LWPOLYLINE
  5
47F
330
A
100
AcDbEntity
  8
0
  6
Continuous
 62
     7
100
AcDbPolyline
 90
        7
 70
   128
 43
0.0
 10
-112.9242214665333
 20
-294.2431062219982
 10
-113.3541449479436
 20
-294.1379856324025
 10
-113.6896670126391
 20
-293.8375268555161
 10
-113.896680758279
 20
-293.3729244983571
 10
-113.9473277938423
 20
-292.7798510094048
 10
-113.8599397016802
 20
-292.2532274123276
 10
-113.8571650106659
 20
-292.2431062219981
  0
LWPOLYLINE
  5
488
330
A
100
AcDbEntity
  8
0
  6
Continuous
 62
     7
100
AcDbPolyline
 90
       13
 70
   128
 43
0.0
 10
-93.11911146632018
 20
-289.1532678070319
 10
-93.18423176092164
 20
-289.1454122789228
 10
-93.72287455463565
 20
-289.2842562830986
 10
-93.89601324244887
 20
-289.376754042313
 10
-94.07886810414398
 20
-289.5273909276811
 10
-94.13625296509016
 20
-289.6083863981282
 10
-94.16990845689893
 20
-289.705786504103
 10
-94.16951622285674
 20
-289.782961081315
 10
-94.14721087726089
 20
-289.8558048313164
 10
-94.07918930429664
 20
-289.958454848205
 10
-93.90189412345254
 20
-290.1057150238563
 10
-93.46752667795241
 20
-290.2930346044124
 10
-93.11936461085993
 20
-290.3249994983401
  0
LINE
  5
497
330
A
100
AcDbEntity
  8
0
  6
Continuous
 62
     7
100
AcDbLine
 10
-100.4544200302299
 20
-288.2431062219981
 30
0.0
 11
-91.0653327337039
 21
-288.243106221998
 31
0.0
  0
LINE
  5
498
330
A
100
AcDbEntity
  8
0
  6
Continuous
 62
     7
100
AcDbLine
 10
-100.4544200302299
 20
-291.243106221998
 30
0.0
 11
-91.06533273370386
 21
-291.243106221998
 31
0.0
  0
LWPOLYLINE
  5
499
330
A
100
AcDbEntity
  8
0
  6
Continuous
 62
     7
100
AcDbPolyline
 90
       12
 70
   128
 43
0.0
 10
266.8705218439269
 20
-290.3318696426247
 10
266.9557648924515
 20
-290.3408404905804
 10
267.7590346563745
 20
-290.1622942482536
 10
268.1123592750083
 20
-289.9522037966282
 10
268.1796779170335
 20
-289.8737469812786
 10
268.214804831103
 20
-289.7983311858982
 10
268.2221159419305
 20
-289.7319453820969
 10
268.2078608791696
 20
-289.6667794521044
 10
268.1595621853198
 20
-289.5847932342793
 10
268.0308228522997
 20
-289.4682765127232
 10
267.574881337815
 20
-289.2573650541224
 10
266.8637751786701
 20
-289.1593962232839
  0
LINE
  5
4A7
330
A
100
AcDbEntity
  8
0
  6
Continuous
 62
     7
100
AcDbLine
 10
-100.6046908704459
 20
-291.243106221998
 30
0.0
 11
-100.4544200302299
 21
-291.243106221998
 31
0.0
  0
LINE
  5
4A8
330
A
100
AcDbEntity
  8
0
  6
Continuous
 62
     7
100
AcDbLine
 10
-100.6046908704459
 20
-288.2431062219981
 30
0.0
 11
-100.4544200302299
 21
-288.2431062219981
 31
0.0
  0
LINE
  5
4A9
330
A
100
AcDbEntity
  8
0
  6
Continuous
 62
     7
100
AcDbLine
 10
394.9631250282745
 20
-292.8623496396669
 30
0.0
 11
394.9631250282746
 21
-315.9931062219944
 31
0.0
  0
LINE
  5
4AA
330
A
100
AcDbEntity
  8
0
  6
Continuous
 62
     7
100
AcDbLine
 10
394.9631250282743
 20
-263.4931062219946
 30
0.0
 11
394.9631250282745
 21
-286.6238628043224
 31
0.0
  0
LWPOLYLINE
  5
4AB
330
A
100
AcDbEntity
  8
0
  6
Continuous
 62
     7
100
AcDbPolyline
 90
       11
 70
   128
 43
0.0
 10
371.6631250282741
 20
-265.7931062219947
 10
371.2633151553624
 20
-265.9152821534651
 10
370.1188495102846
 20
-266.2309146162422
 10
368.3006039766933
 20
-266.6244723512702
 10
365.9540629893422
 20
-266.9273231151103
 10
363.4608695859829
 20
-266.9868837167935
 10
361.1430074879169
 20
-266.7980934750475
 10
359.11960505256
 20
-266.4452609622841
 10
357.5655295265864
 20
-266.0601848142823
 10
356.7507121890683
 20
-265.8203897353827
 10
356.7648181627114
 20
-265.8247523233978
  0
LINE
  5
4B8
330
A
100
AcDbEntity
  8
0
  6
Continuous
 62
     7
100
AcDbLine
 10
354.1631250282742
 20
-265.7931062219948
 30
0.0
 11
354.1631250282745
 21
-313.6931062219947
 31
0.0
  0
LWPOLYLINE
  5
4B9
330
A
100
AcDbEntity
  8
0
  6
Continuous
 62
     7
100
AcDbPolyline
 90
       12
 70
   128
 43
0.0
 10
356.7648181627117
 20
-313.6614601205918
 10
356.7811813876535
 20
-313.6563994270994
 10
357.5760880348663
 20
-313.4230884084856
 10
359.0751471550313
 20
-313.0506161455925
 10
361.2043930006668
 20
-312.6801198726684
 10
363.6814152927753
 20
-312.4935907062705
 10
366.1061830834874
 20
-312.5713338055354
 10
368.2828817981619
 20
-312.8585749787176
 10
370.0935239542945
 20
-313.2488955391339
 10
371.2914289982109
 20
-313.5793227314957
 10
371.6631250282743
 20
-313.6931062219946
 10
371.6631250282743
 20
-313.6931062219946
  0
LINE
  5
4C7
330
A
100
AcDbEntity
  8
0
  6
Continuous
 62
     7
100
AcDbLine
 10
374.1631250282742
 20
-265.7931062219947
 30
0.0
 11
374.1631250282745
 21
-313.6931062219946
 31
0.0
  0
LINE
  5
4C8
330
A
100
AcDbEntity
  8
0
  6
Continuous
 62
     7
100
AcDbLine
 10
312.1631250282744
 20
-278.4931062219951
 30
0.0
 11
312.1631250282745
 21
-300.993106221995
 31
0.0
  0
LINE
  5
4C9
330
A
100
AcDbEntity
  8
0
  6
Continuous
 62
     7
100
AcDbLine
 10
-91.33687497172564
 20
-284.7431062219979
 30
0.0
 11
-55.33687497172557
 21
-284.7431062219976
 31
0.0
  0
LINE
  5
4CA
330
A
100
AcDbEntity
  8
0
  6
Continuous
 62
     7
100
AcDbLine
 10
-91.33687497172568
 20
-279.7431062219979
 30
0.0
 11
-55.3368749717256
 21
-279.7431062219976
 31
0.0
  0
LINE
  5
4CB
330
A
100
AcDbEntity
  8
0
  6
Continuous
 62
     7
100
AcDbLine
 10
262.6631250282745
 20
-294.7431062219954
 30
0.0
 11
277.6631250282745
 21
-294.7431062219953
 31
0.0
  0
LINE
  5
4CC
330
A
100
AcDbEntity
  8
0
  6
Continuous
 62
     7
100
AcDbLine
 10
262.6631250282744
 20
-284.7431062219954
 30
0.0
 11
277.6631250282744
 21
-284.7431062219953
 31
0.0
  0
LINE
  5
4CD
330
A
100
AcDbEntity
  8
0
  6
Continuous
 62
     7
100
AcDbLine
 10
-76.4719581155793
 20
-294.2431062219979
 30
0.0
 11
-80.31867592702782
 21
-294.2431062219979
 31
0.0
  0
LINE
  5
4CE
330
A
100
AcDbEntity
  8
0
  6
Continuous
 62
     7
100
AcDbLine
 10
-80.31867592702786
 20
-285.2431062219978
 30
0.0
 11
-76.47195811557935
 21
-285.2431062219978
 31
0.0
  0
LINE
  5
4CF
330
A
100
AcDbEntity
  8
0
  6
Continuous
 62
     7
100
AcDbLine
 10
-63.60546212575785
 20
-294.2431062219977
 30
0.0
 11
-76.4719581155793
 21
-294.2431062219979
 31
0.0
  0
LINE
  5
4D0
330
A
100
AcDbEntity
  8
0
  6
Continuous
 62
     7
100
AcDbLine
 10
-63.60546212575793
 20
-285.2431062219977
 30
0.0
 11
-76.47195811557935
 21
-285.2431062219978
 31
0.0
  0
LINE
  5
4D1
330
A
100
AcDbEntity
  8
0
  6
Continuous
 62
     7
100
AcDbLine
 10
358.1631250282742
 20
-260.7431062219948
 30
0.0
 11
358.1631250282742
 21
-256.7431062219948
 31
0.0
  0
LINE
  5
4D2
330
A
100
AcDbEntity
  8
0
  6
Continuous
 62
     7
100
AcDbLine
 10
371.663125028274
 20
-254.7431062219946
 30
0.0
 11
356.6631250282743
 21
-254.7431062219948
 31
0.0
  0
LINE
  5
4D3
330
A
100
AcDbEntity
  8
0
  6
Continuous
 62
     7
100
AcDbLine
 10
358.1631250282746
 20
-322.7431062219948
 30
0.0
 11
358.1631250282746
 21
-318.7431062219947
 31
0.0
  0
LINE
  5
4D4
330
A
100
AcDbEntity
  8
0
  6
Continuous
 62
     7
100
AcDbLine
 10
371.6631250282746
 20
-324.7431062219947
 30
0.0
 11
356.6631250282746
 21
-324.7431062219948
 31
0.0
  0
LINE
  5
4D5
330
A
100
AcDbEntity
  8
0
  6
Continuous
 62
     7
100
AcDbLine
 10
261.6631250282744
 20
-282.7431062219954
 30
0.0
 11
261.6631250282744
 21
-289.1431062219955
 31
0.0
  0
LINE
  5
4D6
330
A
100
AcDbEntity
  8
0
  6
Continuous
 62
     7
100
AcDbLine
 10
261.6631250282744
 20
-290.3431062219955
 30
0.0
 11
261.6631250282745
 21
-296.7431062219954
 31
0.0
  0
LINE
  5
4D7
330
A
100
AcDbEntity
  8
0
  6
Continuous
 62
     7
100
AcDbLine
 10
-28.33687497172563
 20
-282.7431062219974
 30
0.0
 11
-28.33687497172558
 21
-289.1431062219975
 31
0.0
  0
LINE
  5
4D8
330
A
100
AcDbEntity
  8
0
  6
Continuous
 62
     7
100
AcDbLine
 10
-28.33687497172558
 20
-290.3431062219976
 30
0.0
 11
-28.33687497172552
 21
-296.7431062219974
 31
0.0
  0
LINE
  5
4D9
330
A
100
AcDbEntity
  8
0
  6
Continuous
 62
     7
100
AcDbLine
 10
-60.47815505962787
 20
-294.2431062219977
 30
0.0
 11
-63.60546212575785
 21
-294.2431062219977
 31
0.0
  0
LINE
  5
4DA
330
A
100
AcDbEntity
  8
0
  6
Continuous
 62
     7
100
AcDbLine
 10
-63.60546212575793
 20
-285.2431062219977
 30
0.0
 11
-60.47815505962812
 21
-285.2431062219977
 31
0.0
  0
LINE
  5
4DB
330
A
100
AcDbEntity
  8
0
  6
Continuous
 62
     7
100
AcDbLine
 10
303.1631250282743
 20
-283.4931062219951
 30
0.0
 11
303.1631250282745
 21
-295.9931062219951
 31
0.0
  0
LINE
  5
4DC
330
A
100
AcDbEntity
  8
0
  6
Continuous
 62
     7
100
AcDbLine
 10
-28.33687497172555
 20
-294.2431062219974
 30
0.0
 11
-60.47815505962784
 21
-294.2431062219977
 31
0.0
  0
LINE
  5
4DD
330
A
100
AcDbEntity
  8
0
  6
Continuous
 62
     7
100
AcDbLine
 10
-60.47815505962803
 20
-285.2431062219977
 30
0.0
 11
-28.3368749717256
 21
-285.2431062219974
 31
0.0
  0
LINE
  5
4DE
330
A
100
AcDbEntity
  8
0
  6
Continuous
 62
     7
100
AcDbLine
 10
-78.33687497172554
 20
-294.7431062219978
 30
0.0
 11
-68.33687497172554
 21
-294.7431062219977
 31
0.0
  0
ARC
  5
4DF
330
A
100
AcDbEntity
  8
0
  6
Continuous
 62
     7
100
AcDbCircle
 10
318.1631250282744
 20
-289.7431062219951
 30
0.0
 40
33.0
100
AcDbArc
 50
180.0000000000004
 51
270.0000000000012
  0
ARC
  5
4E0
330
A
100
AcDbEntity
  8
0
  6
Continuous
 62
     7
100
AcDbCircle
 10
318.1631250282744
 20
-289.7431062219951
 30
0.0
 40
33.0
100
AcDbArc
 50
90.0000000000004
 51
180.0000000000004
  0
LINE
  5
4E1
330
A
100
AcDbEntity
  8
0
  6
Continuous
 62
     7
100
AcDbLine
 10
358.1631250282742
 20
-256.7431062219948
 30
0.0
 11
318.1631250282742
 21
-256.743106221995
 31
0.0
  0
LINE
  5
4E2
330
A
100
AcDbEntity
  8
0
  6
Continuous
 62
     7
100
AcDbLine
 10
318.1631250282742
 20
-260.7431062219951
 30
0.0
 11
358.1631250282742
 21
-260.7431062219948
 31
0.0
  0
ARC
  5
4E3
330
A
100
AcDbEntity
  8
0
  6
Continuous
 62
     7
100
AcDbCircle
 10
318.1631250282744
 20
-289.7431062219951
 30
0.0
 40
29.0
100
AcDbArc
 50
90.00000000000046
 51
270.0000000000013
  0
LINE
  5
4E4
330
A
100
AcDbEntity
  8
0
  6
Continuous
 62
     7
100
AcDbLine
 10
358.1631250282746
 20
-318.7431062219947
 30
0.0
 11
318.1631250282746
 21
-318.7431062219951
 31
0.0
  0
LINE
  5
4E5
330
A
100
AcDbEntity
  8
0
  6
Continuous
 62
     7
100
AcDbLine
 10
318.1631250282746
 20
-322.7431062219951
 30
0.0
 11
358.1631250282746
 21
-322.7431062219948
 31
0.0
  0
LINE
  5
4E6
330
A
100
AcDbEntity
  8
0
  6
Continuous
 62
     7
100
AcDbLine
 10
-112.9242214665333
 20
-294.2431062219979
 30
0.0
 11
-116.3368749717255
 21
-294.2431062219979
 31
0.0
  0
LINE
  5
4E7
330
A
100
AcDbEntity
  8
0
  6
Continuous
 62
     7
100
AcDbLine
 10
-112.9721449985814
 20
-285.2431062219979
 30
0.0
 11
-116.3368749717256
 21
-285.2431062219979
 31
0.0
  0
LINE
  5
4E8
330
A
100
AcDbEntity
  8
0
  6
Continuous
 62
     7
100
AcDbLine
 10
-114.3368749717256
 20
-284.743106221998
 30
0.0
 11
-107.2358544572919
 21
-284.7431062219979
 31
0.0
  0
LINE
  5
4E9
330
A
100
AcDbEntity
  8
0
  6
Continuous
 62
     7
100
AcDbLine
 10
-114.3368749717255
 20
-294.7431062219979
 30
0.0
 11
-107.2358544572918
 21
-294.7431062219979
 31
0.0
  0
LWPOLYLINE
  5
4EA
330
A
100
AcDbEntity
  8
0
  6
Continuous
 62
     7
100
AcDbPolyline
 90
       11
 70
   128
 43
0.0
 10
-137.7739345926279
 20
-290.3351880272269
 10
-137.946777047951
 20
-290.3138332113428
 10
-138.1636325318727
 20
-290.1719536005078
 10
-138.2638424718736
 20
-290.0274029587133
 10
-138.3152750186887
 20
-289.8795811678073
 10
-138.329014635459
 20
-289.7124609511972
 10
-138.3064750797123
 20
-289.5707235907931
 10
-138.2556315575032
 20
-289.4428232609636
 10
-138.1407173163194
 20
-289.2912938176989
 10
-137.9464682965835
 20
-289.1722712946621
 10
-137.7739205817422
 20
-289.1512439100777
  0
LINE
  5
4F7
330
A
100
AcDbEntity
  8
0
  6
Continuous
 62
     7
100
AcDbLine
 10
-100.9368749717254
 20
-296.6016775017907
 30
0.0
 11
-91.33687497172546
 21
-294.642085707564
 31
0.0
  0
ARC
  5
4F8
330
A
100
AcDbEntity
  8
0
  6
Continuous
 62
     7
100
AcDbCircle
 10
-102.3368749717255
 20
-289.7431062219978
 30
0.0
 40
6.999999999999994
100
AcDbArc
 50
78.46304096718469
 51
134.4153085971935
  0
ARC
  5
4F9
330
A
100
AcDbEntity
  8
0
  6
Continuous
 62
     7
100
AcDbCircle
 10
-102.3368749717255
 20
-289.7431062219978
 30
0.0
 40
7.000000000000011
100
AcDbArc
 50
225.1598177000101
 51
281.5369590328168
  0
ARC
  5
4FA
330
A
100
AcDbEntity
  8
0
  6
Continuous
 62
     7
100
AcDbCircle
 10
-92.33687497172549
 20
-289.7431062219977
 30
0.0
 40
4.999999999999998
100
AcDbArc
 50
281.5369590328166
 51
295.8419327631649
  0
ARC
  5
4FB
330
A
100
AcDbEntity
  8
0
  6
Continuous
 62
     7
100
AcDbCircle
 10
-92.33687497172549
 20
-289.7431062219977
 30
0.0
 40
5.00000000000001
100
AcDbArc
 50
64.15806723682962
 51
78.46304096718488
  0
LINE
  5
4FC
330
A
100
AcDbEntity
  8
0
  6
Continuous
 62
     7
100
AcDbLine
 10
-91.33687497172552
 20
-284.8441267364314
 30
0.0
 11
-100.9368749717255
 21
-282.8845349422049
 31
0.0
  0
LWPOLYLINE
  5
4FD
330
A
100
AcDbEntity
  8
0
  6
Continuous
 62
     7
100
AcDbPolyline
 90
        3
 70
   128
 43
0.0
 10
-108.1124181296693
 20
-284.7431062219979
 10
-108.6761403483313
 20
-284.4276797351406
 10
-109.8857102066696
 20
-284.2454355192391
  0
LWPOLYLINE
  5
502
330
A
100
AcDbEntity
  8
0
  6
Continuous
 62
     7
100
AcDbPolyline
 90
        4
 70
   128
 43
0.0
 10
-109.8714835250083
 20
-295.2134657344284
 10
-109.3074865677047
 20
-295.2280314436458
 10
-107.9917741209443
 20
-294.7566695066066
 10
-107.9729019315799
 20
-294.7431062219979
  0
LWPOLYLINE
  5
508
330
A
100
AcDbEntity
  8
0
  6
Continuous
 62
     7
100
AcDbPolyline
 90
       12
 70
   128
 43
0.0
 10
-140.6374954052914
 20
-284.203106221997
 10
-140.153138778225
 20
-284.2384096840303
 10
-139.3145403457658
 20
-284.4107951396095
 10
-138.3507173375615
 20
-284.698590741492
 10
-137.2665836574147
 20
-285.0400073496144
 10
-136.4148893106876
 20
-285.2297697267369
 10
-135.7182903839603
 20
-285.2293714188849
 10
-135.3000929228601
 20
-285.0621143301003
 10
-135.0974801706114
 20
-284.7764402496411
 10
-135.2093304028186
 20
-284.437604015998
 10
-135.7137927980188
 20
-284.2259155804616
 10
-136.0413013275789
 20
-284.203106221997
  0
LWPOLYLINE
  5
516
330
A
100
AcDbEntity
  8
0
  6
Continuous
 62
     7
100
AcDbPolyline
 90
        3
 70
   128
 43
0.0
 10
-136.0413013275789
 20
-284.203106221997
 10
-137.0551916960618
 20
-284.3918771443555
 10
-137.7282512379201
 20
-284.743106221997
  0
LWPOLYLINE
  5
51B
330
A
100
AcDbEntity
  8
0
  6
Continuous
 62
     7
100
AcDbPolyline
 90
        3
 70
   128
 43
0.0
 10
-137.72825123792
 20
-294.743106221997
 10
-137.0551916960618
 20
-295.0943352996384
 10
-136.0413013275788
 20
-295.283106221997
  0
LWPOLYLINE
  5
520
330
A
100
AcDbEntity
  8
0
  6
Continuous
 62
     7
100
AcDbPolyline
 90
       12
 70
   128
 43
0.0
 10
-136.0413013275788
 20
-295.283106221997
 10
-135.6064175072571
 20
-295.2401116528451
 10
-135.2201823030875
 20
-295.0588570624745
 10
-135.0899662043592
 20
-294.764355603337
 10
-135.2994468161663
 20
-294.4245730381702
 10
-135.7628749988602
 20
-294.2493767640142
 10
-136.4636562745893
 20
-294.2632829617589
 10
-137.2396265640603
 20
-294.4385245527897
 10
-138.1743085242046
 20
-294.7305405008161
 10
-139.2842456343772
 20
-295.0674343559335
 10
-140.3094681015057
 20
-295.266025503726
 10
-140.6374954052914
 20
-295.2831062219971
  0
LWPOLYLINE
  5
52E
330
A
100
AcDbEntity
  8
0
  6
Continuous
 62
     7
100
AcDbPolyline
 90
        6
 70
   128
 43
0.0
 10
-134.4450691559035
 20
-289.1431062219972
 10
-134.4587802038096
 20
-288.9860029583659
 10
-134.4794034053359
 20
-288.7983957898666
 10
-134.5045601455836
 20
-288.6118981775631
 10
-134.5342208781267
 20
-288.4267291616757
 10
-134.5683507666296
 20
-288.243106221997
  0
LWPOLYLINE
  5
536
330
A
100
AcDbEntity
  8
0
  6
Continuous
 62
     7
100
AcDbPolyline
 90
        6
 70
   128
 43
0.0
 10
-134.5683507666295
 20
-291.243106221997
 10
-134.5342208781266
 20
-291.0594832823183
 10
-134.5045601455836
 20
-290.8743142664309
 10
-134.4794034053359
 20
-290.6878166541274
 10
-134.4587802038096
 20
-290.5002094856282
 10
-134.4450691559035
 20
-290.3431062219972
  0
LINE
  5
53E
330
A
100
AcDbEntity
  8
0
  6
Continuous
 62
     7
100
AcDbLine
 10
-134.4220267986617
 20
-291.243106221997
 30
0.0
 11
-125.0329395021357
 21
-291.2431062219969
 31
0.0
  0
LINE
  5
53F
330
A
100
AcDbEntity
  8
0
  6
Continuous
 62
     7
100
AcDbLine
 10
-134.4220267986617
 20
-288.243106221997
 30
0.0
 11
-125.0329395021358
 21
-288.2431062219969
 31
0.0
  0
LINE
  5
540
330
A
100
AcDbEntity
  8
0
  6
Continuous
 62
     7
100
AcDbLine
 10
-134.5683507666295
 20
-291.243106221997
 30
0.0
 11
-134.4220267986617
 21
-291.243106221997
 31
0.0
  0
LINE
  5
541
330
A
100
AcDbEntity
  8
0
  6
Continuous
 62
     7
100
AcDbLine
 10
-134.5683507666296
 20
-288.243106221997
 30
0.0
 11
-134.4220267986617
 21
-288.243106221997
 31
0.0
  0
LINE
  5
542
330
A
100
AcDbEntity
  8
0
  6
Continuous
 62
     7
100
AcDbLine
 10
-138.2147597694336
 20
-294.743106221997
 30
0.0
 11
-135.3393983664351
 21
-294.743106221997
 31
0.0
  0
LINE
  5
543
330
A
100
AcDbEntity
  8
0
  6
Continuous
 62
     7
100
AcDbLine
 10
-138.2082020870571
 20
-284.743106221997
 30
0.0
 11
-135.3393983664352
 21
-284.743106221997
 31
0.0
  0
LINE
  5
544
330
A
100
AcDbEntity
  8
0
  6
Continuous
 62
     7
100
AcDbLine
 10
-120.3368749717256
 20
-280.7431062219968
 30
0.0
 11
-91.33687497172568
 21
-280.7431062219966
 31
0.0
  0
LINE
  5
545
330
A
100
AcDbEntity
  8
0
  6
Continuous
 62
     7
100
AcDbLine
 10
-120.3368749717256
 20
-275.7431062219968
 30
0.0
 11
-84.33687497172561
 21
-275.7431062219965
 31
0.0
  0
LINE
  5
546
330
A
100
AcDbEntity
  8
0
  6
Continuous
 62
     7
100
AcDbLine
 10
-113.4168749717255
 20
-295.7431062219967
 30
0.0
 11
-105.9424262471895
 21
-295.7431062219967
 31
0.0
  0
LINE
  5
547
330
A
100
AcDbEntity
  8
0
  6
Continuous
 62
     7
100
AcDbLine
 10
-96.73075188511804
 20
-295.7431062219967
 30
0.0
 11
-91.25687497172549
 21
-295.7431062219966
 31
0.0
  0
LINE
  5
548
330
A
100
AcDbEntity
  8
0
  6
Continuous
 62
     7
100
AcDbLine
 10
-113.4168749717255
 20
-283.7431062219967
 30
0.0
 11
-105.9424262471895
 21
-283.7431062219967
 31
0.0
  0
LINE
  5
549
330
A
100
AcDbEntity
  8
0
  6
Continuous
 62
     7
100
AcDbLine
 10
-96.73075188512923
 20
-283.7431062219966
 30
0.0
 11
-91.33687497172564
 21
-283.7431062219965
 31
0.0
  0
ARC
  5
54A
330
A
100
AcDbEntity
  8
0
  6
Continuous
 62
     7
100
AcDbCircle
 10
-96.79687497172555
 20
-289.7431062219965
 30
0.0
 40
7.0
100
AcDbArc
 50
248.8585481843403
 51
270.0000000000013
  0
ARC
  5
54B
330
A
100
AcDbEntity
  8
0
  6
Continuous
 62
     7
100
AcDbCircle
 10
-96.79687497172555
 20
-289.7431062219965
 30
0.0
 40
7.000000000000044
100
AcDbArc
 50
58.99728086612631
 51
86.2321336109035
  0
ARC
  5
54C
330
A
100
AcDbEntity
  8
0
  6
Continuous
 62
     7
100
AcDbCircle
 10
-96.79687497172555
 20
-289.7431062219965
 30
0.0
 40
7.0
100
AcDbArc
 50
270.0000000000013
 51
301.0027191338751
  0
LINE
  5
54D
330
A
100
AcDbEntity
  8
0
  6
PHANTOM
 62
     7
100
AcDbLine
 10
-165.7968749717255
 20
-329.7431062219963
 30
0.0
 11
-165.7968749717255
 21
-249.7431062219963
 31
0.0
  0
LWPOLYLINE
  5
54E
330
A
100
AcDbEntity
  8
0
  6
PHANTOM
 62
     7
100
AcDbPolyline
 90
        5
 70
   128
 43
0.0
 10
-104.2968749717255
 20
-297.2431062219964
 10
-104.5219377530276
 20
-297.1134888665088
 10
-104.6157355371428
 20
-297.0576413026044
 10
-105.7304192446731
 20
-296.3004307550546
 10
-106.3005130913889
 20
-295.7431062219967
  0
LINE
  5
555
330
A
100
AcDbEntity
  8
0
  6
PHANTOM
 62
     7
100
AcDbLine
 10
-156.2968749717255
 20
-282.2431062219964
 30
0.0
 11
-156.2968749717255
 21
-289.7431062219963
 31
0.0
  0
LINE
  5
556
330
A
100
AcDbEntity
  8
0
  6
PHANTOM
 62
     7
100
AcDbLine
 10
-156.2968749717255
 20
-289.7431062219963
 30
0.0
 11
-158.7968749717255
 21
-289.7431062219964
 31
0.0
  0
LINE
  5
557
330
A
100
AcDbEntity
  8
0
  6
PHANTOM
 62
     7
100
AcDbLine
 10
-156.2968749717255
 20
-289.7431062219963
 30
0.0
 11
-156.2968749717255
 21
-297.2431062219964
 31
0.0
  0
LINE
  5
558
330
A
100
AcDbEntity
  8
0
  6
PHANTOM
 62
     7
100
AcDbLine
 10
-156.2968749717255
 20
-289.7431062219963
 30
0.0
 11
-149.3578835574396
 21
-289.7431062219963
 31
0.0
  0
LWPOLYLINE
  5
559
330
A
100
AcDbEntity
  8
0
  6
PHANTOM
 62
     7
100
AcDbPolyline
 90
       17
 70
   128
 43
0.0
 10
457.0728845023147
 20
-289.7431062219943
 10
456.9132191987864
 20
-286.2832540154551
 10
456.4358616702775
 20
-282.8589045744832
 10
455.645710250998
 20
-279.5051963582281
 10
454.550872963756
 20
-276.2565429512806
 10
453.1625843206699
 20
-273.1462799337267
 10
451.4950900418725
 20
-270.2063228129849
 10
449.5655008751444
 20
-267.4668395275115
 10
447.3936170164876
 20
-264.9559408829287
 10
445.0017249333207
 20
-262.6993920971186
 10
442.4143686751638
 20
-260.720348414222
 10
439.658098018478
 20
-259.0391175004996
 10
436.7611960300313
 20
-257.6729510601948
 10
433.7533888443596
 20
-256.635867809704
 10
430.6655406334014
 20
-255.938509626575
 10
427.5293368983276
 20
-255.588032349443
 10
425.8976933294915
 20
-255.5441925179758
  0
LWPOLYLINE
  5
56C
330
A
100
AcDbEntity
  8
0
  6
PHANTOM
 62
     7
100
AcDbPolyline
 90
       17
 70
   128
 43
0.0
 10
425.9385523282022
 20
-323.9420704631895
 10
427.5293368983285
 20
-323.8981800945458
 10
430.6655406334023
 20
-323.5477028174138
 10
433.7533888443604
 20
-322.8503446342846
 10
436.7611960300322
 20
-321.8132613837938
 10
439.6580980184788
 20
-320.447094943489
 10
442.4143686751646
 20
-318.7658640297665
 10
445.0017249333214
 20
-316.7868203468698
 10
447.3936170164884
 20
-314.5302715610597
 10
449.5655008751448
 20
-312.0193729164768
 10
451.4950900418729
 20
-309.2798896310033
 10
453.1625843206703
 20
-306.3399325102614
 10
454.5508729637565
 20
-303.2296694927075
 10
455.6457102509984
 20
-299.9810160857601
 10
456.4358616702776
 20
-296.6273078695049
 10
456.9132191987866
 20
-293.2029584285329
 10
457.0728845023147
 20
-289.7431062219943
  0
LWPOLYLINE
  5
57F
330
A
100
AcDbEntity
  8
0
  6
PHANTOM
 62
     7
100
AcDbPolyline
 90
       25
 70
   128
 43
0.0
 10
416.6554639172249
 20
-259.0074525406576
 10
414.4136247479179
 20
-259.9862610204896
 10
411.6492897308395
 20
-261.5341280420973
 10
409.0473262706097
 20
-263.3910585317523
 10
406.6362420233946
 20
-265.5367075704219
 10
404.4424533327584
 20
-267.9475669782328
 10
402.4899958066755
 20
-270.5972228750082
 10
400.8002609783798
 20
-273.4566450762668
 10
399.3917619362497
 20
-276.4945051539991
 10
398.2799304905384
 20
-279.6775196774803
 10
397.4769480992307
 20
-282.9708148735027
 10
396.9916124054403
 20
-286.3383087107322
 10
396.8292408485918
 20
-289.7431062219947
 10
396.9916124054403
 20
-293.1479037332574
 10
397.4769480992307
 20
-296.5153975704869
 10
398.2799304905387
 20
-299.8086927665092
 10
399.3917619362501
 20
-302.9917072899905
 10
400.8002609783801
 20
-306.0295673677227
 10
402.4899958066759
 20
-308.8889895689813
 10
404.4424533327588
 20
-311.5386454657566
 10
406.6362420233952
 20
-313.9495048735674
 10
409.0473262706105
 20
-316.0951539122371
 10
411.6492897308403
 20
-317.9520844018918
 10
414.4136247479187
 20
-319.4999514234996
 10
415.721290593053
 20
-320.0990394765986
  0
LWPOLYLINE
  5
59A
330
A
100
AcDbEntity
  8
0
  6
PHANTOM
 62
     7
100
AcDbPolyline
 90
       60
 70
   128
 43
0.0
 10
455.5526368892406
 20
-289.7431062219943
 10
455.3897838445343
 20
-286.3852322465856
 10
454.9030699004846
 20
-283.0654043250566
 10
454.0980097205583
 20
-279.8212374342942
 10
452.9837249582803
 20
-276.6894892814741
 10
451.5728409052525
 20
-273.7056438245507
 10
449.8813434415563
 20
-270.9035092248353
 10
447.9283979093436
 20
-268.3148347870186
 10
445.7361319618517
 20
-265.9689512268631
 10
443.3293848482507
 20
-263.8924383424726
 10
440.7354259750251
 20
-262.10882385456
 10
437.983645932702
 20
-260.6383168279695
 10
435.1052234887164
 20
-259.4975786948968
 10
432.132772319518
 20
-258.6995344742059
 10
429.0999714845846
 20
-258.2532263257994
 10
426.0411838292222
 20
-258.1637110993342
 10
422.9910666397955
 20
-258.4320030380948
 10
419.9841789628257
 20
-259.0550622872111
 10
417.0545900371839
 20
-260.0258293364286
 10
414.2354932760023
 20
-261.3333050071809
 10
411.5588301720389
 20
-262.9626750776776
 10
409.0549283878019
 20
-264.8954781339568
 10
406.7521581310153
 20
-267.1098147450819
 10
404.6766107088285
 20
-269.5805955924448
 10
402.8518029028816
 20
-272.2798257417709
 10
401.2984105147723
 20
-275.1769218369109
 10
400.0340341009619
 20
-278.2390586214857
 10
399.0729995514381
 20
-281.4315408621586
 10
398.4261957716569
 20
-284.7181964594914
 10
398.1009513068928
 20
-288.0617862922854
 10
398.1009513068929
 20
-291.4244261517043
 10
398.4261957716569
 20
-294.7680159844983
 10
399.0729995514384
 20
-298.054671581831
 10
400.0340341009622
 20
-301.2471538225038
 10
401.2984105147728
 20
-304.3092906070786
 10
402.8518029028821
 20
-307.2063867022186
 10
404.676610708829
 20
-309.9056168515446
 10
406.7521581310159
 20
-312.3763976989075
 10
409.0549283878028
 20
-314.5907343100325
 10
411.5588301720398
 20
-316.5235373663116
 10
414.2354932760031
 20
-318.1529074368083
 10
417.0545900371847
 20
-319.4603831075605
 10
419.9841789628265
 20
-320.431150156778
 10
422.9910666397964
 20
-321.0542094058941
 10
426.0411838292232
 20
-321.3225013446546
 10
429.0999714845855
 20
-321.2329861181895
 10
432.1327723195187
 20
-320.7866779697828
 10
435.1052234887172
 20
-319.9886337490918
 10
437.9836459327028
 20
-318.8478956160191
 10
440.7354259750259
 20
-317.3773885894285
 10
443.3293848482514
 20
-315.5937741015157
 10
445.7361319618522
 20
-313.5172612171253
 10
447.928397909344
 20
-311.1713776569696
 10
449.8813434415567
 20
-308.5827032191529
 10
451.5728409052528
 20
-305.7805686194374
 10
452.9837249582806
 20
-302.796723162514
 10
454.0980097205586
 20
-299.6649750096939
 10
454.9030699004846
 20
-296.4208081189315
 10
455.3897838445343
 20
-293.1009801974025
 10
455.5526368892406
 20
-289.7431062219943
  0
LWPOLYLINE
  5
5D8
330
A
100
AcDbEntity
  8
0
  6
PHANTOM
 62
     7
100
AcDbPolyline
 90
        9
 70
   128
 43
0.0
 10
-110.5983308633059
 20
-292.2431062219981
 10
-110.270458479646
 20
-291.7174506601275
 10
-110.0257733309319
 20
-291.1078830054272
 10
-109.87467484014
 20
-290.4403106409453
 10
-109.8235848809517
 20
-289.7431062219982
 10
-109.87467484014
 20
-289.045901803051
 10
-110.0257733309319
 20
-288.378329438569
 10
-110.270458479646
 20
-287.7687617838688
 10
-110.5983308633059
 20
-287.2431062219982
  0
LWPOLYLINE
  5
5E3
330
A
100
AcDbEntity
  8
0
  6
PHANTOM
 62
     7
100
AcDbPolyline
 90
        9
 70
   128
 43
0.0
 10
-108.7028472826922
 20
-285.2431062219982
 10
-107.9907807846884
 20
-286.1066073094261
 10
-107.4490583202647
 20
-287.1895593241644
 10
-107.1103710849971
 20
-288.4266096208306
 10
-106.9951577562054
 20
-289.7431062219982
 10
-107.1103710849972
 20
-291.0596028231657
 10
-107.4490583202647
 20
-292.2966531198319
 10
-107.9907807846885
 20
-293.3796051345701
 10
-108.7028472826923
 20
-294.2431062219982
  0
LINE
  5
5EE
330
A
100
AcDbEntity
  8
0
  6
PHANTOM
 62
     7
100
AcDbLine
 10
-113.8571650106659
 20
-292.2431062219981
 30
0.0
 11
-110.5983308633059
 21
-292.2431062219981
 31
0.0
  0
LWPOLYLINE
  5
5EF
330
A
100
AcDbEntity
  8
0
  6
PHANTOM
 62
     7
100
AcDbPolyline
 90
        9
 70
   128
 43
0.0
 10
-113.857165010666
 20
-287.2431062219982
 10
-114.1850373943258
 20
-287.7687617838688
 10
-114.4297225430398
 20
-288.3783294385691
 10
-114.5808210338319
 20
-289.045901803051
 10
-114.6319109930201
 20
-289.7431062219982
 10
-114.5808210338318
 20
-290.4403106409453
 10
-114.4297225430398
 20
-291.1078830054273
 10
-114.1850373943258
 20
-291.7174506601275
 10
-113.8571650106659
 20
-292.2431062219981
  0
LINE
  5
5FA
330
A
100
AcDbEntity
  8
0
  6
PHANTOM
 62
     7
100
AcDbLine
 10
-110.5983308633059
 20
-287.2431062219982
 30
0.0
 11
-113.857165010666
 21
-287.2431062219982
 31
0.0
  0
LWPOLYLINE
  5
5FB
330
A
100
AcDbEntity
  8
0
  6
PHANTOM
 62
     7
100
AcDbPolyline
 90
        5
 70
   128
 43
0.0
 10
-80.31867592702782
 20
-294.2431062219979
 10
-79.10034713802876
 20
-293.3025707026046
 10
-77.84768202612332
 20
-291.7020715083181
 10
-77.38300610593871
 20
-290.3780256017997
 10
-77.37895653980017
 20
-290.3431062219979
  0
LWPOLYLINE
  5
602
330
A
100
AcDbEntity
  8
0
  6
PHANTOM
 62
     7
100
AcDbPolyline
 90
        6
 70
   128
 43
0.0
 10
-77.43147519626645
 20
-289.1431062219979
 10
-77.48738085242019
 20
-288.6570030791814
 10
-77.57763428641232
 20
-288.3833747865714
 10
-78.39362111944081
 20
-286.9539556247488
 10
-79.70504714238436
 20
-285.6695119199498
 10
-80.31867592702786
 20
-285.2431062219978
  0
LINE
  5
60A
330
A
100
AcDbEntity
  8
0
  6
PHANTOM
 62
     7
100
AcDbLine
 10
-100.4544200302299
 20
-289.7431062219981
 30
0.0
 11
-100.4544200302299
 21
-291.243106221998
 31
0.0
  0
LINE
  5
60B
330
A
100
AcDbEntity
  8
0
  6
PHANTOM
 62
     7
100
AcDbLine
 10
-100.4544200302299
 20
-288.2431062219981
 30
0.0
 11
-100.4544200302299
 21
-289.7431062219981
 31
0.0
  0
LINE
  5
60C
330
A
100
AcDbEntity
  8
0
  6
PHANTOM
 62
     7
100
AcDbLine
 10
322.1631250282743
 20
-268.493106221995
 30
0.0
 11
322.1631250282746
 21
-310.993106221995
 31
0.0
  0
LWPOLYLINE
  5
60D
330
A
100
AcDbEntity
  8
0
  6
PHANTOM
 62
     7
100
AcDbPolyline
 90
        4
 70
   128
 43
0.0
 10
-76.47195811557935
 20
-285.2431062219978
 10
-76.22766161227698
 20
-285.6626822000965
 10
-75.40107736988457
 20
-287.7538694923925
 10
-75.25633717528979
 20
-289.1431062219979
  0
LWPOLYLINE
  5
613
330
A
100
AcDbEntity
  8
0
  6
PHANTOM
 62
     7
100
AcDbPolyline
 90
        3
 70
   128
 43
0.0
 10
-75.21241272688559
 20
-290.3431062219979
 10
-75.67319136844571
 20
-292.6089998816145
 10
-76.47195811557932
 20
-294.2431062219979
  0
LWPOLYLINE
  5
618
330
A
100
AcDbEntity
  8
0
  6
PHANTOM
 62
     7
100
AcDbPolyline
 90
        4
 70
   128
 43
0.0
 10
-63.60546212575785
 20
-294.2431062219977
 10
-63.93812192299825
 20
-293.0127261138519
 10
-64.28406411448477
 20
-290.7927635138965
 10
-64.30702408704018
 20
-290.3431062219978
  0
LWPOLYLINE
  5
61E
330
A
100
AcDbEntity
  8
0
  6
PHANTOM
 62
     7
100
AcDbPolyline
 90
        4
 70
   128
 43
0.0
 10
-64.26379862688833
 20
-289.1431062219978
 10
-64.17968369381881
 20
-287.7538694923925
 10
-63.72938960588204
 20
-285.6626822000964
 10
-63.60546212575793
 20
-285.2431062219977
  0
LWPOLYLINE
  5
624
330
A
100
AcDbEntity
  8
0
  6
PHANTOM
 62
     7
100
AcDbPolyline
 90
        5
 70
   128
 43
0.0
 10
-60.47815505962803
 20
-285.2431062219978
 10
-60.78608814754947
 20
-285.6695119199498
 10
-61.56163568759601
 20
-286.9539556247487
 10
-62.11353042714307
 20
-288.3833747865713
 10
-62.20050584407077
 20
-289.1431062219978
  0
LWPOLYLINE
  5
62B
330
A
100
AcDbEntity
  8
0
  6
PHANTOM
 62
     7
100
AcDbPolyline
 90
        5
 70
   128
 43
0.0
 10
-62.25221895783556
 20
-290.3431062219978
 10
-62.24146238676798
 20
-290.4605934848146
 10
-61.81746464666082
 20
-291.9780362746575
 10
-61.00001046298848
 20
-293.4989831923145
 10
-60.47815505962787
 20
-294.2431062219977
  0
LWPOLYLINE
  5
632
330
A
100
AcDbEntity
  8
0
  6
PHANTOM
 62
     7
100
AcDbPolyline
 90
       41
 70
   128
 43
0.0
 10
525.2917473257602
 20
-289.7431062219936
 10
525.1321506914221
 20
-284.7206401124166
 10
524.6541383271678
 20
-279.7226429528688
 10
523.8600390611863
 20
-274.7734644831148
 10
522.7537216652791
 20
-269.8972166031696
 10
521.3405760065919
 20
-265.1176559025454
 10
519.6274867887255
 20
-260.4580679205359
 10
517.6228000101499
 20
-255.9411537014094
 10
515.33628230334
 20
-251.5889191972028
 10
512.7790733527233
 20
-247.4225680569355
 10
509.9636316232577
 20
-243.4623983245627
 10
506.9036736640417
 20
-239.7277035489457
 10
503.6141072826669
 20
-236.2366787876212
 10
500.1109589158771
 20
-233.0063319623096
 10
496.4112955503802
 20
-230.0524009980306
 10
492.533141574204
 20
-227.3892771495141
 10
488.4953909636897
 20
-225.0299348884536
 10
484.3177152339386
 20
-222.985868693185
 10
480.0204676011674
 20
-221.2670370487427
 10
475.6245838238854
 20
-219.881813930122
 10
471.1514802059824
 20
-218.8369480051148
 10
466.6229492586502
 20
-218.1375297554781
 10
462.061053529458
 20
-217.786966676619
 10
457.4880181158382
 20
-217.786966676619
 10
452.9261223866461
 20
-218.1375297554783
 10
448.397591439314
 20
-218.836948005115
 10
443.9244878214112
 20
-219.8818139301223
 10
439.528604044129
 20
-221.2670370487431
 10
435.2313564113579
 20
-222.9858686931855
 10
431.0536806816068
 20
-225.0299348884542
 10
427.0159300710925
 20
-227.3892771495147
 10
423.1377760949164
 20
-230.0524009980313
 10
419.4381127294195
 20
-233.0063319623104
 10
415.93496436263
 20
-236.236678787622
 10
412.6453979812551
 20
-239.7277035489466
 10
409.5854400220392
 20
-243.4623983245637
 10
406.7699982925736
 20
-247.4225680569364
 10
404.2127893419571
 20
-251.5889191972038
 10
401.9262716351472
 20
-255.9411537014105
 10
399.9215848565717
 20
-260.4580679205371
 10
398.7668238854555
 20
-263.4931062219946
  0
LWPOLYLINE
  5
65D
330
A
100
AcDbEntity
  8
0
  6
PHANTOM
 62
     7
100
AcDbPolyline
 90
       41
 70
   128
 43
0.0
 10
398.766823885456
 20
-315.9931062219943
 10
399.9215848565726
 20
-319.0281445234524
 10
401.9262716351481
 20
-323.5450587425789
 10
404.2127893419581
 20
-327.8972932467855
 10
406.7699982925748
 20
-332.0636443870528
 10
409.5854400220406
 20
-336.0238141194255
 10
412.6453979812565
 20
-339.7585088950424
 10
415.9349643626312
 20
-343.249533656367
 10
419.4381127294212
 20
-346.4798804816785
 10
423.1377760949181
 20
-349.4338114459575
 10
427.0159300710942
 20
-352.096935294474
 10
431.0536806816085
 20
-354.4562775555343
 10
435.2313564113597
 20
-356.500343750803
 10
439.5286040441308
 20
-358.2191753952453
 10
443.924487821413
 20
-359.6043985138659
 10
448.3975914393158
 20
-360.6492644388731
 10
452.926122386648
 20
-361.3486826885097
 10
457.4880181158403
 20
-361.6992457673688
 10
462.06105352946
 20
-361.6992457673687
 10
466.6229492586522
 20
-361.3486826885094
 10
471.1514802059841
 20
-360.6492644388727
 10
475.6245838238871
 20
-359.6043985138653
 10
480.0204676011692
 20
-358.2191753952446
 10
484.3177152339403
 20
-356.5003437508021
 10
488.4953909636914
 20
-354.4562775555334
 10
492.5331415742055
 20
-352.0969352944728
 10
496.4112955503818
 20
-349.4338114459562
 10
500.1109589158785
 20
-346.4798804816771
 10
503.6141072826681
 20
-343.2495336563655
 10
506.9036736640428
 20
-339.7585088950408
 10
509.9636316232588
 20
-336.0238141194237
 10
512.7790733527245
 20
-332.063644387051
 10
515.3362823033408
 20
-327.8972932467836
 10
517.6228000101507
 20
-323.5450587425769
 10
519.6274867887261
 20
-319.0281445234503
 10
521.3405760065925
 20
-314.3685565414408
 10
522.7537216652794
 20
-309.5889958408165
 10
523.8600390611866
 20
-304.7127479608713
 10
524.6541383271678
 20
-299.7635694911173
 10
525.1321506914219
 20
-294.7655723315696
 10
525.2917473257602
 20
-289.7431062219936
  0
LWPOLYLINE
  5
688
330
A
100
AcDbEntity
  8
0
  6
PHANTOM
 62
     7
100
AcDbPolyline
 90
       20
 70
   128
 43
0.0
 10
-143.7911916493836
 20
-289.7431062219971
 10
-143.9268196545753
 20
-288.5936701010125
 10
-144.3190062713027
 20
-287.5687932190757
 10
-144.9252519942408
 20
-286.7795368889478
 10
-145.6798606924379
 20
-286.3114292805719
 10
-146.5010588044838
 20
-286.2151971167535
 10
-147.2998567727367
 20
-286.5012686456381
 10
-147.9896924427091
 20
-287.1386435782142
 10
-148.495811415656
 20
-288.0582524506459
 10
-148.7633678476136
 20
-289.1604413724033
 10
-148.7633678476136
 20
-290.3257710715909
 10
-148.4958114156559
 20
-291.4279599933483
 10
-147.989692442709
 20
-292.34756886578
 10
-147.2998567727367
 20
-292.984943798356
 10
-146.5010588044837
 20
-293.2710153272407
 10
-145.6798606924378
 20
-293.1747831634223
 10
-144.9252519942408
 20
-292.7066755550464
 10
-144.3190062713026
 20
-291.9174192249185
 10
-143.9268196545753
 20
-290.8925423429817
 10
-143.7911916493836
 20
-289.7431062219971
  0
LWPOLYLINE
  5
69E
330
A
100
AcDbEntity
  8
0
  6
PHANTOM
 62
     7
100
AcDbPolyline
 90
        7
 70
   128
 43
0.0
 10
-140.9627645246374
 20
-289.743106221997
 10
-141.096245723928
 20
-291.176963731865
 10
-141.4875927986562
 20
-292.5131062219971
 10
-142.1101360924108
 20
-293.6604777897705
 10
-142.9214503085241
 20
-294.5408869589629
 10
-143.866245723928
 20
-295.0943352996386
 10
-144.8759923864829
 20
-295.2831031226643
  0
LWPOLYLINE
  5
6A7
330
A
100
AcDbEntity
  8
0
  6
PHANTOM
 62
     7
100
AcDbPolyline
 90
        8
 70
   128
 43
0.0
 10
-144.8946291591835
 20
-284.2031441371059
 10
-144.8801360924109
 20
-284.2031062219971
 10
-143.866245723928
 20
-284.3918771443556
 10
-142.9214503085241
 20
-284.9453254850313
 10
-142.1101360924109
 20
-285.8257346542237
 10
-141.4875927986562
 20
-286.9731062219971
 10
-141.096245723928
 20
-288.3092487121292
 10
-140.9627645246374
 20
-289.743106221997
  0
LINE
  5
6B1
330
A
100
AcDbEntity
  8
0
  6
PHANTOM
 62
     7
100
AcDbLine
 10
-134.4220267986617
 20
-290.3431062219972
 30
0.0
 11
-134.4220267986617
 21
-291.243106221997
 31
0.0
  0
LINE
  5
6B2
330
A
100
AcDbEntity
  8
0
  6
PHANTOM
 62
     7
100
AcDbLine
 10
-134.4220267986617
 20
-288.243106221997
 30
0.0
 11
-134.4220267986617
 21
-289.1431062219972
 31
0.0
  0
LINE
  5
6B3
330
A
100
AcDbEntity
  8
0
  6
PHANTOM
 62
     7
100
AcDbLine
 10
-136.0413013275788
 20
-295.283106221997
 30
0.0
 11
-136.0413013275788
 21
-294.743106221997
 31
0.0
  0
LINE
  5
6B4
330
A
100
AcDbEntity
  8
0
  6
PHANTOM
 62
     7
100
AcDbLine
 10
-136.0413013275789
 20
-284.743106221997
 30
0.0
 11
-136.0413013275789
 21
-284.203106221997
 31
0.0
  0
LINE
  5
6B5
330
A
100
AcDbEntity
  8
0
  6
Continuous
 62
     7
100
AcDbLine
 10
912.8723051233231
 20
30.71805181234247
 30
0.0
 11
912.8723051233231
 21
29.44788527441656
 31
0.0
  0
LINE
  5
6B6
330
A
100
AcDbEntity
  8
0
  6
Continuous
 62
     7
100
AcDbLine
 10
932.8723051233231
 20
29.44788527441672
 30
0.0
 11
932.8723051233231
 21
30.71805181234247
 31
0.0
  0
LINE
  5
6B7
330
A
100
AcDbEntity
  8
0
  6
Continuous
 62
     7
100
AcDbLine
 10
927.8723051233232
 20
490.1539734892539
 30
0.0
 11
927.3723051233233
 21
490.1539734892539
 31
0.0
  0
LINE
  5
6B8
330
A
100
AcDbEntity
  8
0
  6
Continuous
 62
     7
100
AcDbLine
 10
918.3723051233233
 20
490.1539734892539
 30
0.0
 11
917.8723051233232
 21
490.1539734892539
 31
0.0
  0
LINE
  5
6B9
330
A
100
AcDbEntity
  8
0
  6
Continuous
 62
     7
100
AcDbLine
 10
917.8723051233232
 20
484.1539734892539
 30
0.0
 11
927.8723051233232
 21
484.1539734892539
 31
0.0
  0
LWPOLYLINE
  5
6BA
330
A
100
AcDbEntity
  8
0
  6
Continuous
 62
     7
100
AcDbPolyline
 90
        8
 70
   128
 43
0.0
 10
928.3783573365028
 20
120.3028769400167
 10
928.33191799348
 20
121.0766724514108
 10
927.9686594014233
 20
122.0890168099585
 10
927.3515090210564
 20
122.9763864145052
 10
926.5036024389916
 20
123.7229650243734
 10
925.4455832598409
 20
124.3011884602543
 10
924.2215428637006
 20
124.6724280098733
 10
922.8723051233236
 20
124.804470938428
  0
LWPOLYLINE
  5
6C4
330
A
100
AcDbEntity
  8
0
  6
Continuous
 62
     7
100
AcDbPolyline
 90
        9
 70
   128
 43
0.0
 10
922.8723051233236
 20
124.804470938428
 10
922.1048671955584
 20
124.7622219739154
 10
920.797641800085
 20
124.4848734751477
 10
919.5860395454344
 20
123.9446388461026
 10
918.6505622567148
 20
123.241597072217
 10
917.9472687965869
 20
122.3872562330976
 10
917.503111374361
 20
121.4263172872875
 10
917.3323111845762
 20
120.2945526212237
 10
917.334583675097
 20
120.2791747948285
  0
LINE
  5
6CF
330
A
100
AcDbEntity
  8
0
  6
Continuous
 62
     7
100
AcDbLine
 10
917.3323051233236
 20
111.4624781681958
 30
0.0
 11
917.3323051233232
 21
85.3034044015065
 31
0.0
  0
LINE
  5
6D0
330
A
100
AcDbEntity
  8
0
  6
Continuous
 62
     7
100
AcDbLine
 10
917.3323051233237
 20
120.3013129330277
 30
0.0
 11
917.3323051233236
 21
116.0586722459083
 31
0.0
  0
LINE
  5
6D1
330
A
100
AcDbEntity
  8
0
  6
Continuous
 62
     7
100
AcDbLine
 10
928.4123051233237
 20
116.0586722459083
 30
0.0
 11
928.4123051233237
 21
120.3013129330276
 31
0.0
  0
LINE
  5
6D2
330
A
100
AcDbEntity
  8
0
  6
Continuous
 62
     7
100
AcDbLine
 10
928.4123051233235
 20
85.29358238825501
 30
0.0
 11
928.4123051233237
 21
111.4624781681958
 31
0.0
  0
LINE
  5
6D3
330
A
100
AcDbEntity
  8
0
  6
Continuous
 62
     7
100
AcDbLine
 10
917.8723051233236
 20
110.760575207052
 30
0.0
 11
927.8723051233235
 21
110.760575207052
 31
0.0
  0
LINE
  5
6D4
330
A
100
AcDbEntity
  8
0
  6
Continuous
 62
     7
100
AcDbLine
 10
922.2723051233232
 20
416.2236216792607
 30
0.0
 11
922.2723051233236
 21
124.7714397605433
 31
0.0
  0
LINE
  5
6D5
330
A
100
AcDbEntity
  8
0
  6
Continuous
 62
     7
100
AcDbLine
 10
923.4723051233237
 20
124.7457520375539
 30
0.0
 11
923.4723051233235
 21
416.2253458969536
 31
0.0
  0
LINE
  5
6D6
330
A
100
AcDbEntity
  8
0
  6
Continuous
 62
     7
100
AcDbLine
 10
913.8723051233233
 20
95.21805181234245
 30
0.0
 11
908.8723051233232
 21
95.21805181234245
 31
0.0
  0
LINE
  5
6D7
330
A
100
AcDbEntity
  8
0
  6
Continuous
 62
     7
100
AcDbLine
 10
908.8723051233232
 20
59.21805181234245
 30
0.0
 11
913.8723051233233
 21
59.21805181234245
 31
0.0
  0
LINE
  5
6D8
330
A
100
AcDbEntity
  8
0
  6
Continuous
 62
     7
100
AcDbLine
 10
918.3723051233233
 20
425.7180518123425
 30
0.0
 11
917.8723051233232
 21
425.7180518123425
 31
0.0
  0
LINE
  5
6D9
330
A
100
AcDbEntity
  8
0
  6
Continuous
 62
     7
100
AcDbLine
 10
917.8723051233232
 20
415.7180518123424
 30
0.0
 11
918.3723051233233
 21
415.7180518123424
 31
0.0
  0
LINE
  5
6DA
330
A
100
AcDbEntity
  8
0
  6
Continuous
 62
     7
100
AcDbLine
 10
927.8723051233232
 20
425.7180518123425
 30
0.0
 11
927.3723051233233
 21
425.7180518123425
 31
0.0
  0
LINE
  5
6DB
330
A
100
AcDbEntity
  8
0
  6
Continuous
 62
     7
100
AcDbLine
 10
927.3723051233233
 20
415.7180518123424
 30
0.0
 11
927.8723051233232
 21
415.7180518123424
 31
0.0
  0
LINE
  5
6DC
330
A
100
AcDbEntity
  8
0
  6
Continuous
 62
     7
100
AcDbLine
 10
917.3323051233234
 20
88.29805181234245
 30
0.0
 11
916.8723051233232
 21
88.29805181234245
 31
0.0
  0
LINE
  5
6DD
330
A
100
AcDbEntity
  8
0
  6
Continuous
 62
     7
100
AcDbLine
 10
928.8723051233231
 20
88.29805181234245
 30
0.0
 11
928.4123051233235
 21
88.29805181234245
 31
0.0
  0
LINE
  5
6DE
330
A
100
AcDbEntity
  8
0
  6
Continuous
 62
     7
100
AcDbLine
 10
923.0285927196538
 20
66.13805181234245
 30
0.0
 11
928.8723051233231
 21
66.13805181234245
 31
0.0
  0
LINE
  5
6DF
330
A
100
AcDbEntity
  8
0
  6
Continuous
 62
     7
100
AcDbLine
 10
916.8723051233232
 20
66.13805181234245
 30
0.0
 11
923.0285927196538
 21
66.13805181234245
 31
0.0
  0
LWPOLYLINE
  5
6E0
330
A
100
AcDbEntity
  8
0
  6
Continuous
 62
     7
100
AcDbPolyline
 90
        9
 70
   128
 43
0.0
 10
927.2037810904709
 20
496.349352315101
 10
926.6374196865067
 20
496.8738625294371
 10
925.6301390493735
 20
497.49514061479
 10
924.4549367169295
 20
497.9104971120166
 10
923.1671400261509
 20
498.0924852367976
 10
921.8478213293167
 20
498.0210364671093
 10
920.5690787357923
 20
497.6883235851824
 10
919.4041015821452
 20
497.0903656219008
 10
918.5408291561758
 20
496.349352315101
  0
LINE
  5
6EB
330
A
100
AcDbEntity
  8
0
  6
Continuous
 62
     7
100
AcDbLine
 10
929.8723051233233
 20
121.2180518123424
 30
0.0
 11
929.8723051233233
 21
411.2180518123424
 31
0.0
  0
LINE
  5
6EC
330
A
100
AcDbEntity
  8
0
  6
Continuous
 62
     7
100
AcDbLine
 10
915.8723051233232
 20
411.2180518123424
 30
0.0
 11
915.8723051233232
 21
121.2180518123424
 31
0.0
  0
LINE
  5
6ED
330
A
100
AcDbEntity
  8
0
  6
Continuous
 62
     7
100
AcDbLine
 10
916.8723051233232
 20
83.21805181234244
 30
0.0
 11
913.8723051233233
 21
83.21805181234244
 31
0.0
  0
LINE
  5
6EE
330
A
100
AcDbEntity
  8
0
  6
Continuous
 62
     7
100
AcDbLine
 10
913.8723051233233
 20
71.21805181234245
 30
0.0
 11
916.8723051233232
 21
71.21805181234245
 31
0.0
  0
LINE
  5
6EF
330
A
100
AcDbEntity
  8
0
  6
Continuous
 62
     7
100
AcDbLine
 10
917.4723051233232
 20
115.1835722516231
 30
0.0
 11
917.4723051233232
 21
112.4212899883384
 31
0.0
  0
LINE
  5
6F0
330
A
100
AcDbEntity
  8
0
  6
Continuous
 62
     7
100
AcDbLine
 10
928.2723051233231
 20
112.454615475217
 30
0.0
 11
928.2723051233231
 21
115.1835722516206
 31
0.0
  0
LINE
  5
6F1
330
A
100
AcDbEntity
  8
0
  6
Continuous
 62
     7
100
AcDbLine
 10
929.8723051233231
 20
30.71805181234247
 30
0.0
 11
929.8723051233231
 21
32.21805181234247
 31
0.0
  0
LINE
  5
6F2
330
A
100
AcDbEntity
  8
0
  6
Continuous
 62
     7
100
AcDbLine
 10
915.8723051233231
 20
32.21805181234247
 30
0.0
 11
915.8723051233231
 21
30.71805181234247
 31
0.0
  0
LINE
  5
6F3
330
A
100
AcDbEntity
  8
0
  6
Continuous
 62
     7
100
AcDbLine
 10
928.4123051233232
 20
32.21805181234247
 30
0.0
 11
928.4123051233232
 21
66.13805181234245
 31
0.0
  0
LINE
  5
6F4
330
A
100
AcDbEntity
  8
0
  6
Continuous
 62
     7
100
AcDbLine
 10
917.3323051233232
 20
66.13805181234245
 30
0.0
 11
917.3323051233232
 21
32.21805181234247
 31
0.0
  0
LINE
  5
6F5
330
A
100
AcDbEntity
  8
0
  6
Continuous
 62
     7
100
AcDbLine
 10
917.8723051233228
 20
474.2180518123425
 30
0.0
 11
912.872305123323
 21
474.2180518123425
 31
0.0
  0
LINE
  5
6F6
330
A
100
AcDbEntity
  8
0
  6
Continuous
 62
     7
100
AcDbLine
 10
912.872305123323
 20
438.2180518123425
 30
0.0
 11
917.8723051233228
 21
438.2180518123425
 31
0.0
  0
LINE
  5
6F7
330
A
100
AcDbEntity
  8
0
  6
Continuous
 62
     7
100
AcDbLine
 10
918.3723051233229
 20
461.2180518123424
 30
0.0
 11
917.8723051233228
 21
461.2180518123424
 31
0.0
  0
LINE
  5
6F8
330
A
100
AcDbEntity
  8
0
  6
Continuous
 62
     7
100
AcDbLine
 10
917.8723051233228
 20
451.2180518123424
 30
0.0
 11
918.3723051233229
 21
451.2180518123424
 31
0.0
  0
LINE
  5
6F9
330
A
100
AcDbEntity
  8
0
  6
Continuous
 62
     7
100
AcDbLine
 10
927.8723051233228
 20
461.2180518123424
 30
0.0
 11
927.3723051233231
 21
461.2180518123424
 31
0.0
  0
LINE
  5
6FA
330
A
100
AcDbEntity
  8
0
  6
Continuous
 62
     7
100
AcDbLine
 10
927.3723051233231
 20
451.2180518123424
 30
0.0
 11
927.8723051233228
 21
451.2180518123424
 31
0.0
  0
LINE
  5
6FB
330
A
100
AcDbEntity
  8
0
  6
Continuous
 62
     7
100
AcDbLine
 10
927.8723051233194
 20
468.2180518123424
 30
0.0
 11
927.3723051233231
 21
468.2180518123424
 31
0.0
  0
LINE
  5
6FC
330
A
100
AcDbEntity
  8
0
  6
Continuous
 62
     7
100
AcDbLine
 10
918.3723051233231
 20
468.2180518123424
 30
0.0
 11
917.8723051233193
 21
468.2180518123424
 31
0.0
  0
LINE
  5
6FD
330
A
100
AcDbEntity
  8
0
  6
Continuous
 62
     7
100
AcDbLine
 10
900.0994549206117
 20
463.7180518123424
 30
0.0
 11
887.8723051233183
 21
463.7180518123424
 31
0.0
  0
LINE
  5
6FE
330
A
100
AcDbEntity
  8
0
  6
Continuous
 62
     7
100
AcDbLine
 10
887.8723051233183
 20
448.7180518123425
 30
0.0
 11
900.1065753675165
 21
448.7180518123425
 31
0.0
  0
LINE
  5
6FF
330
A
100
AcDbEntity
  8
0
  6
Continuous
 62
     7
100
AcDbLine
 10
957.8723051233183
 20
463.7180518123424
 30
0.0
 11
945.6380348791203
 21
463.7180518123424
 31
0.0
  0
LINE
  5
700
330
A
100
AcDbEntity
  8
0
  6
Continuous
 62
     7
100
AcDbLine
 10
945.6451553260249
 20
448.7180518123425
 30
0.0
 11
957.8723051233183
 21
448.7180518123425
 31
0.0
  0
LWPOLYLINE
  5
701
330
A
100
AcDbEntity
  8
0
  6
Continuous
 62
     7
100
AcDbPolyline
 90
       32
 70
   128
 43
0.0
 10
857.1212913117962
 20
443.9328491195933
 10
855.0475868238732
 20
442.1112704648659
 10
853.1339715969187
 20
440.0930446721774
 10
851.5286871779679
 20
438.004707441195
 10
850.2460219506188
 20
435.8612151506461
 10
849.295826915611
 20
433.6821831396696
 10
848.6806408950183
 20
431.4887728196009
 10
848.3957277001454
 20
429.2990822243516
 10
848.4325980141148
 20
427.1250493009234
 10
848.7835069002276
 20
424.9732808465889
 10
849.4425098308882
 20
422.851345742993
 10
850.4087388243092
 20
420.7589705111636
 10
851.6847077732098
 20
418.6981611643934
 10
853.2721756386093
 20
416.6755173493518
 10
855.1683157206396
 20
414.7019443655283
 10
857.3643872014089
 20
412.7902494945656
 10
859.8471106979873
 20
410.9524374322844
 10
862.6010426097115
 20
409.1982608935906
 10
865.6092897150228
 20
407.5357007569194
 10
868.8563010690625
 20
405.9703125478027
 10
872.3271279625038
 20
404.5065796026781
 10
876.0066867016236
 20
403.1485938705033
 10
879.8795150278907
 20
401.9002238800519
 10
883.9296142263737
 20
400.7651600191029
 10
888.1403703749894
 20
399.7468973929472
 10
892.4945352007725
 20
398.8486924295184
 10
896.9742481678878
 20
398.0735123780604
 10
901.5610859880025
 20
397.4239868906676
 10
906.236130055089
 20
396.9023656046704
 10
910.9800455191642
 20
396.5104830558832
 10
915.77316789184
 20
396.2497310890084
 10
915.8723051233232
 20
396.247085485602
  0
LWPOLYLINE
  5
723
330
A
100
AcDbEntity
  8
0
  6
Continuous
 62
     7
100
AcDbPolyline
 90
       32
 70
   128
 43
0.0
 10
929.8723051233233
 20
396.2505309889966
 10
930.2481218094968
 20
396.2611563958942
 10
935.0379010701209
 20
396.5294069214576
 10
939.7767211682817
 20
396.9285997531493
 10
944.4449297541652
 20
397.4572591491707
 10
949.023212506168
 20
398.1134621121124
 10
953.4926855873298
 20
398.8948654892647
 10
957.8349841795017
 20
399.7987419946038
 10
962.0323449953321
 20
400.8220264656511
 10
966.0676795393207
 20
401.9613738494607
 10
969.9246330494954
 20
403.2132302811391
 10
973.5876211202091
 20
404.573917699934
 10
977.041831495933
 20
406.0397297371635
 10
980.2731720231799
 20
407.6070300870081
 10
983.2681376241996
 20
409.2723304389104
 10
986.0135626828895
 20
411.0322970023465
 10
988.4962318325428
 20
412.8835849873651
 10
990.7019450565996
 20
414.8219200134295
 10
992.6148429314208
 20
416.8403267773794
 10
994.2193733564154
 20
418.9288155659276
 10
995.5012543811283
 20
421.0724174794957
 10
996.4506497070239
 20
423.2515086959513
 10
997.0650394650435
 20
425.4449296160576
 10
997.3491740758481
 20
427.6345943613597
 10
997.3115460443539
 20
429.8085808856559
 10
996.9598974729116
 20
431.9602784598814
 10
996.3001631962244
 20
434.0821429660785
 10
995.3331994990836
 20
436.1744468957888
 10
994.056488957406
 20
438.2351751028644
 10
992.4682796418174
 20
440.257716259774
 10
990.5714120090772
 20
442.2311571368421
 10
988.6292168314833
 20
443.9211682302136
  0
LINE
  5
745
330
A
100
AcDbEntity
  8
0
  6
Continuous
 62
     7
100
AcDbLine
 10
992.2436473207172
 20
436.7627242529768
 30
0.0
 11
956.3453708426637
 21
507.8599003677076
 31
0.0
  0
LINE
  5
746
330
A
100
AcDbEntity
  8
0
  6
Continuous
 62
     7
100
AcDbLine
 10
889.3992394039718
 20
507.8599003677077
 30
0.0
 11
853.5009629259178
 21
436.7627242529774
 31
0.0
  0
ARC
  5
747
330
A
100
AcDbEntity
  8
0
  6
Continuous
 62
     7
100
AcDbCircle
 10
922.8723051233179
 20
456.2180518123424
 30
0.0
 40
27.05
100
AcDbArc
 50
16.09699872861229
 51
80.42383287996893
  0
ARC
  5
748
330
A
100
AcDbEntity
  8
0
  6
Continuous
 62
     7
100
AcDbCircle
 10
922.8723051233179
 20
456.2180518123424
 30
0.0
 40
27.04999999999992
100
AcDbArc
 50
99.57616712000815
 51
163.9030012713874
  0
ARC
  5
749
330
A
100
AcDbEntity
  8
0
  6
Continuous
 62
     7
100
AcDbCircle
 10
922.8723051233179
 20
456.2180518123424
 30
0.0
 40
27.04999999999994
100
AcDbArc
 50
196.0969987286135
 51
260.4126927715125
  0
ARC
  5
74A
330
A
100
AcDbEntity
  8
0
  6
Continuous
 62
     7
100
AcDbCircle
 10
922.8723051233179
 20
456.2180518123424
 30
0.0
 40
27.05
100
AcDbArc
 50
279.6415011107923
 51
343.9030012713885
  0
LWPOLYLINE
  5
74B
330
A
100
AcDbEntity
  8
0
  6
Continuous
 62
     7
100
AcDbPolyline
 90
       11
 70
   128
 43
0.0
 10
948.4853178067767
 20
514.4593901459593
 10
948.2281138370273
 20
514.5917461931608
 10
945.8930332228986
 20
515.578841837927
 10
943.3491357518901
 20
516.4630029868435
 10
940.6197528682078
 20
517.2376997451553
 10
937.7296025510075
 20
517.897059259143
 10
934.7047877052425
 20
518.4359390593985
 10
931.5726606218225
 20
518.8500355697954
 10
928.3616097001594
 20
519.1359843582544
 10
925.1008027973906
 20
519.291438532822
 10
922.8723051233174
 20
519.3219132350064
  0
LWPOLYLINE
  5
758
330
A
100
AcDbEntity
  8
0
  6
Continuous
 62
     7
100
AcDbPolyline
 90
       11
 70
   128
 43
0.0
 10
922.8723051233174
 20
519.3219132350064
 10
921.1469315133038
 20
519.3036535368951
 10
917.8824384174005
 20
519.1684556685177
 10
914.6628198999131
 20
518.9025719607656
 10
911.5182667736107
 20
518.5082866967394
 10
908.4772993312194
 20
517.9889037943679
 10
905.5674054906539
 20
517.3486920776813
 10
902.8147742544698
 20
516.5927774210326
 10
900.2440591393071
 20
515.7269936921533
 10
897.8781970295585
 20
514.757685033044
 10
897.296534108587
 20
514.4678617059049
  0
LWPOLYLINE
  5
765
330
A
100
AcDbEntity
  8
0
  6
Continuous
 62
     7
100
AcDbPolyline
 90
       13
 70
   128
 43
0.0
 10
953.4127614482089
 20
500.0325038979926
 10
952.6606834460025
 20
499.282533329553
 10
951.1954144855669
 20
498.1471887453051
 10
949.458484145188
 20
497.0671674255259
 10
947.464722241037
 20
496.0547129256342
 10
945.2313848305159
 20
495.1211745656084
 10
942.779272091229
 20
494.2773663950887
 10
940.1320250062294
 20
493.5330320036259
 10
937.3155161906131
 20
492.8966249085775
 10
934.3573790235881
 20
492.3752379566774
 10
931.286628492092
 20
491.9745876613521
 10
928.1333335228167
 20
491.6990148871678
 10
927.3723051233233
 20
491.6639848918923
  0
LWPOLYLINE
  5
774
330
A
100
AcDbEntity
  8
0
  6
Continuous
 62
     7
100
AcDbPolyline
 90
       13
 70
   128
 43
0.0
 10
918.3719154632902
 20
491.6544522110391
 10
915.3165092197481
 20
491.88634989184
 10
912.2181198148112
 20
492.2533199388843
 10
909.2235623914284
 20
492.7426528580121
 10
906.3622163454686
 20
493.3491190912802
 10
903.662256365961
 20
494.0661133203589
 10
901.1503715228355
 20
494.8856250438343
 10
898.8514588420759
 20
495.7981867483205
 10
896.7882560151844
 20
496.7928002840393
 10
894.980849425764
 20
497.8568687008071
 10
893.4459599790725
 20
498.9762388968132
 10
892.1959157608357
 20
500.1356542577077
 10
891.775634012035
 20
500.6550327152927
  0
LINE
  5
783
330
A
100
AcDbEntity
  8
0
  6
Continuous
 62
     7
100
AcDbLine
 10
907.354700343653
 20
396.8099634151711
 30
0.0
 11
915.8723051233232
 21
337.9376244001989
 31
0.0
  0
LINE
  5
784
330
A
100
AcDbEntity
  8
0
  6
Continuous
 62
     7
100
AcDbLine
 10
915.8723051233232
 20
351.905238475756
 30
0.0
 11
909.3999681914787
 21
396.6410091445421
 31
0.0
  0
LINE
  5
785
330
A
100
AcDbEntity
  8
0
  6
Continuous
 62
     7
100
AcDbLine
 10
936.344418866407
 20
396.6394664991481
 30
0.0
 11
929.8723051233233
 21
351.9052384758315
 31
0.0
  0
LINE
  5
786
330
A
100
AcDbEntity
  8
0
  6
Continuous
 62
     7
100
AcDbLine
 10
929.8723051233233
 20
337.9376244002754
 30
0.0
 11
938.3901754324007
 21
396.8117987125714
 31
0.0
  0
CIRCLE
  5
787
330
A
100
AcDbEntity
  8
0
  6
Continuous
 62
     7
100
AcDbCircle
 10
922.8723051233234
 20
-9.28194818765754
 30
0.0
 40
38.5
  0
CIRCLE
  5
788
330
A
100
AcDbEntity
  8
0
  6
Continuous
 62
     7
100
AcDbCircle
 10
922.8723051233234
 20
-9.28194818765754
 30
0.0
 40
40.0
  0
LINE
  5
789
330
A
100
AcDbEntity
  8
0
  6
Continuous
 62
     7
100
AcDbLine
 10
912.8723051233231
 20
30.71805181234247
 30
0.0
 11
932.8723051233231
 21
30.71805181234247
 31
0.0
  0
LINE
  5
78A
330
A
100
AcDbEntity
  8
0
  6
Continuous
 62
     7
100
AcDbLine
 10
927.8723051233232
 20
487.1539734892539
 30
0.0
 11
927.8723051233232
 21
490.1539734892539
 31
0.0
  0
LINE
  5
78B
330
A
100
AcDbEntity
  8
0
  6
Continuous
 62
     7
100
AcDbLine
 10
927.8723051233232
 20
484.1539734892539
 30
0.0
 11
927.8723051233232
 21
487.1539734892539
 31
0.0
  0
LINE
  5
78C
330
A
100
AcDbEntity
  8
0
  6
Continuous
 62
     7
100
AcDbLine
 10
917.8723051233232
 20
487.1539734892539
 30
0.0
 11
917.8723051233232
 21
490.1539734892539
 31
0.0
  0
LINE
  5
78D
330
A
100
AcDbEntity
  8
0
  6
Continuous
 62
     7
100
AcDbLine
 10
917.8723051233232
 20
484.1539734892539
 30
0.0
 11
917.8723051233232
 21
487.1539734892539
 31
0.0
  0
LWPOLYLINE
  5
78E
330
A
100
AcDbEntity
  8
0
  6
Continuous
 62
     7
100
AcDbPolyline
 90
       12
 70
   128
 43
0.0
 10
917.3746344205657
 20
85.29992175572649
 10
917.3403916826991
 20
85.11099538908325
 10
917.688839699058
 20
83.86076832680073
 10
918.5052980247098
 20
82.61424896702502
 10
919.8222777828224
 20
81.45533690589019
 10
921.5925012536244
 20
80.66531849978193
 10
923.4258523169559
 20
80.53452649751264
 10
925.0262313425439
 20
80.96641766188639
 10
926.4629386481345
 20
81.85480206255164
 10
927.6602136696594
 20
83.1652476075992
 10
928.3242158398895
 20
84.61541794846016
 10
928.342664635755
 20
85.29450441088487
  0
LWPOLYLINE
  5
79C
330
A
100
AcDbEntity
  8
0
  6
Continuous
 62
     7
100
AcDbPolyline
 90
       13
 70
   128
 43
0.0
 10
928.4123051233237
 20
116.0586722459083
 10
928.223534200965
 20
115.0447818774254
 10
927.6700858602895
 20
114.0999864620216
 10
926.7896766910972
 20
113.2886722459083
 10
925.6423051233237
 20
112.6661289521536
 10
924.3061626331918
 20
112.2747818774254
 10
922.8723051233238
 20
112.1413006781348
 10
921.4384476134558
 20
112.2747818774253
 10
920.1023051233239
 20
112.6661289521535
 10
918.9549335555502
 20
113.2886722459082
 10
918.0745243863579
 20
114.0999864620215
 10
917.5210760456822
 20
115.0447818774253
 10
917.3323051233236
 20
116.0586722459083
  0
LWPOLYLINE
  5
7AB
330
A
100
AcDbEntity
  8
0
  6
Continuous
 62
     7
100
AcDbPolyline
 90
        4
 70
   128
 43
0.0
 10
917.8723051233236
 20
113.8810412519391
 10
917.5668029173246
 20
112.8858326488436
 10
917.3551144817883
 20
111.8451913293136
 10
917.3323051233236
 20
111.4624781681958
  0
LWPOLYLINE
  5
7B1
330
A
100
AcDbEntity
  8
0
  6
Continuous
 62
     7
100
AcDbPolyline
 90
       13
 70
   128
 43
0.0
 10
917.3323051233236
 20
111.4624781681958
 10
917.5210760456822
 20
110.4485877997129
 10
918.0745243863579
 20
109.503792384309
 10
918.9549335555501
 20
108.6924781681958
 10
920.1023051233235
 20
108.069934874441
 10
921.4384476134556
 20
107.6785877997128
 10
922.8723051233236
 20
107.5451066004222
 10
924.3061626331915
 20
107.6785877997128
 10
925.6423051233236
 20
108.069934874441
 10
926.7896766910972
 20
108.6924781681957
 10
927.6700858602893
 20
109.503792384309
 10
928.223534200965
 20
110.4485877997128
 10
928.4123051233237
 20
111.4624781681958
  0
LWPOLYLINE
  5
7C0
330
A
100
AcDbEntity
  8
0
  6
Continuous
 62
     7
100
AcDbPolyline
 90
        4
 70
   128
 43
0.0
 10
928.4123051233237
 20
111.4624781681958
 10
928.3693105541717
 20
112.0017927806654
 10
928.1880559638009
 20
112.8478917185663
 10
927.8935545046635
 20
113.8213257137702
  0
LINE
  5
7C6
330
A
100
AcDbEntity
  8
0
  6
Continuous
 62
     7
100
AcDbLine
 10
927.8723051233235
 20
113.760575207052
 30
0.0
 11
927.8723051233235
 21
114.3717223355671
 31
0.0
  0
LINE
  5
7C7
330
A
100
AcDbEntity
  8
0
  6
Continuous
 62
     7
100
AcDbLine
 10
927.8723051233235
 20
110.760575207052
 30
0.0
 11
927.8723051233235
 21
113.760575207052
 31
0.0
  0
LINE
  5
7C8
330
A
100
AcDbEntity
  8
0
  6
Continuous
 62
     7
100
AcDbLine
 10
917.8723051233236
 20
113.760575207052
 30
0.0
 11
917.8723051233236
 21
114.3717223355671
 31
0.0
  0
LINE
  5
7C9
330
A
100
AcDbEntity
  8
0
  6
Continuous
 62
     7
100
AcDbLine
 10
917.8723051233236
 20
110.760575207052
 30
0.0
 11
917.8723051233236
 21
113.760575207052
 31
0.0
  0
LWPOLYLINE
  5
7CA
330
A
100
AcDbEntity
  8
0
  6
Continuous
 62
     7
100
AcDbPolyline
 90
       12
 70
   128
 43
0.0
 10
923.4678681839428
 20
416.2254087715965
 10
923.4718712028305
 20
416.2486018896402
 10
923.4089383529841
 20
416.5333617200177
 10
923.2643679865018
 20
416.768620361023
 10
923.1276184925029
 20
416.8879006030375
 10
922.99583884561
 20
416.9490659750332
 10
922.8726724313629
 20
416.967100765419
 10
922.7493220300607
 20
416.9492276502914
 10
922.6146149748897
 20
416.8863605180348
 10
922.4629095882191
 20
416.7481957005028
 10
922.3197487409068
 20
416.4916133253717
 10
922.2744839053492
 20
416.2235888807338
  0
LINE
  5
7D8
330
A
100
AcDbEntity
  8
0
  6
Continuous
 62
     7
100
AcDbLine
 10
913.8723051233235
 20
77.21805181234245
 30
0.0
 11
913.8723051233233
 21
95.21805181234245
 31
0.0
  0
LINE
  5
7D9
330
A
100
AcDbEntity
  8
0
  6
Continuous
 62
     7
100
AcDbLine
 10
913.8723051233233
 20
59.21805181234245
 30
0.0
 11
913.8723051233235
 21
77.21805181234245
 31
0.0
  0
LINE
  5
7DA
330
A
100
AcDbEntity
  8
0
  6
Continuous
 62
     7
100
AcDbLine
 10
908.8723051233234
 20
77.21805181234245
 30
0.0
 11
908.8723051233232
 21
95.21805181234245
 31
0.0
  0
LINE
  5
7DB
330
A
100
AcDbEntity
  8
0
  6
Continuous
 62
     7
100
AcDbLine
 10
908.8723051233232
 20
59.21805181234245
 30
0.0
 11
908.8723051233234
 21
77.21805181234245
 31
0.0
  0
LINE
  5
7DC
330
A
100
AcDbEntity
  8
0
  6
Continuous
 62
     7
100
AcDbLine
 10
927.3723051233233
 20
427.6983683794378
 30
0.0
 11
927.3723051233233
 21
413.9124411066946
 31
0.0
  0
LINE
  5
7DD
330
A
100
AcDbEntity
  8
0
  6
Continuous
 62
     7
100
AcDbLine
 10
918.3723051233233
 20
427.6983683794378
 30
0.0
 11
918.3723051233233
 21
413.9124411066946
 31
0.0
  0
LWPOLYLINE
  5
7DE
330
A
100
AcDbEntity
  8
0
  6
Continuous
 62
     7
100
AcDbPolyline
 90
        7
 70
   128
 43
0.0
 10
927.3723051233233
 20
491.5840241233087
 10
927.2671845337276
 20
492.0590117093807
 10
926.9667257568412
 20
492.526104766409
 10
926.5021233996824
 20
492.9454502882234
 10
925.9090499107299
 20
493.2855847603063
 10
925.3824263136529
 20
493.4766967951993
 10
925.3723051233233
 20
493.4795077039223
  0
LWPOLYLINE
  5
7E7
330
A
100
AcDbEntity
  8
0
  6
Continuous
 62
     7
100
AcDbPolyline
 90
        7
 70
   128
 43
0.0
 10
920.3723051233234
 20
493.4795077039223
 10
920.3621839329933
 20
493.4766967952007
 10
919.835560335917
 20
493.2855847603064
 10
919.2424868469645
 20
492.9454502882234
 10
918.7778844898057
 20
492.5261047664092
 10
918.4774257129191
 20
492.0590117093807
 10
918.3723051233233
 20
491.5840241233087
  0
LINE
  5
7F0
330
A
100
AcDbEntity
  8
0
  6
Continuous
 62
     7
100
AcDbLine
 10
927.3723051233233
 20
487.3413834361895
 30
0.0
 11
927.3723051233233
 21
491.5840241233087
 31
0.0
  0
LWPOLYLINE
  5
7F1
330
A
100
AcDbEntity
  8
0
  6
Continuous
 62
     7
100
AcDbPolyline
 90
        9
 70
   128
 43
0.0
 10
918.3723051233233
 20
487.3413834361894
 10
919.2358062107514
 20
486.6293169381855
 10
920.3187582254896
 20
486.0875944737618
 10
921.5558085221557
 20
485.7489072384943
 10
922.8723051233233
 20
485.6336939097026
 10
924.1888017244908
 20
485.7489072384943
 10
925.4258520211571
 20
486.0875944737619
 10
926.5088040358953
 20
486.6293169381856
 10
927.3723051233233
 20
487.3413834361895
  0
LINE
  5
7FC
330
A
100
AcDbEntity
  8
0
  6
Continuous
 62
     7
100
AcDbLine
 10
918.3723051233233
 20
491.5840241233087
 30
0.0
 11
918.3723051233233
 21
487.3413834361894
 31
0.0
  0
LINE
  5
7FD
330
A
100
AcDbEntity
  8
0
  6
Continuous
 62
     7
100
AcDbLine
 10
917.8723051233234
 20
420.7180518123425
 30
0.0
 11
917.8723051233232
 21
425.7180518123425
 31
0.0
  0
LINE
  5
7FE
330
A
100
AcDbEntity
  8
0
  6
Continuous
 62
     7
100
AcDbLine
 10
917.8723051233232
 20
415.7180518123424
 30
0.0
 11
917.8723051233234
 21
420.7180518123425
 31
0.0
  0
LINE
  5
7FF
330
A
100
AcDbEntity
  8
0
  6
Continuous
 62
     7
100
AcDbLine
 10
927.8723051233233
 20
420.7180518123425
 30
0.0
 11
927.8723051233232
 21
425.7180518123425
 31
0.0
  0
LINE
  5
800
330
A
100
AcDbEntity
  8
0
  6
Continuous
 62
     7
100
AcDbLine
 10
927.8723051233232
 20
415.7180518123424
 30
0.0
 11
927.8723051233233
 21
420.7180518123425
 31
0.0
  0
LINE
  5
801
330
A
100
AcDbEntity
  8
0
  6
Continuous
 62
     7
100
AcDbLine
 10
918.3723051233233
 20
491.5840241233087
 30
0.0
 11
918.3723051233233
 21
495.8053983071496
 31
0.0
  0
LWPOLYLINE
  5
802
330
A
100
AcDbEntity
  8
0
  6
Continuous
 62
     7
100
AcDbPolyline
 90
        7
 70
   128
 43
0.0
 10
920.3723051233234
 20
496.7383418512823
 10
920.3621839329937
 20
496.7411165422961
 10
919.8355603359168
 20
496.8285046344588
 10
919.2424868469643
 20
496.7778575988955
 10
918.7778844898055
 20
496.5708438532556
 10
918.4774257129189
 20
496.23532178856
 10
918.3723051233233
 20
495.8053983071496
  0
LINE
  5
80B
330
A
100
AcDbEntity
  8
0
  6
Continuous
 62
     7
100
AcDbLine
 10
927.3723051233233
 20
495.8053983071498
 30
0.0
 11
927.3723051233233
 21
491.5840241233087
 31
0.0
  0
LWPOLYLINE
  5
80C
330
A
100
AcDbEntity
  8
0
  6
Continuous
 62
     7
100
AcDbPolyline
 90
        7
 70
   128
 43
0.0
 10
927.3723051233233
 20
495.8053983071496
 10
927.2671845337276
 20
496.23532178856
 10
926.9667257568412
 20
496.5708438532556
 10
926.5021233996822
 20
496.7778575988954
 10
925.9090499107299
 20
496.8285046344588
 10
925.3824263136532
 20
496.741116542296
 10
925.3723051233233
 20
496.7383418512823
  0
LINE
  5
815
330
A
100
AcDbEntity
  8
0
  6
Continuous
 62
     7
100
AcDbLine
 10
928.8723051233233
 20
77.21805181234245
 30
0.0
 11
928.8723051233231
 21
88.29805181234245
 31
0.0
  0
LINE
  5
816
330
A
100
AcDbEntity
  8
0
  6
Continuous
 62
     7
100
AcDbLine
 10
928.8723051233231
 20
66.13805181234245
 30
0.0
 11
928.8723051233233
 21
77.21805181234245
 31
0.0
  0
LINE
  5
817
330
A
100
AcDbEntity
  8
0
  6
Continuous
 62
     7
100
AcDbLine
 10
916.8723051233234
 20
77.21805181234245
 30
0.0
 11
916.8723051233232
 21
88.29805181234245
 31
0.0
  0
LINE
  5
818
330
A
100
AcDbEntity
  8
0
  6
Continuous
 62
     7
100
AcDbLine
 10
916.8723051233232
 20
66.13805181234245
 30
0.0
 11
916.8723051233234
 21
77.21805181234245
 31
0.0
  0
LINE
  5
819
330
A
100
AcDbEntity
  8
0
  6
Continuous
 62
     7
100
AcDbLine
 10
927.3723051233233
 20
413.9124411066946
 30
0.0
 11
927.3723051233233
 21
411.2180518123269
 31
0.0
  0
LINE
  5
81A
330
A
100
AcDbEntity
  8
0
  6
Continuous
 62
     7
100
AcDbLine
 10
918.3723051233233
 20
411.2180518123422
 30
0.0
 11
918.3723051233233
 21
413.9124411066946
 31
0.0
  0
LINE
  5
81B
330
A
100
AcDbEntity
  8
0
  6
Continuous
 62
     7
100
AcDbLine
 10
927.3723051233233
 20
431.981750378761
 30
0.0
 11
927.3723051233233
 21
427.6983683794378
 31
0.0
  0
LINE
  5
81C
330
A
100
AcDbEntity
  8
0
  6
Continuous
 62
     7
100
AcDbLine
 10
918.3723051233233
 20
427.6983683794378
 30
0.0
 11
918.3723051233233
 21
431.9817503787609
 31
0.0
  0
LINE
  5
81D
330
A
100
AcDbEntity
  8
0
  6
Continuous
 62
     7
100
AcDbLine
 10
915.8723051233232
 20
411.2180518123424
 30
0.0
 11
922.2723051233232
 21
411.2180518123424
 31
0.0
  0
LINE
  5
81E
330
A
100
AcDbEntity
  8
0
  6
Continuous
 62
     7
100
AcDbLine
 10
923.4723051233235
 20
411.2180518123424
 30
0.0
 11
929.8723051233233
 21
411.2180518123424
 31
0.0
  0
LINE
  5
81F
330
A
100
AcDbEntity
  8
0
  6
Continuous
 62
     7
100
AcDbLine
 10
915.8723051233232
 20
121.2180518123424
 30
0.0
 11
917.4723051233232
 21
121.2180518123424
 31
0.0
  0
LINE
  5
820
330
A
100
AcDbEntity
  8
0
  6
Continuous
 62
     7
100
AcDbLine
 10
928.3733080831728
 20
121.2180518123424
 30
0.0
 11
929.8723051233233
 21
121.2180518123424
 31
0.0
  0
LWPOLYLINE
  5
821
330
A
100
AcDbEntity
  8
0
  6
Continuous
 62
     7
100
AcDbPolyline
 90
        9
 70
   128
 43
0.0
 10
927.3723051233233
 20
482.7451893584769
 10
926.5088040358953
 20
482.033122860473
 10
925.4258520211571
 20
481.4914003960494
 10
924.1888017244908
 20
481.1527131607817
 10
922.8723051233233
 20
481.0374998319901
 10
921.5558085221557
 20
481.1527131607817
 10
920.3187582254896
 20
481.4914003960494
 10
919.2358062107514
 20
482.033122860473
 10
918.3723051233233
 20
482.7451893584768
  0
LINE
  5
82C
330
A
100
AcDbEntity
  8
0
  6
Continuous
 62
     7
100
AcDbLine
 10
927.3723051233231
 20
463.1998527676446
 30
0.0
 11
927.3723051233233
 21
482.7451893584769
 31
0.0
  0
LINE
  5
82D
330
A
100
AcDbEntity
  8
0
  6
Continuous
 62
     7
100
AcDbLine
 10
918.3723051233233
 20
482.7451893584768
 30
0.0
 11
918.3723051233231
 21
463.1998527676445
 31
0.0
  0
LINE
  5
82E
330
A
100
AcDbEntity
  8
0
  6
Continuous
 62
     7
100
AcDbLine
 10
927.3723051233233
 20
484.1539734892539
 30
0.0
 11
927.3723051233233
 21
482.7451893584769
 31
0.0
  0
LINE
  5
82F
330
A
100
AcDbEntity
  8
0
  6
Continuous
 62
     7
100
AcDbLine
 10
918.3723051233233
 20
482.7451893584768
 30
0.0
 11
918.3723051233233
 21
484.1539734892539
 31
0.0
  0
LINE
  5
830
330
A
100
AcDbEntity
  8
0
  6
Continuous
 62
     7
100
AcDbLine
 10
927.3723051233233
 20
433.7221371864645
 30
0.0
 11
927.3723051233233
 21
431.981750378761
 31
0.0
  0
LINE
  5
831
330
A
100
AcDbEntity
  8
0
  6
Continuous
 62
     7
100
AcDbLine
 10
918.3723051233233
 20
431.9817503787609
 30
0.0
 11
918.3723051233233
 21
433.7221371864645
 31
0.0
  0
LINE
  5
832
330
A
100
AcDbEntity
  8
0
  6
Continuous
 62
     7
100
AcDbLine
 10
929.8723051233231
 20
32.21805181234247
 30
0.0
 11
915.8723051233231
 21
32.21805181234247
 31
0.0
  0
LINE
  5
833
330
A
100
AcDbEntity
  8
0
  6
Continuous
 62
     7
100
AcDbLine
 10
927.3723051233231
 20
449.2362508570401
 30
0.0
 11
927.3723051233233
 21
433.7221371864645
 31
0.0
  0
LINE
  5
834
330
A
100
AcDbEntity
  8
0
  6
Continuous
 62
     7
100
AcDbLine
 10
918.3723051233233
 20
433.7221371864645
 30
0.0
 11
918.3723051233231
 21
449.2362508570401
 31
0.0
  0
LINE
  5
835
330
A
100
AcDbEntity
  8
0
  6
Continuous
 62
     7
100
AcDbLine
 10
917.8723051233232
 20
456.2180518123424
 30
0.0
 11
917.8723051233228
 21
474.2180518123425
 31
0.0
  0
LINE
  5
836
330
A
100
AcDbEntity
  8
0
  6
Continuous
 62
     7
100
AcDbLine
 10
917.8723051233228
 20
438.2180518123425
 30
0.0
 11
917.8723051233232
 21
456.2180518123424
 31
0.0
  0
LINE
  5
837
330
A
100
AcDbEntity
  8
0
  6
Continuous
 62
     7
100
AcDbLine
 10
912.8723051233231
 20
456.2180518123424
 30
0.0
 11
912.872305123323
 21
474.2180518123425
 31
0.0
  0
LINE
  5
838
330
A
100
AcDbEntity
  8
0
  6
Continuous
 62
     7
100
AcDbLine
 10
912.872305123323
 20
438.2180518123425
 30
0.0
 11
912.8723051233231
 21
456.2180518123424
 31
0.0
  0
LINE
  5
839
330
A
100
AcDbEntity
  8
0
  6
Continuous
 62
     7
100
AcDbLine
 10
927.3723051233231
 20
463.1998527676446
 30
0.0
 11
927.3723051233231
 21
459.3531349561961
 31
0.0
  0
LINE
  5
83A
330
A
100
AcDbEntity
  8
0
  6
Continuous
 62
     7
100
AcDbLine
 10
918.3723051233231
 20
459.3531349561961
 30
0.0
 11
918.3723051233231
 21
463.1998527676445
 31
0.0
  0
LINE
  5
83B
330
A
100
AcDbEntity
  8
0
  6
Continuous
 62
     7
100
AcDbLine
 10
927.3723051233231
 20
453.0829686684887
 30
0.0
 11
927.3723051233231
 21
449.2362508570401
 31
0.0
  0
LINE
  5
83C
330
A
100
AcDbEntity
  8
0
  6
Continuous
 62
     7
100
AcDbLine
 10
918.3723051233231
 20
449.2362508570401
 30
0.0
 11
918.3723051233231
 21
453.0829686684887
 31
0.0
  0
LINE
  5
83D
330
A
100
AcDbEntity
  8
0
  6
Continuous
 62
     7
100
AcDbLine
 10
927.3723051233231
 20
459.3531349561961
 30
0.0
 11
927.3723051233231
 21
453.0829686684887
 31
0.0
  0
LINE
  5
83E
330
A
100
AcDbEntity
  8
0
  6
Continuous
 62
     7
100
AcDbLine
 10
918.3723051233231
 20
459.3531349561961
 30
0.0
 11
918.3723051233231
 21
453.0829686684887
 31
0.0
  0
LINE
  5
83F
330
A
100
AcDbEntity
  8
0
  6
Continuous
 62
     7
100
AcDbLine
 10
927.8723051233228
 20
456.2180518123424
 30
0.0
 11
927.8723051233228
 21
461.2180518123424
 31
0.0
  0
LINE
  5
840
330
A
100
AcDbEntity
  8
0
  6
Continuous
 62
     7
100
AcDbLine
 10
927.8723051233228
 20
451.2180518123424
 30
0.0
 11
927.8723051233228
 21
456.2180518123424
 31
0.0
  0
LINE
  5
841
330
A
100
AcDbEntity
  8
0
  6
Continuous
 62
     7
100
AcDbLine
 10
929.7308764031154
 20
454.8180518123425
 30
0.0
 11
927.7712846088888
 21
445.2180518123425
 31
0.0
  0
ARC
  5
842
330
A
100
AcDbEntity
  8
0
  6
Continuous
 62
     7
100
AcDbCircle
 10
922.8723051233226
 20
446.2180518123425
 30
0.0
 40
4.999999999999992
100
AcDbArc
 50
334.1580672368487
 51
348.4630409671833
  0
ARC
  5
843
330
A
100
AcDbEntity
  8
0
  6
Continuous
 62
     7
100
AcDbCircle
 10
922.8723051233226
 20
446.2180518123425
 30
0.0
 40
5.000000000000183
100
AcDbArc
 50
191.5369590328159
 51
205.8419327631872
  0
LINE
  5
844
330
A
100
AcDbEntity
  8
0
  6
Continuous
 62
     7
100
AcDbLine
 10
917.9733256377559
 20
445.2180518123425
 30
0.0
 11
917.872305123323
 21
445.7129492401707
 31
0.0
  0
ARC
  5
845
330
A
100
AcDbEntity
  8
0
  6
Continuous
 62
     7
100
AcDbCircle
 10
922.8723051233226
 20
456.2180518123424
 30
0.0
 40
7.00000000000005
100
AcDbArc
 50
130.9546145654937
 51
134.4153085971934
  0
ARC
  5
846
330
A
100
AcDbEntity
  8
0
  6
Continuous
 62
     7
100
AcDbCircle
 10
922.8723051233226
 20
456.2180518123424
 30
0.0
 40
6.99999999999997
100
AcDbArc
 50
45.58469140280727
 51
49.32400216113472
  0
ARC
  5
847
330
A
100
AcDbEntity
  8
0
  6
Continuous
 62
     7
100
AcDbCircle
 10
922.8723051233226
 20
456.2180518123424
 30
0.0
 40
7.000000000000011
100
AcDbArc
 50
348.4630409671825
 51
44.41530859719307
  0
LINE
  5
848
330
A
100
AcDbEntity
  8
0
  6
Continuous
 62
     7
100
AcDbLine
 10
927.8723051233194
 20
461.1170312979088
 30
0.0
 11
927.8723051233194
 21
468.2180518123424
 31
0.0
  0
LINE
  5
849
330
A
100
AcDbEntity
  8
0
  6
Continuous
 62
     7
100
AcDbLine
 10
889.8723051233188
 20
460.7180518123424
 30
0.0
 11
889.8723051233188
 21
451.7180518123424
 31
0.0
  0
LINE
  5
84A
330
A
100
AcDbEntity
  8
0
  6
Continuous
 62
     7
100
AcDbLine
 10
889.8723051233188
 20
460.7180518123424
 30
0.0
 11
912.8723051233231
 21
460.7180518123424
 31
0.0
  0
LINE
  5
84B
330
A
100
AcDbEntity
  8
0
  6
Continuous
 62
     7
100
AcDbLine
 10
889.8723051233188
 20
451.7180518123424
 30
0.0
 11
912.8723051233231
 21
451.7180518123424
 31
0.0
  0
LINE
  5
84C
330
A
100
AcDbEntity
  8
0
  6
Continuous
 62
     7
100
AcDbLine
 10
955.8723051233188
 20
460.7180518123424
 30
0.0
 11
955.8723051233188
 21
451.7180518123424
 31
0.0
  0
LINE
  5
84D
330
A
100
AcDbEntity
  8
0
  6
Continuous
 62
     7
100
AcDbLine
 10
928.2342077707042
 20
460.7180518123424
 30
0.0
 11
955.8723051233188
 21
460.7180518123424
 31
0.0
  0
LINE
  5
84E
330
A
100
AcDbEntity
  8
0
  6
Continuous
 62
     7
100
AcDbLine
 10
929.0980915528963
 20
451.7180518123424
 30
0.0
 11
955.8723051233188
 21
451.7180518123424
 31
0.0
  0
ARC
  5
84F
330
A
100
AcDbEntity
  8
0
  6
Continuous
 62
     7
100
AcDbCircle
 10
922.8723051233188
 20
456.2180518123424
 30
0.0
 40
21.24999999999999
100
AcDbArc
 50
192.2257885931584
 51
257.7742114068556
  0
ARC
  5
850
330
A
100
AcDbEntity
  8
0
  6
Continuous
 62
     7
100
AcDbCircle
 10
922.8723051233188
 20
456.2180518123424
 30
0.0
 40
21.25
100
AcDbArc
 50
102.2257885931452
 51
167.7742114068423
  0
ARC
  5
851
330
A
100
AcDbEntity
  8
0
  6
Continuous
 62
     7
100
AcDbCircle
 10
922.8723051233188
 20
456.2180518123424
 30
0.0
 40
21.25
100
AcDbArc
 50
12.22578859315767
 51
77.77421140683029
  0
ARC
  5
852
330
A
100
AcDbEntity
  8
0
  6
Continuous
 62
     7
100
AcDbCircle
 10
922.8723051233188
 20
456.2180518123424
 30
0.0
 40
21.24999999999998
100
AcDbArc
 50
282.2257885931705
 51
347.7742114068434
  0
ARC
  5
853
330
A
100
AcDbEntity
  8
0
  6
Continuous
 62
     7
100
AcDbCircle
 10
922.8723051233185
 20
456.2180518123424
 30
0.0
 40
23.94999999999992
100
AcDbArc
 50
190.829756582064
 51
259.1702434179376
  0
ARC
  5
854
330
A
100
AcDbEntity
  8
0
  6
Continuous
 62
     7
100
AcDbCircle
 10
922.8723051233185
 20
456.2180518123424
 30
0.0
 40
23.94999999999992
100
AcDbArc
 50
100.8297565820515
 51
169.1702434179368
  0
ARC
  5
855
330
A
100
AcDbEntity
  8
0
  6
Continuous
 62
     7
100
AcDbCircle
 10
922.8723051233185
 20
456.2180518123424
 30
0.0
 40
23.94999999999993
100
AcDbArc
 50
10.82975658206328
 51
79.17024341792516
  0
ARC
  5
856
330
A
100
AcDbEntity
  8
0
  6
Continuous
 62
     7
100
AcDbCircle
 10
922.8723051233185
 20
456.2180518123424
 30
0.0
 40
23.94999999999992
100
AcDbArc
 50
280.829756582064
 51
349.1702434179376
  0
LINE
  5
857
330
A
100
AcDbEntity
  8
0
  6
Continuous
 62
     7
100
AcDbLine
 10
887.8723051233183
 20
463.7180518123424
 30
0.0
 11
887.8723051233183
 21
448.7180518123425
 31
0.0
  0
LINE
  5
858
330
A
100
AcDbEntity
  8
0
  6
Continuous
 62
     7
100
AcDbLine
 10
957.8723051233184
 20
456.2180518123424
 30
0.0
 11
957.8723051233183
 21
448.7180518123425
 31
0.0
  0
LINE
  5
859
330
A
100
AcDbEntity
  8
0
  6
Continuous
 62
     7
100
AcDbLine
 10
957.8723051233183
 20
463.7180518123424
 30
0.0
 11
957.8723051233184
 21
456.2180518123424
 31
0.0
  0
LWPOLYLINE
  5
85A
330
A
100
AcDbEntity
  8
0
  6
Continuous
 62
     7
100
AcDbPolyline
 90
       26
 70
   128
 43
0.0
 10
853.5009629259178
 20
436.7627242529774
 10
852.8888404506432
 20
435.388238328766
 10
852.2723592867622
 20
433.3294991481267
 10
852.0076035017538
 20
431.2578549097175
 10
852.0958920956214
 20
429.1836264409274
 10
852.5367852190312
 20
427.117147443651
 10
853.3280863646201
 20
425.0687130123056
 10
854.4658533098843
 20
423.0485283441888
 10
855.9444177571339
 20
421.0666578976989
 10
857.7564135726671
 20
419.1329752517091
 10
859.8928134844767
 20
417.2571139158946
 10
862.3429740556666
 20
415.4484193370716
 10
865.0946887095173
 20
413.7159023406518
 10
868.1342485420394
 20
412.0681942391631
 10
871.4465106190415
 20
410.5135038314849
 10
875.014973417468
 20
409.059576507025
 10
878.821859035156
 20
407.713655658579
 10
882.8482017594508
 20
406.4824465961119
 10
887.0739425534305
 20
405.3720831412413
 10
891.4780289890209
 20
404.3880970688466
 10
896.0385201291327
 20
403.5353905480441
 10
900.732695836305
 20
402.8182117198283
 10
905.5371699632891
 20
402.2401335330459
 10
910.4280068616567
 20
401.8040359441455
 10
915.3808406279965
 20
401.5120915693786
 10
915.8723051233232
 20
401.4911462081265
  0
LWPOLYLINE
  5
876
330
A
100
AcDbEntity
  8
0
  6
Continuous
 62
     7
100
AcDbPolyline
 90
       26
 70
   128
 43
0.0
 10
929.8723051233233
 20
401.491146208127
 10
930.3637696186404
 20
401.5120915693786
 10
935.3166033849804
 20
401.8040359441456
 10
940.2074402833479
 20
402.2401335330461
 10
945.011914410332
 20
402.8182117198285
 10
949.7060901175043
 20
403.5353905480443
 10
954.2665812576156
 20
404.3880970688467
 10
958.6706676932063
 20
405.3720831412416
 10
962.896408487186
 20
406.4824465961121
 10
966.9227512114805
 20
407.7136556585791
 10
970.7296368291684
 20
409.0595765070252
 10
974.2980996275948
 20
410.5135038314852
 10
977.6103617045968
 20
412.0681942391635
 10
980.6499215371188
 20
413.7159023406521
 10
983.4016361909693
 20
415.4484193370719
 10
985.851796762159
 20
417.2571139158949
 10
987.9881966739684
 20
419.1329752517096
 10
989.8001924895014
 20
421.0666578976994
 10
991.2787569367509
 20
423.0485283441892
 10
992.4165238820151
 20
425.0687130123059
 10
993.2078250276036
 20
427.1171474436514
 10
993.6487181510134
 20
429.1836264409278
 10
993.7370067448808
 20
431.257854909718
 10
993.4722509598721
 20
433.3294991481271
 10
992.8557697959911
 20
435.3882383287663
 10
992.2436473207172
 20
436.7627242529768
  0
LWPOLYLINE
  5
892
330
A
100
AcDbEntity
  8
0
  6
Continuous
 62
     7
100
AcDbPolyline
 90
        9
 70
   128
 43
0.0
 10
897.0704510581335
 20
514.26170268513
 10
895.8285909984418
 20
513.6343347666417
 10
893.8495473155452
 20
512.455208587383
 10
892.1683164018228
 20
511.1991036817773
 10
890.802149961518
 20
509.8789093859377
 10
889.7650667110273
 20
508.5081726798475
 10
889.0677085278982
 20
507.1009591770145
 10
888.7172312507663
 20
505.671708792242
 10
888.6734714646005
 20
504.9136463432224
  0
LWPOLYLINE
  5
89D
330
A
100
AcDbEntity
  8
0
  6
Continuous
 62
     7
100
AcDbPolyline
 90
        9
 70
   128
 43
0.0
 10
957.0711300227662
 20
504.9944254688248
 10
957.027378995869
 20
505.6717087922422
 10
956.676901718737
 20
507.1009591770148
 10
955.9795435356077
 20
508.5081726798477
 10
954.942460285117
 20
509.8789093859377
 10
953.5762938448122
 20
511.1991036817776
 10
951.8950629310896
 20
512.4552085873832
 10
949.916019248193
 20
513.6343347666419
 10
948.7013137633692
 20
514.2487425905175
  0
ARC
  5
8A8
330
A
100
AcDbEntity
  8
0
  6
Continuous
 62
     7
100
AcDbCircle
 10
922.8723051233179
 20
456.2180518123424
 30
0.0
 40
25.44999999999989
100
AcDbArc
 50
197.139278003423
 51
259.7755249723993
  0
ARC
  5
8A9
330
A
100
AcDbEntity
  8
0
  6
Continuous
 62
     7
100
AcDbCircle
 10
922.8723051233179
 20
456.2180518123424
 30
0.0
 40
25.44999999999991
100
AcDbArc
 50
100.1844304641554
 51
162.8607219965777
  0
ARC
  5
8AA
330
A
100
AcDbEntity
  8
0
  6
Continuous
 62
     7
100
AcDbCircle
 10
922.8723051233179
 20
456.2180518123424
 30
0.0
 40
25.44999999999997
100
AcDbArc
 50
17.13927800342194
 51
79.81556953582067
  0
ARC
  5
8AB
330
A
100
AcDbEntity
  8
0
  6
Continuous
 62
     7
100
AcDbCircle
 10
922.8723051233179
 20
456.2180518123424
 30
0.0
 40
25.44999999999997
100
AcDbArc
 50
280.1867834097698
 51
342.8607219965788
  0
LWPOLYLINE
  5
8AC
330
A
100
AcDbEntity
  8
0
  6
Continuous
 62
     7
100
AcDbPolyline
 90
        7
 70
   128
 43
0.0
 10
890.3807784881362
 20
506.5950296420904
 10
890.2736653075427
 20
506.2220570943128
 10
890.094102886047
 20
504.8012122531857
 10
890.2736653075429
 20
503.3803674120584
 10
890.8103852485639
 20
501.9750896443415
 10
891.6983822931213
 20
500.6007754673311
 10
891.8554563710543
 20
500.4053536486024
  0
LWPOLYLINE
  5
8B5
330
A
100
AcDbEntity
  8
0
  6
Continuous
 62
     7
100
AcDbPolyline
 90
        7
 70
   128
 43
0.0
 10
953.3965096948845
 20
499.8476936205118
 10
954.0462279535145
 20
500.6007754673314
 10
954.9342249980716
 20
501.9750896443415
 10
955.4709449390927
 20
503.3803674120584
 10
955.6505073605883
 20
504.8012122531857
 10
955.4709449390927
 20
506.222057094313
 10
955.4268705016518
 20
506.3863396733077
  0
LWPOLYLINE
  5
8BE
330
A
100
AcDbEntity
  8
0
  6
Continuous
 62
     7
100
AcDbPolyline
 90
        6
 70
   128
 43
0.0
 10
921.6870250431815
 20
516.1722373498088
 10
919.5144311479088
 20
516.1072452563553
 10
916.1946032263799
 20
515.885436933118
 10
912.9504363356174
 20
515.5185498718419
 10
909.8186881827974
 20
515.0107410495319
 10
907.0165555947545
 20
514.4118291324741
  0
LWPOLYLINE
  5
8C6
330
A
100
AcDbEntity
  8
0
  6
Continuous
 62
     7
100
AcDbPolyline
 90
        6
 70
   128
 43
0.0
 10
938.2350025968619
 20
514.5280400884704
 10
935.9259220638373
 20
515.0107410495319
 10
932.7941739110171
 20
515.5185498718419
 10
929.5500070202548
 20
515.885436933118
 10
926.2301790987256
 20
516.1072452563553
 10
924.133966348134
 20
516.1710096980143
  0
LWPOLYLINE
  5
8CE
330
A
100
AcDbEntity
  8
0
  6
Continuous
 62
     7
100
AcDbPolyline
 90
       19
 70
   128
 43
0.0
 10
922.8723051233176
 20
508.264722795688
 10
920.7597948692946
 20
508.1901604859309
 10
918.7080576890419
 20
507.968618578556
 10
916.7761183256471
 20
507.6064704308784
 10
915.0195551571222
 20
507.1141343857452
 10
913.4889013076586
 20
506.5057740547807
 10
912.2281909016512
 20
505.798890857068
 10
911.2736922821113
 20
505.0138205351863
 10
910.6528646364717
 20
504.1731481329223
 10
910.3835680457592
 20
503.3010582646806
 10
910.4735496825819
 20
502.4226393681606
 10
910.9202209390772
 20
501.563161955682
 10
911.7107318964482
 20
500.7473516275549
 10
912.822340993731
 20
499.9986777615776
 10
914.2230692610986
 20
499.3386783417672
 10
915.8726202965979
 20
498.7863403497738
 10
917.723539520268
 20
498.3575535439876
 10
919.7225793560038
 20
498.064653340121
 10
921.5467741672402
 20
497.9266193047861
  0
LWPOLYLINE
  5
8E3
330
A
100
AcDbEntity
  8
0
  6
Continuous
 62
     7
100
AcDbPolyline
 90
       19
 70
   128
 43
0.0
 10
923.944968927404
 20
497.9165129644638
 10
926.0220308906319
 20
498.0646533401211
 10
928.0210707263679
 20
498.3575535439876
 10
929.8719899500378
 20
498.7863403497738
 10
931.5215409855371
 20
499.3386783417673
 10
932.9222692529045
 20
499.9986777615776
 10
934.0338783501874
 20
500.7473516275549
 10
934.8243893075583
 20
501.563161955682
 10
935.2710605640536
 20
502.4226393681607
 10
935.3610422008761
 20
503.3010582646806
 10
935.0917456101635
 20
504.1731481329223
 10
934.4709179645239
 20
505.0138205351863
 10
933.5164193449839
 20
505.798890857068
 10
932.2557089389764
 20
506.5057740547807
 10
930.725055089513
 20
507.1141343857452
 10
928.9684919209879
 20
507.6064704308784
 10
927.0365525575931
 20
507.968618578556
 10
924.9848153773404
 20
508.1901604859309
 10
922.8723051233176
 20
508.264722795688
  0
LWPOLYLINE
  5
8F8
330
A
100
AcDbEntity
  8
0
  6
Continuous
 62
     7
100
AcDbPolyline
 90
       10
 70
   128
 43
0.0
 10
922.8723051233176
 20
507.354761524811
 10
920.7597948692946
 20
507.2801992150539
 10
918.7080576890419
 20
507.0586573076791
 10
916.7761183256471
 20
506.6965091600015
 10
915.019555157122
 20
506.204173114868
 10
913.4889013076586
 20
505.5958127839034
 10
912.2281909016511
 20
504.8889295861909
 10
911.2736922821111
 20
504.1038592643092
 10
910.6528646364715
 20
503.2631868620452
 10
910.4205477303834
 20
502.6260766270385
  0
LWPOLYLINE
  5
904
330
A
100
AcDbEntity
  8
0
  6
Continuous
 62
     7
100
AcDbPolyline
 90
       10
 70
   128
 43
0.0
 10
935.324062516252
 20
502.6260766270382
 10
935.0917456101637
 20
503.2631868620454
 10
934.470917964524
 20
504.1038592643094
 10
933.5164193449839
 20
504.8889295861909
 10
932.2557089389766
 20
505.5958127839037
 10
930.725055089513
 20
506.204173114868
 10
928.9684919209879
 20
506.6965091600015
 10
927.0365525575931
 20
507.0586573076791
 10
924.9848153773404
 20
507.2801992150539
 10
922.8723051233176
 20
507.354761524811
  0
LWPOLYLINE
  5
910
330
A
100
AcDbEntity
  8
0
  6
PHANTOM
 62
     7
100
AcDbPolyline
 90
       20
 70
   128
 43
0.0
 10
922.8723051233236
 20
124.2186845008011
 10
921.7228690023391
 20
124.0830564956094
 10
920.6979921204023
 20
123.690869878882
 10
919.9087357902744
 20
123.0846241559439
 10
919.4406281818984
 20
122.3300154577468
 10
919.34439601808
 20
121.5088173457009
 10
919.6304675469647
 20
120.7100193774479
 10
920.2678424795408
 20
120.0201837074755
 10
921.1874513519726
 20
119.5140647345286
 10
922.2896402737299
 20
119.246508302571
 10
923.4549699729175
 20
119.246508302571
 10
924.557158894675
 20
119.5140647345286
 10
925.4767677671067
 20
120.0201837074756
 10
926.1141426996825
 20
120.7100193774479
 10
926.4002142285672
 20
121.5088173457009
 10
926.303982064749
 20
122.3300154577468
 10
925.835874456373
 20
123.0846241559439
 10
925.0466181262451
 20
123.690869878882
 10
924.0217412443083
 20
124.0830564956094
 10
922.8723051233236
 20
124.2186845008011
  0
LWPOLYLINE
  5
926
330
A
100
AcDbEntity
  8
0
  6
PHANTOM
 62
     7
100
AcDbPolyline
 90
       14
 70
   128
 43
0.0
 10
928.412302023991
 20
120.3054566389556
 10
928.4123051233237
 20
120.3013129330276
 10
928.223534200965
 20
119.2874225645447
 10
927.6700858602895
 20
118.3426271491408
 10
926.7896766910972
 20
117.5313129330276
 10
925.6423051233237
 20
116.9087696392729
 10
924.3061626331916
 20
116.5174225645447
 10
922.8723051233236
 20
116.3839413652541
 10
921.4384476134558
 20
116.5174225645447
 10
920.1023051233237
 20
116.9087696392729
 10
918.9549335555502
 20
117.5313129330276
 10
918.0745243863579
 20
118.3426271491409
 10
917.5210760456822
 20
119.2874225645447
 10
917.3323430384325
 20
120.2868198662553
  0
LINE
  5
936
330
A
100
AcDbEntity
  8
0
  6
PHANTOM
 62
     7
100
AcDbLine
 10
928.4123051233237
 20
111.4624781681958
 30
0.0
 11
927.8723051233235
 21
111.4624781681958
 31
0.0
  0
LINE
  5
937
330
A
100
AcDbEntity
  8
0
  6
PHANTOM
 62
     7
100
AcDbLine
 10
917.8723051233236
 20
111.4624781681958
 30
0.0
 11
917.3323051233236
 21
111.4624781681958
 31
0.0
  0
LWPOLYLINE
  5
938
330
A
100
AcDbEntity
  8
0
  6
PHANTOM
 62
     7
100
AcDbPolyline
 90
        4
 70
   128
 43
0.0
 10
927.3723051233233
 20
427.6983683794378
 10
925.4992815988588
 20
427.6664518545177
 10
921.8338642222168
 20
427.6480886387985
 10
918.3723051233233
 20
427.698368379438
  0
LWPOLYLINE
  5
93E
330
A
100
AcDbEntity
  8
0
  6
PHANTOM
 62
     7
100
AcDbPolyline
 90
        4
 70
   128
 43
0.0
 10
918.3723051233233
 20
413.9124411066946
 10
918.6312308044708
 20
413.9285995872517
 10
921.4982937519831
 20
414.0584101288434
 10
922.2723051233232
 20
414.0574002386231
  0
LWPOLYLINE
  5
944
330
A
100
AcDbEntity
  8
0
  6
PHANTOM
 62
     7
100
AcDbPolyline
 90
        3
 70
   128
 43
0.0
 10
923.4723051233235
 20
414.0558345403543
 10
924.3944672928035
 20
414.0546313505939
 10
927.3723051233234
 20
413.9124411066945
  0
LWPOLYLINE
  5
949
330
A
100
AcDbEntity
  8
0
  6
PHANTOM
 62
     7
100
AcDbPolyline
 90
        9
 70
   128
 43
0.0
 10
920.3723051233234
 20
493.4795077039223
 10
920.897960685194
 20
493.1516353202624
 10
921.5075283398943
 20
492.9069501715483
 10
922.1751007043762
 20
492.7558516807563
 10
922.8723051233233
 20
492.704761721568
 10
923.5695095422705
 20
492.7558516807563
 10
924.2370819067524
 20
492.9069501715483
 10
924.8466495614525
 20
493.1516353202624
 10
925.3723051233235
 20
493.4795077039223
  0
LWPOLYLINE
  5
954
330
A
100
AcDbEntity
  8
0
  6
PHANTOM
 62
     7
100
AcDbPolyline
 90
        9
 70
   128
 43
0.0
 10
927.3723051233233
 20
491.5840241233087
 10
926.5088040358953
 20
490.8719576253049
 10
925.4258520211571
 20
490.3302351608812
 10
924.188801724491
 20
489.9915479256135
 10
922.8723051233233
 20
489.8763345968219
 10
921.5558085221559
 20
489.9915479256136
 10
920.3187582254896
 20
490.3302351608811
 10
919.2358062107514
 20
490.8719576253048
 10
918.3723051233233
 20
491.5840241233087
  0
LWPOLYLINE
  5
95F
330
A
100
AcDbEntity
  8
0
  6
PHANTOM
 62
     7
100
AcDbPolyline
 90
        9
 70
   128
 43
0.0
 10
925.3723051233233
 20
496.7383418512823
 10
924.8466495614525
 20
497.0662142349421
 10
924.2370819067524
 20
497.3108993836563
 10
923.5695095422705
 20
497.4619978744483
 10
922.8723051233233
 20
497.5130878336366
 10
922.1751007043762
 20
497.4619978744483
 10
921.5075283398943
 20
497.3108993836562
 10
920.897960685194
 20
497.0662142349423
 10
920.3723051233234
 20
496.7383418512823
  0
LINE
  5
96A
330
A
100
AcDbEntity
  8
0
  6
PHANTOM
 62
     7
100
AcDbLine
 10
925.3723051233235
 20
493.4795077039223
 30
0.0
 11
925.3723051233233
 21
496.7383418512823
 31
0.0
  0
LINE
  5
96B
330
A
100
AcDbEntity
  8
0
  6
PHANTOM
 62
     7
100
AcDbLine
 10
920.3723051233234
 20
496.7383418512823
 30
0.0
 11
920.3723051233234
 21
493.4795077039223
 31
0.0
  0
LWPOLYLINE
  5
96C
330
A
100
AcDbEntity
  8
0
  6
PHANTOM
 62
     7
100
AcDbPolyline
 90
       10
 70
   128
 43
0.0
 10
918.3723051233233
 20
431.9817503787609
 10
919.3365208621237
 20
431.8882770264009
 10
920.8234084922638
 20
431.5357723354821
 10
921.9200119136807
 20
431.3434809221973
 10
922.4376089321625
 20
431.2979408783034
 10
923.6782960428042
 20
431.3273085116014
 10
923.9719696944776
 20
431.3622835847536
 10
925.3751057262316
 20
431.6421531026229
 10
926.6589486955581
 20
431.9358281240073
 10
927.3723051233233
 20
431.981750378761
  0
LWPOLYLINE
  5
978
330
A
100
AcDbEntity
  8
0
  6
PHANTOM
 62
     7
100
AcDbPolyline
 90
       10
 70
   128
 43
0.0
 10
918.3723051233231
 20
463.1998527676445
 10
918.4743003560202
 20
463.0413992925412
 10
919.6744230127098
 20
461.623387306233
 10
921.3959852415282
 20
460.5035104678087
 10
922.6424319182973
 20
460.2172101399587
 10
923.9584082661396
 20
460.3685576930369
 10
924.2320365587495
 20
460.4588111270291
 10
925.6614557205722
 20
461.2747979600576
 10
926.945899425371
 20
462.5862239830011
 10
927.3723051233231
 20
463.1998527676446
  0
LWPOLYLINE
  5
984
330
A
100
AcDbEntity
  8
0
  6
PHANTOM
 62
     7
100
AcDbPolyline
 90
        9
 70
   128
 43
0.0
 10
918.3723051233233
 20
433.7221371864645
 10
919.2358062107512
 20
434.4342036844683
 10
920.3187582254896
 20
434.975926148892
 10
921.5558085221557
 20
435.3146133841596
 10
922.8723051233233
 20
435.4298267129514
 10
924.1888017244907
 20
435.3146133841596
 10
925.4258520211569
 20
434.975926148892
 10
926.5088040358953
 20
434.4342036844683
 10
927.3723051233233
 20
433.7221371864645
  0
LWPOLYLINE
  5
98F
330
A
100
AcDbEntity
  8
0
  6
PHANTOM
 62
     7
100
AcDbPolyline
 90
       10
 70
   128
 43
0.0
 10
927.3723051233231
 20
449.2362508570401
 10
926.9672611173209
 20
449.8219010112856
 10
925.6045310592742
 20
451.205472285932
 10
924.3188070115579
 20
451.9443822071206
 10
923.7795826813904
 20
452.115504943422
 10
922.6424319182971
 20
452.218893484726
 10
921.2662361899353
 20
451.8784256977236
 10
921.0200913907232
 20
451.762739377419
 10
919.6163260693356
 20
450.7584787901156
 10
918.3723051233231
 20
449.2362508570401
  0
LWPOLYLINE
  5
99B
330
A
100
AcDbEntity
  8
0
  6
PHANTOM
 62
     7
100
AcDbPolyline
 90
        6
 70
   128
 43
0.0
 10
927.3723051233231
 20
459.3531349561961
 10
926.9527291452245
 20
459.1088384528937
 10
924.8615418529285
 20
458.2822542105013
 10
922.5360091381926
 20
458.0399642893565
 10
920.7125038147712
 20
458.3272000846123
 10
918.3723051233231
 20
459.3531349561961
  0
LWPOLYLINE
  5
9A3
330
A
100
AcDbEntity
  8
0
  6
PHANTOM
 62
     7
100
AcDbPolyline
 90
        6
 70
   128
 43
0.0
 10
918.3723051233231
 20
453.0829686684887
 10
920.1625850330382
 20
453.9377682365713
 10
922.5360091381926
 20
454.3961393353281
 10
924.1996185879031
 20
454.2925880776364
 10
926.8694504740663
 20
453.3723456138758
 10
927.3723051233231
 20
453.0829686684887
  0
ARC
  5
9AB
330
A
100
AcDbEntity
  8
0
  6
PHANTOM
 62
     7
100
AcDbCircle
 10
922.8723051233188
 20
456.2180518123424
 30
0.0
 40
11.24999999999997
100
AcDbArc
 50
203.5781784782028
 51
207.2660444507333
  0
ARC
  5
9AC
330
A
100
AcDbEntity
  8
0
  6
PHANTOM
 62
     7
100
AcDbCircle
 10
922.8723051233188
 20
456.2180518123424
 30
0.0
 40
11.24999999999999
100
AcDbArc
 50
152.7339555492673
 51
156.4218215217978
  0
ARC
  5
9AD
330
A
100
AcDbEntity
  8
0
  6
PHANTOM
 62
     7
100
AcDbCircle
 10
922.8723051233188
 20
456.2180518123424
 30
0.0
 40
11.24999999999999
100
AcDbArc
 50
23.57817847820225
 51
63.61220003875699
  0
ARC
  5
9AE
330
A
100
AcDbEntity
  8
0
  6
PHANTOM
 62
     7
100
AcDbCircle
 10
922.8723051233188
 20
456.2180518123424
 30
0.0
 40
11.25000000000004
100
AcDbArc
 50
296.9416361005063
 51
336.4218215217994
  0
LWPOLYLINE
  5
9AF
330
A
100
AcDbEntity
  8
0
  6
PHANTOM
 62
     7
100
AcDbPolyline
 90
       28
 70
   128
 43
0.0
 10
856.0983894311977
 20
441.9069737214402
 10
854.3962359500659
 20
439.9657389069915
 10
853.0110128314454
 20
437.9624192534143
 10
851.9661469064381
 20
435.9239084910181
 10
851.2667286568015
 20
433.8601380393271
 10
850.9161655779424
 20
431.7811623805322
 10
850.9161655779424
 20
429.6971100750654
 10
851.2667286568017
 20
427.6181344162706
 10
851.9661469064384
 20
425.5543639645796
 10
853.0110128314458
 20
423.5158532021834
 10
854.3962359500666
 20
421.5125335486062
 10
856.1150675945089
 20
419.5541649758271
 10
858.1591337897778
 20
417.6502884586783
 10
860.5184760508382
 20
415.8101794921743
 10
863.181599899355
 20
414.0428029022327
 10
866.1355308636339
 20
412.3567691699438
 10
869.3658776889456
 20
410.7602924821716
 10
872.8569024502704
 20
409.2611507128618
 10
876.5915972258873
 20
407.8666475300212
 10
880.5517669582602
 20
406.5835768129817
 10
884.7181180985275
 20
405.4181895533028
 10
889.0703526027342
 20
404.3761634005694
 10
893.5872668218607
 20
403.4625750014535
 10
898.2468548038703
 20
402.6818752668019
 10
903.0264155044946
 20
402.0378676872465
 10
907.9026633844398
 20
401.5336898029791
 10
912.8518418541938
 20
401.1717979179722
 10
915.8723051233232
 20
401.0226686876138
  0
LWPOLYLINE
  5
9CD
330
A
100
AcDbEntity
  8
0
  6
PHANTOM
 62
     7
100
AcDbPolyline
 90
       28
 70
   128
 43
0.0
 10
929.8723051233233
 20
401.0226686876142
 10
932.8927683924431
 20
401.1717979179723
 10
937.8419468621972
 20
401.5336898029792
 10
942.7181947421425
 20
402.0378676872466
 10
947.4977554427667
 20
402.6818752668021
 10
952.1573434247761
 20
403.4625750014537
 10
956.6742576439025
 20
404.3761634005695
 10
961.0264921481093
 20
405.4181895533031
 10
965.1928432883764
 20
406.583576812982
 10
969.1530130207492
 20
407.8666475300215
 10
972.8877077963661
 20
409.2611507128621
 10
976.3787325576906
 20
410.760292482172
 10
979.6090793830021
 20
412.3567691699442
 10
982.5630103472811
 20
414.0428029022332
 10
985.2261341957976
 20
415.8101794921747
 10
987.5854764568579
 20
417.6502884586787
 10
989.6295426521266
 20
419.5541649758276
 10
991.3483742965688
 20
421.5125335486066
 10
992.7335974151894
 20
423.5158532021838
 10
993.7784633401966
 20
425.5543639645799
 10
994.4778815898331
 20
427.6181344162711
 10
994.8284446686923
 20
429.6971100750659
 10
994.8284446686921
 20
431.7811623805327
 10
994.4778815898327
 20
433.8601380393274
 10
993.778463340196
 20
435.9239084910186
 10
992.7335974151887
 20
437.9624192534146
 10
991.3483742965679
 20
439.9657389069919
 10
989.6462208154373
 20
441.9069737214394
  0
LWPOLYLINE
  5
9EB
330
A
100
AcDbEntity
  8
0
  6
PHANTOM
 62
     7
100
AcDbPolyline
 90
       16
 70
   128
 43
0.0
 10
888.6734714646005
 20
504.9136463432224
 10
888.7172312507663
 20
504.2350875685626
 10
889.0677085278984
 20
502.8058371837899
 10
889.7650667110275
 20
501.3986236809571
 10
890.8021499615184
 20
500.0278869748671
 10
892.1683164018231
 20
498.7076926790273
 10
893.8495473155457
 20
497.4515877734215
 10
895.8285909984423
 20
496.272461594163
 10
898.0851397842524
 20
495.1824135714632
 10
900.5960384288353
 20
494.1926290731059
 10
903.3355217143087
 20
493.3132646274367
 10
906.2754788350506
 20
492.5533437036385
 10
909.3857418526045
 20
491.9206641187265
 10
912.6343952595519
 20
491.4217180213941
 10
915.9881034758072
 20
491.0616252737823
 10
918.3723051233233
 20
490.8946280578247
  0
LWPOLYLINE
  5
9FD
330
A
100
AcDbEntity
  8
0
  6
PHANTOM
 62
     7
100
AcDbPolyline
 90
       16
 70
   128
 43
0.0
 10
927.3723051233233
 20
490.8946280578253
 10
929.7565067708292
 20
491.0616252737823
 10
933.1102149870845
 20
491.4217180213943
 10
936.3588683940319
 20
491.9206641187265
 10
939.4691314115858
 20
492.5533437036385
 10
942.4090885323275
 20
493.3132646274369
 10
945.1485718178009
 20
494.1926290731061
 10
947.6594704623837
 20
495.1824135714633
 10
949.9160192481939
 20
496.2724615941631
 10
951.8950629310904
 20
497.4515877734217
 10
953.5762938448128
 20
498.7076926790274
 10
954.9424602851175
 20
500.0278869748671
 10
955.9795435356081
 20
501.3986236809572
 10
956.6769017187372
 20
502.8058371837902
 10
957.0273789958692
 20
504.2350875685628
 10
957.0711300227662
 20
504.9944254688248
  0
LWPOLYLINE
  5
A0F
330
A
100
AcDbEntity
  8
0
  6
PHANTOM
 62
     7
100
AcDbPolyline
 90
       15
 70
   128
 43
0.0
 10
922.8723051233174
 20
518.3941112274012
 10
919.4460500147792
 20
518.3196479045721
 10
916.0573336742
 20
518.0970737718317
 10
912.7432835869418
 20
517.7288273979552
 10
909.5402091792703
 20
517.2189433672752
 10
906.4832040046821
 20
516.5730080759318
 10
903.6057612515897
 20
515.7980985261478
 10
900.9394067849392
 20
514.9027047891109
 10
898.5133537422383
 20
513.8966369859772
 10
896.3541824683067
 20
512.7909178061311
 10
894.4855492954571
 20
511.5976617402934
 10
892.9279273597684
 20
510.3299423516265
 10
891.6983822931211
 20
509.0016490390401
 10
890.8103852485638
 20
507.6273348620299
 10
890.3807784881362
 20
506.5950296420904
  0
LWPOLYLINE
  5
A20
330
A
100
AcDbEntity
  8
0
  6
PHANTOM
 62
     7
100
AcDbPolyline
 90
       15
 70
   128
 43
0.0
 10
955.4268705016518
 20
506.3863396733077
 10
954.9342249980714
 20
507.6273348620299
 10
954.0462279535141
 20
509.0016490390403
 10
952.8166828868666
 20
510.3299423516268
 10
951.2590609511775
 20
511.5976617402937
 10
949.3904277783283
 20
512.7909178061311
 10
947.2312565043964
 20
513.8966369859774
 10
944.8052034616955
 20
514.9027047891109
 10
942.138848995045
 20
515.7980985261481
 10
939.2614062419523
 20
516.5730080759318
 10
936.2044010673642
 20
517.2189433672752
 10
933.0013266596926
 20
517.7288273979552
 10
929.6872765724344
 20
518.0970737718317
 10
926.2985602318552
 20
518.3196479045721
 10
922.8723051233174
 20
518.3941112274012
  0
LWPOLYLINE
  5
A31
330
A
100
AcDbEntity
  8
0
  6
PHANTOM
 62
     7
100
AcDbPolyline
 90
       17
 70
   128
 43
0.0
 10
922.8723051233174
 20
517.3284922789711
 10
919.4675076120548
 20
517.2544952973636
 10
916.1000137748253
 20
517.0333150789563
 10
912.806718578803
 20
516.6673749205068
 10
909.6237040553218
 20
516.1606841389693
 10
906.5858439775894
 20
515.5187941445785
 10
903.7264217763308
 20
514.748737618436
 10
901.0767658795556
 20
513.8589514609878
 10
898.6659064717448
 20
512.8591843555745
 10
896.5202574330751
 20
511.7603899598175
 10
894.6633269434203
 20
510.5746068950544
 10
893.1154599218126
 20
509.3148268486837
 10
891.8936151232529
 20
507.9948522345194
 10
891.0111793350413
 20
506.6291449706567
 10
890.4778207083355
 20
505.2326680316712
 10
890.2993828318619
 20
503.8207215111379
 10
890.341442859912
 20
503.1344991665484
  0
LWPOLYLINE
  5
A44
330
A
100
AcDbEntity
  8
0
  6
PHANTOM
 62
     7
100
AcDbPolyline
 90
       17
 70
   128
 43
0.0
 10
955.4031673867234
 20
503.1344991665482
 10
955.4452274147735
 20
503.8207215111379
 10
955.2667895382997
 20
505.2326680316712
 10
954.7334309115937
 20
506.6291449706567
 10
953.8509951233823
 20
507.9948522345197
 10
952.6291503248224
 20
509.314826848684
 10
951.0812833032145
 20
510.5746068950547
 10
949.2243528135597
 20
511.7603899598178
 10
947.07870377489
 20
512.8591843555747
 10
944.6678443670791
 20
513.8589514609881
 10
942.0181884703037
 20
514.7487376184362
 10
939.1587662690451
 20
515.5187941445785
 10
936.1209061913127
 20
516.1606841389696
 10
932.9378916678313
 20
516.667374920507
 10
929.644596471809
 20
517.0333150789563
 10
926.2771026345795
 20
517.2544952973636
 10
922.8723051233174
 20
517.3284922789711
  0
LINE
  5
A57
330
A
100
AcDbEntity
  8
0
  6
PHANTOM
 62
     7
100
AcDbLine
 10
922.8723051233174
 20
516.1814616646214
 30
0.0
 11
921.6870250431815
 21
516.1722373498088
 31
0.0
  0
LWPOLYLINE
  5
A58
330
A
100
AcDbEntity
  8
0
  6
PHANTOM
 62
     7
100
AcDbPolyline
 90
       14
 70
   128
 43
0.0
 10
907.0165555947545
 20
514.4118291324741
 10
906.8348427258738
 20
514.3677641430548
 10
904.0327081261585
 20
513.5969043376817
 10
901.4440336883419
 20
512.7068957830274
 10
899.0981501281863
 20
511.7078226316453
 10
897.0216372437958
 20
510.6110047815501
 10
895.2380227558833
 20
509.4288696172495
 10
893.7675157292927
 20
508.1748112025123
 10
892.62677759622
 20
506.8630385202738
 10
891.8287333755293
 20
505.5084144791814
 10
891.3824252271226
 20
504.1262875109013
 10
891.2929100006575
 20
502.7323176662539
 10
891.5612019394181
 20
501.3422991805807
 10
892.1767187186009
 20
499.9848123811806
  0
LWPOLYLINE
  5
A68
330
A
100
AcDbEntity
  8
0
  6
PHANTOM
 62
     7
100
AcDbPolyline
 90
       14
 70
   128
 43
0.0
 10
953.645288941267
 20
500.1198782156108
 10
954.1834083072174
 20
501.3422991805809
 10
954.451700245978
 20
502.7323176662539
 10
954.3621850195126
 20
504.1262875109016
 10
953.9158768711059
 20
505.5084144791817
 10
953.1178326504148
 20
506.8630385202741
 10
951.9770945173423
 20
508.1748112025126
 10
950.5065874907517
 20
509.4288696172497
 10
948.7229730028388
 20
510.6110047815501
 10
946.6464601184483
 20
511.7078226316453
 10
944.3005765582928
 20
512.7068957830274
 10
941.7119021204761
 20
513.5969043376817
 10
938.9097675207606
 20
514.367764143055
 10
938.2350025968619
 20
514.5280400884704
  0
LINE
  5
A78
330
A
100
AcDbEntity
  8
0
  6
PHANTOM
 62
     7
100
AcDbLine
 10
924.133966348134
 20
516.1710096980143
 30
0.0
 11
922.8723051233174
 21
516.1814616646214
 31
0.0
  0
ENDSEC
  0
SECTION
  2
OBJECTS
  0
DICTIONARY
  5
19
330
0
100
AcDbDictionary
281
     1
  3
ACAD_COLOR
350
A7D
  3
ACAD_GROUP
350
1A
  3
ACAD_LAYOUT
350
A7E
  3
ACAD_MATERIAL
350
A7C
  3
ACAD_MLINESTYLE
350
1B
  3
ACAD_PLOTSETTINGS
350
A7F
  3
ACAD_PLOTSTYLENAME
350
A7A
  3
ACDBHEADERROUNDTRIPXREC
350
A97
  3
AcDbVariableDictionary
350
A90
  3
ASE_INDEX_DICTIONARY
350
A85
  0
DICTIONARY
  5
A7D
102
{ACAD_REACTORS
330
19
102
}
330
19
100
AcDbDictionary
281
     1
  0
DICTIONARY
  5
1A
102
{ACAD_REACTORS
330
19
102
}
330
19
100
AcDbDictionary
281
     1
  0
DICTIONARY
  5
A7E
102
{ACAD_REACTORS
330
19
102
}
330
19
100
AcDbDictionary
281
     1
  3
Layout1
350
A81
  3
Model
350
A80
  0
DICTIONARY
  5
A7C
102
{ACAD_REACTORS
330
19
102
}
330
19
100
AcDbDictionary
281
     1
  0
DICTIONARY
  5
1B
102
{ACAD_REACTORS
330
19
102
}
330
19
100
AcDbDictionary
281
     1
  3
STANDARD
350
1C
  0
DICTIONARY
  5
A7F
102
{ACAD_REACTORS
330
19
102
}
330
19
100
AcDbDictionary
281
     1
  0
ACDBDICTIONARYWDFLT
  5
A7A
102
{ACAD_REACTORS
330
19
102
}
330
19
100
AcDbDictionary
281
     1
  3
Normal
350
A7B
100
AcDbDictionaryWithDefault
340
A7B
  0
DICTIONARY
  5
A97
102
{ACAD_REACTORS
330
19
102
}
330
19
100
AcDbDictionary
281
     1
  3
COLORDICT
350
A99
  3
MATERIALDICT
350
A98
  0
DICTIONARY
  5
A90
102
{ACAD_REACTORS
330
19
102
}
330
19
100
AcDbDictionary
281
     1
  3
DIMASSOC
350
A91
  3
PROJECTNAME
350
A92
  0
DICTIONARY
  5
A85
102
{ACAD_REACTORS
330
19
102
}
330
19
100
AcDbDictionary
281
     1
  3
ASEBlockHierarchyIndexRecord
350
A87
1001
DCO15
1040
1552229289.906
  0
LAYOUT
  5
A81
102
{ACAD_XDICTIONARY
360
A9C
102
}
102
{ACAD_REACTORS
330
A7E
102
}
330
A7E
100
AcDbPlotSettings
  1

  2
ProgeSOFT PDF Wizard
  4

  6

 40
0.0
 41
0.0
 42
0.0
 43
0.0
 44
0.0
 45
0.0
 46
0.0
 47
0.0
 48
0.0
 49
0.0
140
0.0
141
0.0
142
1.0
143
1.0
 70
   688
 72
     0
 73
     0
 74
     5
  7

 75
    16
147
1.0
148
0.0
149
0.0
100
AcDbLayout
  1
Layout1
 70
     1
 71
     1
 10
0.0
 20
0.0
 11
12.0
 21
9.0
 12
0.0
 22
0.0
 32
0.0
 14
1.000000000000000E+20
 24
1.000000000000000E+20
 34
1.000000000000000E+20
 15
-1.000000000000000E+20
 25
-1.000000000000000E+20
 35
-1.000000000000000E+20
146
0.0
 13
0.0
 23
0.0
 33
0.0
 16
1.0
 26
0.0
 36
0.0
 17
0.0
 27
1.0
 37
0.0
 76
     0
330
B
  0
LAYOUT
  5
A80
102
{ACAD_XDICTIONARY
360
A9A
102
}
102
{ACAD_REACTORS
330
A7E
102
}
330
A7E
100
AcDbPlotSettings
  1

  2
ProgeSOFT PDF Wizard
  4

  6

 40
0.0
 41
0.0
 42
0.0
 43
0.0
 44
0.0
 45
0.0
 46
0.0
 47
0.0
 48
0.0
 49
0.0
140
0.0
141
0.0
142
1.0
143
1.0
 70
  1712
 72
     0
 73
     0
 74
     0
  7

 75
     0
147
1.0
148
0.0
149
0.0
100
AcDbLayout
  1
Model
 70
     1
 71
     0
 10
0.0
 20
0.0
 11
12.0
 21
9.0
 12
0.0
 22
0.0
 32
0.0
 14
0.0
 24
0.0
 34
0.0
 15
0.0
 25
0.0
 35
0.0
146
0.0
 13
0.0
 23
0.0
 33
0.0
 16
1.0
 26
0.0
 36
0.0
 17
0.0
 27
1.0
 37
0.0
 76
     0
330
A
  0
MLINESTYLE
  5
1C
102
{ACAD_REACTORS
330
1B
102
}
330
1B
100
AcDbMlineStyle
  2
STANDARD
 70
     0
  3

 62
     0
 51
90.0
 52
90.0
 71
     2
 49
0.5
 62
   256
  6
BYLAYER
 49
-0.5
 62
   256
  6
BYLAYER
  0
ACDBPLACEHOLDER
  5
A7B
102
{ACAD_REACTORS
330
A7A
102
}
330
A7A
  0
XRECORD
  5
A99
102
{ACAD_REACTORS
330
A97
102
}
330
A97
100
AcDbXrecord
280
     1
340
A7D
  0
XRECORD
  5
A98
102
{ACAD_REACTORS
330
A97
102
}
330
A97
100
AcDbXrecord
280
     1
340
A7C
  0
DICTIONARYVAR
  5
A91
102
{ACAD_REACTORS
330
A90
102
}
330
A90
100
DictionaryVariables
280
     0
  1
1
  0
DICTIONARYVAR
  5
A92
102
{ACAD_REACTORS
330
A90
102
}
330
A90
100
DictionaryVariables
280
     0
  1

  0
XRECORD
  5
A87
102
{ACAD_REACTORS
330
A85
102
}
330
A85
100
AcDbXrecord
280
     1
  0
DICTIONARY
  5
A9C
330
A81
100
AcDbDictionary
280
     1
281
     1
  3
ACAD_XREC_ROUNDTRIP
360
A9D
  0
DICTIONARY
  5
A9A
330
A80
100
AcDbDictionary
280
     1
281
     1
  3
ACAD_XREC_ROUNDTRIP
360
A9B
  0
XRECORD
  5
A9D
102
{ACAD_REACTORS
330
A9C
102
}
330
A9C
100
AcDbXrecord
280
     1
102
SHADEPLOT
 70
     0
102
SHADEPLOTRESLEVEL
 70
     2
102
SHADEPLOTCUSTOMDPI
 70
   300
  0
XRECORD
  5
A9B
102
{ACAD_REACTORS
330
A9A
102
}
330
A9A
100
AcDbXrecord
280
     1
102
SHADEPLOT
 70
     0
102
SHADEPLOTRESLEVEL
 70
     2
102
SHADEPLOTCUSTOMDPI
 70
   300
  0
ENDSEC
  0
EOF
